ISO-10303-21;
HEADER;
/* Generated by software containing ST-Developer
 * from STEP Tools, Inc. (www.steptools.com) 
 */
/* OPTION: using custom schema-name function */

FILE_DESCRIPTION(
/* description */ (''),
/* implementation_level */ '2;1');

FILE_NAME(
/* name */ 'IPPOLITO 45',
/* time_stamp */ '2015-04-20T16:53:21+02:00',
/* author */ (''),
/* organization */ (''),
/* preprocessor_version */ 'ST-DEVELOPER v10',
/* originating_system */ '',
/* authorisation */ '');

FILE_SCHEMA (('CONFIG_CONTROL_DESIGN'));
ENDSEC;

DATA;
#10=SHAPE_REPRESENTATION_RELATIONSHIP('','',#194,#13);
#11=SHAPE_REPRESENTATION_RELATIONSHIP('','',#194,#15);
#12=GEOMETRIC_CURVE_SET('curve_set_0',(#98));
#13=GEOMETRICALLY_BOUNDED_WIREFRAME_SHAPE_REPRESENTATION($,(#12,#198),#193);
#14=MANIFOLD_SOLID_BREP('brep_1',#16);
#15=ADVANCED_BREP_SHAPE_REPRESENTATION($,(#14,#199),#193);
#16=CLOSED_SHELL($,(#17,#18,#19,#20,#21,#22));
#17=ADVANCED_FACE($,(#23),#91,.T.);
#18=ADVANCED_FACE($,(#24),#92,.T.);
#19=ADVANCED_FACE($,(#25),#87,.T.);
#20=ADVANCED_FACE($,(#26),#88,.T.);
#21=ADVANCED_FACE($,(#27),#89,.T.);
#22=ADVANCED_FACE($,(#28),#90,.T.);
#23=FACE_OUTER_BOUND($,#29,.T.);
#24=FACE_OUTER_BOUND($,#30,.T.);
#25=FACE_OUTER_BOUND($,#31,.T.);
#26=FACE_OUTER_BOUND($,#32,.T.);
#27=FACE_OUTER_BOUND($,#33,.T.);
#28=FACE_OUTER_BOUND($,#34,.T.);
#29=EDGE_LOOP($,(#35,#36));
#30=EDGE_LOOP($,(#37,#38));
#31=EDGE_LOOP($,(#39,#40,#41,#42,#43,#44));
#32=EDGE_LOOP($,(#45,#46,#47,#48,#49,#50,#51,#52));
#33=EDGE_LOOP($,(#53,#54,#55,#56,#57));
#34=EDGE_LOOP($,(#58,#59,#60,#61,#62));
#35=ORIENTED_EDGE($,*,*,#73,.F.);
#36=ORIENTED_EDGE($,*,*,#63,.F.);
#37=ORIENTED_EDGE($,*,*,#74,.F.);
#38=ORIENTED_EDGE($,*,*,#65,.F.);
#39=ORIENTED_EDGE($,*,*,#66,.T.);
#40=ORIENTED_EDGE($,*,*,#67,.T.);
#41=ORIENTED_EDGE($,*,*,#76,.T.);
#42=ORIENTED_EDGE($,*,*,#75,.T.);
#43=ORIENTED_EDGE($,*,*,#68,.T.);
#44=ORIENTED_EDGE($,*,*,#69,.T.);
#45=ORIENTED_EDGE($,*,*,#71,.T.);
#46=ORIENTED_EDGE($,*,*,#76,.F.);
#47=ORIENTED_EDGE($,*,*,#72,.T.);
#48=ORIENTED_EDGE($,*,*,#74,.T.);
#49=ORIENTED_EDGE($,*,*,#70,.F.);
#50=ORIENTED_EDGE($,*,*,#69,.F.);
#51=ORIENTED_EDGE($,*,*,#64,.F.);
#52=ORIENTED_EDGE($,*,*,#63,.T.);
#53=ORIENTED_EDGE($,*,*,#67,.F.);
#54=ORIENTED_EDGE($,*,*,#66,.F.);
#55=ORIENTED_EDGE($,*,*,#70,.T.);
#56=ORIENTED_EDGE($,*,*,#65,.T.);
#57=ORIENTED_EDGE($,*,*,#72,.F.);
#58=ORIENTED_EDGE($,*,*,#73,.T.);
#59=ORIENTED_EDGE($,*,*,#64,.T.);
#60=ORIENTED_EDGE($,*,*,#68,.F.);
#61=ORIENTED_EDGE($,*,*,#75,.F.);
#62=ORIENTED_EDGE($,*,*,#71,.F.);
#63=EDGE_CURVE($,#77,#83,#99,.T.);
#64=EDGE_CURVE($,#77,#82,#93,.T.);
#65=EDGE_CURVE($,#78,#86,#100,.T.);
#66=EDGE_CURVE($,#79,#80,#101,.T.);
#67=EDGE_CURVE($,#80,#85,#102,.T.);
#68=EDGE_CURVE($,#81,#82,#103,.T.);
#69=EDGE_CURVE($,#82,#79,#94,.T.);
#70=EDGE_CURVE($,#79,#78,#95,.T.);
#71=EDGE_CURVE($,#83,#84,#96,.T.);
#72=EDGE_CURVE($,#85,#86,#97,.T.);
#73=EDGE_CURVE($,#83,#77,#104,.T.);
#74=EDGE_CURVE($,#86,#78,#105,.T.);
#75=EDGE_CURVE($,#84,#81,#106,.T.);
#76=EDGE_CURVE($,#85,#84,#107,.T.);
#77=VERTEX_POINT($,#370);
#78=VERTEX_POINT($,#371);
#79=VERTEX_POINT($,#372);
#80=VERTEX_POINT($,#373);
#81=VERTEX_POINT($,#374);
#82=VERTEX_POINT($,#375);
#83=VERTEX_POINT($,#376);
#84=VERTEX_POINT($,#377);
#85=VERTEX_POINT($,#378);
#86=VERTEX_POINT($,#379);
#87=(
BOUNDED_SURFACE()
B_SPLINE_SURFACE(2,1,((#322,#323),(#324,#325),(#326,#327),(#328,#329),(#330,
#331),(#332,#333),(#334,#335),(#336,#337),(#338,#339)),.UNSPECIFIED.,.F.,
.F.,.F.)
B_SPLINE_SURFACE_WITH_KNOTS((3,2,2,2,3),(2,2),(-499.539244917504,-153.685427690951,
-129.113921952891,-104.542416214831,0.),(79.9996287271081,284.000003675969),
.UNSPECIFIED.)
GEOMETRIC_REPRESENTATION_ITEM()
RATIONAL_B_SPLINE_SURFACE(((1.,1.),(1.,1.),(1.,1.),(0.881658907523986,0.881658907523986),
(1.,1.),(0.881658907523986,0.881658907523986),(1.,1.),(1.,1.),(1.,1.)))
REPRESENTATION_ITEM($)
SURFACE()
);
#88=(
BOUNDED_SURFACE()
B_SPLINE_SURFACE(2,1,((#340,#341),(#342,#343),(#344,#345),(#346,#347),(#348,
#349)),.UNSPECIFIED.,.F.,.F.,.F.)
B_SPLINE_SURFACE_WITH_KNOTS((3,2,3),(2,2),(0.,157.07963267949,314.159265358979),
(0.,441.),.UNSPECIFIED.)
GEOMETRIC_REPRESENTATION_ITEM()
RATIONAL_B_SPLINE_SURFACE(((1.,1.),(0.707106781186548,0.707106781186548),
(1.,1.),(0.707106781186548,0.707106781186548),(1.,1.)))
REPRESENTATION_ITEM($)
SURFACE()
);
#89=(
BOUNDED_SURFACE()
B_SPLINE_SURFACE(2,1,((#350,#351),(#352,#353),(#354,#355),(#356,#357),(#358,
#359)),.UNSPECIFIED.,.F.,.F.,.F.)
B_SPLINE_SURFACE_WITH_KNOTS((3,2,3),(2,2),(314.159265358979,471.238898038469,
628.318530717958),(139.151607178075,441.),.UNSPECIFIED.)
GEOMETRIC_REPRESENTATION_ITEM()
RATIONAL_B_SPLINE_SURFACE(((1.,1.),(0.707106781186548,0.707106781186548),
(1.,1.),(0.707106781186548,0.707106781186548),(1.,1.)))
REPRESENTATION_ITEM($)
SURFACE()
);
#90=(
BOUNDED_SURFACE()
B_SPLINE_SURFACE(2,1,((#360,#361),(#362,#363),(#364,#365),(#366,#367),(#368,
#369)),.UNSPECIFIED.,.F.,.F.,.F.)
B_SPLINE_SURFACE_WITH_KNOTS((3,2,3),(2,2),(314.159265358979,471.238898038469,
628.318530717958),(0.,38.2746341012382),.UNSPECIFIED.)
GEOMETRIC_REPRESENTATION_ITEM()
RATIONAL_B_SPLINE_SURFACE(((1.,1.),(0.707106781186547,0.707106781186547),
(1.,1.),(0.707106781186547,0.707106781186547),(1.,1.)))
REPRESENTATION_ITEM($)
SURFACE()
);
#91=PLANE($,#196);
#92=PLANE($,#197);
#93=B_SPLINE_CURVE_WITH_KNOTS($,1,(#214,#215),.UNSPECIFIED.,.F.,.F.,(2,2),
(0.,38.2746341012382),.UNSPECIFIED.);
#94=B_SPLINE_CURVE_WITH_KNOTS($,3,(#264,#265,#266,#267,#268,#269,#270,#271,
#272,#273,#274,#275,#276,#277,#278,#279,#280),.UNSPECIFIED.,.F.,.F.,(4,3,
2,3,2,3,4),(-4.58256555003418,0.,12.1075098140389,24.7346789088924,37.0446417685189,
49.3845929968668,121.590614777497),.UNSPECIFIED.);
#95=B_SPLINE_CURVE_WITH_KNOTS($,1,(#281,#282),.UNSPECIFIED.,.F.,.F.,(2,2),
(139.151607178075,441.),.UNSPECIFIED.);
#96=B_SPLINE_CURVE_WITH_KNOTS($,1,(#283,#284),.UNSPECIFIED.,.F.,.F.,(2,2),
(0.,38.2746341012382),.UNSPECIFIED.);
#97=B_SPLINE_CURVE_WITH_KNOTS($,1,(#285,#286),.UNSPECIFIED.,.F.,.F.,(2,2),
(139.161465336757,441.),.UNSPECIFIED.);
#98=B_SPLINE_CURVE_WITH_KNOTS($,1,(#380,#381),.UNSPECIFIED.,.F.,.F.,(2,2),
(0.,198.288972274762),.UNSPECIFIED.);
#99=(
BOUNDED_CURVE()
B_SPLINE_CURVE(2,(#209,#210,#211,#212,#213),.UNSPECIFIED.,.F.,.F.)
B_SPLINE_CURVE_WITH_KNOTS((3,2,3),(0.,157.07963267949,314.159265358979),
.UNSPECIFIED.)
CURVE()
GEOMETRIC_REPRESENTATION_ITEM()
RATIONAL_B_SPLINE_CURVE((1.,0.707106781186548,1.,0.707106781186548,1.))
REPRESENTATION_ITEM($)
);
#100=(
BOUNDED_CURVE()
B_SPLINE_CURVE(2,(#216,#217,#218,#219,#220),.UNSPECIFIED.,.F.,.F.)
B_SPLINE_CURVE_WITH_KNOTS((3,2,3),(-628.318530717958,-471.238898038469,-314.159265358979),
.UNSPECIFIED.)
CURVE()
GEOMETRIC_REPRESENTATION_ITEM()
RATIONAL_B_SPLINE_CURVE((1.,0.707106781186548,1.,0.707106781186548,1.))
REPRESENTATION_ITEM($)
);
#101=(
BOUNDED_CURVE()
B_SPLINE_CURVE(3,(#221,#222,#223,#224,#225,#226,#227,#228,#229,#230,#231,
#232,#233,#234,#235,#236,#237,#238),.UNSPECIFIED.,.F.,.F.)
B_SPLINE_CURVE_WITH_KNOTS((4,2,2,2,2,2,2,2,4),(-665.894265206934,-624.318256538211,
-582.711545704795,-541.089808685112,-499.40215424769,-457.436902923552,-416.643586447715,
-375.930653741685,-370.858403097231),.UNSPECIFIED.)
CURVE()
GEOMETRIC_REPRESENTATION_ITEM()
RATIONAL_B_SPLINE_CURVE((1.,1.,1.,1.,1.,1.,1.,1.,1.,1.,1.,1.,1.,1.,1.,1.,
1.,1.))
REPRESENTATION_ITEM($)
);
#102=(
BOUNDED_CURVE()
B_SPLINE_CURVE(3,(#239,#240,#241,#242,#243,#244,#245,#246,#247,#248,#249,
#250,#251,#252,#253,#254,#255,#256),.UNSPECIFIED.,.F.,.F.)
B_SPLINE_CURVE_WITH_KNOTS((4,2,2,2,2,2,2,2,4),(-370.858403097231,-333.956636087157,
-293.13399961562,-251.337547046122,-209.281485542294,-167.242903062863,-125.342156842484,
-83.4280058577516,-72.5407847202835),.UNSPECIFIED.)
CURVE()
GEOMETRIC_REPRESENTATION_ITEM()
RATIONAL_B_SPLINE_CURVE((1.,1.,1.,1.,1.,1.,1.,1.,1.,1.,1.,1.,1.,1.,1.,1.,
1.,1.))
REPRESENTATION_ITEM($)
);
#103=(
BOUNDED_CURVE()
B_SPLINE_CURVE(3,(#257,#258,#259,#260,#261,#262,#263),.UNSPECIFIED.,.F.,
.F.)
B_SPLINE_CURVE_WITH_KNOTS((4,3,4),(211.236766721828,211.236873935756,368.126113014326),
.UNSPECIFIED.)
CURVE()
GEOMETRIC_REPRESENTATION_ITEM()
RATIONAL_B_SPLINE_CURVE((1.,1.00609206097682,1.01222123516066,1.01838774864744,
0.814572744682362,0.809640366202105,1.))
REPRESENTATION_ITEM($)
);
#104=(
BOUNDED_CURVE()
B_SPLINE_CURVE(2,(#287,#288,#289,#290,#291),.UNSPECIFIED.,.F.,.F.)
B_SPLINE_CURVE_WITH_KNOTS((3,2,3),(314.159265358979,471.238898038469,628.318530717958),
.UNSPECIFIED.)
CURVE()
GEOMETRIC_REPRESENTATION_ITEM()
RATIONAL_B_SPLINE_CURVE((1.,0.707106781186548,1.,0.707106781186548,1.))
REPRESENTATION_ITEM($)
);
#105=(
BOUNDED_CURVE()
B_SPLINE_CURVE(2,(#292,#293,#294,#295,#296),.UNSPECIFIED.,.F.,.F.)
B_SPLINE_CURVE_WITH_KNOTS((3,2,3),(-314.159265358979,-157.07963267949,0.),
.UNSPECIFIED.)
CURVE()
GEOMETRIC_REPRESENTATION_ITEM()
RATIONAL_B_SPLINE_CURVE((1.,0.707106781186548,1.,0.707106781186548,1.))
REPRESENTATION_ITEM($)
);
#106=(
BOUNDED_CURVE()
B_SPLINE_CURVE(3,(#297,#298,#299,#300),.UNSPECIFIED.,.F.,.F.)
B_SPLINE_CURVE_WITH_KNOTS((4,4),(54.3789236600247,211.236766721828),.UNSPECIFIED.)
CURVE()
GEOMETRIC_REPRESENTATION_ITEM()
RATIONAL_B_SPLINE_CURVE((1.,0.804773237584531,0.804769410164912,1.))
REPRESENTATION_ITEM($)
);
#107=(
BOUNDED_CURVE()
B_SPLINE_CURVE(3,(#301,#302,#303,#304,#305,#306,#307,#308,#309,#310,#311,
#312,#313,#314,#315,#316,#317,#318,#319),.UNSPECIFIED.,.F.,.F.)
B_SPLINE_CURVE_WITH_KNOTS((4,3,3,3,3,3,4),(-72.5407847202835,0.,12.3395916060355,
24.6499140879743,37.274158245517,49.3845929968668,54.3789236600247),.UNSPECIFIED.)
CURVE()
GEOMETRIC_REPRESENTATION_ITEM()
RATIONAL_B_SPLINE_CURVE((1.,1.,1.,1.,1.,1.,1.,1.,1.,1.,1.,1.,1.,1.,1.,1.,
0.99983663228224,0.999837695957321,1.))
REPRESENTATION_ITEM($)
);
#108=SHAPE_DEFINITION_REPRESENTATION(#109,#194);
#109=PRODUCT_DEFINITION_SHAPE('Document','',#111);
#110=DESIGN_CONTEXT('3D Mechanical Parts',#183,'design');
#111=PRODUCT_DEFINITION('A','First version',#153,#110);
#112=DATE_TIME_ROLE('classification_date');
#113=DATE_TIME_ROLE('creation_date');
#114=CC_DESIGN_DATE_AND_TIME_ASSIGNMENT(#138,#112,(#117));
#115=CC_DESIGN_DATE_AND_TIME_ASSIGNMENT(#140,#113,(#111));
#116=SECURITY_CLASSIFICATION_LEVEL('unclassified');
#117=SECURITY_CLASSIFICATION('A','Security for version',#116);
#118=CC_DESIGN_SECURITY_CLASSIFICATION(#117,(#153));
#119=APPROVAL_ROLE('Version approval');
#120=APPROVAL_ROLE('Version Security approval');
#121=APPROVAL_ROLE('Definition approval');
#122=APPROVAL_PERSON_ORGANIZATION(#171,#147,#119);
#123=APPROVAL_PERSON_ORGANIZATION(#172,#148,#120);
#124=APPROVAL_PERSON_ORGANIZATION(#175,#149,#121);
#125=COORDINATED_UNIVERSAL_TIME_OFFSET(5,0,.BEHIND.);
#126=LOCAL_TIME(0,0,0.,#125);
#127=LOCAL_TIME(0,0,0.,#125);
#128=LOCAL_TIME(0,0,0.,#125);
#129=LOCAL_TIME(0,0,0.,#125);
#130=LOCAL_TIME(0,0,0.,#125);
#131=CALENDAR_DATE(1999,1,1);
#132=CALENDAR_DATE(1999,1,1);
#133=CALENDAR_DATE(1999,1,1);
#134=CALENDAR_DATE(1999,1,1);
#135=CALENDAR_DATE(1999,1,1);
#136=DATE_AND_TIME(#131,#126);
#137=DATE_AND_TIME(#132,#127);
#138=DATE_AND_TIME(#133,#128);
#139=DATE_AND_TIME(#134,#129);
#140=DATE_AND_TIME(#135,#130);
#141=APPROVAL_DATE_TIME(#136,#147);
#142=APPROVAL_DATE_TIME(#137,#148);
#143=APPROVAL_DATE_TIME(#139,#149);
#144=APPROVAL_STATUS('not_yet_approved');
#145=APPROVAL_STATUS('not_yet_approved');
#146=APPROVAL_STATUS('approved');
#147=APPROVAL(#144,'Version approval');
#148=APPROVAL(#145,'Version Security approval');
#149=APPROVAL(#146,'Definition approval');
#150=CC_DESIGN_APPROVAL(#147,(#153));
#151=CC_DESIGN_APPROVAL(#148,(#117));
#152=CC_DESIGN_APPROVAL(#149,(#111));
#153=PRODUCT_DEFINITION_FORMATION_WITH_SPECIFIED_SOURCE('A',
'First version',#185,.MADE.);
#154=PERSON_AND_ORGANIZATION_ROLE('design_owner');
#155=PERSON_AND_ORGANIZATION_ROLE('creator');
#156=PERSON_AND_ORGANIZATION_ROLE('design_supplier');
#157=PERSON_AND_ORGANIZATION_ROLE('classification_officer');
#158=PERSON_AND_ORGANIZATION_ROLE('creator');
#159=ORGANIZATION('STI','lab','lab');
#160=ORGANIZATION('STI','unknown','unknown');
#161=ORGANIZATION('STI','unknown','unknown');
#162=ORGANIZATION('STI','unknown','unknown');
#163=ORGANIZATION('STI','unknown','unknown');
#164=ORGANIZATION('STI','unknown','unknown');
#165=ORGANIZATION('STI','unknown','unknown');
#166=PERSON('1','Box','vc60',$,$,$);
#167=PERSON('2','last','first',$,$,$);
#168=PERSON('3','President','Mr.',$,$,$);
#169=PERSON_AND_ORGANIZATION(#166,#159);
#170=PERSON_AND_ORGANIZATION(#167,#160);
#171=PERSON_AND_ORGANIZATION(#168,#161);
#172=PERSON_AND_ORGANIZATION(#168,#162);
#173=PERSON_AND_ORGANIZATION(#168,#163);
#174=PERSON_AND_ORGANIZATION(#167,#164);
#175=PERSON_AND_ORGANIZATION(#168,#165);
#176=CC_DESIGN_PERSON_AND_ORGANIZATION_ASSIGNMENT(#169,#154,(#185));
#177=CC_DESIGN_PERSON_AND_ORGANIZATION_ASSIGNMENT(#170,#155,(#153));
#178=CC_DESIGN_PERSON_AND_ORGANIZATION_ASSIGNMENT(#170,#156,(#153));
#179=CC_DESIGN_PERSON_AND_ORGANIZATION_ASSIGNMENT(#173,#157,(#117));
#180=CC_DESIGN_PERSON_AND_ORGANIZATION_ASSIGNMENT(#174,#158,(#111));
#181=PRODUCT_RELATED_PRODUCT_CATEGORY('detail','detail',(#185));
#182=APPLICATION_PROTOCOL_DEFINITION('International Standard',
'config_control_design',1994,#183);
#183=APPLICATION_CONTEXT(
'configuration controlled 3d designs of mechanical parts and assemblies
');
#184=MECHANICAL_CONTEXT('3D Mechanical Parts',#183,'mechanical');
#185=PRODUCT('1','Document','Rhino converted to STEP',(#184));
#186=(
LENGTH_UNIT()
NAMED_UNIT(*)
SI_UNIT(.MILLI.,.METRE.)
);
#187=(
NAMED_UNIT(*)
PLANE_ANGLE_UNIT()
SI_UNIT($,.RADIAN.)
);
#188=DIMENSIONAL_EXPONENTS(0.,0.,0.,0.,0.,0.,0.);
#189=PLANE_ANGLE_MEASURE_WITH_UNIT(PLANE_ANGLE_MEASURE(0.01745329252),#187);
#190=(
CONVERSION_BASED_UNIT('DEGREES',#189)
NAMED_UNIT(#188)
PLANE_ANGLE_UNIT()
);
#191=(
NAMED_UNIT(*)
SI_UNIT($,.STERADIAN.)
SOLID_ANGLE_UNIT()
);
#192=UNCERTAINTY_MEASURE_WITH_UNIT(LENGTH_MEASURE(0.0508),#186,
'DISTANCE_ACCURACY_VALUE',
'Maximum model space distance between geometric entities at asserted co
nnectivities');
#193=(
GEOMETRIC_REPRESENTATION_CONTEXT(3)
GLOBAL_UNCERTAINTY_ASSIGNED_CONTEXT((#192))
GLOBAL_UNIT_ASSIGNED_CONTEXT((#191,#190,#186))
REPRESENTATION_CONTEXT('ID1','3D')
);
#194=SHAPE_REPRESENTATION('Document',(#195,#198,#199),#193);
#195=AXIS2_PLACEMENT_3D('',#208,#200,#201);
#196=AXIS2_PLACEMENT_3D($,#320,#202,$);
#197=AXIS2_PLACEMENT_3D($,#321,#203,$);
#198=AXIS2_PLACEMENT_3D('',#382,#204,#205);
#199=AXIS2_PLACEMENT_3D('',#383,#206,#207);
#200=DIRECTION($,(0.,0.,1.));
#201=DIRECTION($,(1.,0.,0.));
#202=DIRECTION($,(0.,0.,1.));
#203=DIRECTION($,(0.,0.,-1.));
#204=DIRECTION($,(0.,0.,1.));
#205=DIRECTION($,(1.,0.,0.));
#206=DIRECTION($,(0.,0.,1.));
#207=DIRECTION($,(1.,0.,0.));
#208=CARTESIAN_POINT($,(0.,0.,0.));
#209=CARTESIAN_POINT($,(99.9999999999999,-9.81975585525008E-14,441.));
#210=CARTESIAN_POINT($,(99.9999999999999,-100.,441.));
#211=CARTESIAN_POINT($,(-1.72557010378843E-14,-100.,441.));
#212=CARTESIAN_POINT($,(-99.9999999999999,-100.,441.));
#213=CARTESIAN_POINT($,(-100.,-1.16449505722043E-13,441.));
#214=CARTESIAN_POINT($,(99.9999999999999,-9.81975585525008E-14,441.));
#215=CARTESIAN_POINT($,(99.9999999999999,-9.34313724283137E-14,402.725365898762));
#216=CARTESIAN_POINT($,(99.9999999999999,-7.37046225695538E-14,0.));
#217=CARTESIAN_POINT($,(99.9999999999999,99.9999999999998,0.));
#218=CARTESIAN_POINT($,(-4.77541161988997E-14,99.9999999999998,0.));
#219=CARTESIAN_POINT($,(-100.,99.9999999999998,0.));
#220=CARTESIAN_POINT($,(-100.,-1.16449505722043E-13,0.));
#221=CARTESIAN_POINT($,(99.9999999999999,-1.04207474661082E-13,301.848392821925));
#222=CARTESIAN_POINT($,(99.9999999999999,5.30268840439297,289.126707120775));
#223=CARTESIAN_POINT($,(99.5825219275462,10.5928710154125,276.43502408254));
#224=CARTESIAN_POINT($,(97.8773538038801,21.1821158905012,251.030354820475));
#225=CARTESIAN_POINT($,(96.5961445117701,26.4545080976016,238.381352760245));
#226=CARTESIAN_POINT($,(93.0767778707849,36.9839572657445,213.12013944581));
#227=CARTESIAN_POINT($,(90.8487391459236,42.2081619812481,200.586744050742));
#228=CARTESIAN_POINT($,(85.2457167056826,52.6155748323184,175.618308201533));
#229=CARTESIAN_POINT($,(81.8990450684501,57.7512763862606,163.297240840677));
#230=CARTESIAN_POINT($,(73.6640304721549,67.9473697403476,138.835781833804));
#231=CARTESIAN_POINT($,(68.8611114426917,72.9215315570389,126.90226463785));
#232=CARTESIAN_POINT($,(57.0441111179927,82.4745187247816,103.983682404268));
#233=CARTESIAN_POINT($,(49.7162081445981,87.3144587165165,92.3721769391781));
#234=CARTESIAN_POINT($,(31.8867480931601,95.2806038731246,73.2605891551118));
#235=CARTESIAN_POINT($,(19.8631304006792,99.0791364893446,64.1475252931877));
#236=CARTESIAN_POINT($,(3.53452221715272,99.9540194585118,62.0485925801485));
#237=CARTESIAN_POINT($,(1.75283769582848,100.000438804957,61.9372278740037));
#238=CARTESIAN_POINT($,(-9.66584625218256E-05,99.9999999999765,61.9382806114693));
#239=CARTESIAN_POINT($,(-9.66584625218256E-05,99.9999999999765,61.9382806114693));
#240=CARTESIAN_POINT($,(-12.7909171603434,99.9976673718985,61.9438768221648));
#241=CARTESIAN_POINT($,(-24.0196779487671,97.5531912782596,67.8084221613716));
#242=CARTESIAN_POINT($,(-43.2522104584896,90.7965541840328,84.0182777957845));
#243=CARTESIAN_POINT($,(-51.5003539058871,86.0788409443802,95.3365489228025));
#244=CARTESIAN_POINT($,(-64.4800815570533,76.8587485328241,117.456482973274));
#245=CARTESIAN_POINT($,(-69.9502419558654,71.7787509383258,129.643910902524));
#246=CARTESIAN_POINT($,(-78.9526094233908,61.7427158066009,153.721374048526));
#247=CARTESIAN_POINT($,(-82.6332937139888,56.6417925697471,165.959004709831));
#248=CARTESIAN_POINT($,(-88.8555259176657,46.2735538304595,190.833457903504));
#249=CARTESIAN_POINT($,(-91.3553311615596,41.0598814997359,203.341585042428));
#250=CARTESIAN_POINT($,(-95.383252221091,30.5546180982433,228.544774256953));
#251=CARTESIAN_POINT($,(-96.8970167492978,25.2985153736711,241.154696201371));
#252=CARTESIAN_POINT($,(-99.0562688839983,14.7289051105146,266.512260043918));
#253=CARTESIAN_POINT($,(-99.6943767198267,9.44307117579568,279.19351016796));
#254=CARTESIAN_POINT($,(-99.9710944937859,2.76499895064851,295.214880736806));
#255=CARTESIAN_POINT($,(-99.9998304027996,1.38522228525089,298.525104483015));
#256=CARTESIAN_POINT($,(-99.9999650986637,0.00350086067847679,301.839993903143));
#257=CARTESIAN_POINT($,(-9.66436086994312E-05,99.9999999999765,402.725365898762));
#258=CARTESIAN_POINT($,(-6.44290703406455E-05,99.9999999999843,402.725365898762));
#259=CARTESIAN_POINT($,(-3.22145341195497E-05,99.9999999999999,402.725365898762));
#260=CARTESIAN_POINT($,(-4.77541161988997E-14,99.9999999999998,402.725365898762));
#261=CARTESIAN_POINT($,(58.5786437626904,99.9999999999998,402.725365898762));
#262=CARTESIAN_POINT($,(99.9999999999998,58.5786437626904,402.725365898762));
#263=CARTESIAN_POINT($,(99.9999999999999,-9.34313724283137E-14,402.725365898762));
#264=CARTESIAN_POINT($,(99.9999999999999,-9.34313724283137E-14,402.725365898762));
#265=CARTESIAN_POINT($,(99.9999999999999,-1.52752185001149,402.725365898762));
#266=CARTESIAN_POINT($,(99.9661654019837,-3.01647108812158,402.725365898762));
#267=CARTESIAN_POINT($,(99.8967790017837,-4.54241621483142,402.725365898762));
#268=CARTESIAN_POINT($,(99.711958845024,-8.60697954009957,402.725365898762));
#269=CARTESIAN_POINT($,(99.2714106342183,-12.5781909598335,401.737591874405));
#270=CARTESIAN_POINT($,(98.0814909092205,-19.8541423579327,397.927617662642));
#271=CARTESIAN_POINT($,(97.3441995680977,-23.0192372217547,395.080027897697));
#272=CARTESIAN_POINT($,(96.7349547142283,-25.3445958033698,391.591487359581));
#273=CARTESIAN_POINT($,(96.1415058825961,-27.6096643133802,388.193394961594));
#274=CARTESIAN_POINT($,(95.697439600918,-29.0203013354514,384.277000638426));
#275=CARTESIAN_POINT($,(95.4489774757386,-29.8273599588784,376.037955596701));
#276=CARTESIAN_POINT($,(95.6555687165266,-29.2014798038764,371.905695786518));
#277=CARTESIAN_POINT($,(96.1105756676369,-27.6180601207876,368.106911848058));
#278=CARTESIAN_POINT($,(98.7520709674228,-18.4256826411435,346.053468721835));
#279=CARTESIAN_POINT($,(99.9999999999999,-9.24651001893262,324.031705383897));
#280=CARTESIAN_POINT($,(99.9999999999999,-1.04207474661082E-13,301.848392821925));
#281=CARTESIAN_POINT($,(99.9999999999999,-1.04207474661082E-13,301.848392821925));
#282=CARTESIAN_POINT($,(99.9999999999999,-7.37046225695538E-14,0.));
#283=CARTESIAN_POINT($,(-100.,-1.04203037730569E-13,441.));
#284=CARTESIAN_POINT($,(-100.,-1.04203037730569E-13,402.725365898762));
#285=CARTESIAN_POINT($,(-100.,-1.04203037730569E-13,301.838534663243));
#286=CARTESIAN_POINT($,(-100.,-1.04203037730569E-13,0.));
#287=CARTESIAN_POINT($,(-100.,-1.16449505722043E-13,441.));
#288=CARTESIAN_POINT($,(-100.,99.9999999999998,441.));
#289=CARTESIAN_POINT($,(-4.77541161988997E-14,99.9999999999998,441.));
#290=CARTESIAN_POINT($,(99.9999999999999,99.9999999999998,441.));
#291=CARTESIAN_POINT($,(99.9999999999999,-7.37046225695538E-14,441.));
#292=CARTESIAN_POINT($,(-100.,-1.16449505722043E-13,0.));
#293=CARTESIAN_POINT($,(-99.9999999999999,-100.,0.));
#294=CARTESIAN_POINT($,(-1.72557010378843E-14,-100.,0.));
#295=CARTESIAN_POINT($,(99.9999999999999,-100.,0.));
#296=CARTESIAN_POINT($,(99.9999999999999,-9.81975585525008E-14,0.));
#297=CARTESIAN_POINT($,(-100.,-1.01962982592326E-12,402.725365898762));
#298=CARTESIAN_POINT($,(-100.,58.5713349042459,402.725365898762));
#299=CARTESIAN_POINT($,(-58.5869616502505,99.9916813785428,402.725365898762));
#300=CARTESIAN_POINT($,(-9.66436086994313E-05,99.9999999999765,402.725365898762));
#301=CARTESIAN_POINT($,(-99.9999650986637,0.00350086067847679,301.839993903143));
#302=CARTESIAN_POINT($,(-100.000862567684,-9.20281130454134,323.926867749167));
#303=CARTESIAN_POINT($,(-98.7320198510059,-18.4954603276711,346.220872447881));
#304=CARTESIAN_POINT($,(-96.1105756676369,-27.6180601207876,368.106911848057));
#305=CARTESIAN_POINT($,(-95.6555818788059,-29.2014339992748,371.905585896646));
#306=CARTESIAN_POINT($,(-95.448988190562,-29.8273246407144,376.037719689309));
#307=CARTESIAN_POINT($,(-95.5733491442895,-29.4233739286257,380.162140609394));
#308=CARTESIAN_POINT($,(-95.6974151177371,-29.0203813749509,384.276778532474));
#309=CARTESIAN_POINT($,(-96.1414885360004,-27.6097305216625,388.193295634858));
#310=CARTESIAN_POINT($,(-96.7349547142283,-25.3445958033698,391.591487359581));
#311=CARTESIAN_POINT($,(-97.3440609265768,-23.0197663870785,395.079234035323));
#312=CARTESIAN_POINT($,(-98.0811554972228,-19.8555958727992,397.926318946463));
#313=CARTESIAN_POINT($,(-98.6885370027761,-16.1422632939648,399.871303293028));
#314=CARTESIAN_POINT($,(-99.2711979526426,-12.5800641361508,401.737126365484));
#315=CARTESIAN_POINT($,(-99.7119132227551,-8.60798286465091,402.725365898762));
#316=CARTESIAN_POINT($,(-99.8967790017838,-4.54241621483145,402.725365898762));
#317=CARTESIAN_POINT($,(-99.9657957530412,-3.0246004045407,402.725365898762));
#318=CARTESIAN_POINT($,(-100.,-1.51018239413668,402.725365898762));
#319=CARTESIAN_POINT($,(-100.,-1.01962982592326E-12,402.725365898762));
#320=CARTESIAN_POINT($,(-100.,-100.,441.));
#321=CARTESIAN_POINT($,(-100.,99.9999999999998,0.));
#322=CARTESIAN_POINT($,(-102.000371272892,99.9999999999999,61.9382806114693));
#323=CARTESIAN_POINT($,(102.000003675969,99.9999999999999,61.9382806114693));
#324=CARTESIAN_POINT($,(-102.000371272892,36.1909699396062,215.022596229763));
#325=CARTESIAN_POINT($,(102.000003675969,36.1909699396062,215.022596229763));
#326=CARTESIAN_POINT($,(-102.000371272892,-27.6180601207876,368.106911848058));
#327=CARTESIAN_POINT($,(102.000003675969,-27.6180601207876,368.106911848058));
#328=CARTESIAN_POINT($,(-102.000371272892,-32.7661119717694,380.457608820401));
#329=CARTESIAN_POINT($,(102.000003675969,-32.7661119717694,380.457608820401));
#330=CARTESIAN_POINT($,(-102.000371272892,-25.3445958033698,391.591487359581));
#331=CARTESIAN_POINT($,(102.000003675969,-25.3445958033698,391.591487359581));
#332=CARTESIAN_POINT($,(-102.000371272892,-17.9230796349703,402.725365898762));
#333=CARTESIAN_POINT($,(102.000003675969,-17.9230796349703,402.725365898762));
#334=CARTESIAN_POINT($,(-102.000371272892,-4.54241621483142,402.725365898762));
#335=CARTESIAN_POINT($,(102.000003675969,-4.54241621483142,402.725365898762));
#336=CARTESIAN_POINT($,(-102.000371272892,47.7287918925843,402.725365898762));
#337=CARTESIAN_POINT($,(102.000003675969,47.7287918925843,402.725365898762));
#338=CARTESIAN_POINT($,(-102.000371272892,99.9999999999999,402.725365898762));
#339=CARTESIAN_POINT($,(102.000003675969,99.9999999999999,402.725365898762));
#340=CARTESIAN_POINT($,(99.9999999999999,-9.81975585525008E-14,441.));
#341=CARTESIAN_POINT($,(99.9999999999999,-9.81975585525008E-14,0.));
#342=CARTESIAN_POINT($,(99.9999999999999,-100.,441.));
#343=CARTESIAN_POINT($,(99.9999999999999,-100.,0.));
#344=CARTESIAN_POINT($,(-1.72557010378843E-14,-100.,441.));
#345=CARTESIAN_POINT($,(-1.72557010378843E-14,-100.,0.));
#346=CARTESIAN_POINT($,(-99.9999999999999,-100.,441.));
#347=CARTESIAN_POINT($,(-99.9999999999999,-100.,0.));
#348=CARTESIAN_POINT($,(-100.,-1.16449505722043E-13,441.));
#349=CARTESIAN_POINT($,(-100.,-1.16449505722043E-13,0.));
#350=CARTESIAN_POINT($,(-100.,-1.04203037730569E-13,301.848392821925));
#351=CARTESIAN_POINT($,(-100.,-1.04203037730569E-13,0.));
#352=CARTESIAN_POINT($,(-100.,99.9999999999998,301.848392821925));
#353=CARTESIAN_POINT($,(-100.,99.9999999999998,0.));
#354=CARTESIAN_POINT($,(-3.55076482074262E-14,99.9999999999998,301.848392821925));
#355=CARTESIAN_POINT($,(-3.55076482074262E-14,99.9999999999998,0.));
#356=CARTESIAN_POINT($,(99.9999999999999,99.9999999999998,301.848392821925));
#357=CARTESIAN_POINT($,(99.9999999999999,99.9999999999998,0.));
#358=CARTESIAN_POINT($,(99.9999999999999,-8.59510905610273E-14,301.848392821925));
#359=CARTESIAN_POINT($,(99.9999999999999,-8.59510905610273E-14,0.));
#360=CARTESIAN_POINT($,(-100.,-1.04203037730569E-13,441.));
#361=CARTESIAN_POINT($,(-100.,-1.04203037730569E-13,402.725365898762));
#362=CARTESIAN_POINT($,(-99.9999999999999,99.9999999999998,441.));
#363=CARTESIAN_POINT($,(-99.9999999999999,99.9999999999998,402.725365898762));
#364=CARTESIAN_POINT($,(8.90127277758001E-15,99.9999999999998,441.));
#365=CARTESIAN_POINT($,(8.90127277758001E-15,99.9999999999998,402.725365898762));
#366=CARTESIAN_POINT($,(99.9999999999999,99.9999999999998,441.));
#367=CARTESIAN_POINT($,(99.9999999999999,99.9999999999998,402.725365898762));
#368=CARTESIAN_POINT($,(99.9999999999999,-1.7476893253104E-13,441.));
#369=CARTESIAN_POINT($,(99.9999999999999,-1.7476893253104E-13,402.725365898762));
#370=CARTESIAN_POINT($,(99.9999999999999,-9.81975585525008E-14,441.));
#371=CARTESIAN_POINT($,(99.9999999999999,-7.37046225695538E-14,0.));
#372=CARTESIAN_POINT($,(99.9999999999999,-1.04207474661082E-13,301.848392821925));
#373=CARTESIAN_POINT($,(-9.66584625218256E-05,99.9999999999765,61.9382806114693));
#374=CARTESIAN_POINT($,(-9.66436086994313E-05,99.9999999999765,402.725365898762));
#375=CARTESIAN_POINT($,(99.9999999999999,-9.34313724283137E-14,402.725365898762));
#376=CARTESIAN_POINT($,(-100.,-1.16449505722043E-13,441.));
#377=CARTESIAN_POINT($,(-100.,-1.16449505722043E-13,402.725365898762));
#378=CARTESIAN_POINT($,(-100.,-1.16449505722043E-13,301.838534663243));
#379=CARTESIAN_POINT($,(-100.,-1.16449505722043E-13,0.));
#380=CARTESIAN_POINT($,(-98.2962913144535,12.940952255126,0.));
#381=CARTESIAN_POINT($,(98.2962913144533,-12.9409522551261,0.));
#382=CARTESIAN_POINT($,(0.,0.,0.));
#383=CARTESIAN_POINT($,(0.,0.,0.));
ENDSEC;
END-ISO-10303-21;
