  0
SECTION
  2
HEADER
  9
$ACADVER
  1
AC1018
  9
$ACADMAINTVER
 70
     0
  9
$DWGCODEPAGE
  3
ANSI_932
  9
$INSBASE
 10
0.0
 20
0.0
 30
0.0
  9
$EXTMIN
 10
1.000000000000000E+20
 20
1.000000000000000E+20
 30
1.000000000000000E+20
  9
$EXTMAX
 10
-1.000000000000000E+20
 20
-1.000000000000000E+20
 30
-1.000000000000000E+20
  9
$LIMMIN
 10
0.0
 20
0.0
  9
$LIMMAX
 10
12.0
 20
9.0
  9
$ORTHOMODE
 70
     0
  9
$REGENMODE
 70
     1
  9
$FILLMODE
 70
     1
  9
$QTEXTMODE
 70
     0
  9
$MIRRTEXT
 70
     1
  9
$LTSCALE
 40
1.0
  9
$ATTMODE
 70
     1
  9
$TEXTSIZE
 40
0.2
  9
$TRACEWID
 40
0.05
  9
$TEXTSTYLE
  7
Standard
  9
$CLAYER
  8
0
  9
$CELTYPE
  6
ByLayer
  9
$CECOLOR
 62
   256
  9
$CELTSCALE
 40
1.0
  9
$DISPSILH
 70
     0
  9
$DIMSCALE
 40
1.0
  9
$DIMASZ
 40
0.18
  9
$DIMEXO
 40
0.0625
  9
$DIMDLI
 40
0.38
  9
$DIMRND
 40
0.0
  9
$DIMDLE
 40
0.0
  9
$DIMEXE
 40
0.18
  9
$DIMTP
 40
0.0
  9
$DIMTM
 40
0.0
  9
$DIMTXT
 40
0.18
  9
$DIMCEN
 40
0.09
  9
$DIMTSZ
 40
0.0
  9
$DIMTOL
 70
     0
  9
$DIMLIM
 70
     0
  9
$DIMTIH
 70
     1
  9
$DIMTOH
 70
     1
  9
$DIMSE1
 70
     0
  9
$DIMSE2
 70
     0
  9
$DIMTAD
 70
     0
  9
$DIMZIN
 70
     0
  9
$DIMBLK
  1

  9
$DIMASO
 70
     1
  9
$DIMSHO
 70
     1
  9
$DIMPOST
  1

  9
$DIMAPOST
  1

  9
$DIMALT
 70
     0
  9
$DIMALTD
 70
     2
  9
$DIMALTF
 40
25.4
  9
$DIMLFAC
 40
1.0
  9
$DIMTOFL
 70
     0
  9
$DIMTVP
 40
0.0
  9
$DIMTIX
 70
     0
  9
$DIMSOXD
 70
     0
  9
$DIMSAH
 70
     0
  9
$DIMBLK1
  1

  9
$DIMBLK2
  1

  9
$DIMSTYLE
  2
Standard
  9
$DIMCLRD
 70
     0
  9
$DIMCLRE
 70
     0
  9
$DIMCLRT
 70
     0
  9
$DIMTFAC
 40
1.0
  9
$DIMGAP
 40
0.09
  9
$DIMJUST
 70
     0
  9
$DIMSD1
 70
     0
  9
$DIMSD2
 70
     0
  9
$DIMTOLJ
 70
     1
  9
$DIMTZIN
 70
     0
  9
$DIMALTZ
 70
     0
  9
$DIMALTTZ
 70
     0
  9
$DIMUPT
 70
     0
  9
$DIMDEC
 70
     4
  9
$DIMTDEC
 70
     4
  9
$DIMALTU
 70
     2
  9
$DIMALTTD
 70
     2
  9
$DIMTXSTY
  7
Standard
  9
$DIMAUNIT
 70
     0
  9
$DIMADEC
 70
     0
  9
$DIMALTRND
 40
0.0
  9
$DIMAZIN
 70
     0
  9
$DIMDSEP
 70
    46
  9
$DIMATFIT
 70
     3
  9
$DIMFRAC
 70
     0
  9
$DIMLDRBLK
  1

  9
$DIMLUNIT
 70
     2
  9
$DIMLWD
 70
    -2
  9
$DIMLWE
 70
    -2
  9
$DIMTMOVE
 70
     0
  9
$LUNITS
 70
     2
  9
$LUPREC
 70
     4
  9
$SKETCHINC
 40
0.1
  9
$FILLETRAD
 40
0.5
  9
$AUNITS
 70
     0
  9
$AUPREC
 70
     0
  9
$MENU
  1
.
  9
$ELEVATION
 40
0.0
  9
$PELEVATION
 40
0.0
  9
$THICKNESS
 40
0.0
  9
$LIMCHECK
 70
     0
  9
$CHAMFERA
 40
0.5
  9
$CHAMFERB
 40
0.5
  9
$CHAMFERC
 40
1.0
  9
$CHAMFERD
 40
0.0
  9
$SKPOLY
 70
     0
  9
$TDCREATE
 40
2457099.632627315
  9
$TDUCREATE
 40
2457099.590960648
  9
$TDUPDATE
 40
2457099.632627327
  9
$TDUUPDATE
 40
2457099.59096066
  9
$TDINDWG
 40
0.0000000116
  9
$TDUSRTIMER
 40
0.0000000116
  9
$USRTIMER
 70
     1
  9
$ANGBASE
 50
0.0
  9
$ANGDIR
 70
     0
  9
$PDMODE
 70
     0
  9
$PDSIZE
 40
0.0
  9
$PLINEWID
 40
0.0
  9
$SPLFRAME
 70
     0
  9
$SPLINETYPE
 70
     6
  9
$SPLINESEGS
 70
     8
  9
$HANDSEED
  5
5DA
  9
$SURFTAB1
 70
     6
  9
$SURFTAB2
 70
     6
  9
$SURFTYPE
 70
     6
  9
$SURFU
 70
     6
  9
$SURFV
 70
     6
  9
$UCSBASE
  2

  9
$UCSNAME
  2

  9
$UCSORG
 10
0.0
 20
0.0
 30
0.0
  9
$UCSXDIR
 10
1.0
 20
0.0
 30
0.0
  9
$UCSYDIR
 10
0.0
 20
1.0
 30
0.0
  9
$UCSORTHOREF
  2

  9
$UCSORTHOVIEW
 70
     0
  9
$UCSORGTOP
 10
0.0
 20
0.0
 30
0.0
  9
$UCSORGBOTTOM
 10
0.0
 20
0.0
 30
0.0
  9
$UCSORGLEFT
 10
0.0
 20
0.0
 30
0.0
  9
$UCSORGRIGHT
 10
0.0
 20
0.0
 30
0.0
  9
$UCSORGFRONT
 10
0.0
 20
0.0
 30
0.0
  9
$UCSORGBACK
 10
0.0
 20
0.0
 30
0.0
  9
$PUCSBASE
  2

  9
$PUCSNAME
  2

  9
$PUCSORG
 10
0.0
 20
0.0
 30
0.0
  9
$PUCSXDIR
 10
1.0
 20
0.0
 30
0.0
  9
$PUCSYDIR
 10
0.0
 20
1.0
 30
0.0
  9
$PUCSORTHOREF
  2

  9
$PUCSORTHOVIEW
 70
     0
  9
$PUCSORGTOP
 10
0.0
 20
0.0
 30
0.0
  9
$PUCSORGBOTTOM
 10
0.0
 20
0.0
 30
0.0
  9
$PUCSORGLEFT
 10
0.0
 20
0.0
 30
0.0
  9
$PUCSORGRIGHT
 10
0.0
 20
0.0
 30
0.0
  9
$PUCSORGFRONT
 10
0.0
 20
0.0
 30
0.0
  9
$PUCSORGBACK
 10
0.0
 20
0.0
 30
0.0
  9
$USERI1
 70
     0
  9
$USERI2
 70
     0
  9
$USERI3
 70
     0
  9
$USERI4
 70
     0
  9
$USERI5
 70
     0
  9
$USERR1
 40
0.0
  9
$USERR2
 40
0.0
  9
$USERR3
 40
0.0
  9
$USERR4
 40
0.0
  9
$USERR5
 40
0.0
  9
$WORLDVIEW
 70
     1
  9
$SHADEDGE
 70
     3
  9
$SHADEDIF
 70
    70
  9
$TILEMODE
 70
     1
  9
$MAXACTVP
 70
    64
  9
$PINSBASE
 10
0.0
 20
0.0
 30
0.0
  9
$PLIMCHECK
 70
     0
  9
$PEXTMIN
 10
1.000000000000000E+20
 20
1.000000000000000E+20
 30
1.000000000000000E+20
  9
$PEXTMAX
 10
-1.000000000000000E+20
 20
-1.000000000000000E+20
 30
-1.000000000000000E+20
  9
$PLIMMIN
 10
0.0
 20
0.0
  9
$PLIMMAX
 10
12.0
 20
9.0
  9
$UNITMODE
 70
     0
  9
$VISRETAIN
 70
     1
  9
$PLINEGEN
 70
     0
  9
$PSLTSCALE
 70
     1
  9
$TREEDEPTH
 70
  3020
  9
$CMLSTYLE
  2
Standard
  9
$CMLJUST
 70
     0
  9
$CMLSCALE
 40
1.0
  9
$PROXYGRAPHICS
 70
     1
  9
$MEASUREMENT
 70
     0
  9
$CELWEIGHT
370
    -1
  9
$ENDCAPS
280
     0
  9
$JOINSTYLE
280
     0
  9
$LWDISPLAY
290
     1
  9
$INSUNITS
 70
     1
  9
$HYPERLINKBASE
  1

  9
$STYLESHEET
  1

  9
$XEDIT
290
     1
  9
$CEPSNTYPE
380
     0
  9
$PSTYLEMODE
290
     1
  9
$FINGERPRINTGUID
  2
{B97C19EB-80B5-6437-7A3D-554DD9303363}
  9
$VERSIONGUID
  2
{FAEB1C32-E019-11D5-929B-00C0DF256EC4}
  9
$EXTNAMES
290
     1
  9
$PSVPSCALE
 40
0.0
  9
$OLESTARTUP
290
     0
  9
$SORTENTS
280
   127
  9
$INDEXCTL
280
     0
  9
$HIDETEXT
280
     1
  9
$XCLIPFRAME
290
     0
  9
$HALOGAP
280
     0
  9
$OBSCOLOR
 70
   257
  9
$OBSLTYPE
280
     0
  9
$INTERSECTIONDISPLAY
280
     0
  9
$INTERSECTIONCOLOR
 70
   257
  9
$DIMASSOC
280
     2
  9
$PROJECTNAME
  1

  0
ENDSEC
  0
SECTION
  2
CLASSES
  0
CLASS
  1
ACDBDICTIONARYWDFLT
  2
AcDbDictionaryWithDefault
  3
ObjectDBX Classes
 90
        0
 91
        3
280
     0
281
     0
  0
CLASS
  1
VISUALSTYLE
  2
AcDbVisualStyle
  3
ObjectDBX Classes
 90
     4095
 91
        3
280
     0
281
     0
  0
ENDSEC
  0
SECTION
  2
TABLES
  0
TABLE
  2
VPORT
  5
8
330
0
100
AcDbSymbolTable
 70
     1
  0
VPORT
  5
29
330
8
100
AcDbSymbolTableRecord
100
AcDbViewportTableRecord
  2
*Active
 70
     0
 10
0.0
 20
0.0
 11
1.0
 21
1.0
 12
0.0
 22
0.0
 13
0.0
 23
0.0
 14
0.5
 24
0.5
 15
0.5
 25
0.5
 16
0.0
 26
0.0
 36
1.0
 17
148.3430555184698
 27
104.951388862651
 37
0.0
 40
209.9027777253021
 41
1.413445378151261
 42
50.0
 43
0.0
 44
0.0
 50
0.0
 51
0.0
 71
     0
 72
   100
 73
     1
 74
     3
 75
     0
 76
     0
 77
     0
 78
     0
281
     0
 65
     1
110
0.0
120
0.0
130
0.0
111
1.0
121
0.0
131
0.0
112
0.0
122
1.0
132
0.0
 79
     0
146
0.0
  0
ENDTAB
  0
TABLE
  2
LTYPE
  5
5
330
0
100
AcDbSymbolTable
 70
     1
  0
LTYPE
  5
14
330
5
100
AcDbSymbolTableRecord
100
AcDbLinetypeTableRecord
  2
ByBlock
 70
     0
  3

 72
    65
 73
     0
 40
0.0
  0
LTYPE
  5
15
330
5
100
AcDbSymbolTableRecord
100
AcDbLinetypeTableRecord
  2
ByLayer
 70
     0
  3

 72
    65
 73
     0
 40
0.0
  0
LTYPE
  5
16
330
5
100
AcDbSymbolTableRecord
100
AcDbLinetypeTableRecord
  2
Continuous
 70
     0
  3
Solid line
 72
    65
 73
     0
 40
0.0
  0
ENDTAB
  0
TABLE
  2
LAYER
  5
2
330
0
100
AcDbSymbolTable
 70
     2
  0
LAYER
  5
10
330
2
100
AcDbSymbolTableRecord
100
AcDbLayerTableRecord
  2
0
 70
     0
 62
     7
  6
Continuous
370
    -3
390
F
  0
LAYER
  5
3B
330
2
100
AcDbSymbolTableRecord
100
AcDbLayerTableRecord
  2
Livello 1
 70
     0
 62
     7
  6
Continuous
370
    -3
390
F
  0
ENDTAB
  0
TABLE
  2
STYLE
  5
3
330
0
100
AcDbSymbolTable
 70
     1
  0
STYLE
  5
11
330
3
100
AcDbSymbolTableRecord
100
AcDbTextStyleTableRecord
  2
Standard
 70
     0
 40
0.0
 41
1.0
 50
0.0
 71
     0
 42
0.2
  3
txt
  4

  0
ENDTAB
  0
TABLE
  2
VIEW
  5
6
330
0
100
AcDbSymbolTable
 70
     0
  0
ENDTAB
  0
TABLE
  2
UCS
  5
7
330
0
100
AcDbSymbolTable
 70
     0
  0
ENDTAB
  0
TABLE
  2
APPID
  5
9
330
0
100
AcDbSymbolTable
 70
     1
  0
APPID
  5
12
330
9
100
AcDbSymbolTableRecord
100
AcDbRegAppTableRecord
  2
ACAD
 70
     0
  0
ENDTAB
  0
TABLE
  2
DIMSTYLE
  5
A
330
0
100
AcDbSymbolTable
 70
     1
100
AcDbDimStyleTable
  0
DIMSTYLE
105
27
330
A
100
AcDbSymbolTableRecord
100
AcDbDimStyleTableRecord
  2
Standard
 70
     0
340
11
  0
ENDTAB
  0
TABLE
  2
BLOCK_RECORD
  5
1
330
0
100
AcDbSymbolTable
 70
     1
  0
BLOCK_RECORD
  5
1F
330
1
100
AcDbSymbolTableRecord
100
AcDbBlockTableRecord
  2
*Model_Space
340
22
  0
BLOCK_RECORD
  5
1B
330
1
100
AcDbSymbolTableRecord
100
AcDbBlockTableRecord
  2
*Paper_Space
340
1E
  0
BLOCK_RECORD
  5
23
330
1
100
AcDbSymbolTableRecord
100
AcDbBlockTableRecord
  2
*Paper_Space0
340
26
  0
ENDTAB
  0
ENDSEC
  0
SECTION
  2
BLOCKS
  0
BLOCK
  5
20
330
1F
100
AcDbEntity
  8
0
100
AcDbBlockBegin
  2
*Model_Space
 70
     0
 71
     0
 10
0.0
 20
0.0
 30
0.0
  3
*Model_Space
  1

  0
ENDBLK
  5
21
330
1F
100
AcDbEntity
  8
0
100
AcDbBlockEnd
  0
BLOCK
  5
1C
330
1B
100
AcDbEntity
 67
     1
  8
0
100
AcDbBlockBegin
  2
*Paper_Space
 70
     0
 71
     0
 10
0.0
 20
0.0
 30
0.0
  3
*Paper_Space
  1

  0
ENDBLK
  5
1D
330
1B
100
AcDbEntity
 67
     1
  8
0
100
AcDbBlockEnd
  0
BLOCK
  5
24
330
23
100
AcDbEntity
  8
0
100
AcDbBlockBegin
  2
*Paper_Space0
 70
     0
 71
     0
 10
0.0
 20
0.0
 30
0.0
  3
*Paper_Space0
  1

  0
ENDBLK
  5
25
330
23
100
AcDbEntity
  8
0
100
AcDbBlockEnd
  0
ENDSEC
  0
SECTION
  2
ENTITIES
  0
POLYLINE
  5
3C
330
1F
100
AcDbEntity
  8
Livello 1
 62
   178
420
    65793
370
     9
100
AcDb2dPolyline
 66
     1
 10
0.0
 20
0.0
 30
0.0
  0
VERTEX
  5
3D
330
3C
100
AcDbEntity
  8
Livello 1
 62
   178
420
    65793
370
     9
100
AcDbVertex
100
AcDb2dVertex
 10
35.2655476799857
 20
48.13005098623138
 30
0.0
  0
VERTEX
  5
3E
330
3C
100
AcDbEntity
  8
Livello 1
 62
   178
420
    65793
370
     9
100
AcDbVertex
100
AcDb2dVertex
 10
35.2655476799857
 20
184.9058539034263
 30
0.0
  0
SEQEND
  5
3F
330
3C
100
AcDbEntity
  8
Livello 1
370
     9
  0
POLYLINE
  5
40
330
1F
100
AcDbEntity
  8
Livello 1
 62
   178
420
    65793
370
     9
100
AcDb2dPolyline
 66
     1
 10
0.0
 20
0.0
 30
0.0
  0
VERTEX
  5
41
330
40
100
AcDbEntity
  8
Livello 1
 62
   178
420
    65793
370
     9
100
AcDbVertex
100
AcDb2dVertex
 10
-57.13742538719134
 20
184.9058539034263
 30
0.0
  0
VERTEX
  5
42
330
40
100
AcDbEntity
  8
Livello 1
 62
   178
420
    65793
370
     9
100
AcDbVertex
100
AcDb2dVertex
 10
-57.13742538719134
 20
48.13005098623138
 30
0.0
  0
SEQEND
  5
43
330
40
100
AcDbEntity
  8
Livello 1
370
     9
  0
POLYLINE
  5
44
330
1F
100
AcDbEntity
  8
Livello 1
 62
   178
420
    65793
370
     9
100
AcDb2dPolyline
 66
     1
 10
0.0
 20
0.0
 30
0.0
  0
VERTEX
  5
45
330
44
100
AcDbEntity
  8
Livello 1
 62
   178
420
    65793
370
     9
100
AcDbVertex
100
AcDb2dVertex
 10
106.7960652402281
 20
63.98369139025408
 30
0.0
  0
VERTEX
  5
46
330
44
100
AcDbEntity
  8
Livello 1
 62
   178
420
    65793
370
     9
100
AcDbVertex
100
AcDb2dVertex
 10
117.1149874924226
 20
63.98369139025408
 30
0.0
  0
VERTEX
  5
47
330
44
100
AcDbEntity
  8
Livello 1
 62
   178
420
    65793
370
     9
100
AcDbVertex
100
AcDb2dVertex
 10
117.1149874924226
 20
63.04593639916907
 30
0.0
  0
SEQEND
  5
48
330
44
100
AcDbEntity
  8
Livello 1
370
     9
  0
POLYLINE
  5
49
330
1F
100
AcDbEntity
  8
Livello 1
 62
   178
420
    65793
370
     9
100
AcDb2dPolyline
 66
     1
 10
0.0
 20
0.0
 30
0.0
  0
VERTEX
  5
4A
330
49
100
AcDbEntity
  8
Livello 1
 62
   178
420
    65793
370
     9
100
AcDbVertex
100
AcDb2dVertex
 10
172.2761338545004
 20
201.604059465658
 30
0.0
  0
VERTEX
  5
4B
330
49
100
AcDbEntity
  8
Livello 1
 62
   178
420
    65793
370
     9
100
AcDbVertex
100
AcDb2dVertex
 10
172.2761338545004
 20
200.6657877102502
 30
0.0
  0
VERTEX
  5
4C
330
49
100
AcDbEntity
  8
Livello 1
 62
   178
420
    65793
370
     9
100
AcDbVertex
100
AcDb2dVertex
 10
106.7960652402281
 20
200.6657877102502
 30
0.0
  0
SEQEND
  5
4D
330
49
100
AcDbEntity
  8
Livello 1
370
     9
  0
POLYLINE
  5
4E
330
1F
100
AcDbEntity
  8
Livello 1
 62
   178
420
    65793
370
     9
100
AcDb2dPolyline
 66
     1
 10
0.0
 20
0.0
 30
0.0
  0
VERTEX
  5
4F
330
4E
100
AcDbEntity
  8
Livello 1
 62
   178
420
    65793
370
     9
100
AcDbVertex
100
AcDb2dVertex
 10
117.1149874924226
 20
63.04593639916907
 30
0.0
  0
VERTEX
  5
50
330
4E
100
AcDbEntity
  8
Livello 1
 62
   178
420
    65793
370
     9
100
AcDbVertex
100
AcDb2dVertex
 10
106.7960652402281
 20
63.04593639916907
 30
0.0
  0
SEQEND
  5
51
330
4E
100
AcDbEntity
  8
Livello 1
370
     9
  0
POLYLINE
  5
52
330
1F
100
AcDbEntity
  8
Livello 1
 62
   178
420
    65793
370
     9
100
AcDb2dPolyline
 66
     1
 10
0.0
 20
0.0
 30
0.0
  0
VERTEX
  5
53
330
52
100
AcDbEntity
  8
Livello 1
 62
   178
420
    65793
370
     9
100
AcDbVertex
100
AcDb2dVertex
 10
106.7960652402281
 20
200.6657877102502
 30
0.0
  0
VERTEX
  5
54
330
52
100
AcDbEntity
  8
Livello 1
 62
   178
420
    65793
370
     9
100
AcDbVertex
100
AcDb2dVertex
 10
106.7960652402281
 20
63.98369139025408
 30
0.0
  0
SEQEND
  5
55
330
52
100
AcDbEntity
  8
Livello 1
370
     9
  0
POLYLINE
  5
56
330
1F
100
AcDbEntity
  8
Livello 1
 62
   178
420
    65793
370
     9
100
AcDb2dPolyline
 66
     1
 10
0.0
 20
0.0
 30
0.0
  0
VERTEX
  5
57
330
56
100
AcDbEntity
  8
Livello 1
 62
   178
420
    65793
370
     9
100
AcDbVertex
100
AcDb2dVertex
 10
175.1837944440513
 20
201.604059465658
 30
0.0
  0
VERTEX
  5
58
330
56
100
AcDbEntity
  8
Livello 1
 62
   178
420
    65793
370
     9
100
AcDbVertex
100
AcDb2dVertex
 10
175.1837944440513
 20
201.604059465658
 30
0.0
  0
SEQEND
  5
59
330
56
100
AcDbEntity
  8
Livello 1
370
     9
  0
POLYLINE
  5
5A
330
1F
100
AcDbEntity
  8
Livello 1
 62
   178
420
    65793
370
     9
100
AcDb2dPolyline
 66
     1
 10
0.0
 20
0.0
 30
0.0
  0
VERTEX
  5
5B
330
5A
100
AcDbEntity
  8
Livello 1
 62
   178
420
    65793
370
     9
100
AcDbVertex
100
AcDb2dVertex
 10
106.7960652402281
 20
200.6657877102502
 30
0.0
  0
VERTEX
  5
5C
330
5A
100
AcDbEntity
  8
Livello 1
 62
   178
420
    65793
370
     9
100
AcDbVertex
100
AcDb2dVertex
 10
106.7960652402281
 20
201.604059465658
 30
0.0
  0
SEQEND
  5
5D
330
5A
100
AcDbEntity
  8
Livello 1
370
     9
  0
POLYLINE
  5
5E
330
1F
100
AcDbEntity
  8
Livello 1
 62
   178
420
    65793
370
     9
100
AcDb2dPolyline
 66
     1
 10
0.0
 20
0.0
 30
0.0
  0
VERTEX
  5
5F
330
5E
100
AcDbEntity
  8
Livello 1
 62
   178
420
    65793
370
     9
100
AcDbVertex
100
AcDb2dVertex
 10
174.9960367401052
 20
201.604059465658
 30
0.0
  0
VERTEX
  5
60
330
5E
100
AcDbEntity
  8
Livello 1
 62
   178
420
    65793
370
     9
100
AcDbVertex
100
AcDb2dVertex
 10
172.2761338545004
 20
201.604059465658
 30
0.0
  0
VERTEX
  5
61
330
5E
100
AcDbEntity
  8
Livello 1
 62
   178
420
    65793
370
     9
100
AcDbVertex
100
AcDb2dVertex
 10
106.7960652402281
 20
201.604059465658
 30
0.0
  0
SEQEND
  5
62
330
5E
100
AcDbEntity
  8
Livello 1
370
     9
  0
POLYLINE
  5
63
330
1F
100
AcDbEntity
  8
Livello 1
 62
   178
420
    65793
370
     9
100
AcDb2dPolyline
 66
     1
 10
0.0
 20
0.0
 30
0.0
  0
VERTEX
  5
64
330
63
100
AcDbEntity
  8
Livello 1
 62
   178
420
    65793
370
     9
100
AcDbVertex
100
AcDb2dVertex
 10
106.7960652402281
 20
63.04593639916907
 30
0.0
  0
VERTEX
  5
65
330
63
100
AcDbEntity
  8
Livello 1
 62
   178
420
    65793
370
     9
100
AcDbVertex
100
AcDb2dVertex
 10
106.7960652402281
 20
63.98369139025408
 30
0.0
  0
SEQEND
  5
66
330
63
100
AcDbEntity
  8
Livello 1
370
     9
  0
POLYLINE
  5
67
330
1F
100
AcDbEntity
  8
Livello 1
 62
   178
420
    65793
370
     9
100
AcDb2dPolyline
 66
     1
 10
0.0
 20
0.0
 30
0.0
  0
VERTEX
  5
68
330
67
100
AcDbEntity
  8
Livello 1
 62
   178
420
    65793
370
     9
100
AcDbVertex
100
AcDb2dVertex
 10
122.3684135978801
 20
62.76447209802416
 30
0.0
  0
VERTEX
  5
69
330
67
100
AcDbEntity
  8
Livello 1
 62
   178
420
    65793
370
     9
100
AcDbVertex
100
AcDb2dVertex
 10
122.4624647046275
 20
63.70291610820622
 30
0.0
  0
SEQEND
  5
6A
330
67
100
AcDbEntity
  8
Livello 1
370
     9
  0
POLYLINE
  5
6B
330
1F
100
AcDbEntity
  8
Livello 1
 62
   178
420
    65793
370
     9
100
AcDb2dPolyline
 66
     1
 10
0.0
 20
0.0
 30
0.0
  0
VERTEX
  5
6C
330
6B
100
AcDbEntity
  8
Livello 1
 62
   178
420
    65793
370
     9
100
AcDbVertex
100
AcDb2dVertex
 10
133.9067273970789
 20
59.95086261522062
 30
0.0
  0
VERTEX
  5
6D
330
6B
100
AcDbEntity
  8
Livello 1
 62
   178
420
    65793
370
     9
100
AcDbVertex
100
AcDb2dVertex
 10
132.8752658087951
 20
60.23198240681701
 30
0.0
  0
SEQEND
  5
6E
330
6B
100
AcDbEntity
  8
Livello 1
370
     9
  0
POLYLINE
  5
6F
330
1F
100
AcDbEntity
  8
Livello 1
 62
   178
420
    65793
370
     9
100
AcDb2dPolyline
 66
     1
 10
0.0
 20
0.0
 30
0.0
  0
VERTEX
  5
70
330
6F
100
AcDbEntity
  8
Livello 1
 62
   178
420
    65793
370
     9
100
AcDbVertex
100
AcDb2dVertex
 10
174.9023301429064
 20
200.7598388169976
 30
0.0
  0
VERTEX
  5
71
330
6F
100
AcDbEntity
  8
Livello 1
 62
   178
420
    65793
370
     9
100
AcDbVertex
100
AcDb2dVertex
 10
172.2761338545004
 20
200.6657877102502
 30
0.0
  0
SEQEND
  5
72
330
6F
100
AcDbEntity
  8
Livello 1
370
     9
  0
POLYLINE
  5
73
330
1F
100
AcDbEntity
  8
Livello 1
 62
   178
420
    65793
370
     9
100
AcDb2dPolyline
 66
     1
 10
0.0
 20
0.0
 30
0.0
  0
VERTEX
  5
74
330
73
100
AcDbEntity
  8
Livello 1
 62
   178
420
    65793
370
     9
100
AcDbVertex
100
AcDb2dVertex
 10
176.4030137362812
 20
201.3225951645131
 30
0.0
  0
VERTEX
  5
75
330
73
100
AcDbEntity
  8
Livello 1
 62
   178
420
    65793
370
     9
100
AcDbVertex
100
AcDb2dVertex
 10
184.3770317464405
 20
198.4144178106395
 30
0.0
  0
SEQEND
  5
76
330
73
100
AcDbEntity
  8
Livello 1
370
     9
  0
POLYLINE
  5
77
330
1F
100
AcDbEntity
  8
Livello 1
 62
   178
420
    65793
370
     9
100
AcDb2dPolyline
 66
     1
 10
0.0
 20
0.0
 30
0.0
  0
VERTEX
  5
78
330
77
100
AcDbEntity
  8
Livello 1
 62
   178
420
    65793
370
     9
100
AcDbVertex
100
AcDb2dVertex
 10
132.5941460171987
 20
61.35783961139666
 30
0.0
  0
VERTEX
  5
79
330
77
100
AcDbEntity
  8
Livello 1
 62
   178
420
    65793
370
     9
100
AcDbVertex
100
AcDb2dVertex
 10
133.5322455178322
 20
61.07603080070322
 30
0.0
  0
SEQEND
  5
7A
330
77
100
AcDbEntity
  8
Livello 1
370
     9
  0
POLYLINE
  5
7B
330
1F
100
AcDbEntity
  8
Livello 1
 62
   178
420
    65793
370
     9
100
AcDb2dPolyline
 66
     1
 10
0.0
 20
0.0
 30
0.0
  0
VERTEX
  5
7C
330
7B
100
AcDbEntity
  8
Livello 1
 62
   178
420
    65793
370
     9
100
AcDbVertex
100
AcDb2dVertex
 10
122.4624647046275
 20
63.70291610820622
 30
0.0
  0
VERTEX
  5
7D
330
7B
100
AcDbEntity
  8
Livello 1
 62
   178
420
    65793
370
     9
100
AcDbVertex
100
AcDb2dVertex
 10
172.2761338545004
 20
200.6657877102502
 30
0.0
  0
SEQEND
  5
7E
330
7B
100
AcDbEntity
  8
Livello 1
370
     9
  0
POLYLINE
  5
7F
330
1F
100
AcDbEntity
  8
Livello 1
 62
   178
420
    65793
370
     9
100
AcDb2dPolyline
 66
     1
 10
0.0
 20
0.0
 30
0.0
  0
VERTEX
  5
80
330
7F
100
AcDbEntity
  8
Livello 1
 62
   178
420
    65793
370
     9
100
AcDbVertex
100
AcDb2dVertex
 10
133.5322455178322
 20
61.07603080070322
 30
0.0
  0
VERTEX
  5
81
330
7F
100
AcDbEntity
  8
Livello 1
 62
   178
420
    65793
370
     9
100
AcDbVertex
100
AcDb2dVertex
 10
212.3322590615003
 20
32.37011717940747
 30
0.0
  0
SEQEND
  5
82
330
7F
100
AcDbEntity
  8
Livello 1
370
     9
  0
POLYLINE
  5
83
330
1F
100
AcDbEntity
  8
Livello 1
 62
   178
420
    65793
370
     9
100
AcDb2dPolyline
 66
     1
 10
0.0
 20
0.0
 30
0.0
  0
VERTEX
  5
84
330
83
100
AcDbEntity
  8
Livello 1
 62
   178
420
    65793
370
     9
100
AcDbVertex
100
AcDb2dVertex
 10
212.3322590615003
 20
32.37011717940747
 30
0.0
  0
VERTEX
  5
85
330
83
100
AcDbEntity
  8
Livello 1
 62
   178
420
    65793
370
     9
100
AcDbVertex
100
AcDb2dVertex
 10
262.1462727209218
 20
169.1457478418282
 30
0.0
  0
SEQEND
  5
86
330
83
100
AcDbEntity
  8
Livello 1
370
     9
  0
POLYLINE
  5
87
330
1F
100
AcDbEntity
  8
Livello 1
 62
   178
420
    65793
370
     9
100
AcDb2dPolyline
 66
     1
 10
0.0
 20
0.0
 30
0.0
  0
VERTEX
  5
88
330
87
100
AcDbEntity
  8
Livello 1
 62
   178
420
    65793
370
     9
100
AcDbVertex
100
AcDb2dVertex
 10
183.3452256486081
 20
197.8518337178982
 30
0.0
  0
VERTEX
  5
89
330
87
100
AcDbEntity
  8
Livello 1
 62
   178
420
    65793
370
     9
100
AcDbVertex
100
AcDb2dVertex
 10
133.5322455178322
 20
61.07603080070322
 30
0.0
  0
SEQEND
  5
8A
330
87
100
AcDbEntity
  8
Livello 1
370
     9
  0
POLYLINE
  5
8B
330
1F
100
AcDbEntity
  8
Livello 1
 62
   178
420
    65793
370
     9
100
AcDb2dPolyline
 66
     1
 10
0.0
 20
0.0
 30
0.0
  0
VERTEX
  5
8C
330
8B
100
AcDbEntity
  8
Livello 1
 62
   178
420
    65793
370
     9
100
AcDbVertex
100
AcDb2dVertex
 10
133.9067273970789
 20
59.95086261522062
 30
0.0
  0
VERTEX
  5
8D
330
8B
100
AcDbEntity
  8
Livello 1
 62
   178
420
    65793
370
     9
100
AcDbVertex
100
AcDb2dVertex
 10
211.2074353855662
 20
31.80753308666617
 30
0.0
  0
SEQEND
  5
8E
330
8B
100
AcDbEntity
  8
Livello 1
370
     9
  0
POLYLINE
  5
8F
330
1F
100
AcDbEntity
  8
Livello 1
 62
   178
420
    65793
370
     9
100
AcDb2dPolyline
 66
     1
 10
0.0
 20
0.0
 30
0.0
  0
VERTEX
  5
90
330
8F
100
AcDbEntity
  8
Livello 1
 62
   178
420
    65793
370
     9
100
AcDbVertex
100
AcDb2dVertex
 10
262.1462727209218
 20
169.1457478418282
 30
0.0
  0
VERTEX
  5
91
330
8F
100
AcDbEntity
  8
Livello 1
 62
   178
420
    65793
370
     9
100
AcDbVertex
100
AcDb2dVertex
 10
183.3452256486081
 20
197.8518337178982
 30
0.0
  0
VERTEX
  5
92
330
8F
100
AcDbEntity
  8
Livello 1
 62
   178
420
    65793
370
     9
100
AcDbVertex
100
AcDb2dVertex
 10
175.9344807502872
 20
200.5722533678257
 30
0.0
  0
SEQEND
  5
93
330
8F
100
AcDbEntity
  8
Livello 1
370
     9
  0
POLYLINE
  5
94
330
1F
100
AcDbEntity
  8
Livello 1
 62
   178
420
    65793
370
     9
100
AcDb2dPolyline
 66
     1
 10
0.0
 20
0.0
 30
0.0
  0
VERTEX
  5
95
330
94
100
AcDbEntity
  8
Livello 1
 62
   178
420
    65793
370
     9
100
AcDbVertex
100
AcDb2dVertex
 10
261.5829996090834
 20
170.3653116436066
 30
0.0
  0
VERTEX
  5
96
330
94
100
AcDbEntity
  8
Livello 1
 62
   178
420
    65793
370
     9
100
AcDbVertex
100
AcDb2dVertex
 10
184.3770317464405
 20
198.4144178106395
 30
0.0
  0
SEQEND
  5
97
330
94
100
AcDbEntity
  8
Livello 1
370
     9
  0
POLYLINE
  5
98
330
1F
100
AcDbEntity
  8
Livello 1
 62
   178
420
    65793
370
     9
100
AcDb2dPolyline
 66
     1
 10
0.0
 20
0.0
 30
0.0
  0
VERTEX
  5
99
330
98
100
AcDbEntity
  8
Livello 1
 62
   178
420
    65793
370
     9
100
AcDbVertex
100
AcDb2dVertex
 10
-38.18802218012313
 20
-124.2935329550377
 30
0.0
  0
VERTEX
  5
9A
330
98
100
AcDbEntity
  8
Livello 1
 62
   178
420
    65793
370
     9
100
AcDbVertex
100
AcDb2dVertex
 10
-38.18802218012313
 20
-125.8879231456114
 30
0.0
  0
SEQEND
  5
9B
330
98
100
AcDbEntity
  8
Livello 1
370
     9
  0
POLYLINE
  5
9C
330
1F
100
AcDbEntity
  8
Livello 1
 62
   178
420
    65793
370
     9
100
AcDb2dPolyline
 66
     1
 10
0.0
 20
0.0
 30
0.0
  0
VERTEX
  5
9D
330
9C
100
AcDbEntity
  8
Livello 1
 62
   178
420
    65793
370
     9
100
AcDbVertex
100
AcDb2dVertex
 10
16.31597221814323
 20
-125.8879231456114
 30
0.0
  0
VERTEX
  5
9E
330
9C
100
AcDbEntity
  8
Livello 1
 62
   178
420
    65793
370
     9
100
AcDbVertex
100
AcDb2dVertex
 10
16.31597221814323
 20
-124.2935329550377
 30
0.0
  0
SEQEND
  5
9F
330
9C
100
AcDbEntity
  8
Livello 1
370
     9
  0
POLYLINE
  5
A0
330
1F
100
AcDbEntity
  8
Livello 1
 62
   178
420
    65793
370
     9
100
AcDb2dPolyline
 66
     1
 10
0.0
 20
0.0
 30
0.0
  0
VERTEX
  5
A1
330
A0
100
AcDbEntity
  8
Livello 1
 62
   178
420
    65793
370
     9
100
AcDbVertex
100
AcDb2dVertex
 10
-29.65142007722256
 20
-18.28794487390024
 30
0.0
  0
VERTEX
  5
A2
330
A0
100
AcDbEntity
  8
Livello 1
 62
   178
420
    65793
370
     9
100
AcDbVertex
100
AcDb2dVertex
 10
-29.65142007722256
 20
-81.89095321303421
 30
0.0
  0
SEQEND
  5
A3
330
A0
100
AcDbEntity
  8
Livello 1
370
     9
  0
POLYLINE
  5
A4
330
1F
100
AcDbEntity
  8
Livello 1
 62
   178
420
    65793
370
     9
100
AcDb2dPolyline
 66
     1
 10
0.0
 20
0.0
 30
0.0
  0
VERTEX
  5
A5
330
A4
100
AcDbEntity
  8
Livello 1
 62
   178
420
    65793
370
     9
100
AcDbVertex
100
AcDb2dVertex
 10
-30.40176187390998
 20
-18.28794487390024
 30
0.0
  0
VERTEX
  5
A6
330
A4
100
AcDbEntity
  8
Livello 1
 62
   178
420
    65793
370
     9
100
AcDbVertex
100
AcDb2dVertex
 10
-29.65142007722256
 20
-18.28794487390024
 30
0.0
  0
SEQEND
  5
A7
330
A4
100
AcDbEntity
  8
Livello 1
370
     9
  0
POLYLINE
  5
A8
330
1F
100
AcDbEntity
  8
Livello 1
 62
   178
420
    65793
370
     9
100
AcDb2dPolyline
 66
     1
 10
0.0
 20
0.0
 30
0.0
  0
VERTEX
  5
A9
330
A8
100
AcDbEntity
  8
Livello 1
 62
   178
420
    65793
370
     9
100
AcDbVertex
100
AcDb2dVertex
 10
8.90488281027378
 20
-18.28794487390024
 30
0.0
  0
VERTEX
  5
AA
330
A8
100
AcDbEntity
  8
Livello 1
 62
   178
420
    65793
370
     9
100
AcDbVertex
100
AcDb2dVertex
 10
8.435833059957014
 20
-18.28794487390024
 30
0.0
  0
SEQEND
  5
AB
330
A8
100
AcDbEntity
  8
Livello 1
370
     9
  0
POLYLINE
  5
AC
330
1F
100
AcDbEntity
  8
Livello 1
 62
   178
420
    65793
370
     9
100
AcDb2dPolyline
 66
     1
 10
0.0
 20
0.0
 30
0.0
  0
VERTEX
  5
AD
330
AC
100
AcDbEntity
  8
Livello 1
 62
   178
420
    65793
370
     9
100
AcDbVertex
100
AcDb2dVertex
 10
7.685319008495338
 20
-81.89095321303421
 30
0.0
  0
VERTEX
  5
AE
330
AC
100
AcDbEntity
  8
Livello 1
 62
   178
420
    65793
370
     9
100
AcDbVertex
100
AcDb2dVertex
 10
7.685319008495338
 20
-18.28794487390024
 30
0.0
  0
SEQEND
  5
AF
330
AC
100
AcDbEntity
  8
Livello 1
370
     9
  0
POLYLINE
  5
B0
330
1F
100
AcDbEntity
  8
Livello 1
 62
   178
420
    65793
370
     9
100
AcDb2dPolyline
 66
     1
 10
0.0
 20
0.0
 30
0.0
  0
VERTEX
  5
B1
330
B0
100
AcDbEntity
  8
Livello 1
 62
   178
420
    65793
370
     9
100
AcDbVertex
100
AcDb2dVertex
 10
8.90488281027378
 20
-83.86154783059712
 30
0.0
  0
VERTEX
  5
B2
330
B0
100
AcDbEntity
  8
Livello 1
 62
   178
420
    65793
370
     9
100
AcDbVertex
100
AcDb2dVertex
 10
8.90488281027378
 20
-18.28794487390024
 30
0.0
  0
SEQEND
  5
B3
330
B0
100
AcDbEntity
  8
Livello 1
370
     9
  0
POLYLINE
  5
B4
330
1F
100
AcDbEntity
  8
Livello 1
 62
   178
420
    65793
370
     9
100
AcDb2dPolyline
 66
     1
 10
0.0
 20
0.0
 30
0.0
  0
VERTEX
  5
B5
330
B4
100
AcDbEntity
  8
Livello 1
 62
   178
420
    65793
370
     9
100
AcDbVertex
100
AcDb2dVertex
 10
9.842810056133048
 20
-18.28794487390024
 30
0.0
  0
VERTEX
  5
B6
330
B4
100
AcDbEntity
  8
Livello 1
 62
   178
420
    65793
370
     9
100
AcDbVertex
100
AcDb2dVertex
 10
8.90488281027378
 20
-18.28794487390024
 30
0.0
  0
SEQEND
  5
B7
330
B4
100
AcDbEntity
  8
Livello 1
370
     9
  0
POLYLINE
  5
B8
330
1F
100
AcDbEntity
  8
Livello 1
 62
   178
420
    65793
370
     9
100
AcDb2dPolyline
 66
     1
 10
0.0
 20
0.0
 30
0.0
  0
VERTEX
  5
B9
330
B8
100
AcDbEntity
  8
Livello 1
 62
   178
420
    65793
370
     9
100
AcDbVertex
100
AcDb2dVertex
 10
8.435833059957014
 20
-18.28794487390024
 30
0.0
  0
VERTEX
  5
BA
330
B8
100
AcDbEntity
  8
Livello 1
 62
   178
420
    65793
370
     9
100
AcDbVertex
100
AcDb2dVertex
 10
8.435833059957014
 20
-81.89095321303421
 30
0.0
  0
SEQEND
  5
BB
330
B8
100
AcDbEntity
  8
Livello 1
370
     9
  0
POLYLINE
  5
BC
330
1F
100
AcDbEntity
  8
Livello 1
 62
   178
420
    65793
370
     9
100
AcDb2dPolyline
 66
     1
 10
0.0
 20
0.0
 30
0.0
  0
VERTEX
  5
BD
330
BC
100
AcDbEntity
  8
Livello 1
 62
   178
420
    65793
370
     9
100
AcDbVertex
100
AcDb2dVertex
 10
7.685319008495338
 20
-18.28794487390024
 30
0.0
  0
VERTEX
  5
BE
330
BC
100
AcDbEntity
  8
Livello 1
 62
   178
420
    65793
370
     9
100
AcDbVertex
100
AcDb2dVertex
 10
8.435833059957014
 20
-18.28794487390024
 30
0.0
  0
SEQEND
  5
BF
330
BC
100
AcDbEntity
  8
Livello 1
370
     9
  0
POLYLINE
  5
C0
330
1F
100
AcDbEntity
  8
Livello 1
 62
   178
420
    65793
370
     9
100
AcDb2dPolyline
 66
     1
 10
0.0
 20
0.0
 30
0.0
  0
VERTEX
  5
C1
330
C0
100
AcDbEntity
  8
Livello 1
 62
   178
420
    65793
370
     9
100
AcDbVertex
100
AcDb2dVertex
 10
9.842810056133048
 20
-18.28794487390024
 30
0.0
  0
VERTEX
  5
C2
330
C0
100
AcDbEntity
  8
Livello 1
 62
   178
420
    65793
370
     9
100
AcDbVertex
100
AcDb2dVertex
 10
9.842810056133048
 20
-83.86154783059712
 30
0.0
  0
SEQEND
  5
C3
330
C0
100
AcDbEntity
  8
Livello 1
370
     9
  0
POLYLINE
  5
C4
330
1F
100
AcDbEntity
  8
Livello 1
 62
   178
420
    65793
370
     9
100
AcDb2dPolyline
 66
     1
 10
0.0
 20
0.0
 30
0.0
  0
VERTEX
  5
C5
330
C4
100
AcDbEntity
  8
Livello 1
 62
   178
420
    65793
370
     9
100
AcDbVertex
100
AcDb2dVertex
 10
-30.77710502702795
 20
-83.86154783059712
 30
0.0
  0
VERTEX
  5
C6
330
C4
100
AcDbEntity
  8
Livello 1
 62
   178
420
    65793
370
     9
100
AcDbVertex
100
AcDb2dVertex
 10
-31.71503227288721
 20
-83.86154783059712
 30
0.0
  0
SEQEND
  5
C7
330
C4
100
AcDbEntity
  8
Livello 1
370
     9
  0
POLYLINE
  5
C8
330
1F
100
AcDbEntity
  8
Livello 1
 62
   178
420
    65793
370
     9
100
AcDb2dPolyline
 66
     1
 10
0.0
 20
0.0
 30
0.0
  0
VERTEX
  5
C9
330
C8
100
AcDbEntity
  8
Livello 1
 62
   178
420
    65793
370
     9
100
AcDbVertex
100
AcDb2dVertex
 10
-30.2138319151896
 20
-86.76920842014798
 30
0.0
  0
VERTEX
  5
CA
330
C8
100
AcDbEntity
  8
Livello 1
 62
   178
420
    65793
370
     9
100
AcDbVertex
100
AcDb2dVertex
 10
-31.0583970733986
 20
-86.58145071620186
 30
0.0
  0
SEQEND
  5
CB
330
C8
100
AcDbEntity
  8
Livello 1
370
     9
  0
POLYLINE
  5
CC
330
1F
100
AcDbEntity
  8
Livello 1
 62
   178
420
    65793
370
     9
100
AcDb2dPolyline
 66
     1
 10
0.0
 20
0.0
 30
0.0
  0
VERTEX
  5
CD
330
CC
100
AcDbEntity
  8
Livello 1
 62
   178
420
    65793
370
     9
100
AcDbVertex
100
AcDb2dVertex
 10
-31.71503227288721
 20
-83.86154783059712
 30
0.0
  0
VERTEX
  5
CE
330
CC
100
AcDbEntity
  8
Livello 1
 62
   178
420
    65793
370
     9
100
AcDbVertex
100
AcDb2dVertex
 10
-31.71503227288721
 20
-18.28794487390024
 30
0.0
  0
VERTEX
  5
CF
330
CC
100
AcDbEntity
  8
Livello 1
 62
   178
420
    65793
370
     9
100
AcDbVertex
100
AcDb2dVertex
 10
-30.77710502702795
 20
-18.28794487390024
 30
0.0
  0
SEQEND
  5
D0
330
CC
100
AcDbEntity
  8
Livello 1
370
     9
  0
POLYLINE
  5
D1
330
1F
100
AcDbEntity
  8
Livello 1
 62
   178
420
    65793
370
     9
100
AcDb2dPolyline
 66
     1
 10
0.0
 20
0.0
 30
0.0
  0
VERTEX
  5
D2
330
D1
100
AcDbEntity
  8
Livello 1
 62
   178
420
    65793
370
     9
100
AcDbVertex
100
AcDb2dVertex
 10
-29.65142007722256
 20
-81.89095321303421
 30
0.0
  0
VERTEX
  5
D3
330
D1
100
AcDbEntity
  8
Livello 1
 62
   178
420
    65793
370
     9
100
AcDbVertex
100
AcDb2dVertex
 10
-30.40176187390998
 20
-81.89095321303421
 30
0.0
  0
VERTEX
  5
D4
330
D1
100
AcDbEntity
  8
Livello 1
 62
   178
420
    65793
370
     9
100
AcDbVertex
100
AcDb2dVertex
 10
-30.40176187390998
 20
-18.28794487390024
 30
0.0
  0
SEQEND
  5
D5
330
D1
100
AcDbEntity
  8
Livello 1
370
     9
  0
POLYLINE
  5
D6
330
1F
100
AcDbEntity
  8
Livello 1
 62
   178
420
    65793
370
     9
100
AcDb2dPolyline
 66
     1
 10
0.0
 20
0.0
 30
0.0
  0
VERTEX
  5
D7
330
D6
100
AcDbEntity
  8
Livello 1
 62
   178
420
    65793
370
     9
100
AcDbVertex
100
AcDb2dVertex
 10
-31.99666882880639
 20
-86.39334850270723
 30
0.0
  0
VERTEX
  5
D8
330
D6
100
AcDbEntity
  8
Livello 1
 62
   178
420
    65793
370
     9
100
AcDbVertex
100
AcDb2dVertex
 10
-31.0583970733986
 20
-86.58145071620186
 30
0.0
  0
SEQEND
  5
D9
330
D6
100
AcDbEntity
  8
Livello 1
370
     9
  0
POLYLINE
  5
DA
330
1F
100
AcDbEntity
  8
Livello 1
 62
   178
420
    65793
370
     9
100
AcDb2dPolyline
 66
     1
 10
0.0
 20
0.0
 30
0.0
  0
VERTEX
  5
DB
330
DA
100
AcDbEntity
  8
Livello 1
 62
   178
420
    65793
370
     9
100
AcDbVertex
100
AcDb2dVertex
 10
-30.77710502702795
 20
-18.28794487390024
 30
0.0
  0
VERTEX
  5
DC
330
DA
100
AcDbEntity
  8
Livello 1
 62
   178
420
    65793
370
     9
100
AcDbVertex
100
AcDb2dVertex
 10
-30.77710502702795
 20
-83.86154783059712
 30
0.0
  0
SEQEND
  5
DD
330
DA
100
AcDbEntity
  8
Livello 1
370
     9
  0
POLYLINE
  5
DE
330
1F
100
AcDbEntity
  8
Livello 1
 62
   178
420
    65793
370
     9
100
AcDb2dPolyline
 66
     1
 10
0.0
 20
0.0
 30
0.0
  0
VERTEX
  5
DF
330
DE
100
AcDbEntity
  8
Livello 1
 62
   178
420
    65793
370
     9
100
AcDbVertex
100
AcDb2dVertex
 10
-30.40176187390998
 20
-18.28794487390024
 30
0.0
  0
VERTEX
  5
E0
330
DE
100
AcDbEntity
  8
Livello 1
 62
   178
420
    65793
370
     9
100
AcDbVertex
100
AcDb2dVertex
 10
-30.77710502702795
 20
-18.28794487390024
 30
0.0
  0
SEQEND
  5
E1
330
DE
100
AcDbEntity
  8
Livello 1
370
     9
  0
POLYLINE
  5
E2
330
1F
100
AcDbEntity
  8
Livello 1
 62
   178
420
    65793
370
     9
100
AcDb2dPolyline
 66
     1
 10
0.0
 20
0.0
 30
0.0
  0
VERTEX
  5
E3
330
E2
100
AcDbEntity
  8
Livello 1
 62
   178
420
    65793
370
     9
100
AcDbVertex
100
AcDb2dVertex
 10
8.341954207983957
 20
-86.76920842014798
 30
0.0
  0
VERTEX
  5
E4
330
E2
100
AcDbEntity
  8
Livello 1
 62
   178
420
    65793
370
     9
100
AcDbVertex
100
AcDb2dVertex
 10
9.092468259445633
 20
-86.58145071620186
 30
0.0
  0
SEQEND
  5
E5
330
E2
100
AcDbEntity
  8
Livello 1
370
     9
  0
POLYLINE
  5
E6
330
1F
100
AcDbEntity
  8
Livello 1
 62
   178
420
    65793
370
     9
100
AcDb2dPolyline
 66
     1
 10
0.0
 20
0.0
 30
0.0
  0
VERTEX
  5
E7
330
E6
100
AcDbEntity
  8
Livello 1
 62
   178
420
    65793
370
     9
100
AcDbVertex
100
AcDb2dVertex
 10
9.842810056133048
 20
-83.86154783059712
 30
0.0
  0
VERTEX
  5
E8
330
E6
100
AcDbEntity
  8
Livello 1
 62
   178
420
    65793
370
     9
100
AcDbVertex
100
AcDb2dVertex
 10
8.90488281027378
 20
-83.86154783059712
 30
0.0
  0
SEQEND
  5
E9
330
E6
100
AcDbEntity
  8
Livello 1
370
     9
  0
POLYLINE
  5
EA
330
1F
100
AcDbEntity
  8
Livello 1
 62
   178
420
    65793
370
     9
100
AcDb2dPolyline
 66
     1
 10
0.0
 20
0.0
 30
0.0
  0
VERTEX
  5
EB
330
EA
100
AcDbEntity
  8
Livello 1
 62
   178
420
    65793
370
     9
100
AcDbVertex
100
AcDb2dVertex
 10
9.092468259445633
 20
-86.58145071620186
 30
0.0
  0
VERTEX
  5
EC
330
EA
100
AcDbEntity
  8
Livello 1
 62
   178
420
    65793
370
     9
100
AcDbVertex
100
AcDb2dVertex
 10
10.03074001485343
 20
-86.39334850270723
 30
0.0
  0
SEQEND
  5
ED
330
EA
100
AcDbEntity
  8
Livello 1
370
     9
  0
POLYLINE
  5
EE
330
1F
100
AcDbEntity
  8
Livello 1
 62
   178
420
    65793
370
     9
100
AcDb2dPolyline
 66
     1
 10
0.0
 20
0.0
 30
0.0
  0
VERTEX
  5
EF
330
EE
100
AcDbEntity
  8
Livello 1
 62
   178
420
    65793
370
     9
100
AcDbVertex
100
AcDb2dVertex
 10
7.685319008495338
 20
-81.89095321303421
 30
0.0
  0
VERTEX
  5
F0
330
EE
100
AcDbEntity
  8
Livello 1
 62
   178
420
    65793
370
     9
100
AcDbVertex
100
AcDb2dVertex
 10
8.435833059957014
 20
-81.89095321303421
 30
0.0
  0
SEQEND
  5
F1
330
EE
100
AcDbEntity
  8
Livello 1
370
     9
  0
POLYLINE
  5
F2
330
1F
100
AcDbEntity
  8
Livello 1
 62
   178
420
    65793
370
     9
100
AcDb2dPolyline
 66
     1
 10
0.0
 20
0.0
 30
0.0
  0
VERTEX
  5
F3
330
F2
100
AcDbEntity
  8
Livello 1
 62
   178
420
    65793
370
     9
100
AcDbVertex
100
AcDb2dVertex
 10
35.2655476799857
 20
-130.2966118380856
 30
0.0
  0
VERTEX
  5
F4
330
F2
100
AcDbEntity
  8
Livello 1
 62
   178
420
    65793
370
     9
100
AcDbVertex
100
AcDb2dVertex
 10
35.2655476799857
 20
-80.48363170730966
 30
0.0
  0
SEQEND
  5
F5
330
F2
100
AcDbEntity
  8
Livello 1
370
     9
  0
POLYLINE
  5
F6
330
1F
100
AcDbEntity
  8
Livello 1
 62
   178
420
    65793
370
     9
100
AcDb2dPolyline
 66
     1
 10
0.0
 20
0.0
 30
0.0
  0
VERTEX
  5
F7
330
F6
100
AcDbEntity
  8
Livello 1
 62
   178
420
    65793
370
     9
100
AcDbVertex
100
AcDb2dVertex
 10
-57.13742538719134
 20
-80.48363170730966
 30
0.0
  0
VERTEX
  5
F8
330
F6
100
AcDbEntity
  8
Livello 1
 62
   178
420
    65793
370
     9
100
AcDbVertex
100
AcDb2dVertex
 10
-57.13742538719134
 20
-130.2966118380856
 30
0.0
  0
SEQEND
  5
F9
330
F6
100
AcDbEntity
  8
Livello 1
370
     9
  0
POLYLINE
  5
FA
330
1F
100
AcDbEntity
  8
Livello 1
 62
   178
420
    65793
370
     9
100
AcDb2dPolyline
 66
     1
 10
0.0
 20
0.0
 30
0.0
  0
VERTEX
  5
FB
330
FA
100
AcDbEntity
  8
Livello 1
 62
   178
420
    65793
370
     9
100
AcDbVertex
100
AcDb2dVertex
 10
-37.62492132305905
 20
-94.83727753705458
 30
0.0
  0
VERTEX
  5
FC
330
FA
100
AcDbEntity
  8
Livello 1
 62
   178
420
    65793
370
     9
100
AcDbVertex
100
AcDb2dVertex
 10
-37.62492132305905
 20
-45.02326387763308
 30
0.0
  0
SEQEND
  5
FD
330
FA
100
AcDbEntity
  8
Livello 1
370
     9
  0
POLYLINE
  5
FE
330
1F
100
AcDbEntity
  8
Livello 1
 62
   178
420
    65793
370
     9
100
AcDb2dPolyline
 66
     1
 10
0.0
 20
0.0
 30
0.0
  0
VERTEX
  5
FF
330
FE
100
AcDbEntity
  8
Livello 1
 62
   178
420
    65793
370
     9
100
AcDbVertex
100
AcDb2dVertex
 10
15.65899250910609
 20
-45.02326387763308
 30
0.0
  0
VERTEX
  5
100
330
FE
100
AcDbEntity
  8
Livello 1
 62
   178
420
    65793
370
     9
100
AcDbVertex
100
AcDb2dVertex
 10
15.65899250910609
 20
-94.83727753705458
 30
0.0
  0
SEQEND
  5
101
330
FE
100
AcDbEntity
  8
Livello 1
370
     9
  0
POLYLINE
  5
102
330
1F
100
AcDbEntity
  8
Livello 1
 62
   178
420
    65793
370
     9
100
AcDb2dPolyline
 66
     1
 10
0.0
 20
0.0
 30
0.0
  0
VERTEX
  5
103
330
102
100
AcDbEntity
  8
Livello 1
 62
   178
420
    65793
370
     9
100
AcDbVertex
100
AcDb2dVertex
 10
-29.65142007722256
 20
-18.28794487390024
 30
0.0
  0
VERTEX
  5
104
330
102
100
AcDbEntity
  8
Livello 1
 62
   178
420
    65793
370
     9
100
AcDbVertex
100
AcDb2dVertex
 10
7.685319008495338
 20
-18.28794487390024
 30
0.0
  0
SEQEND
  5
105
330
102
100
AcDbEntity
  8
Livello 1
370
     9
  0
SPLINE
  5
106
330
1F
100
AcDbEntity
  8
Livello 1
 62
   178
420
    65793
370
     9
100
AcDbSpline
210
0.0
220
0.0
230
1.0
 70
     8
 71
     3
 72
     8
 73
     4
 74
     0
 42
0.0000000001
 43
0.0000000001
 40
0.0
 40
0.0
 40
0.0
 40
0.0
 40
1.0
 40
1.0
 40
1.0
 40
1.0
 10
10.12444661205222
 20
201.0414753729167
 30
0.0
 10
9.59958631487441
 20
201.5391194157611
 30
0.0
 10
8.341954207983957
 20
202.2109130353848
 30
0.0
 10
7.67239990042565
 20
201.2288885673143
 30
0.0
  0
SPLINE
  5
107
330
1F
100
AcDbEntity
  8
Livello 1
 62
   178
420
    65793
370
     9
100
AcDbSpline
210
0.0
220
0.0
230
1.0
 70
     8
 71
     3
 72
     8
 73
     4
 74
     0
 42
0.0000000001
 43
0.0000000001
 40
0.0
 40
0.0
 40
0.0
 40
0.0
 40
1.0
 40
1.0
 40
1.0
 40
1.0
 10
-29.71928845828198
 20
201.2721245156542
 30
0.0
 10
-30.35439181098779
 20
201.9289319699171
 30
0.0
 10
-31.72330050205181
 20
201.3804727686653
 30
0.0
 10
-31.99666882880639
 20
201.0414753729167
 30
0.0
  0
SPLINE
  5
108
330
1F
100
AcDbEntity
  8
Livello 1
 62
   178
420
    65793
370
     9
100
AcDbSpline
210
0.0
220
0.0
230
1.0
 70
     8
 71
     3
 72
     8
 73
     4
 74
     0
 42
0.0000000001
 43
0.0000000001
 40
0.0
 40
0.0
 40
0.0
 40
0.0
 40
1.0
 40
1.0
 40
1.0
 40
1.0
 10
122.4436889342328
 20
63.68155651619767
 30
0.0
 10
120.6748046573313
 20
63.88343911163331
 30
0.0
 10
118.8957573487483
 20
63.98369139025408
 30
0.0
 10
117.1149874924226
 20
63.98369139025408
 30
0.0
  0
SPLINE
  5
109
330
1F
100
AcDbEntity
  8
Livello 1
 62
   178
420
    65793
370
     9
100
AcDbSpline
210
0.0
220
0.0
230
1.0
 70
     8
 71
     3
 72
     8
 73
     4
 74
     0
 42
0.0000000001
 43
0.0000000001
 40
0.0
 40
0.0
 40
0.0
 40
0.0
 40
1.0
 40
1.0
 40
1.0
 40
1.0
 10
122.3377522480614
 20
62.74965818743759
 30
0.0
 10
120.6038356903352
 20
62.9470621587424
 30
0.0
 10
118.860100610476
 20
63.04593639916907
 30
0.0
 10
117.1149874924226
 20
63.04593639916907
 30
0.0
  0
SPLINE
  5
10A
330
1F
100
AcDbEntity
  8
Livello 1
 62
   178
420
    65793
370
     9
100
AcDbSpline
210
0.0
220
0.0
230
1.0
 70
     8
 71
     3
 72
     8
 73
     4
 74
     0
 42
0.0000000001
 43
0.0000000001
 40
0.0
 40
0.0
 40
0.0
 40
0.0
 40
1.0
 40
1.0
 40
1.0
 40
1.0
 10
175.1610568138486
 20
201.4939886649043
 30
0.0
 10
175.1066243051817
 20
201.5048407156828
 30
0.0
 10
175.0518472869662
 20
201.510180613685
 30
0.0
 10
174.9960367401052
 20
201.510180613685
 30
0.0
  0
SPLINE
  5
10B
330
1F
100
AcDbEntity
  8
Livello 1
 62
   178
420
    65793
370
     9
100
AcDbSpline
210
0.0
220
0.0
230
1.0
 70
     8
 71
     3
 72
     8
 73
     4
 74
     0
 42
0.0000000001
 43
0.0000000001
 40
0.0
 40
0.0
 40
0.0
 40
0.0
 40
1.0
 40
1.0
 40
1.0
 40
1.0
 10
176.4105929463487
 20
201.2721245156542
 30
0.0
 10
176.3713188578169
 20
201.286421661918
 30
0.0
 10
176.3296332024454
 20
201.2979627317936
 30
0.0
 10
176.2876030375253
 20
201.3065754705067
 30
0.0
  0
SPLINE
  5
10C
330
1F
100
AcDbEntity
  8
Livello 1
 62
   178
420
    65793
370
     9
100
AcDbSpline
210
0.0
220
0.0
230
1.0
 70
     8
 71
     3
 72
    11
 73
     7
 74
     0
 42
0.0000000001
 43
0.0000000001
 40
0.0
 40
0.0
 40
0.0
 40
0.0
 40
1.0
 40
1.0
 40
1.0
 40
2.0
 40
2.0
 40
2.0
 40
2.0
 10
211.1995116659501
 20
31.85817599029935
 30
0.0
 10
211.6377278116739
 20
31.69832355978376
 30
0.0
 10
212.1227972559971
 20
31.92466633316467
 30
0.0
 10
212.2819606674156
 20
32.36288247888844
 30
0.0
 10
212.2819606674156
 20
32.36288247888844
 30
0.0
 10
212.2819606674156
 20
32.36288247888844
 30
0.0
 10
212.2819606674156
 20
32.36288247888844
 30
0.0
  0
SPLINE
  5
10D
330
1F
100
AcDbEntity
  8
Livello 1
 62
   178
420
    65793
370
     9
100
AcDbSpline
210
0.0
220
0.0
230
1.0
 70
     8
 71
     3
 72
     8
 73
     4
 74
     0
 42
0.0000000001
 43
0.0000000001
 40
0.0
 40
0.0
 40
0.0
 40
0.0
 40
1.0
 40
1.0
 40
1.0
 40
1.0
 10
262.0952853077401
 20
169.1383408865349
 30
0.0
 10
262.2551377382557
 20
169.5767292870329
 30
0.0
 10
262.0287949648747
 20
170.0609374574848
 30
0.0
 10
261.5902343096025
 20
170.2206176332261
 30
0.0
  0
SPLINE
  5
10E
330
1F
100
AcDbEntity
  8
Livello 1
 62
   178
420
    65793
370
     9
100
AcDbSpline
210
0.0
220
0.0
230
1.0
 70
    11
 71
     3
 72
    17
 73
    13
 74
     0
 42
0.0000000001
 43
0.0000000001
 40
0.0
 40
0.0
 40
0.0
 40
0.0
 40
1.0
 40
1.0
 40
1.0
 40
2.0
 40
2.0
 40
2.0
 40
3.0
 40
3.0
 40
3.0
 40
4.0
 40
4.0
 40
4.0
 40
4.0
 10
-10.98279215220222
 20
-22.13404947363316
 30
0.0
 10
-11.96722818711236
 20
-22.13404947363316
 30
0.0
 10
-12.76545681104475
 20
-22.93193358801702
 30
0.0
 10
-12.76545681104475
 20
-23.91585285860437
 30
0.0
 10
-12.76545681104475
 20
-24.9008056578373
 30
0.0
 10
-11.96722818711236
 20
-25.69834526267264
 30
0.0
 10
-10.98279215220222
 20
-25.69834526267264
 30
0.0
 10
-9.998183862517816
 20
-25.69834526267264
 30
0.0
 10
-9.200644257682479
 20
-24.9008056578373
 30
0.0
 10
-9.200644257682479
 20
-23.91585285860437
 30
0.0
 10
-9.200644257682479
 20
-22.93193358801702
 30
0.0
 10
-9.998183862517816
 20
-22.13404947363316
 30
0.0
 10
-10.98279215220222
 20
-22.13404947363316
 30
0.0
  0
POLYLINE
  5
10F
330
1F
100
AcDbEntity
  8
Livello 1
 62
   178
420
    65793
370
     9
100
AcDb2dPolyline
 66
     1
 10
0.0
 20
0.0
 30
0.0
  0
VERTEX
  5
110
330
10F
100
AcDbEntity
  8
Livello 1
 62
   178
420
    65793
370
     9
100
AcDbVertex
100
AcDb2dVertex
 10
-36.87457952637163
 20
197.1950262636353
 30
0.0
  0
VERTEX
  5
111
330
10F
100
AcDbEntity
  8
Livello 1
 62
   178
420
    65793
370
     9
100
AcDbVertex
100
AcDb2dVertex
 10
-41.18990613119558
 20
195.9756347166311
 30
0.0
  0
VERTEX
  5
112
330
10F
100
AcDbEntity
  8
Livello 1
 62
   178
420
    65793
370
     9
100
AcDbVertex
100
AcDb2dVertex
 10
-45.03583847615424
 20
194.4742621041592
 30
0.0
  0
VERTEX
  5
113
330
10F
100
AcDbEntity
  8
Livello 1
 62
   178
420
    65793
370
     9
100
AcDbVertex
100
AcDb2dVertex
 10
-48.22582464072132
 20
192.8796996588113
 30
0.0
  0
VERTEX
  5
114
330
10F
100
AcDbEntity
  8
Livello 1
 62
   178
420
    65793
370
     9
100
AcDbVertex
100
AcDb2dVertex
 10
-50.85219318390154
 20
191.1912583614904
 30
0.0
  0
VERTEX
  5
115
330
10F
100
AcDbEntity
  8
Livello 1
 62
   178
420
    65793
370
     9
100
AcDbVertex
100
AcDb2dVertex
 10
-52.82227103714165
 20
189.3148871054491
 30
0.0
  0
VERTEX
  5
116
330
10F
100
AcDbEntity
  8
Livello 1
 62
   178
420
    65793
370
     9
100
AcDbVertex
100
AcDb2dVertex
 10
-54.04200709369436
 20
187.4385158494077
 30
0.0
  0
VERTEX
  5
117
330
10F
100
AcDbEntity
  8
Livello 1
 62
   178
420
    65793
370
     9
100
AcDbVertex
100
AcDb2dVertex
 10
-54.51105684401113
 20
185.562489102915
 30
0.0
  0
VERTEX
  5
118
330
10F
100
AcDbEntity
  8
Livello 1
 62
   178
420
    65793
370
     9
100
AcDbVertex
100
AcDb2dVertex
 10
-54.22976479764048
 20
183.5925835044491
 30
0.0
  0
SEQEND
  5
119
330
10F
100
AcDbEntity
  8
Livello 1
370
     9
  0
POLYLINE
  5
11A
330
1F
100
AcDbEntity
  8
Livello 1
 62
   178
420
    65793
370
     9
100
AcDb2dPolyline
 66
     1
 10
0.0
 20
0.0
 30
0.0
  0
VERTEX
  5
11B
330
11A
100
AcDbEntity
  8
Livello 1
 62
   178
420
    65793
370
     9
100
AcDbVertex
100
AcDb2dVertex
 10
-54.22976479764048
 20
183.5925835044491
 30
0.0
  0
VERTEX
  5
11C
330
11A
100
AcDbEntity
  8
Livello 1
 62
   178
420
    65793
370
     9
100
AcDbVertex
100
AcDb2dVertex
 10
-54.22976479764048
 20
183.4049980552772
 30
0.0
  0
SEQEND
  5
11D
330
11A
100
AcDbEntity
  8
Livello 1
370
     9
  0
POLYLINE
  5
11E
330
1F
100
AcDbEntity
  8
Livello 1
 62
   178
420
    65793
370
     9
100
AcDb2dPolyline
 66
     1
 10
0.0
 20
0.0
 30
0.0
  0
VERTEX
  5
11F
330
11E
100
AcDbEntity
  8
Livello 1
 62
   178
420
    65793
370
     9
100
AcDbVertex
100
AcDb2dVertex
 10
32.26366372891325
 20
183.4049980552772
 30
0.0
  0
VERTEX
  5
120
330
11E
100
AcDbEntity
  8
Livello 1
 62
   178
420
    65793
370
     9
100
AcDbVertex
100
AcDb2dVertex
 10
32.35754258088631
 20
183.5925835044491
 30
0.0
  0
SEQEND
  5
121
330
11E
100
AcDbEntity
  8
Livello 1
370
     9
  0
POLYLINE
  5
122
330
1F
100
AcDbEntity
  8
Livello 1
 62
   178
420
    65793
370
     9
100
AcDb2dPolyline
 66
     1
 10
0.0
 20
0.0
 30
0.0
  0
VERTEX
  5
123
330
122
100
AcDbEntity
  8
Livello 1
 62
   178
420
    65793
370
     9
100
AcDbVertex
100
AcDb2dVertex
 10
32.35754258088631
 20
183.5925835044491
 30
0.0
  0
VERTEX
  5
124
330
122
100
AcDbEntity
  8
Livello 1
 62
   178
420
    65793
370
     9
100
AcDbVertex
100
AcDb2dVertex
 10
32.5449557752839
 20
185.4689547604904
 30
0.0
  0
VERTEX
  5
125
330
122
100
AcDbEntity
  8
Livello 1
 62
   178
420
    65793
370
     9
100
AcDbVertex
100
AcDb2dVertex
 10
32.07590602496714
 20
187.4385158494077
 30
0.0
  0
VERTEX
  5
126
330
122
100
AcDbEntity
  8
Livello 1
 62
   178
420
    65793
370
     9
100
AcDbVertex
100
AcDb2dVertex
 10
30.85685898751148
 20
189.3148871054491
 30
0.0
  0
VERTEX
  5
127
330
122
100
AcDbEntity
  8
Livello 1
 62
   178
420
    65793
370
     9
100
AcDbVertex
100
AcDb2dVertex
 10
28.97997096714737
 20
191.1912583614904
 30
0.0
  0
VERTEX
  5
128
330
122
100
AcDbEntity
  8
Livello 1
 62
   178
420
    65793
370
     9
100
AcDbVertex
100
AcDb2dVertex
 10
26.35360242396716
 20
192.8796996588113
 30
0.0
  0
VERTEX
  5
129
330
122
100
AcDbEntity
  8
Livello 1
 62
   178
420
    65793
370
     9
100
AcDbVertex
100
AcDb2dVertex
 10
23.07042642652406
 20
194.4742621041592
 30
0.0
  0
VERTEX
  5
12A
330
122
100
AcDbEntity
  8
Livello 1
 62
   178
420
    65793
370
     9
100
AcDbVertex
100
AcDb2dVertex
 10
19.31768391444141
 20
195.9756347166311
 30
0.0
  0
VERTEX
  5
12B
330
122
100
AcDbEntity
  8
Livello 1
 62
   178
420
    65793
370
     9
100
AcDbVertex
100
AcDb2dVertex
 10
14.90865071241867
 20
197.1950262636353
 30
0.0
  0
SEQEND
  5
12C
330
122
100
AcDbEntity
  8
Livello 1
370
     9
  0
POLYLINE
  5
12D
330
1F
100
AcDbEntity
  8
Livello 1
 62
   178
420
    65793
370
     9
100
AcDb2dPolyline
 66
     1
 10
0.0
 20
0.0
 30
0.0
  0
VERTEX
  5
12E
330
12D
100
AcDbEntity
  8
Livello 1
 62
   178
420
    65793
370
     9
100
AcDbVertex
100
AcDb2dVertex
 10
-57.13742538719134
 20
48.13005098623138
 30
0.0
  0
VERTEX
  5
12F
330
12D
100
AcDbEntity
  8
Livello 1
 62
   178
420
    65793
370
     9
100
AcDbVertex
100
AcDb2dVertex
 10
-57.13742538719134
 20
48.03634438903259
 30
0.0
  0
SEQEND
  5
130
330
12D
100
AcDbEntity
  8
Livello 1
370
     9
  0
POLYLINE
  5
131
330
1F
100
AcDbEntity
  8
Livello 1
 62
   178
420
    65793
370
     9
100
AcDb2dPolyline
 66
     1
 10
0.0
 20
0.0
 30
0.0
  0
VERTEX
  5
132
330
131
100
AcDbEntity
  8
Livello 1
 62
   178
420
    65793
370
     9
100
AcDbVertex
100
AcDb2dVertex
 10
16.22192111139591
 20
173.9301241969689
 30
0.0
  0
VERTEX
  5
133
330
131
100
AcDbEntity
  8
Livello 1
 62
   178
420
    65793
370
     9
100
AcDbVertex
100
AcDb2dVertex
 10
15.37770046273544
 20
175.3369289383706
 30
0.0
  0
VERTEX
  5
134
330
131
100
AcDbEntity
  8
Livello 1
 62
   178
420
    65793
370
     9
100
AcDbVertex
100
AcDb2dVertex
 10
13.87684461458634
 20
176.8383015508425
 30
0.0
  0
VERTEX
  5
135
330
131
100
AcDbEntity
  8
Livello 1
 62
   178
420
    65793
370
     9
100
AcDbVertex
100
AcDb2dVertex
 10
11.71918131217437
 20
178.1513996950455
 30
0.0
  0
VERTEX
  5
136
330
131
100
AcDbEntity
  8
Livello 1
 62
   178
420
    65793
370
     9
100
AcDbVertex
100
AcDb2dVertex
 10
8.998761662246837
 20
179.3709634968239
 30
0.0
  0
VERTEX
  5
137
330
131
100
AcDbEntity
  8
Livello 1
 62
   178
420
    65793
370
     9
100
AcDbVertex
100
AcDb2dVertex
 10
5.71541341002948
 20
180.4029418494305
 30
0.0
  0
VERTEX
  5
138
330
131
100
AcDbEntity
  8
Livello 1
 62
   178
420
    65793
370
     9
100
AcDbVertex
100
AcDb2dVertex
 10
1.96318766226962
 20
181.1536281556665
 30
0.0
  0
VERTEX
  5
139
330
131
100
AcDbEntity
  8
Livello 1
 62
   178
420
    65793
370
     9
100
AcDbVertex
100
AcDb2dVertex
 10
-2.164725748156735
 20
181.8100911003808
 30
0.0
  0
VERTEX
  5
13A
330
131
100
AcDbEntity
  8
Livello 1
 62
   178
420
    65793
370
     9
100
AcDbVertex
100
AcDb2dVertex
 10
-6.480052352980682
 20
182.1854342534988
 30
0.0
  0
VERTEX
  5
13B
330
131
100
AcDbEntity
  8
Livello 1
 62
   178
420
    65793
370
     9
100
AcDbVertex
100
AcDb2dVertex
 10
-10.88925780977769
 20
182.2793131054719
 30
0.0
  0
VERTEX
  5
13C
330
131
100
AcDbEntity
  8
Livello 1
 62
   178
420
    65793
370
     9
100
AcDbVertex
100
AcDb2dVertex
 10
-15.39182535422496
 20
182.1854342534988
 30
0.0
  0
VERTEX
  5
13D
330
131
100
AcDbEntity
  8
Livello 1
 62
   178
420
    65793
370
     9
100
AcDbVertex
100
AcDb2dVertex
 10
-19.70749646859743
 20
181.8100911003808
 30
0.0
  0
VERTEX
  5
13E
330
131
100
AcDbEntity
  8
Livello 1
 62
   178
420
    65793
370
     9
100
AcDbVertex
100
AcDb2dVertex
 10
-23.7411865175022
 20
181.1536281556665
 30
0.0
  0
VERTEX
  5
13F
330
131
100
AcDbEntity
  8
Livello 1
 62
   178
420
    65793
370
     9
100
AcDbVertex
100
AcDb2dVertex
 10
-27.49341226526207
 20
180.3092352522317
 30
0.0
  0
VERTEX
  5
140
330
131
100
AcDbEntity
  8
Livello 1
 62
   178
420
    65793
370
     9
100
AcDbVertex
100
AcDb2dVertex
 10
-30.87063936945248
 20
179.2770846448509
 30
0.0
  0
VERTEX
  5
141
330
131
100
AcDbEntity
  8
Livello 1
 62
   178
420
    65793
370
     9
100
AcDbVertex
100
AcDb2dVertex
 10
-33.59140352892854
 20
178.1513996950455
 30
0.0
  0
VERTEX
  5
142
330
131
100
AcDbEntity
  8
Livello 1
 62
   178
420
    65793
370
     9
100
AcDbVertex
100
AcDb2dVertex
 10
-35.74889457656625
 20
176.7444226988695
 30
0.0
  0
VERTEX
  5
143
330
131
100
AcDbEntity
  8
Livello 1
 62
   178
420
    65793
370
     9
100
AcDbVertex
100
AcDb2dVertex
 10
-37.24992267948961
 20
175.3369289383706
 30
0.0
  0
VERTEX
  5
144
330
131
100
AcDbEntity
  8
Livello 1
 62
   178
420
    65793
370
     9
100
AcDbVertex
100
AcDb2dVertex
 10
-38.00026447617702
 20
173.8360730902215
 30
0.0
  0
SEQEND
  5
145
330
131
100
AcDbEntity
  8
Livello 1
370
     9
  0
POLYLINE
  5
146
330
1F
100
AcDbEntity
  8
Livello 1
 62
   178
420
    65793
370
     9
100
AcDb2dPolyline
 66
     1
 10
0.0
 20
0.0
 30
0.0
  0
VERTEX
  5
147
330
146
100
AcDbEntity
  8
Livello 1
 62
   178
420
    65793
370
     9
100
AcDbVertex
100
AcDb2dVertex
 10
35.2655476799857
 20
184.8119750514533
 30
0.0
  0
VERTEX
  5
148
330
146
100
AcDbEntity
  8
Livello 1
 62
   178
420
    65793
370
     9
100
AcDbVertex
100
AcDb2dVertex
 10
35.2655476799857
 20
184.9058539034263
 30
0.0
  0
SEQEND
  5
149
330
146
100
AcDbEntity
  8
Livello 1
370
     9
  0
POLYLINE
  5
14A
330
1F
100
AcDbEntity
  8
Livello 1
 62
   178
420
    65793
370
     9
100
AcDb2dPolyline
 66
     1
 10
0.0
 20
0.0
 30
0.0
  0
VERTEX
  5
14B
330
14A
100
AcDbEntity
  8
Livello 1
 62
   178
420
    65793
370
     9
100
AcDbVertex
100
AcDb2dVertex
 10
-57.13742538719134
 20
184.9058539034263
 30
0.0
  0
VERTEX
  5
14C
330
14A
100
AcDbEntity
  8
Livello 1
 62
   178
420
    65793
370
     9
100
AcDbVertex
100
AcDb2dVertex
 10
-56.76242674362189
 20
182.9357760501862
 30
0.0
  0
VERTEX
  5
14D
330
14A
100
AcDbEntity
  8
Livello 1
 62
   178
420
    65793
370
     9
100
AcDbVertex
100
AcDb2dVertex
 10
-55.73062064578957
 20
181.0597493036934
 30
0.0
  0
VERTEX
  5
14E
330
14A
100
AcDbEntity
  8
Livello 1
 62
   178
420
    65793
370
     9
100
AcDbVertex
100
AcDb2dVertex
 10
-53.94795598694704
 20
179.1835503024263
 30
0.0
  0
VERTEX
  5
14F
330
14A
100
AcDbEntity
  8
Livello 1
 62
   178
420
    65793
370
     9
100
AcDbVertex
100
AcDb2dVertex
 10
-51.41546629573988
 20
177.3070067916107
 30
0.0
  0
VERTEX
  5
150
330
14A
100
AcDbEntity
  8
Livello 1
 62
   178
420
    65793
370
     9
100
AcDbVertex
100
AcDb2dVertex
 10
-48.31953123792012
 20
175.7122720914886
 30
0.0
  0
VERTEX
  5
151
330
14A
100
AcDbEntity
  8
Livello 1
 62
   178
420
    65793
370
     9
100
AcDbVertex
100
AcDb2dVertex
 10
-44.66083983258479
 20
174.117881900915
 30
0.0
  0
VERTEX
  5
152
330
14A
100
AcDbEntity
  8
Livello 1
 62
   178
420
    65793
370
     9
100
AcDbVertex
100
AcDb2dVertex
 10
-40.43939207973391
 20
172.8044392471635
 30
0.0
  0
VERTEX
  5
153
330
14A
100
AcDbEntity
  8
Livello 1
 62
   178
420
    65793
370
     9
100
AcDbVertex
100
AcDb2dVertex
 10
-35.74889457656625
 20
171.5850477001593
 30
0.0
  0
VERTEX
  5
154
330
14A
100
AcDbEntity
  8
Livello 1
 62
   178
420
    65793
370
     9
100
AcDbVertex
100
AcDb2dVertex
 10
-30.68322617505489
 20
170.6466036899772
 30
0.0
  0
VERTEX
  5
155
330
14A
100
AcDbEntity
  8
Livello 1
 62
   178
420
    65793
370
     9
100
AcDbVertex
100
AcDb2dVertex
 10
-25.33626572717288
 20
169.8960896385156
 30
0.0
  0
VERTEX
  5
156
330
14A
100
AcDbEntity
  8
Livello 1
 62
   178
420
    65793
370
     9
100
AcDbVertex
100
AcDb2dVertex
 10
-19.70749646859743
 20
169.4273843977473
 30
0.0
  0
VERTEX
  5
157
330
14A
100
AcDbEntity
  8
Livello 1
 62
   178
420
    65793
370
     9
100
AcDbVertex
100
AcDb2dVertex
 10
-13.98502061282319
 20
169.1457478418282
 30
0.0
  0
VERTEX
  5
158
330
14A
100
AcDbEntity
  8
Livello 1
 62
   178
420
    65793
370
     9
100
AcDbVertex
100
AcDb2dVertex
 10
-8.168321395527364
 20
169.1457478418282
 30
0.0
  0
VERTEX
  5
159
330
14A
100
AcDbEntity
  8
Livello 1
 62
   178
420
    65793
370
     9
100
AcDbVertex
100
AcDb2dVertex
 10
-2.446017794527385
 20
169.4273843977473
 30
0.0
  0
VERTEX
  5
15A
330
14A
100
AcDbEntity
  8
Livello 1
 62
   178
420
    65793
370
     9
100
AcDbVertex
100
AcDb2dVertex
 10
3.182234699725275
 20
169.8960896385156
 30
0.0
  0
VERTEX
  5
15B
330
14A
100
AcDbEntity
  8
Livello 1
 62
   178
420
    65793
370
     9
100
AcDbVertex
100
AcDb2dVertex
 10
8.529711911930072
 20
170.6466036899772
 30
0.0
  0
VERTEX
  5
15C
330
14A
100
AcDbEntity
  8
Livello 1
 62
   178
420
    65793
370
     9
100
AcDbVertex
100
AcDb2dVertex
 10
13.5955525682157
 20
171.5850477001593
 30
0.0
  0
VERTEX
  5
15D
330
14A
100
AcDbEntity
  8
Livello 1
 62
   178
420
    65793
370
     9
100
AcDbVertex
100
AcDb2dVertex
 10
18.28605007138335
 20
172.7105603951904
 30
0.0
  0
VERTEX
  5
15E
330
14A
100
AcDbEntity
  8
Livello 1
 62
   178
420
    65793
370
     9
100
AcDbVertex
100
AcDb2dVertex
 10
22.60120442143303
 20
174.117881900915
 30
0.0
  0
VERTEX
  5
15F
330
14A
100
AcDbEntity
  8
Livello 1
 62
   178
420
    65793
370
     9
100
AcDbVertex
100
AcDb2dVertex
 10
26.25955131721983
 20
175.6185654942898
 30
0.0
  0
VERTEX
  5
160
330
14A
100
AcDbEntity
  8
Livello 1
 62
   178
420
    65793
370
     9
100
AcDbVertex
100
AcDb2dVertex
 10
29.35565862981386
 20
177.3070067916107
 30
0.0
  0
VERTEX
  5
161
330
14A
100
AcDbEntity
  8
Livello 1
 62
   178
420
    65793
370
     9
100
AcDbVertex
100
AcDb2dVertex
 10
31.88832057579528
 20
179.0898437052275
 30
0.0
  0
VERTEX
  5
162
330
14A
100
AcDbEntity
  8
Livello 1
 62
   178
420
    65793
370
     9
100
AcDbVertex
100
AcDb2dVertex
 10
33.67064072508929
 20
180.9656981969461
 30
0.0
  0
VERTEX
  5
163
330
14A
100
AcDbEntity
  8
Livello 1
 62
   178
420
    65793
370
     9
100
AcDbVertex
100
AcDb2dVertex
 10
34.79667018444319
 20
182.8420694529874
 30
0.0
  0
VERTEX
  5
164
330
14A
100
AcDbEntity
  8
Livello 1
 62
   178
420
    65793
370
     9
100
AcDbVertex
100
AcDb2dVertex
 10
35.2655476799857
 20
184.8119750514533
 30
0.0
  0
SEQEND
  5
165
330
14A
100
AcDbEntity
  8
Livello 1
370
     9
  0
POLYLINE
  5
166
330
1F
100
AcDbEntity
  8
Livello 1
 62
   178
420
    65793
370
     9
100
AcDb2dPolyline
 66
     1
 10
0.0
 20
0.0
 30
0.0
  0
VERTEX
  5
167
330
166
100
AcDbEntity
  8
Livello 1
 62
   178
420
    65793
370
     9
100
AcDbVertex
100
AcDb2dVertex
 10
-57.13742538719134
 20
184.9997327553994
 30
0.0
  0
VERTEX
  5
168
330
166
100
AcDbEntity
  8
Livello 1
 62
   178
420
    65793
370
     9
100
AcDbVertex
100
AcDb2dVertex
 10
-57.13742538719134
 20
184.9058539034263
 30
0.0
  0
SEQEND
  5
169
330
166
100
AcDbEntity
  8
Livello 1
370
     9
  0
POLYLINE
  5
16A
330
1F
100
AcDbEntity
  8
Livello 1
 62
   178
420
    65793
370
     9
100
AcDb2dPolyline
 66
     1
 10
0.0
 20
0.0
 30
0.0
  0
VERTEX
  5
16B
330
16A
100
AcDbEntity
  8
Livello 1
 62
   178
420
    65793
370
     9
100
AcDbVertex
100
AcDb2dVertex
 10
20.72517767494023
 20
175.2437391054946
 30
0.0
  0
VERTEX
  5
16C
330
16A
100
AcDbEntity
  8
Livello 1
 62
   178
420
    65793
370
     9
100
AcDbVertex
100
AcDb2dVertex
 10
19.50561387316179
 20
176.8383015508425
 30
0.0
  0
VERTEX
  5
16D
330
16A
100
AcDbEntity
  8
Livello 1
 62
   178
420
    65793
370
     9
100
AcDbVertex
100
AcDb2dVertex
 10
17.62958712666899
 20
178.2452785470186
 30
0.0
  0
VERTEX
  5
16E
330
16A
100
AcDbEntity
  8
Livello 1
 62
   178
420
    65793
370
     9
100
AcDbVertex
100
AcDb2dVertex
 10
15.19028726833785
 20
179.6524277979688
 30
0.0
  0
VERTEX
  5
16F
330
16A
100
AcDbEntity
  8
Livello 1
 62
   178
420
    65793
370
     9
100
AcDbVertex
100
AcDb2dVertex
 10
12.09452446529234
 20
180.8719915997473
 30
0.0
  0
VERTEX
  5
170
330
16A
100
AcDbEntity
  8
Livello 1
 62
   178
420
    65793
370
     9
100
AcDbVertex
100
AcDb2dVertex
 10
8.623246254354605
 20
181.9041422071281
 30
0.0
  0
VERTEX
  5
171
330
16A
100
AcDbEntity
  8
Livello 1
 62
   178
420
    65793
370
     9
100
AcDbVertex
100
AcDb2dVertex
 10
4.683607312197154
 20
182.7481906010144
 30
0.0
  0
VERTEX
  5
172
330
16A
100
AcDbEntity
  8
Livello 1
 62
   178
420
    65793
370
     9
100
AcDbVertex
100
AcDb2dVertex
 10
0.4616427950234782
 20
183.4990491620246
 30
0.0
  0
VERTEX
  5
173
330
16A
100
AcDbEntity
  8
Livello 1
 62
   178
420
    65793
370
     9
100
AcDbVertex
100
AcDb2dVertex
 10
-4.041097004198059
 20
183.874047805594
 30
0.0
  0
VERTEX
  5
174
330
16A
100
AcDbEntity
  8
Livello 1
 62
   178
420
    65793
370
     9
100
AcDbVertex
100
AcDb2dVertex
 10
-8.637543400618393
 20
184.1555121067389
 30
0.0
  0
VERTEX
  5
175
330
16A
100
AcDbEntity
  8
Livello 1
 62
   178
420
    65793
370
     9
100
AcDbVertex
100
AcDb2dVertex
 10
-13.32804090378605
 20
184.1555121067389
 30
0.0
  0
VERTEX
  5
176
330
16A
100
AcDbEntity
  8
Livello 1
 62
   178
420
    65793
370
     9
100
AcDbVertex
100
AcDb2dVertex
 10
-17.92517631930343
 20
183.874047805594
 30
0.0
  0
VERTEX
  5
177
330
16A
100
AcDbEntity
  8
Livello 1
 62
   178
420
    65793
370
     9
100
AcDbVertex
100
AcDb2dVertex
 10
-22.42791611852497
 20
183.4990491620246
 30
0.0
  0
VERTEX
  5
178
330
16A
100
AcDbEntity
  8
Livello 1
 62
   178
420
    65793
370
     9
100
AcDbVertex
100
AcDb2dVertex
 10
-26.64919161660159
 20
182.7481906010144
 30
0.0
  0
VERTEX
  5
179
330
16A
100
AcDbEntity
  8
Livello 1
 62
   178
420
    65793
370
     9
100
AcDbVertex
100
AcDb2dVertex
 10
-30.58917506830757
 20
181.9041422071281
 30
0.0
  0
VERTEX
  5
17A
330
16A
100
AcDbEntity
  8
Livello 1
 62
   178
420
    65793
370
     9
100
AcDbVertex
100
AcDb2dVertex
 10
-34.06028102447105
 20
180.8719915997473
 30
0.0
  0
VERTEX
  5
17B
330
16A
100
AcDbEntity
  8
Livello 1
 62
   178
420
    65793
370
     9
100
AcDbVertex
100
AcDb2dVertex
 10
-37.06233723031775
 20
179.6524277979688
 30
0.0
  0
VERTEX
  5
17C
330
16A
100
AcDbEntity
  8
Livello 1
 62
   178
420
    65793
370
     9
100
AcDbVertex
100
AcDb2dVertex
 10
-39.59499917629917
 20
178.2452785470186
 30
0.0
  0
VERTEX
  5
17D
330
16A
100
AcDbEntity
  8
Livello 1
 62
   178
420
    65793
370
     9
100
AcDbVertex
100
AcDb2dVertex
 10
-41.47119817756623
 20
176.8383015508425
 30
0.0
  0
VERTEX
  5
17E
330
16A
100
AcDbEntity
  8
Livello 1
 62
   178
420
    65793
370
     9
100
AcDbVertex
100
AcDb2dVertex
 10
-42.69076197934467
 20
175.2437391054946
 30
0.0
  0
SEQEND
  5
17F
330
16A
100
AcDbEntity
  8
Livello 1
370
     9
  0
POLYLINE
  5
180
330
1F
100
AcDbEntity
  8
Livello 1
 62
   178
420
    65793
370
     9
100
AcDb2dPolyline
 66
     1
 10
0.0
 20
0.0
 30
0.0
  0
VERTEX
  5
181
330
180
100
AcDbEntity
  8
Livello 1
 62
   178
420
    65793
370
     9
100
AcDbVertex
100
AcDb2dVertex
 10
175.1837944440513
 20
201.604059465658
 30
0.0
  0
VERTEX
  5
182
330
180
100
AcDbEntity
  8
Livello 1
 62
   178
420
    65793
370
     9
100
AcDbVertex
100
AcDb2dVertex
 10
175.089743337304
 20
201.510180613685
 30
0.0
  0
VERTEX
  5
183
330
180
100
AcDbEntity
  8
Livello 1
 62
   178
420
    65793
370
     9
100
AcDbVertex
100
AcDb2dVertex
 10
175.089743337304
 20
201.4164740164862
 30
0.0
  0
VERTEX
  5
184
330
180
100
AcDbEntity
  8
Livello 1
 62
   178
420
    65793
370
     9
100
AcDbVertex
100
AcDb2dVertex
 10
174.9960367401052
 20
201.3225951645131
 30
0.0
  0
VERTEX
  5
185
330
180
100
AcDbEntity
  8
Livello 1
 62
   178
420
    65793
370
     9
100
AcDbVertex
100
AcDb2dVertex
 10
174.9960367401052
 20
201.2288885673143
 30
0.0
  0
VERTEX
  5
186
330
180
100
AcDbEntity
  8
Livello 1
 62
   178
420
    65793
370
     9
100
AcDbVertex
100
AcDb2dVertex
 10
174.9960367401052
 20
201.0414753729167
 30
0.0
  0
VERTEX
  5
187
330
180
100
AcDbEntity
  8
Livello 1
 62
   178
420
    65793
370
     9
100
AcDbVertex
100
AcDb2dVertex
 10
174.9023301429064
 20
200.9475965209437
 30
0.0
  0
VERTEX
  5
188
330
180
100
AcDbEntity
  8
Livello 1
 62
   178
420
    65793
370
     9
100
AcDbVertex
100
AcDb2dVertex
 10
174.9023301429064
 20
200.7598388169976
 30
0.0
  0
SEQEND
  5
189
330
180
100
AcDbEntity
  8
Livello 1
370
     9
  0
POLYLINE
  5
18A
330
1F
100
AcDbEntity
  8
Livello 1
 62
   178
420
    65793
370
     9
100
AcDb2dPolyline
 66
     1
 10
0.0
 20
0.0
 30
0.0
  0
VERTEX
  5
18B
330
18A
100
AcDbEntity
  8
Livello 1
 62
   178
420
    65793
370
     9
100
AcDbVertex
100
AcDb2dVertex
 10
176.3089626295339
 20
201.4164740164862
 30
0.0
  0
VERTEX
  5
18C
330
18A
100
AcDbEntity
  8
Livello 1
 62
   178
420
    65793
370
     9
100
AcDbVertex
100
AcDb2dVertex
 10
176.2162895609807
 20
201.3225951645131
 30
0.0
  0
VERTEX
  5
18D
330
18A
100
AcDbEntity
  8
Livello 1
 62
   178
420
    65793
370
     9
100
AcDbVertex
100
AcDb2dVertex
 10
176.1222384542333
 20
201.2288885673143
 30
0.0
  0
VERTEX
  5
18E
330
18A
100
AcDbEntity
  8
Livello 1
 62
   178
420
    65793
370
     9
100
AcDbVertex
100
AcDb2dVertex
 10
176.1222384542333
 20
201.1350097153413
 30
0.0
  0
VERTEX
  5
18F
330
18A
100
AcDbEntity
  8
Livello 1
 62
   178
420
    65793
370
     9
100
AcDbVertex
100
AcDb2dVertex
 10
176.028187347486
 20
201.0414753729167
 30
0.0
  0
VERTEX
  5
190
330
18A
100
AcDbEntity
  8
Livello 1
 62
   178
420
    65793
370
     9
100
AcDbVertex
100
AcDb2dVertex
 10
175.9344807502872
 20
200.8537176689706
 30
0.0
  0
VERTEX
  5
191
330
18A
100
AcDbEntity
  8
Livello 1
 62
   178
420
    65793
370
     9
100
AcDbVertex
100
AcDb2dVertex
 10
175.9344807502872
 20
200.7598388169976
 30
0.0
  0
VERTEX
  5
192
330
18A
100
AcDbEntity
  8
Livello 1
 62
   178
420
    65793
370
     9
100
AcDbVertex
100
AcDb2dVertex
 10
175.9344807502872
 20
200.5722533678257
 30
0.0
  0
SEQEND
  5
193
330
18A
100
AcDbEntity
  8
Livello 1
370
     9
  0
POLYLINE
  5
194
330
1F
100
AcDbEntity
  8
Livello 1
 62
   178
420
    65793
370
     9
100
AcDb2dPolyline
 66
     1
 10
0.0
 20
0.0
 30
0.0
  0
VERTEX
  5
195
330
194
100
AcDbEntity
  8
Livello 1
 62
   178
420
    65793
370
     9
100
AcDbVertex
100
AcDb2dVertex
 10
174.9960367401052
 20
201.604059465658
 30
0.0
  0
VERTEX
  5
196
330
194
100
AcDbEntity
  8
Livello 1
 62
   178
420
    65793
370
     9
100
AcDbVertex
100
AcDb2dVertex
 10
174.9960367401052
 20
201.510180613685
 30
0.0
  0
VERTEX
  5
197
330
194
100
AcDbEntity
  8
Livello 1
 62
   178
420
    65793
370
     9
100
AcDbVertex
100
AcDb2dVertex
 10
174.9023301429064
 20
201.510180613685
 30
0.0
  0
VERTEX
  5
198
330
194
100
AcDbEntity
  8
Livello 1
 62
   178
420
    65793
370
     9
100
AcDbVertex
100
AcDb2dVertex
 10
174.9023301429064
 20
201.3225951645131
 30
0.0
  0
VERTEX
  5
199
330
194
100
AcDbEntity
  8
Livello 1
 62
   178
420
    65793
370
     9
100
AcDbVertex
100
AcDb2dVertex
 10
174.9023301429064
 20
201.2288885673143
 30
0.0
  0
VERTEX
  5
19A
330
194
100
AcDbEntity
  8
Livello 1
 62
   178
420
    65793
370
     9
100
AcDbVertex
100
AcDb2dVertex
 10
174.9023301429064
 20
201.0414753729167
 30
0.0
  0
VERTEX
  5
19B
330
194
100
AcDbEntity
  8
Livello 1
 62
   178
420
    65793
370
     9
100
AcDbVertex
100
AcDb2dVertex
 10
174.9023301429064
 20
200.9475965209437
 30
0.0
  0
VERTEX
  5
19C
330
194
100
AcDbEntity
  8
Livello 1
 62
   178
420
    65793
370
     9
100
AcDbVertex
100
AcDb2dVertex
 10
174.9023301429064
 20
200.7598388169976
 30
0.0
  0
SEQEND
  5
19D
330
194
100
AcDbEntity
  8
Livello 1
370
     9
  0
POLYLINE
  5
19E
330
1F
100
AcDbEntity
  8
Livello 1
 62
   178
420
    65793
370
     9
100
AcDb2dPolyline
 66
     1
 10
0.0
 20
0.0
 30
0.0
  0
VERTEX
  5
19F
330
19E
100
AcDbEntity
  8
Livello 1
 62
   178
420
    65793
370
     9
100
AcDbVertex
100
AcDb2dVertex
 10
132.5941460171987
 20
61.35783961139666
 30
0.0
  0
VERTEX
  5
1A0
330
19E
100
AcDbEntity
  8
Livello 1
 62
   178
420
    65793
370
     9
100
AcDbVertex
100
AcDb2dVertex
 10
132.4997504009029
 20
61.26344399510081
 30
0.0
  0
VERTEX
  5
1A1
330
19E
100
AcDbEntity
  8
Livello 1
 62
   178
420
    65793
370
     9
100
AcDbVertex
100
AcDb2dVertex
 10
132.4997504009029
 20
61.07603080070322
 30
0.0
  0
VERTEX
  5
1A2
330
19E
100
AcDbEntity
  8
Livello 1
 62
   178
420
    65793
370
     9
100
AcDbVertex
100
AcDb2dVertex
 10
132.4997504009029
 20
60.88861760630563
 30
0.0
  0
VERTEX
  5
1A3
330
19E
100
AcDbEntity
  8
Livello 1
 62
   178
420
    65793
370
     9
100
AcDbVertex
100
AcDb2dVertex
 10
132.4997504009029
 20
60.79422199000978
 30
0.0
  0
VERTEX
  5
1A4
330
19E
100
AcDbEntity
  8
Livello 1
 62
   178
420
    65793
370
     9
100
AcDbVertex
100
AcDb2dVertex
 10
132.5941460171987
 20
60.60680879561219
 30
0.0
  0
VERTEX
  5
1A5
330
19E
100
AcDbEntity
  8
Livello 1
 62
   178
420
    65793
370
     9
100
AcDbVertex
100
AcDb2dVertex
 10
132.5941460171987
 20
60.51310219841339
 30
0.0
  0
VERTEX
  5
1A6
330
19E
100
AcDbEntity
  8
Livello 1
 62
   178
420
    65793
370
     9
100
AcDbVertex
100
AcDb2dVertex
 10
132.6878526143975
 20
60.4193956012146
 30
0.0
  0
VERTEX
  5
1A7
330
19E
100
AcDbEntity
  8
Livello 1
 62
   178
420
    65793
370
     9
100
AcDbVertex
100
AcDb2dVertex
 10
132.7815592115963
 20
60.32534449446728
 30
0.0
  0
VERTEX
  5
1A8
330
19E
100
AcDbEntity
  8
Livello 1
 62
   178
420
    65793
370
     9
100
AcDbVertex
100
AcDb2dVertex
 10
132.8752658087951
 20
60.23198240681701
 30
0.0
  0
SEQEND
  5
1A9
330
19E
100
AcDbEntity
  8
Livello 1
370
     9
  0
POLYLINE
  5
1AA
330
1F
100
AcDbEntity
  8
Livello 1
 62
   178
420
    65793
370
     9
100
AcDb2dPolyline
 66
     1
 10
0.0
 20
0.0
 30
0.0
  0
VERTEX
  5
1AB
330
1AA
100
AcDbEntity
  8
Livello 1
 62
   178
420
    65793
370
     9
100
AcDbVertex
100
AcDb2dVertex
 10
133.5322455178322
 20
61.07603080070322
 30
0.0
  0
VERTEX
  5
1AC
330
1AA
100
AcDbEntity
  8
Livello 1
 62
   178
420
    65793
370
     9
100
AcDbVertex
100
AcDb2dVertex
 10
133.4381944110849
 20
60.88861760630563
 30
0.0
  0
VERTEX
  5
1AD
330
1AA
100
AcDbEntity
  8
Livello 1
 62
   178
420
    65793
370
     9
100
AcDbVertex
100
AcDb2dVertex
 10
133.4381944110849
 20
60.70085990235951
 30
0.0
  0
VERTEX
  5
1AE
330
1AA
100
AcDbEntity
  8
Livello 1
 62
   178
420
    65793
370
     9
100
AcDbVertex
100
AcDb2dVertex
 10
133.4381944110849
 20
60.60680879561219
 30
0.0
  0
VERTEX
  5
1AF
330
1AA
100
AcDbEntity
  8
Livello 1
 62
   178
420
    65793
370
     9
100
AcDbVertex
100
AcDb2dVertex
 10
133.4381944110849
 20
60.4193956012146
 30
0.0
  0
VERTEX
  5
1B0
330
1AA
100
AcDbEntity
  8
Livello 1
 62
   178
420
    65793
370
     9
100
AcDbVertex
100
AcDb2dVertex
 10
133.5322455178322
 20
60.23198240681701
 30
0.0
  0
VERTEX
  5
1B1
330
1AA
100
AcDbEntity
  8
Livello 1
 62
   178
420
    65793
370
     9
100
AcDbVertex
100
AcDb2dVertex
 10
133.625952115031
 20
60.13827580961821
 30
0.0
  0
VERTEX
  5
1B2
330
1AA
100
AcDbEntity
  8
Livello 1
 62
   178
420
    65793
370
     9
100
AcDbVertex
100
AcDb2dVertex
 10
133.7196587122298
 20
60.04422470287089
 30
0.0
  0
VERTEX
  5
1B3
330
1AA
100
AcDbEntity
  8
Livello 1
 62
   178
420
    65793
370
     9
100
AcDbVertex
100
AcDb2dVertex
 10
133.8137098189771
 20
59.95086261522062
 30
0.0
  0
VERTEX
  5
1B4
330
1AA
100
AcDbEntity
  8
Livello 1
 62
   178
420
    65793
370
     9
100
AcDbVertex
100
AcDb2dVertex
 10
133.9067273970789
 20
59.95086261522062
 30
0.0
  0
SEQEND
  5
1B5
330
1AA
100
AcDbEntity
  8
Livello 1
370
     9
  0
POLYLINE
  5
1B6
330
1F
100
AcDbEntity
  8
Livello 1
 62
   178
420
    65793
370
     9
100
AcDb2dPolyline
 66
     1
 10
0.0
 20
0.0
 30
0.0
  0
VERTEX
  5
1B7
330
1B6
100
AcDbEntity
  8
Livello 1
 62
   178
420
    65793
370
     9
100
AcDbVertex
100
AcDb2dVertex
 10
184.3770317464405
 20
198.4144178106395
 30
0.0
  0
VERTEX
  5
1B8
330
1B6
100
AcDbEntity
  8
Livello 1
 62
   178
420
    65793
370
     9
100
AcDbVertex
100
AcDb2dVertex
 10
184.1892740424944
 20
198.5084689173868
 30
0.0
  0
VERTEX
  5
1B9
330
1B6
100
AcDbEntity
  8
Livello 1
 62
   178
420
    65793
370
     9
100
AcDbVertex
100
AcDb2dVertex
 10
184.0959119548441
 20
198.5084689173868
 30
0.0
  0
VERTEX
  5
1BA
330
1B6
100
AcDbEntity
  8
Livello 1
 62
   178
420
    65793
370
     9
100
AcDbVertex
100
AcDb2dVertex
 10
183.908154250898
 20
198.5084689173868
 30
0.0
  0
VERTEX
  5
1BB
330
1B6
100
AcDbEntity
  8
Livello 1
 62
   178
420
    65793
370
     9
100
AcDbVertex
100
AcDb2dVertex
 10
183.8147921632477
 20
198.4144178106395
 30
0.0
  0
VERTEX
  5
1BC
330
1B6
100
AcDbEntity
  8
Livello 1
 62
   178
420
    65793
370
     9
100
AcDbVertex
100
AcDb2dVertex
 10
183.7203965469519
 20
198.3207112134407
 30
0.0
  0
VERTEX
  5
1BD
330
1B6
100
AcDbEntity
  8
Livello 1
 62
   178
420
    65793
370
     9
100
AcDbVertex
100
AcDb2dVertex
 10
183.5329833525543
 20
198.2270046162419
 30
0.0
  0
VERTEX
  5
1BE
330
1B6
100
AcDbEntity
  8
Livello 1
 62
   178
420
    65793
370
     9
100
AcDbVertex
100
AcDb2dVertex
 10
183.4389322458069
 20
198.1331257642688
 30
0.0
  0
VERTEX
  5
1BF
330
1B6
100
AcDbEntity
  8
Livello 1
 62
   178
420
    65793
370
     9
100
AcDbVertex
100
AcDb2dVertex
 10
183.3452256486081
 20
198.0392469122958
 30
0.0
  0
VERTEX
  5
1C0
330
1B6
100
AcDbEntity
  8
Livello 1
 62
   178
420
    65793
370
     9
100
AcDbVertex
100
AcDb2dVertex
 10
183.3452256486081
 20
197.8518337178982
 30
0.0
  0
SEQEND
  5
1C1
330
1B6
100
AcDbEntity
  8
Livello 1
370
     9
  0
POLYLINE
  5
1C2
330
1F
100
AcDbEntity
  8
Livello 1
 62
   178
420
    65793
370
     9
100
AcDb2dPolyline
 66
     1
 10
0.0
 20
0.0
 30
0.0
  0
VERTEX
  5
1C3
330
1C2
100
AcDbEntity
  8
Livello 1
 62
   178
420
    65793
370
     9
100
AcDbVertex
100
AcDb2dVertex
 10
176.4030137362812
 20
201.3225951645131
 30
0.0
  0
VERTEX
  5
1C4
330
1C2
100
AcDbEntity
  8
Livello 1
 62
   178
420
    65793
370
     9
100
AcDbVertex
100
AcDb2dVertex
 10
176.3089626295339
 20
201.3225951645131
 30
0.0
  0
VERTEX
  5
1C5
330
1C2
100
AcDbEntity
  8
Livello 1
 62
   178
420
    65793
370
     9
100
AcDbVertex
100
AcDb2dVertex
 10
176.3089626295339
 20
201.2288885673143
 30
0.0
  0
VERTEX
  5
1C6
330
1C2
100
AcDbEntity
  8
Livello 1
 62
   178
420
    65793
370
     9
100
AcDbVertex
100
AcDb2dVertex
 10
176.2162895609807
 20
201.2288885673143
 30
0.0
  0
VERTEX
  5
1C7
330
1C2
100
AcDbEntity
  8
Livello 1
 62
   178
420
    65793
370
     9
100
AcDbVertex
100
AcDb2dVertex
 10
176.1222384542333
 20
201.0414753729167
 30
0.0
  0
VERTEX
  5
1C8
330
1C2
100
AcDbEntity
  8
Livello 1
 62
   178
420
    65793
370
     9
100
AcDbVertex
100
AcDb2dVertex
 10
176.1222384542333
 20
200.9475965209437
 30
0.0
  0
VERTEX
  5
1C9
330
1C2
100
AcDbEntity
  8
Livello 1
 62
   178
420
    65793
370
     9
100
AcDbVertex
100
AcDb2dVertex
 10
176.028187347486
 20
200.8537176689706
 30
0.0
  0
VERTEX
  5
1CA
330
1C2
100
AcDbEntity
  8
Livello 1
 62
   178
420
    65793
370
     9
100
AcDbVertex
100
AcDb2dVertex
 10
175.9344807502872
 20
200.6657877102502
 30
0.0
  0
VERTEX
  5
1CB
330
1C2
100
AcDbEntity
  8
Livello 1
 62
   178
420
    65793
370
     9
100
AcDbVertex
100
AcDb2dVertex
 10
175.9344807502872
 20
200.5722533678257
 30
0.0
  0
SEQEND
  5
1CC
330
1C2
100
AcDbEntity
  8
Livello 1
370
     9
  0
POLYLINE
  5
1CD
330
1F
100
AcDbEntity
  8
Livello 1
 62
   178
420
    65793
370
     9
100
AcDb2dPolyline
 66
     1
 10
0.0
 20
0.0
 30
0.0
  0
VERTEX
  5
1CE
330
1CD
100
AcDbEntity
  8
Livello 1
 62
   178
420
    65793
370
     9
100
AcDbVertex
100
AcDb2dVertex
 10
16.31597221814323
 20
-124.2935329550377
 30
0.0
  0
VERTEX
  5
1CF
330
1CD
100
AcDbEntity
  8
Livello 1
 62
   178
420
    65793
370
     9
100
AcDbVertex
100
AcDb2dVertex
 10
15.94080131979952
 20
-120.0719129474126
 30
0.0
  0
VERTEX
  5
1D0
330
1CD
100
AcDbEntity
  8
Livello 1
 62
   178
420
    65793
370
     9
100
AcDbVertex
100
AcDb2dVertex
 10
14.90865071241867
 20
-115.9443440465348
 30
0.0
  0
VERTEX
  5
1D1
330
1CD
100
AcDbEntity
  8
Livello 1
 62
   178
420
    65793
370
     9
100
AcDbVertex
100
AcDb2dVertex
 10
13.03245171115161
 20
-112.0982394468018
 30
0.0
  0
VERTEX
  5
1D2
330
1CD
100
AcDbEntity
  8
Livello 1
 62
   178
420
    65793
370
     9
100
AcDbVertex
100
AcDb2dVertex
 10
10.59349636236899
 20
-108.5332546386653
 30
0.0
  0
VERTEX
  5
1D3
330
1CD
100
AcDbEntity
  8
Livello 1
 62
   178
420
    65793
370
     9
100
AcDbVertex
100
AcDb2dVertex
 10
7.591612411296541
 20
-105.4374918356198
 30
0.0
  0
VERTEX
  5
1D4
330
1CD
100
AcDbEntity
  8
Livello 1
 62
   178
420
    65793
370
     9
100
AcDbVertex
100
AcDb2dVertex
 10
4.026455348385747
 20
-102.9043131253156
 30
0.0
  0
VERTEX
  5
1D5
330
1CD
100
AcDbEntity
  8
Livello 1
 62
   178
420
    65793
370
     9
100
AcDbVertex
100
AcDb2dVertex
 10
0.0866441514540334
 20
-100.8407009296509
 30
0.0
  0
VERTEX
  5
1D6
330
1CD
100
AcDbEntity
  8
Livello 1
 62
   178
420
    65793
370
     9
100
AcDbVertex
100
AcDb2dVertex
 10
-4.228854708144175
 20
-99.52777504022222
 30
0.0
  0
VERTEX
  5
1D7
330
1CD
100
AcDbEntity
  8
Livello 1
 62
   178
420
    65793
370
     9
100
AcDbVertex
100
AcDb2dVertex
 10
-8.637543400618393
 20
-98.77743324353482
 30
0.0
  0
VERTEX
  5
1D8
330
1CD
100
AcDbEntity
  8
Livello 1
 62
   178
420
    65793
370
     9
100
AcDbVertex
100
AcDb2dVertex
 10
-13.14062770938845
 20
-98.77743324353482
 30
0.0
  0
VERTEX
  5
1D9
330
1CD
100
AcDbEntity
  8
Livello 1
 62
   178
420
    65793
370
     9
100
AcDbVertex
100
AcDb2dVertex
 10
-17.54948865663694
 20
-99.52777504022222
 30
0.0
  0
VERTEX
  5
1DA
330
1CD
100
AcDbEntity
  8
Livello 1
 62
   178
420
    65793
370
     9
100
AcDbVertex
100
AcDb2dVertex
 10
-21.86515977100941
 20
-100.8407009296509
 30
0.0
  0
VERTEX
  5
1DB
330
1CD
100
AcDbEntity
  8
Livello 1
 62
   178
420
    65793
370
     9
100
AcDbVertex
100
AcDb2dVertex
 10
-25.80479871316686
 20
-102.9043131253156
 30
0.0
  0
VERTEX
  5
1DC
330
1CD
100
AcDbEntity
  8
Livello 1
 62
   178
420
    65793
370
     9
100
AcDbVertex
100
AcDb2dVertex
 10
-29.36961126652913
 20
-105.4374918356198
 30
0.0
  0
VERTEX
  5
1DD
330
1CD
100
AcDbEntity
  8
Livello 1
 62
   178
420
    65793
370
     9
100
AcDbVertex
100
AcDb2dVertex
 10
-32.3718397271501
 20
-108.5332546386653
 30
0.0
  0
VERTEX
  5
1DE
330
1CD
100
AcDbEntity
  8
Livello 1
 62
   178
420
    65793
370
     9
100
AcDbVertex
100
AcDb2dVertex
 10
-34.90450167313151
 20
-112.0982394468018
 30
0.0
  0
VERTEX
  5
1DF
330
1CD
100
AcDbEntity
  8
Livello 1
 62
   178
420
    65793
370
     9
100
AcDbVertex
100
AcDb2dVertex
 10
-36.68699407719978
 20
-115.9443440465348
 30
0.0
  0
VERTEX
  5
1E0
330
1CD
100
AcDbEntity
  8
Livello 1
 62
   178
420
    65793
370
     9
100
AcDbVertex
100
AcDb2dVertex
 10
-37.81267902700517
 20
-120.0719129474126
 30
0.0
  0
VERTEX
  5
1E1
330
1CD
100
AcDbEntity
  8
Livello 1
 62
   178
420
    65793
370
     9
100
AcDbVertex
100
AcDb2dVertex
 10
-38.18802218012313
 20
-124.2935329550377
 30
0.0
  0
SEQEND
  5
1E2
330
1CD
100
AcDbEntity
  8
Livello 1
370
     9
  0
POLYLINE
  5
1E3
330
1F
100
AcDbEntity
  8
Livello 1
 62
   178
420
    65793
370
     9
100
AcDb2dPolyline
 66
     1
 10
0.0
 20
0.0
 30
0.0
  0
VERTEX
  5
1E4
330
1E3
100
AcDbEntity
  8
Livello 1
 62
   178
420
    65793
370
     9
100
AcDbVertex
100
AcDb2dVertex
 10
-38.18802218012313
 20
-125.8879231456114
 30
0.0
  0
VERTEX
  5
1E5
330
1E3
100
AcDbEntity
  8
Livello 1
 62
   178
420
    65793
370
     9
100
AcDbVertex
100
AcDb2dVertex
 10
-37.81267902700517
 20
-130.1102321723336
 30
0.0
  0
VERTEX
  5
1E6
330
1E3
100
AcDbEntity
  8
Livello 1
 62
   178
420
    65793
370
     9
100
AcDbVertex
100
AcDb2dVertex
 10
-36.68699407719978
 20
-134.2371120541143
 30
0.0
  0
VERTEX
  5
1E7
330
1E3
100
AcDbEntity
  8
Livello 1
 62
   178
420
    65793
370
     9
100
AcDbVertex
100
AcDb2dVertex
 10
-34.90450167313151
 20
-138.0832166538472
 30
0.0
  0
VERTEX
  5
1E8
330
1E3
100
AcDbEntity
  8
Livello 1
 62
   178
420
    65793
370
     9
100
AcDbVertex
100
AcDb2dVertex
 10
-32.3718397271501
 20
-141.6485459715323
 30
0.0
  0
VERTEX
  5
1E9
330
1E3
100
AcDbEntity
  8
Livello 1
 62
   178
420
    65793
370
     9
100
AcDbVertex
100
AcDb2dVertex
 10
-29.36961126652913
 20
-144.7443087745778
 30
0.0
  0
VERTEX
  5
1EA
330
1E3
100
AcDbEntity
  8
Livello 1
 62
   178
420
    65793
370
     9
100
AcDbVertex
100
AcDb2dVertex
 10
-25.80479871316686
 20
-147.2771429753335
 30
0.0
  0
VERTEX
  5
1EB
330
1E3
100
AcDbEntity
  8
Livello 1
 62
   178
420
    65793
370
     9
100
AcDbVertex
100
AcDb2dVertex
 10
-21.86515977100941
 20
-149.3407551709982
 30
0.0
  0
VERTEX
  5
1EC
330
1E3
100
AcDbEntity
  8
Livello 1
 62
   178
420
    65793
370
     9
100
AcDbVertex
100
AcDb2dVertex
 10
-17.54948865663694
 20
-150.7477321671742
 30
0.0
  0
VERTEX
  5
1ED
330
1E3
100
AcDbEntity
  8
Livello 1
 62
   178
420
    65793
370
     9
100
AcDbVertex
100
AcDb2dVertex
 10
-13.14062770938845
 20
-151.4043673666628
 30
0.0
  0
VERTEX
  5
1EE
330
1E3
100
AcDbEntity
  8
Livello 1
 62
   178
420
    65793
370
     9
100
AcDbVertex
100
AcDb2dVertex
 10
-8.637543400618393
 20
-151.4043673666628
 30
0.0
  0
VERTEX
  5
1EF
330
1E3
100
AcDbEntity
  8
Livello 1
 62
   178
420
    65793
370
     9
100
AcDbVertex
100
AcDb2dVertex
 10
-4.228854708144175
 20
-150.7477321671742
 30
0.0
  0
VERTEX
  5
1F0
330
1E3
100
AcDbEntity
  8
Livello 1
 62
   178
420
    65793
370
     9
100
AcDbVertex
100
AcDb2dVertex
 10
0.0866441514540334
 20
-149.3407551709982
 30
0.0
  0
VERTEX
  5
1F1
330
1E3
100
AcDbEntity
  8
Livello 1
 62
   178
420
    65793
370
     9
100
AcDbVertex
100
AcDb2dVertex
 10
4.026455348385747
 20
-147.2771429753335
 30
0.0
  0
VERTEX
  5
1F2
330
1E3
100
AcDbEntity
  8
Livello 1
 62
   178
420
    65793
370
     9
100
AcDbVertex
100
AcDb2dVertex
 10
7.591612411296541
 20
-144.7443087745778
 30
0.0
  0
VERTEX
  5
1F3
330
1E3
100
AcDbEntity
  8
Livello 1
 62
   178
420
    65793
370
     9
100
AcDbVertex
100
AcDb2dVertex
 10
10.59349636236899
 20
-141.6485459715323
 30
0.0
  0
VERTEX
  5
1F4
330
1E3
100
AcDbEntity
  8
Livello 1
 62
   178
420
    65793
370
     9
100
AcDbVertex
100
AcDb2dVertex
 10
13.03245171115161
 20
-138.0832166538472
 30
0.0
  0
VERTEX
  5
1F5
330
1E3
100
AcDbEntity
  8
Livello 1
 62
   178
420
    65793
370
     9
100
AcDbVertex
100
AcDb2dVertex
 10
14.90865071241867
 20
-134.2371120541143
 30
0.0
  0
VERTEX
  5
1F6
330
1E3
100
AcDbEntity
  8
Livello 1
 62
   178
420
    65793
370
     9
100
AcDbVertex
100
AcDb2dVertex
 10
15.94080131979952
 20
-130.1102321723336
 30
0.0
  0
VERTEX
  5
1F7
330
1E3
100
AcDbEntity
  8
Livello 1
 62
   178
420
    65793
370
     9
100
AcDbVertex
100
AcDb2dVertex
 10
16.31597221814323
 20
-125.8879231456114
 30
0.0
  0
VERTEX
  5
1F8
330
1E3
100
AcDbEntity
  8
Livello 1
 62
   178
420
    65793
370
     9
100
AcDbVertex
100
AcDb2dVertex
 10
15.94080131979952
 20
-121.6663031379862
 30
0.0
  0
VERTEX
  5
1F9
330
1E3
100
AcDbEntity
  8
Livello 1
 62
   178
420
    65793
370
     9
100
AcDbVertex
100
AcDb2dVertex
 10
14.90865071241867
 20
-117.5390787466569
 30
0.0
  0
VERTEX
  5
1FA
330
1E3
100
AcDbEntity
  8
Livello 1
 62
   178
420
    65793
370
     9
100
AcDbVertex
100
AcDb2dVertex
 10
13.03245171115161
 20
-113.6933186564725
 30
0.0
  0
VERTEX
  5
1FB
330
1E3
100
AcDbEntity
  8
Livello 1
 62
   178
420
    65793
370
     9
100
AcDbVertex
100
AcDb2dVertex
 10
10.59349636236899
 20
-110.1276448292389
 30
0.0
  0
VERTEX
  5
1FC
330
1E3
100
AcDbEntity
  8
Livello 1
 62
   178
420
    65793
370
     9
100
AcDbVertex
100
AcDb2dVertex
 10
7.591612411296541
 20
-107.0318820261934
 30
0.0
  0
VERTEX
  5
1FD
330
1E3
100
AcDbEntity
  8
Livello 1
 62
   178
420
    65793
370
     9
100
AcDbVertex
100
AcDb2dVertex
 10
4.026455348385747
 20
-104.405341228239
 30
0.0
  0
VERTEX
  5
1FE
330
1E3
100
AcDbEntity
  8
Livello 1
 62
   178
420
    65793
370
     9
100
AcDbVertex
100
AcDb2dVertex
 10
0.0866441514540334
 20
-102.4357801393216
 30
0.0
  0
VERTEX
  5
1FF
330
1E3
100
AcDbEntity
  8
Livello 1
 62
   178
420
    65793
370
     9
100
AcDbVertex
100
AcDb2dVertex
 10
-4.228854708144175
 20
-101.0284586335971
 30
0.0
  0
VERTEX
  5
200
330
1E3
100
AcDbEntity
  8
Livello 1
 62
   178
420
    65793
370
     9
100
AcDbVertex
100
AcDb2dVertex
 10
-8.637543400618393
 20
-100.372167943657
 30
0.0
  0
VERTEX
  5
201
330
1E3
100
AcDbEntity
  8
Livello 1
 62
   178
420
    65793
370
     9
100
AcDbVertex
100
AcDb2dVertex
 10
-13.14062770938845
 20
-100.372167943657
 30
0.0
  0
VERTEX
  5
202
330
1E3
100
AcDbEntity
  8
Livello 1
 62
   178
420
    65793
370
     9
100
AcDbVertex
100
AcDb2dVertex
 10
-17.54948865663694
 20
-101.0284586335971
 30
0.0
  0
VERTEX
  5
203
330
1E3
100
AcDbEntity
  8
Livello 1
 62
   178
420
    65793
370
     9
100
AcDbVertex
100
AcDb2dVertex
 10
-21.86515977100941
 20
-102.4357801393216
 30
0.0
  0
VERTEX
  5
204
330
1E3
100
AcDbEntity
  8
Livello 1
 62
   178
420
    65793
370
     9
100
AcDbVertex
100
AcDb2dVertex
 10
-25.80479871316686
 20
-104.405341228239
 30
0.0
  0
VERTEX
  5
205
330
1E3
100
AcDbEntity
  8
Livello 1
 62
   178
420
    65793
370
     9
100
AcDbVertex
100
AcDb2dVertex
 10
-29.36961126652913
 20
-107.0318820261934
 30
0.0
  0
VERTEX
  5
206
330
1E3
100
AcDbEntity
  8
Livello 1
 62
   178
420
    65793
370
     9
100
AcDbVertex
100
AcDb2dVertex
 10
-32.3718397271501
 20
-110.1276448292389
 30
0.0
  0
VERTEX
  5
207
330
1E3
100
AcDbEntity
  8
Livello 1
 62
   178
420
    65793
370
     9
100
AcDbVertex
100
AcDb2dVertex
 10
-34.90450167313151
 20
-113.6933186564725
 30
0.0
  0
VERTEX
  5
208
330
1E3
100
AcDbEntity
  8
Livello 1
 62
   178
420
    65793
370
     9
100
AcDbVertex
100
AcDb2dVertex
 10
-36.68699407719978
 20
-117.5390787466569
 30
0.0
  0
VERTEX
  5
209
330
1E3
100
AcDbEntity
  8
Livello 1
 62
   178
420
    65793
370
     9
100
AcDbVertex
100
AcDb2dVertex
 10
-37.81267902700517
 20
-121.6663031379862
 30
0.0
  0
VERTEX
  5
20A
330
1E3
100
AcDbEntity
  8
Livello 1
 62
   178
420
    65793
370
     9
100
AcDbVertex
100
AcDb2dVertex
 10
-38.18802218012313
 20
-125.8879231456114
 30
0.0
  0
SEQEND
  5
20B
330
1E3
100
AcDbEntity
  8
Livello 1
370
     9
  0
POLYLINE
  5
20C
330
1F
100
AcDbEntity
  8
Livello 1
 62
   178
420
    65793
370
     9
100
AcDb2dPolyline
 66
     1
 10
0.0
 20
0.0
 30
0.0
  0
VERTEX
  5
20D
330
20C
100
AcDbEntity
  8
Livello 1
 62
   178
420
    65793
370
     9
100
AcDbVertex
100
AcDb2dVertex
 10
8.529711911930072
 20
-87.9884277123779
 30
0.0
  0
VERTEX
  5
20E
330
20C
100
AcDbEntity
  8
Livello 1
 62
   178
420
    65793
370
     9
100
AcDbVertex
100
AcDb2dVertex
 10
8.623246254354605
 20
-87.9884277123779
 30
0.0
  0
VERTEX
  5
20F
330
20C
100
AcDbEntity
  8
Livello 1
 62
   178
420
    65793
370
     9
100
AcDbVertex
100
AcDb2dVertex
 10
8.811003958300722
 20
-87.9884277123779
 30
0.0
  0
VERTEX
  5
210
330
20C
100
AcDbEntity
  8
Livello 1
 62
   178
420
    65793
370
     9
100
AcDbVertex
100
AcDb2dVertex
 10
8.90488281027378
 20
-87.9884277123779
 30
0.0
  0
VERTEX
  5
211
330
20C
100
AcDbEntity
  8
Livello 1
 62
   178
420
    65793
370
     9
100
AcDbVertex
100
AcDb2dVertex
 10
8.998761662246837
 20
-87.9884277123779
 30
0.0
  0
VERTEX
  5
212
330
20C
100
AcDbEntity
  8
Livello 1
 62
   178
420
    65793
370
     9
100
AcDbVertex
100
AcDb2dVertex
 10
9.18634711141869
 20
-87.9884277123779
 30
0.0
  0
VERTEX
  5
213
330
20C
100
AcDbEntity
  8
Livello 1
 62
   178
420
    65793
370
     9
100
AcDbVertex
100
AcDb2dVertex
 10
9.374104815364808
 20
-87.9884277123779
 30
0.0
  0
SEQEND
  5
214
330
20C
100
AcDbEntity
  8
Livello 1
370
     9
  0
POLYLINE
  5
215
330
1F
100
AcDbEntity
  8
Livello 1
 62
   178
420
    65793
370
     9
100
AcDb2dPolyline
 66
     1
 10
0.0
 20
0.0
 30
0.0
  0
VERTEX
  5
216
330
215
100
AcDbEntity
  8
Livello 1
 62
   178
420
    65793
370
     9
100
AcDbVertex
100
AcDb2dVertex
 10
14.90865071241867
 20
-97.55718042265931
 30
0.0
  0
VERTEX
  5
217
330
215
100
AcDbEntity
  8
Livello 1
 62
   178
420
    65793
370
     9
100
AcDbVertex
100
AcDb2dVertex
 10
15.00252956439173
 20
-97.55718042265931
 30
0.0
  0
VERTEX
  5
218
330
215
100
AcDbEntity
  8
Livello 1
 62
   178
420
    65793
370
     9
100
AcDbVertex
100
AcDb2dVertex
 10
15.00252956439173
 20
-97.463129315912
 30
0.0
  0
VERTEX
  5
219
330
215
100
AcDbEntity
  8
Livello 1
 62
   178
420
    65793
370
     9
100
AcDbVertex
100
AcDb2dVertex
 10
15.09640841636479
 20
-97.463129315912
 30
0.0
  0
VERTEX
  5
21A
330
215
100
AcDbEntity
  8
Livello 1
 62
   178
420
    65793
370
     9
100
AcDbVertex
100
AcDb2dVertex
 10
15.19028726833785
 20
-97.36942271871321
 30
0.0
  0
VERTEX
  5
21B
330
215
100
AcDbEntity
  8
Livello 1
 62
   178
420
    65793
370
     9
100
AcDbVertex
100
AcDb2dVertex
 10
15.28399386553664
 20
-97.27640514061146
 30
0.0
  0
VERTEX
  5
21C
330
215
100
AcDbEntity
  8
Livello 1
 62
   178
420
    65793
370
     9
100
AcDbVertex
100
AcDb2dVertex
 10
15.37770046273544
 20
-97.18235403386414
 30
0.0
  0
VERTEX
  5
21D
330
215
100
AcDbEntity
  8
Livello 1
 62
   178
420
    65793
370
     9
100
AcDbVertex
100
AcDb2dVertex
 10
15.47157931470849
 20
-97.08830292711681
 30
0.0
  0
SEQEND
  5
21E
330
215
100
AcDbEntity
  8
Livello 1
370
     9
  0
POLYLINE
  5
21F
330
1F
100
AcDbEntity
  8
Livello 1
 62
   178
420
    65793
370
     9
100
AcDb2dPolyline
 66
     1
 10
0.0
 20
0.0
 30
0.0
  0
VERTEX
  5
220
330
21F
100
AcDbEntity
  8
Livello 1
 62
   178
420
    65793
370
     9
100
AcDbVertex
100
AcDb2dVertex
 10
-43.25386283640876
 20
-124.6680148342844
 30
0.0
  0
VERTEX
  5
221
330
21F
100
AcDbEntity
  8
Livello 1
 62
   178
420
    65793
370
     9
100
AcDbVertex
100
AcDb2dVertex
 10
-43.25386283640876
 20
-124.2935329550377
 30
0.0
  0
VERTEX
  5
222
330
21F
100
AcDbEntity
  8
Livello 1
 62
   178
420
    65793
370
     9
100
AcDbVertex
100
AcDb2dVertex
 10
-43.25386283640876
 20
-124.1054307415431
 30
0.0
  0
SEQEND
  5
223
330
21F
100
AcDbEntity
  8
Livello 1
370
     9
  0
POLYLINE
  5
224
330
1F
100
AcDbEntity
  8
Livello 1
 62
   178
420
    65793
370
     9
100
AcDb2dPolyline
 66
     1
 10
0.0
 20
0.0
 30
0.0
  0
VERTEX
  5
225
330
224
100
AcDbEntity
  8
Livello 1
 62
   178
420
    65793
370
     9
100
AcDbVertex
100
AcDb2dVertex
 10
-37.06233723031775
 20
-95.86873912533838
 30
0.0
  0
VERTEX
  5
226
330
224
100
AcDbEntity
  8
Livello 1
 62
   178
420
    65793
370
     9
100
AcDbVertex
100
AcDb2dVertex
 10
-41.56507702953929
 20
-99.24596622952879
 30
0.0
  0
VERTEX
  5
227
330
224
100
AcDbEntity
  8
Livello 1
 62
   178
420
    65793
370
     9
100
AcDbVertex
100
AcDb2dVertex
 10
-45.50523273601953
 20
-103.0920708292617
 30
0.0
  0
VERTEX
  5
228
330
224
100
AcDbEntity
  8
Livello 1
 62
   178
420
    65793
370
     9
100
AcDbVertex
100
AcDb2dVertex
 10
-48.88228758543568
 20
-107.4077419436342
 30
0.0
  0
VERTEX
  5
229
330
224
100
AcDbEntity
  8
Livello 1
 62
   178
420
    65793
370
     9
100
AcDbVertex
100
AcDb2dVertex
 10
-51.69658608733627
 20
-112.0982394468018
 30
0.0
  0
VERTEX
  5
22A
330
224
100
AcDbEntity
  8
Livello 1
 62
   178
420
    65793
370
     9
100
AcDbVertex
100
AcDb2dVertex
 10
-53.85459389929677
 20
-117.0698567415659
 30
0.0
  0
VERTEX
  5
22B
330
224
100
AcDbEntity
  8
Livello 1
 62
   178
420
    65793
370
     9
100
AcDbVertex
100
AcDb2dVertex
 10
-55.3552774926716
 20
-122.2299207593731
 30
0.0
  0
VERTEX
  5
22C
330
224
100
AcDbEntity
  8
Livello 1
 62
   178
420
    65793
370
     9
100
AcDbVertex
100
AcDb2dVertex
 10
-56.10579154413328
 20
-127.5767089524808
 30
0.0
  0
VERTEX
  5
22D
330
224
100
AcDbEntity
  8
Livello 1
 62
   178
420
    65793
370
     9
100
AcDbVertex
100
AcDb2dVertex
 10
-56.19967039610633
 20
-132.9238416551371
 30
0.0
  0
VERTEX
  5
22E
330
224
100
AcDbEntity
  8
Livello 1
 62
   178
420
    65793
370
     9
100
AcDbVertex
100
AcDb2dVertex
 10
-55.44932859941892
 20
-138.2709743577934
 30
0.0
  0
VERTEX
  5
22F
330
224
100
AcDbEntity
  8
Livello 1
 62
   178
420
    65793
370
     9
100
AcDbVertex
100
AcDb2dVertex
 10
-54.13588594566742
 20
-143.5240559537023
 30
0.0
  0
VERTEX
  5
230
330
224
100
AcDbEntity
  8
Livello 1
 62
   178
420
    65793
370
     9
100
AcDbVertex
100
AcDb2dVertex
 10
-52.07192924045425
 20
-148.4967067771119
 30
0.0
  0
VERTEX
  5
231
330
224
100
AcDbEntity
  8
Livello 1
 62
   178
420
    65793
370
     9
100
AcDbVertex
100
AcDb2dVertex
 10
-49.25745848377939
 20
-153.1868597707311
 30
0.0
  0
VERTEX
  5
232
330
224
100
AcDbEntity
  8
Livello 1
 62
   178
420
    65793
370
     9
100
AcDbVertex
100
AcDb2dVertex
 10
-45.97428248633629
 20
-157.5958929727538
 30
0.0
  0
VERTEX
  5
233
330
224
100
AcDbEntity
  8
Livello 1
 62
   178
420
    65793
370
     9
100
AcDbVertex
100
AcDb2dVertex
 10
-42.03429903463032
 20
-161.5360486792341
 30
0.0
  0
VERTEX
  5
234
330
224
100
AcDbEntity
  8
Livello 1
 62
   178
420
    65793
370
     9
100
AcDbVertex
100
AcDb2dVertex
 10
-37.71897242980637
 20
-164.9132757834245
 30
0.0
  0
VERTEX
  5
235
330
224
100
AcDbEntity
  8
Livello 1
 62
   178
420
    65793
370
     9
100
AcDbVertex
100
AcDb2dVertex
 10
-32.8407172226926
 20
-167.8212808825239
 30
0.0
  0
VERTEX
  5
236
330
224
100
AcDbEntity
  8
Livello 1
 62
   178
420
    65793
370
     9
100
AcDbVertex
100
AcDb2dVertex
 10
-27.68134222398244
 20
-170.1663573793334
 30
0.0
  0
VERTEX
  5
237
330
224
100
AcDbEntity
  8
Livello 1
 62
   178
420
    65793
370
     9
100
AcDbVertex
100
AcDb2dVertex
 10
-22.23998615980459
 20
-171.8551431862029
 30
0.0
  0
VERTEX
  5
238
330
224
100
AcDbEntity
  8
Livello 1
 62
   178
420
    65793
370
     9
100
AcDbVertex
100
AcDb2dVertex
 10
-16.70544026275072
 20
-172.7932426868364
 30
0.0
  0
VERTEX
  5
239
330
224
100
AcDbEntity
  8
Livello 1
 62
   178
420
    65793
370
     9
100
AcDbVertex
100
AcDb2dVertex
 10
-10.98279215220222
 20
-173.1684135851801
 30
0.0
  0
VERTEX
  5
23A
330
224
100
AcDbEntity
  8
Livello 1
 62
   178
420
    65793
370
     9
100
AcDbVertex
100
AcDb2dVertex
 10
-5.260488551202239
 20
-172.7932426868364
 30
0.0
  0
VERTEX
  5
23B
330
224
100
AcDbEntity
  8
Livello 1
 62
   178
420
    65793
370
     9
100
AcDbVertex
100
AcDb2dVertex
 10
0.3684529621474701
 20
-171.8551431862029
 30
0.0
  0
VERTEX
  5
23C
330
224
100
AcDbEntity
  8
Livello 1
 62
   178
420
    65793
370
     9
100
AcDbVertex
100
AcDb2dVertex
 10
5.809292262002538
 20
-170.1663573793334
 30
0.0
  0
VERTEX
  5
23D
330
224
100
AcDbEntity
  8
Livello 1
 62
   178
420
    65793
370
     9
100
AcDbVertex
100
AcDb2dVertex
 10
10.96849500593843
 20
-167.8212808825239
 30
0.0
  0
VERTEX
  5
23E
330
224
100
AcDbEntity
  8
Livello 1
 62
   178
420
    65793
370
     9
100
AcDbVertex
100
AcDb2dVertex
 10
15.75287136107914
 20
-164.9132757834245
 30
0.0
  0
VERTEX
  5
23F
330
224
100
AcDbEntity
  8
Livello 1
 62
   178
420
    65793
370
     9
100
AcDbVertex
100
AcDb2dVertex
 10
20.16207681787615
 20
-161.5360486792341
 30
0.0
  0
VERTEX
  5
240
330
224
100
AcDbEntity
  8
Livello 1
 62
   178
420
    65793
370
     9
100
AcDbVertex
100
AcDb2dVertex
 10
24.00835367238333
 20
-157.5958929727538
 30
0.0
  0
VERTEX
  5
241
330
224
100
AcDbEntity
  8
Livello 1
 62
   178
420
    65793
370
     9
100
AcDbVertex
100
AcDb2dVertex
 10
27.38523626702522
 20
-153.1868597707311
 30
0.0
  0
VERTEX
  5
242
330
224
100
AcDbEntity
  8
Livello 1
 62
   178
420
    65793
370
     9
100
AcDbVertex
100
AcDb2dVertex
 10
30.10617268127554
 20
-148.4967067771119
 30
0.0
  0
VERTEX
  5
243
330
224
100
AcDbEntity
  8
Livello 1
 62
   178
420
    65793
370
     9
100
AcDbVertex
100
AcDb2dVertex
 10
32.16978487694019
 20
-143.5240559537023
 30
0.0
  0
VERTEX
  5
244
330
224
100
AcDbEntity
  8
Livello 1
 62
   178
420
    65793
370
     9
100
AcDbVertex
100
AcDb2dVertex
 10
33.57727863743902
 20
-138.2709743577934
 30
0.0
  0
VERTEX
  5
245
330
224
100
AcDbEntity
  8
Livello 1
 62
   178
420
    65793
370
     9
100
AcDbVertex
100
AcDb2dVertex
 10
34.23374158215337
 20
-132.9238416551371
 30
0.0
  0
VERTEX
  5
246
330
224
100
AcDbEntity
  8
Livello 1
 62
   178
420
    65793
370
     9
100
AcDbVertex
100
AcDb2dVertex
 10
34.13969047540605
 20
-127.5767089524808
 30
0.0
  0
VERTEX
  5
247
330
224
100
AcDbEntity
  8
Livello 1
 62
   178
420
    65793
370
     9
100
AcDbVertex
100
AcDb2dVertex
 10
33.38934867871863
 20
-122.2299207593731
 30
0.0
  0
VERTEX
  5
248
330
224
100
AcDbEntity
  8
Livello 1
 62
   178
420
    65793
370
     9
100
AcDbVertex
100
AcDb2dVertex
 10
31.9823716825426
 20
-117.0698567415659
 30
0.0
  0
VERTEX
  5
249
330
224
100
AcDbEntity
  8
Livello 1
 62
   178
420
    65793
370
     9
100
AcDbVertex
100
AcDb2dVertex
 10
29.82453612535637
 20
-112.0982394468018
 30
0.0
  0
VERTEX
  5
24A
330
224
100
AcDbEntity
  8
Livello 1
 62
   178
420
    65793
370
     9
100
AcDbVertex
100
AcDb2dVertex
 10
27.0105821330043
 20
-107.4077419436342
 30
0.0
  0
VERTEX
  5
24B
330
224
100
AcDbEntity
  8
Livello 1
 62
   178
420
    65793
370
     9
100
AcDbVertex
100
AcDb2dVertex
 10
23.5391316672923
 20
-103.0920708292617
 30
0.0
  0
VERTEX
  5
24C
330
224
100
AcDbEntity
  8
Livello 1
 62
   178
420
    65793
370
     9
100
AcDbVertex
100
AcDb2dVertex
 10
19.59932047036059
 20
-99.24596622952879
 30
0.0
  0
VERTEX
  5
24D
330
224
100
AcDbEntity
  8
Livello 1
 62
   178
420
    65793
370
     9
100
AcDbVertex
100
AcDb2dVertex
 10
15.19028726833785
 20
-95.86873912533838
 30
0.0
  0
SEQEND
  5
24E
330
224
100
AcDbEntity
  8
Livello 1
370
     9
  0
POLYLINE
  5
24F
330
1F
100
AcDbEntity
  8
Livello 1
 62
   178
420
    65793
370
     9
100
AcDb2dPolyline
 66
     1
 10
0.0
 20
0.0
 30
0.0
  0
VERTEX
  5
250
330
24F
100
AcDbEntity
  8
Livello 1
 62
   178
420
    65793
370
     9
100
AcDbVertex
100
AcDb2dVertex
 10
-37.06233723031775
 20
-95.86873912533838
 30
0.0
  0
VERTEX
  5
251
330
24F
100
AcDbEntity
  8
Livello 1
 62
   178
420
    65793
370
     9
100
AcDbVertex
100
AcDb2dVertex
 10
-35.09225937707763
 20
-94.27365991566771
 30
0.0
  0
VERTEX
  5
252
330
24F
100
AcDbEntity
  8
Livello 1
 62
   178
420
    65793
370
     9
100
AcDbVertex
100
AcDb2dVertex
 10
-33.40364582498243
 20
-92.39814993349769
 30
0.0
  0
VERTEX
  5
253
330
24F
100
AcDbEntity
  8
Livello 1
 62
   178
420
    65793
370
     9
100
AcDbVertex
100
AcDb2dVertex
 10
-32.18390976842972
 20
-90.33350420918747
 30
0.0
  0
VERTEX
  5
254
330
24F
100
AcDbEntity
  8
Livello 1
 62
   178
420
    65793
370
     9
100
AcDbVertex
100
AcDb2dVertex
 10
-31.24615477734471
 20
-87.9884277123779
 30
0.0
  0
SEQEND
  5
255
330
24F
100
AcDbEntity
  8
Livello 1
370
     9
  0
POLYLINE
  5
256
330
1F
100
AcDbEntity
  8
Livello 1
 62
   178
420
    65793
370
     9
100
AcDb2dPolyline
 66
     1
 10
0.0
 20
0.0
 30
0.0
  0
VERTEX
  5
257
330
256
100
AcDbEntity
  8
Livello 1
 62
   178
420
    65793
370
     9
100
AcDbVertex
100
AcDb2dVertex
 10
-37.34380153146266
 20
-97.08830292711681
 30
0.0
  0
VERTEX
  5
258
330
256
100
AcDbEntity
  8
Livello 1
 62
   178
420
    65793
370
     9
100
AcDbVertex
100
AcDb2dVertex
 10
-41.75300698825966
 20
-100.559236628506
 30
0.0
  0
VERTEX
  5
259
330
256
100
AcDbEntity
  8
Livello 1
 62
   178
420
    65793
370
     9
100
AcDbVertex
100
AcDb2dVertex
 10
-45.59911158799259
 20
-104.4990478254377
 30
0.0
  0
VERTEX
  5
25A
330
256
100
AcDbEntity
  8
Livello 1
 62
   178
420
    65793
370
     9
100
AcDbVertex
100
AcDb2dVertex
 10
-48.88228758543568
 20
-108.9087700465575
 30
0.0
  0
VERTEX
  5
25B
330
256
100
AcDbEntity
  8
Livello 1
 62
   178
420
    65793
370
     9
100
AcDbVertex
100
AcDb2dVertex
 10
-51.50900063816442
 20
-113.5992675497252
 30
0.0
  0
VERTEX
  5
25C
330
256
100
AcDbEntity
  8
Livello 1
 62
   178
420
    65793
370
     9
100
AcDbVertex
100
AcDb2dVertex
 10
-53.47907849140454
 20
-118.664591441688
 30
0.0
  0
VERTEX
  5
25D
330
256
100
AcDbEntity
  8
Livello 1
 62
   178
420
    65793
370
     9
100
AcDbVertex
100
AcDb2dVertex
 10
-54.79234889038177
 20
-123.8246554594952
 30
0.0
  0
VERTEX
  5
25E
330
256
100
AcDbEntity
  8
Livello 1
 62
   178
420
    65793
370
     9
100
AcDbVertex
100
AcDb2dVertex
 10
-55.3552774926716
 20
-129.1717881621515
 30
0.0
  0
VERTEX
  5
25F
330
256
100
AcDbEntity
  8
Livello 1
 62
   178
420
    65793
370
     9
100
AcDbVertex
100
AcDb2dVertex
 10
-55.16751978872549
 20
-134.5189208648078
 30
0.0
  0
VERTEX
  5
260
330
256
100
AcDbEntity
  8
Livello 1
 62
   178
420
    65793
370
     9
100
AcDbVertex
100
AcDb2dVertex
 10
-54.32312688529075
 20
-139.866053567464
 30
0.0
  0
VERTEX
  5
261
330
256
100
AcDbEntity
  8
Livello 1
 62
   178
420
    65793
370
     9
100
AcDbVertex
100
AcDb2dVertex
 10
-52.7283921851686
 20
-144.9320664785239
 30
0.0
  0
VERTEX
  5
262
330
256
100
AcDbEntity
  8
Livello 1
 62
   178
420
    65793
370
     9
100
AcDbVertex
100
AcDb2dVertex
 10
-50.38314343358477
 20
-149.903683773288
 30
0.0
  0
VERTEX
  5
263
330
256
100
AcDbEntity
  8
Livello 1
 62
   178
420
    65793
370
     9
100
AcDbVertex
100
AcDb2dVertex
 10
-47.47513833448539
 20
-154.4997856601598
 30
0.0
  0
VERTEX
  5
264
330
256
100
AcDbEntity
  8
Livello 1
 62
   178
420
    65793
370
     9
100
AcDbVertex
100
AcDb2dVertex
 10
-43.91032578112311
 20
-158.6276990705861
 30
0.0
  0
VERTEX
  5
265
330
256
100
AcDbEntity
  8
Livello 1
 62
   178
420
    65793
370
     9
100
AcDbVertex
100
AcDb2dVertex
 10
-39.78292913501955
 20
-162.3804415826688
 30
0.0
  0
VERTEX
  5
266
330
256
100
AcDbEntity
  8
Livello 1
 62
   178
420
    65793
370
     9
100
AcDbVertex
100
AcDb2dVertex
 10
-35.18596597427643
 20
-165.5699109829131
 30
0.0
  0
VERTEX
  5
267
330
256
100
AcDbEntity
  8
Livello 1
 62
   178
420
    65793
370
     9
100
AcDbVertex
100
AcDb2dVertex
 10
-30.30788302193692
 20
-168.1967962904161
 30
0.0
  0
VERTEX
  5
268
330
256
100
AcDbEntity
  8
Livello 1
 62
   178
420
    65793
370
     9
100
AcDbVertex
100
AcDb2dVertex
 10
-24.96075031928065
 20
-170.2604084860807
 30
0.0
  0
VERTEX
  5
269
330
256
100
AcDbEntity
  8
Livello 1
 62
   178
420
    65793
370
     9
100
AcDbVertex
100
AcDb2dVertex
 10
-19.42585991267826
 20
-171.5733343755095
 30
0.0
  0
VERTEX
  5
26A
330
256
100
AcDbEntity
  8
Livello 1
 62
   178
420
    65793
370
     9
100
AcDbVertex
100
AcDb2dVertex
 10
-13.79709065410281
 20
-172.3247097008424
 30
0.0
  0
VERTEX
  5
26B
330
256
100
AcDbEntity
  8
Livello 1
 62
   178
420
    65793
370
     9
100
AcDbVertex
100
AcDb2dVertex
 10
-8.074787053102831
 20
-172.3247097008424
 30
0.0
  0
VERTEX
  5
26C
330
256
100
AcDbEntity
  8
Livello 1
 62
   178
420
    65793
370
     9
100
AcDbVertex
100
AcDb2dVertex
 10
-2.446017794527385
 20
-171.5733343755095
 30
0.0
  0
VERTEX
  5
26D
330
256
100
AcDbEntity
  8
Livello 1
 62
   178
420
    65793
370
     9
100
AcDbVertex
100
AcDb2dVertex
 10
3.088872612075004
 20
-170.2604084860807
 30
0.0
  0
VERTEX
  5
26E
330
256
100
AcDbEntity
  8
Livello 1
 62
   178
420
    65793
370
     9
100
AcDbVertex
100
AcDb2dVertex
 10
8.341954207983957
 20
-168.1967962904161
 30
0.0
  0
VERTEX
  5
26F
330
256
100
AcDbEntity
  8
Livello 1
 62
   178
420
    65793
370
     9
100
AcDbVertex
100
AcDb2dVertex
 10
13.313571502748
 20
-165.5699109829131
 30
0.0
  0
VERTEX
  5
270
330
256
100
AcDbEntity
  8
Livello 1
 62
   178
420
    65793
370
     9
100
AcDbVertex
100
AcDb2dVertex
 10
17.91087917303964
 20
-162.3804415826688
 30
0.0
  0
VERTEX
  5
271
330
256
100
AcDbEntity
  8
Livello 1
 62
   178
420
    65793
370
     9
100
AcDbVertex
100
AcDb2dVertex
 10
21.94439696717015
 20
-158.6276990705861
 30
0.0
  0
VERTEX
  5
272
330
256
100
AcDbEntity
  8
Livello 1
 62
   178
420
    65793
370
     9
100
AcDbVertex
100
AcDb2dVertex
 10
25.50920952053242
 20
-154.4997856601598
 30
0.0
  0
VERTEX
  5
273
330
256
100
AcDbEntity
  8
Livello 1
 62
   178
420
    65793
370
     9
100
AcDbVertex
100
AcDb2dVertex
 10
28.41755912918033
 20
-149.903683773288
 30
0.0
  0
VERTEX
  5
274
330
256
100
AcDbEntity
  8
Livello 1
 62
   178
420
    65793
370
     9
100
AcDbVertex
100
AcDb2dVertex
 10
30.76280788076416
 20
-144.9320664785239
 30
0.0
  0
VERTEX
  5
275
330
256
100
AcDbEntity
  8
Livello 1
 62
   178
420
    65793
370
     9
100
AcDbVertex
100
AcDb2dVertex
 10
32.35754258088631
 20
-139.866053567464
 30
0.0
  0
VERTEX
  5
276
330
256
100
AcDbEntity
  8
Livello 1
 62
   178
420
    65793
370
     9
100
AcDbVertex
100
AcDb2dVertex
 10
33.29564208151984
 20
-134.5189208648078
 30
0.0
  0
VERTEX
  5
277
330
256
100
AcDbEntity
  8
Livello 1
 62
   178
420
    65793
370
     9
100
AcDbVertex
100
AcDb2dVertex
 10
33.48322753069169
 20
-129.1717881621515
 30
0.0
  0
VERTEX
  5
278
330
256
100
AcDbEntity
  8
Livello 1
 62
   178
420
    65793
370
     9
100
AcDbVertex
100
AcDb2dVertex
 10
32.92012667362761
 20
-123.8246554594952
 30
0.0
  0
VERTEX
  5
279
330
256
100
AcDbEntity
  8
Livello 1
 62
   178
420
    65793
370
     9
100
AcDbVertex
100
AcDb2dVertex
 10
31.60720078419889
 20
-118.664591441688
 30
0.0
  0
VERTEX
  5
27A
330
256
100
AcDbEntity
  8
Livello 1
 62
   178
420
    65793
370
     9
100
AcDbVertex
100
AcDb2dVertex
 10
29.63712293095877
 20
-113.5992675497252
 30
0.0
  0
VERTEX
  5
27B
330
256
100
AcDbEntity
  8
Livello 1
 62
   178
420
    65793
370
     9
100
AcDbVertex
100
AcDb2dVertex
 10
26.91653102625698
 20
-108.9087700465575
 30
0.0
  0
VERTEX
  5
27C
330
256
100
AcDbEntity
  8
Livello 1
 62
   178
420
    65793
370
     9
100
AcDbVertex
100
AcDb2dVertex
 10
23.63301051926536
 20
-104.4990478254377
 30
0.0
  0
VERTEX
  5
27D
330
256
100
AcDbEntity
  8
Livello 1
 62
   178
420
    65793
370
     9
100
AcDbVertex
100
AcDb2dVertex
 10
19.78673366475818
 20
-100.559236628506
 30
0.0
  0
VERTEX
  5
27E
330
256
100
AcDbEntity
  8
Livello 1
 62
   178
420
    65793
370
     9
100
AcDbVertex
100
AcDb2dVertex
 10
15.47157931470849
 20
-97.08830292711681
 30
0.0
  0
SEQEND
  5
27F
330
256
100
AcDbEntity
  8
Livello 1
370
     9
  0
POLYLINE
  5
280
330
1F
100
AcDbEntity
  8
Livello 1
 62
   178
420
    65793
370
     9
100
AcDb2dPolyline
 66
     1
 10
0.0
 20
0.0
 30
0.0
  0
VERTEX
  5
281
330
280
100
AcDbEntity
  8
Livello 1
 62
   178
420
    65793
370
     9
100
AcDbVertex
100
AcDb2dVertex
 10
9.374104815364808
 20
-87.9884277123779
 30
0.0
  0
VERTEX
  5
282
330
280
100
AcDbEntity
  8
Livello 1
 62
   178
420
    65793
370
     9
100
AcDbVertex
100
AcDb2dVertex
 10
10.21815320925102
 20
-90.33350420918747
 30
0.0
  0
VERTEX
  5
283
330
280
100
AcDbEntity
  8
Livello 1
 62
   178
420
    65793
370
     9
100
AcDbVertex
100
AcDb2dVertex
 10
11.53159586300252
 20
-92.39814993349769
 30
0.0
  0
VERTEX
  5
284
330
280
100
AcDbEntity
  8
Livello 1
 62
   178
420
    65793
370
     9
100
AcDbVertex
100
AcDb2dVertex
 10
13.12650281789893
 20
-94.27365991566771
 30
0.0
  0
VERTEX
  5
285
330
280
100
AcDbEntity
  8
Livello 1
 62
   178
420
    65793
370
     9
100
AcDbVertex
100
AcDb2dVertex
 10
15.19028726833785
 20
-95.86873912533838
 30
0.0
  0
SEQEND
  5
286
330
280
100
AcDbEntity
  8
Livello 1
370
     9
  0
POLYLINE
  5
287
330
1F
100
AcDbEntity
  8
Livello 1
 62
   178
420
    65793
370
     9
100
AcDb2dPolyline
 66
     1
 10
0.0
 20
0.0
 30
0.0
  0
VERTEX
  5
288
330
287
100
AcDbEntity
  8
Livello 1
 62
   178
420
    65793
370
     9
100
AcDbVertex
100
AcDb2dVertex
 10
-37.34380153146266
 20
-97.08830292711681
 30
0.0
  0
VERTEX
  5
289
330
287
100
AcDbEntity
  8
Livello 1
 62
   178
420
    65793
370
     9
100
AcDbVertex
100
AcDb2dVertex
 10
-37.24992267948961
 20
-97.18235403386414
 30
0.0
  0
VERTEX
  5
28A
330
287
100
AcDbEntity
  8
Livello 1
 62
   178
420
    65793
370
     9
100
AcDbVertex
100
AcDb2dVertex
 10
-37.15587157274229
 20
-97.27640514061146
 30
0.0
  0
VERTEX
  5
28B
330
287
100
AcDbEntity
  8
Livello 1
 62
   178
420
    65793
370
     9
100
AcDbVertex
100
AcDb2dVertex
 10
-37.06233723031775
 20
-97.36942271871321
 30
0.0
  0
VERTEX
  5
28C
330
287
100
AcDbEntity
  8
Livello 1
 62
   178
420
    65793
370
     9
100
AcDbVertex
100
AcDb2dVertex
 10
-37.06233723031775
 20
-97.463129315912
 30
0.0
  0
VERTEX
  5
28D
330
287
100
AcDbEntity
  8
Livello 1
 62
   178
420
    65793
370
     9
100
AcDbVertex
100
AcDb2dVertex
 10
-36.96863063311896
 20
-97.463129315912
 30
0.0
  0
VERTEX
  5
28E
330
287
100
AcDbEntity
  8
Livello 1
 62
   178
420
    65793
370
     9
100
AcDbVertex
100
AcDb2dVertex
 10
-36.87457952637163
 20
-97.55718042265931
 30
0.0
  0
SEQEND
  5
28F
330
287
100
AcDbEntity
  8
Livello 1
370
     9
  0
POLYLINE
  5
290
330
1F
100
AcDbEntity
  8
Livello 1
 62
   178
420
    65793
370
     9
100
AcDb2dPolyline
 66
     1
 10
0.0
 20
0.0
 30
0.0
  0
VERTEX
  5
291
330
290
100
AcDbEntity
  8
Livello 1
 62
   178
420
    65793
370
     9
100
AcDbVertex
100
AcDb2dVertex
 10
-31.24615477734471
 20
-87.9884277123779
 30
0.0
  0
VERTEX
  5
292
330
290
100
AcDbEntity
  8
Livello 1
 62
   178
420
    65793
370
     9
100
AcDbVertex
100
AcDb2dVertex
 10
-31.15227592537165
 20
-87.9884277123779
 30
0.0
  0
VERTEX
  5
293
330
290
100
AcDbEntity
  8
Livello 1
 62
   178
420
    65793
370
     9
100
AcDbVertex
100
AcDb2dVertex
 10
-30.9646904761998
 20
-87.9884277123779
 30
0.0
  0
VERTEX
  5
294
330
290
100
AcDbEntity
  8
Livello 1
 62
   178
420
    65793
370
     9
100
AcDbVertex
100
AcDb2dVertex
 10
-30.77710502702795
 20
-87.9884277123779
 30
0.0
  0
VERTEX
  5
295
330
290
100
AcDbEntity
  8
Livello 1
 62
   178
420
    65793
370
     9
100
AcDbVertex
100
AcDb2dVertex
 10
-30.68322617505489
 20
-87.9884277123779
 30
0.0
  0
VERTEX
  5
296
330
290
100
AcDbEntity
  8
Livello 1
 62
   178
420
    65793
370
     9
100
AcDbVertex
100
AcDb2dVertex
 10
-30.58917506830757
 20
-87.9884277123779
 30
0.0
  0
VERTEX
  5
297
330
290
100
AcDbEntity
  8
Livello 1
 62
   178
420
    65793
370
     9
100
AcDbVertex
100
AcDb2dVertex
 10
-30.49546847110877
 20
-87.9884277123779
 30
0.0
  0
SEQEND
  5
298
330
290
100
AcDbEntity
  8
Livello 1
370
     9
  0
POLYLINE
  5
299
330
1F
100
AcDbEntity
  8
Livello 1
 62
   178
420
    65793
370
     9
100
AcDb2dPolyline
 66
     1
 10
0.0
 20
0.0
 30
0.0
  0
VERTEX
  5
29A
330
299
100
AcDbEntity
  8
Livello 1
 62
   178
420
    65793
370
     9
100
AcDbVertex
100
AcDb2dVertex
 10
4.120506455133068
 20
-78.60708819649406
 30
0.0
  0
VERTEX
  5
29B
330
299
100
AcDbEntity
  8
Livello 1
 62
   178
420
    65793
370
     9
100
AcDbVertex
100
AcDb2dVertex
 10
3.55792236239177
 20
-81.1406114163468
 30
0.0
  0
VERTEX
  5
29C
330
299
100
AcDbEntity
  8
Livello 1
 62
   178
420
    65793
370
     9
100
AcDbVertex
100
AcDb2dVertex
 10
3.276113551698333
 20
-83.67344561710247
 30
0.0
  0
VERTEX
  5
29D
330
299
100
AcDbEntity
  8
Livello 1
 62
   178
420
    65793
370
     9
100
AcDbVertex
100
AcDb2dVertex
 10
3.369992403671391
 20
-86.01886662346057
 30
0.0
  0
VERTEX
  5
29E
330
299
100
AcDbEntity
  8
Livello 1
 62
   178
420
    65793
370
     9
100
AcDbVertex
100
AcDb2dVertex
 10
3.745335556789361
 20
-88.17584090677549
 30
0.0
  0
VERTEX
  5
29F
330
299
100
AcDbEntity
  8
Livello 1
 62
   178
420
    65793
370
     9
100
AcDbVertex
100
AcDb2dVertex
 10
4.401798501503717
 20
-90.0527289271396
 30
0.0
  0
SEQEND
  5
2A0
330
299
100
AcDbEntity
  8
Livello 1
370
     9
  0
POLYLINE
  5
2A1
330
1F
100
AcDbEntity
  8
Livello 1
 62
   178
420
    65793
370
     9
100
AcDb2dPolyline
 66
     1
 10
0.0
 20
0.0
 30
0.0
  0
VERTEX
  5
2A2
330
2A1
100
AcDbEntity
  8
Livello 1
 62
   178
420
    65793
370
     9
100
AcDbVertex
100
AcDb2dVertex
 10
-31.0583970733986
 20
-86.58145071620186
 30
0.0
  0
VERTEX
  5
2A3
330
2A1
100
AcDbEntity
  8
Livello 1
 62
   178
420
    65793
370
     9
100
AcDbVertex
100
AcDb2dVertex
 10
-30.77710502702795
 20
-83.86154783059712
 30
0.0
  0
SEQEND
  5
2A4
330
2A1
100
AcDbEntity
  8
Livello 1
370
     9
  0
POLYLINE
  5
2A5
330
1F
100
AcDbEntity
  8
Livello 1
 62
   178
420
    65793
370
     9
100
AcDb2dPolyline
 66
     1
 10
0.0
 20
0.0
 30
0.0
  0
VERTEX
  5
2A6
330
2A5
100
AcDbEntity
  8
Livello 1
 62
   178
420
    65793
370
     9
100
AcDbVertex
100
AcDb2dVertex
 10
8.90488281027378
 20
-83.86154783059712
 30
0.0
  0
VERTEX
  5
2A7
330
2A5
100
AcDbEntity
  8
Livello 1
 62
   178
420
    65793
370
     9
100
AcDbVertex
100
AcDb2dVertex
 10
9.092468259445633
 20
-86.58145071620186
 30
0.0
  0
SEQEND
  5
2A8
330
2A5
100
AcDbEntity
  8
Livello 1
370
     9
  0
POLYLINE
  5
2A9
330
1F
100
AcDbEntity
  8
Livello 1
 62
   178
420
    65793
370
     9
100
AcDb2dPolyline
 66
     1
 10
0.0
 20
0.0
 30
0.0
  0
VERTEX
  5
2AA
330
2A9
100
AcDbEntity
  8
Livello 1
 62
   178
420
    65793
370
     9
100
AcDbVertex
100
AcDb2dVertex
 10
-26.36789957023094
 20
-90.0527289271396
 30
0.0
  0
VERTEX
  5
2AB
330
2A9
100
AcDbEntity
  8
Livello 1
 62
   178
420
    65793
370
     9
100
AcDbVertex
100
AcDb2dVertex
 10
-25.61738551876926
 20
-88.17584090677549
 30
0.0
  0
VERTEX
  5
2AC
330
2A9
100
AcDbEntity
  8
Livello 1
 62
   178
420
    65793
370
     9
100
AcDbVertex
100
AcDb2dVertex
 10
-25.24221462042556
 20
-86.01886662346057
 30
0.0
  0
VERTEX
  5
2AD
330
2A9
100
AcDbEntity
  8
Livello 1
 62
   178
420
    65793
370
     9
100
AcDbVertex
100
AcDb2dVertex
 10
-25.24221462042556
 20
-83.67344561710247
 30
0.0
  0
VERTEX
  5
2AE
330
2A9
100
AcDbEntity
  8
Livello 1
 62
   178
420
    65793
370
     9
100
AcDbVertex
100
AcDb2dVertex
 10
-25.52367892157047
 20
-81.1406114163468
 30
0.0
  0
VERTEX
  5
2AF
330
2A9
100
AcDbEntity
  8
Livello 1
 62
   178
420
    65793
370
     9
100
AcDbVertex
100
AcDb2dVertex
 10
-26.08660752386029
 20
-78.60708819649406
 30
0.0
  0
SEQEND
  5
2B0
330
2A9
100
AcDbEntity
  8
Livello 1
370
     9
  0
POLYLINE
  5
2B1
330
1F
100
AcDbEntity
  8
Livello 1
 62
   178
420
    65793
370
     9
100
AcDb2dPolyline
 66
     1
 10
0.0
 20
0.0
 30
0.0
  0
VERTEX
  5
2B2
330
2B1
100
AcDbEntity
  8
Livello 1
 62
   178
420
    65793
370
     9
100
AcDbVertex
100
AcDb2dVertex
 10
-36.31165092408181
 20
-44.08550888654807
 30
0.0
  0
VERTEX
  5
2B3
330
2B1
100
AcDbEntity
  8
Livello 1
 62
   178
420
    65793
370
     9
100
AcDbVertex
100
AcDb2dVertex
 10
-36.31165092408181
 20
-44.08550888654807
 30
0.0
  0
SEQEND
  5
2B4
330
2B1
100
AcDbEntity
  8
Livello 1
370
     9
  0
POLYLINE
  5
2B5
330
1F
100
AcDbEntity
  8
Livello 1
 62
   178
420
    65793
370
     9
100
AcDb2dPolyline
 66
     1
 10
0.0
 20
0.0
 30
0.0
  0
VERTEX
  5
2B6
330
2B5
100
AcDbEntity
  8
Livello 1
 62
   178
420
    65793
370
     9
100
AcDbVertex
100
AcDb2dVertex
 10
9.374104815364808
 20
-87.9884277123779
 30
0.0
  0
VERTEX
  5
2B7
330
2B5
100
AcDbEntity
  8
Livello 1
 62
   178
420
    65793
370
     9
100
AcDbVertex
100
AcDb2dVertex
 10
9.561690264536661
 20
-87.89506562472762
 30
0.0
  0
VERTEX
  5
2B8
330
2B5
100
AcDbEntity
  8
Livello 1
 62
   178
420
    65793
370
     9
100
AcDbVertex
100
AcDb2dVertex
 10
9.655224606961195
 20
-87.89506562472762
 30
0.0
  0
VERTEX
  5
2B9
330
2B5
100
AcDbEntity
  8
Livello 1
 62
   178
420
    65793
370
     9
100
AcDbVertex
100
AcDb2dVertex
 10
9.842810056133048
 20
-87.80135902752883
 30
0.0
  0
VERTEX
  5
2BA
330
2B5
100
AcDbEntity
  8
Livello 1
 62
   178
420
    65793
370
     9
100
AcDbVertex
100
AcDb2dVertex
 10
10.03074001485343
 20
-87.70730792078152
 30
0.0
  0
VERTEX
  5
2BB
330
2B5
100
AcDbEntity
  8
Livello 1
 62
   178
420
    65793
370
     9
100
AcDbVertex
100
AcDb2dVertex
 10
10.12444661205222
 20
-87.70730792078152
 30
0.0
  0
VERTEX
  5
2BC
330
2B5
100
AcDbEntity
  8
Livello 1
 62
   178
420
    65793
370
     9
100
AcDbVertex
100
AcDb2dVertex
 10
10.21815320925102
 20
-87.61360132358271
 30
0.0
  0
VERTEX
  5
2BD
330
2B5
100
AcDbEntity
  8
Livello 1
 62
   178
420
    65793
370
     9
100
AcDbVertex
100
AcDb2dVertex
 10
10.21815320925102
 20
-87.51989472638392
 30
0.0
  0
VERTEX
  5
2BE
330
2B5
100
AcDbEntity
  8
Livello 1
 62
   178
420
    65793
370
     9
100
AcDbVertex
100
AcDb2dVertex
 10
10.21815320925102
 20
-87.4258436196366
 30
0.0
  0
SEQEND
  5
2BF
330
2B5
100
AcDbEntity
  8
Livello 1
370
     9
  0
POLYLINE
  5
2C0
330
1F
100
AcDbEntity
  8
Livello 1
 62
   178
420
    65793
370
     9
100
AcDb2dPolyline
 66
     1
 10
0.0
 20
0.0
 30
0.0
  0
VERTEX
  5
2C1
330
2C0
100
AcDbEntity
  8
Livello 1
 62
   178
420
    65793
370
     9
100
AcDbVertex
100
AcDb2dVertex
 10
-37.62492132305905
 20
-45.02326387763308
 30
0.0
  0
VERTEX
  5
2C2
330
2C0
100
AcDbEntity
  8
Livello 1
 62
   178
420
    65793
370
     9
100
AcDbVertex
100
AcDb2dVertex
 10
-37.62492132305905
 20
-45.02326387763308
 30
0.0
  0
SEQEND
  5
2C3
330
2C0
100
AcDbEntity
  8
Livello 1
370
     9
  0
POLYLINE
  5
2C4
330
1F
100
AcDbEntity
  8
Livello 1
 62
   178
420
    65793
370
     9
100
AcDb2dPolyline
 66
     1
 10
0.0
 20
0.0
 30
0.0
  0
VERTEX
  5
2C5
330
2C4
100
AcDbEntity
  8
Livello 1
 62
   178
420
    65793
370
     9
100
AcDbVertex
100
AcDb2dVertex
 10
-28.80702717378783
 20
-100.372167943657
 30
0.0
  0
VERTEX
  5
2C6
330
2C4
100
AcDbEntity
  8
Livello 1
 62
   178
420
    65793
370
     9
100
AcDbVertex
100
AcDb2dVertex
 10
-32.74718288026806
 20
-103.186121936009
 30
0.0
  0
VERTEX
  5
2C7
330
2C4
100
AcDbEntity
  8
Livello 1
 62
   178
420
    65793
370
     9
100
AcDbVertex
100
AcDb2dVertex
 10
-36.12423772968422
 20
-106.5633490401994
 30
0.0
  0
VERTEX
  5
2C8
330
2C4
100
AcDbEntity
  8
Livello 1
 62
   178
420
    65793
370
     9
100
AcDbVertex
100
AcDb2dVertex
 10
-38.93853623158481
 20
-110.3157470427336
 30
0.0
  0
VERTEX
  5
2C9
330
2C4
100
AcDbEntity
  8
Livello 1
 62
   178
420
    65793
370
     9
100
AcDbVertex
100
AcDb2dVertex
 10
-41.18990613119558
 20
-114.4436604531599
 30
0.0
  0
VERTEX
  5
2CA
330
2C4
100
AcDbEntity
  8
Livello 1
 62
   178
420
    65793
370
     9
100
AcDbVertex
100
AcDb2dVertex
 10
-42.69076197934467
 20
-118.8526936551827
 30
0.0
  0
VERTEX
  5
2CB
330
2C4
100
AcDbEntity
  8
Livello 1
 62
   178
420
    65793
370
     9
100
AcDbVertex
100
AcDb2dVertex
 10
-43.44110377603209
 20
-123.3550889448557
 30
0.0
  0
VERTEX
  5
2CC
330
2C4
100
AcDbEntity
  8
Livello 1
 62
   178
420
    65793
370
     9
100
AcDbVertex
100
AcDb2dVertex
 10
-43.53515488277941
 20
-127.9518798508245
 30
0.0
  0
VERTEX
  5
2CD
330
2C4
100
AcDbEntity
  8
Livello 1
 62
   178
420
    65793
370
     9
100
AcDbVertex
100
AcDb2dVertex
 10
-42.78464083131773
 20
-132.5483262472449
 30
0.0
  0
VERTEX
  5
2CE
330
2C4
100
AcDbEntity
  8
Livello 1
 62
   178
420
    65793
370
     9
100
AcDbVertex
100
AcDb2dVertex
 10
-41.3776638351417
 20
-136.9580484683647
 30
0.0
  0
VERTEX
  5
2CF
330
2C4
100
AcDbEntity
  8
Livello 1
 62
   178
420
    65793
370
     9
100
AcDbVertex
100
AcDb2dVertex
 10
-39.31387938470278
 20
-141.1793239664413
 30
0.0
  0
VERTEX
  5
2D0
330
2C4
100
AcDbEntity
  8
Livello 1
 62
   178
420
    65793
370
     9
100
AcDbVertex
100
AcDb2dVertex
 10
-36.59345973477524
 20
-144.9320664785239
 30
0.0
  0
VERTEX
  5
2D1
330
2C4
100
AcDbEntity
  8
Livello 1
 62
   178
420
    65793
370
     9
100
AcDbVertex
100
AcDb2dVertex
 10
-33.21588812103631
 20
-148.4026556703646
 30
0.0
  0
VERTEX
  5
2D2
330
2C4
100
AcDbEntity
  8
Livello 1
 62
   178
420
    65793
370
     9
100
AcDbVertex
100
AcDb2dVertex
 10
-29.46349011850219
 20
-151.2172986818137
 30
0.0
  0
VERTEX
  5
2D3
330
2C4
100
AcDbEntity
  8
Livello 1
 62
   178
420
    65793
370
     9
100
AcDbVertex
100
AcDb2dVertex
 10
-25.24221462042556
 20
-153.5627196881718
 30
0.0
  0
VERTEX
  5
2D4
330
2C4
100
AcDbEntity
  8
Livello 1
 62
   178
420
    65793
370
     9
100
AcDbVertex
100
AcDb2dVertex
 10
-20.64559596923096
 20
-155.2504719663957
 30
0.0
  0
VERTEX
  5
2D5
330
2C4
100
AcDbEntity
  8
Livello 1
 62
   178
420
    65793
370
     9
100
AcDbVertex
100
AcDb2dVertex
 10
-15.86104735931599
 20
-156.2826225737766
 30
0.0
  0
VERTEX
  5
2D6
330
2C4
100
AcDbEntity
  8
Livello 1
 62
   178
420
    65793
370
     9
100
AcDbVertex
100
AcDb2dVertex
 10
-10.98279215220222
 20
-156.6581379816688
 30
0.0
  0
VERTEX
  5
2D7
330
2C4
100
AcDbEntity
  8
Livello 1
 62
   178
420
    65793
370
     9
100
AcDbVertex
100
AcDb2dVertex
 10
-6.104881454636974
 20
-156.2826225737766
 30
0.0
  0
VERTEX
  5
2D8
330
2C4
100
AcDbEntity
  8
Livello 1
 62
   178
420
    65793
370
     9
100
AcDbVertex
100
AcDb2dVertex
 10
-1.320505099496263
 20
-155.2504719663957
 30
0.0
  0
VERTEX
  5
2D9
330
2C4
100
AcDbEntity
  8
Livello 1
 62
   178
420
    65793
370
     9
100
AcDbVertex
100
AcDb2dVertex
 10
3.276113551698333
 20
-153.5627196881718
 30
0.0
  0
VERTEX
  5
2DA
330
2C4
100
AcDbEntity
  8
Livello 1
 62
   178
420
    65793
370
     9
100
AcDbVertex
100
AcDb2dVertex
 10
7.497733559323484
 20
-151.2172986818137
 30
0.0
  0
VERTEX
  5
2DB
330
2C4
100
AcDbEntity
  8
Livello 1
 62
   178
420
    65793
370
     9
100
AcDbVertex
100
AcDb2dVertex
 10
11.34418266860493
 20
-148.4026556703646
 30
0.0
  0
VERTEX
  5
2DC
330
2C4
100
AcDbEntity
  8
Livello 1
 62
   178
420
    65793
370
     9
100
AcDbVertex
100
AcDb2dVertex
 10
14.62718641127376
 20
-144.9320664785239
 30
0.0
  0
VERTEX
  5
2DD
330
2C4
100
AcDbEntity
  8
Livello 1
 62
   178
420
    65793
370
     9
100
AcDbVertex
100
AcDb2dVertex
 10
17.34760606120129
 20
-141.1793239664413
 30
0.0
  0
VERTEX
  5
2DE
330
2C4
100
AcDbEntity
  8
Livello 1
 62
   178
420
    65793
370
     9
100
AcDbVertex
100
AcDb2dVertex
 10
19.50561387316179
 20
-136.9580484683647
 30
0.0
  0
VERTEX
  5
2DF
330
2C4
100
AcDbEntity
  8
Livello 1
 62
   178
420
    65793
370
     9
100
AcDbVertex
100
AcDb2dVertex
 10
20.91241861456356
 20
-132.5483262472449
 30
0.0
  0
VERTEX
  5
2E0
330
2C4
100
AcDbEntity
  8
Livello 1
 62
   178
420
    65793
370
     9
100
AcDbVertex
100
AcDb2dVertex
 10
21.56922606882645
 20
-127.9518798508245
 30
0.0
  0
VERTEX
  5
2E1
330
2C4
100
AcDbEntity
  8
Livello 1
 62
   178
420
    65793
370
     9
100
AcDbVertex
100
AcDb2dVertex
 10
21.47569172640191
 20
-123.3550889448557
 30
0.0
  0
VERTEX
  5
2E2
330
2C4
100
AcDbEntity
  8
Livello 1
 62
   178
420
    65793
370
     9
100
AcDbVertex
100
AcDb2dVertex
 10
20.72517767494023
 20
-118.8526936551827
 30
0.0
  0
VERTEX
  5
2E3
330
2C4
100
AcDbEntity
  8
Livello 1
 62
   178
420
    65793
370
     9
100
AcDbVertex
100
AcDb2dVertex
 10
19.22397731724262
 20
-114.4436604531599
 30
0.0
  0
VERTEX
  5
2E4
330
2C4
100
AcDbEntity
  8
Livello 1
 62
   178
420
    65793
370
     9
100
AcDbVertex
100
AcDb2dVertex
 10
17.06631401483065
 20
-110.3157470427336
 30
0.0
  0
VERTEX
  5
2E5
330
2C4
100
AcDbEntity
  8
Livello 1
 62
   178
420
    65793
370
     9
100
AcDbVertex
100
AcDb2dVertex
 10
14.25201551293005
 20
-106.5633490401994
 30
0.0
  0
VERTEX
  5
2E6
330
2C4
100
AcDbEntity
  8
Livello 1
 62
   178
420
    65793
370
     9
100
AcDbVertex
100
AcDb2dVertex
 10
10.78108181154084
 20
-103.186121936009
 30
0.0
  0
VERTEX
  5
2E7
330
2C4
100
AcDbEntity
  8
Livello 1
 62
   178
420
    65793
370
     9
100
AcDbVertex
100
AcDb2dVertex
 10
6.93480495703366
 20
-100.372167943657
 30
0.0
  0
SEQEND
  5
2E8
330
2C4
100
AcDbEntity
  8
Livello 1
370
     9
  0
POLYLINE
  5
2E9
330
1F
100
AcDbEntity
  8
Livello 1
 62
   178
420
    65793
370
     9
100
AcDb2dPolyline
 66
     1
 10
0.0
 20
0.0
 30
0.0
  0
VERTEX
  5
2EA
330
2E9
100
AcDbEntity
  8
Livello 1
 62
   178
420
    65793
370
     9
100
AcDbVertex
100
AcDb2dVertex
 10
21.38164061965459
 20
-125.9823187619072
 30
0.0
  0
VERTEX
  5
2EB
330
2E9
100
AcDbEntity
  8
Livello 1
 62
   178
420
    65793
370
     9
100
AcDbVertex
100
AcDb2dVertex
 10
21.00646972131088
 20
-121.4792344531371
 30
0.0
  0
VERTEX
  5
2EC
330
2E9
100
AcDbEntity
  8
Livello 1
 62
   178
420
    65793
370
     9
100
AcDbVertex
100
AcDb2dVertex
 10
19.97466362347856
 20
-117.0698567415659
 30
0.0
  0
VERTEX
  5
2ED
330
2E9
100
AcDbEntity
  8
Livello 1
 62
   178
420
    65793
370
     9
100
AcDbVertex
100
AcDb2dVertex
 10
18.19199896463603
 20
-112.8485812434892
 30
0.0
  0
VERTEX
  5
2EE
330
2E9
100
AcDbEntity
  8
Livello 1
 62
   178
420
    65793
370
     9
100
AcDbVertex
100
AcDb2dVertex
 10
15.75287136107914
 20
-108.9087700465575
 30
0.0
  0
VERTEX
  5
2EF
330
2E9
100
AcDbEntity
  8
Livello 1
 62
   178
420
    65793
370
     9
100
AcDbVertex
100
AcDb2dVertex
 10
12.75115966478096
 20
-105.343785238421
 30
0.0
  0
VERTEX
  5
2F0
330
2E9
100
AcDbEntity
  8
Livello 1
 62
   178
420
    65793
370
     9
100
AcDbVertex
100
AcDb2dVertex
 10
9.18634711141869
 20
-102.2480224353755
 30
0.0
  0
VERTEX
  5
2F1
330
2E9
100
AcDbEntity
  8
Livello 1
 62
   178
420
    65793
370
     9
100
AcDbVertex
100
AcDb2dVertex
 10
5.246191404938452
 20
-99.71484372507129
 30
0.0
  0
VERTEX
  5
2F2
330
2E9
100
AcDbEntity
  8
Livello 1
 62
   178
420
    65793
370
     9
100
AcDbVertex
100
AcDb2dVertex
 10
0.836985948141448
 20
-97.74528263615396
 30
0.0
  0
VERTEX
  5
2F3
330
2E9
100
AcDbEntity
  8
Livello 1
 62
   178
420
    65793
370
     9
100
AcDbVertex
100
AcDb2dVertex
 10
-3.759632703053148
 20
-96.43201223717672
 30
0.0
  0
VERTEX
  5
2F4
330
2E9
100
AcDbEntity
  8
Livello 1
 62
   178
420
    65793
370
     9
100
AcDbVertex
100
AcDb2dVertex
 10
-8.54400905819386
 20
-95.68132593094079
 30
0.0
  0
VERTEX
  5
2F5
330
2E9
100
AcDbEntity
  8
Livello 1
 62
   178
420
    65793
370
     9
100
AcDbVertex
100
AcDb2dVertex
 10
-13.42209201053337
 20
-95.68132593094079
 30
0.0
  0
VERTEX
  5
2F6
330
2E9
100
AcDbEntity
  8
Livello 1
 62
   178
420
    65793
370
     9
100
AcDbVertex
100
AcDb2dVertex
 10
-18.11258951370102
 20
-96.43201223717672
 30
0.0
  0
VERTEX
  5
2F7
330
2E9
100
AcDbEntity
  8
Livello 1
 62
   178
420
    65793
370
     9
100
AcDbVertex
100
AcDb2dVertex
 10
-22.80291476209441
 20
-97.74528263615396
 30
0.0
  0
VERTEX
  5
2F8
330
2E9
100
AcDbEntity
  8
Livello 1
 62
   178
420
    65793
370
     9
100
AcDbVertex
100
AcDb2dVertex
 10
-27.11841362169262
 20
-99.71484372507129
 30
0.0
  0
VERTEX
  5
2F9
330
2E9
100
AcDbEntity
  8
Livello 1
 62
   178
420
    65793
370
     9
100
AcDbVertex
100
AcDb2dVertex
 10
-31.15227592537165
 20
-102.2480224353755
 30
0.0
  0
VERTEX
  5
2FA
330
2E9
100
AcDbEntity
  8
Livello 1
 62
   178
420
    65793
370
     9
100
AcDbVertex
100
AcDb2dVertex
 10
-34.62320962676087
 20
-105.343785238421
 30
0.0
  0
VERTEX
  5
2FB
330
2E9
100
AcDbEntity
  8
Livello 1
 62
   178
420
    65793
370
     9
100
AcDbVertex
100
AcDb2dVertex
 10
-37.71897242980637
 20
-108.9087700465575
 30
0.0
  0
VERTEX
  5
2FC
330
2E9
100
AcDbEntity
  8
Livello 1
 62
   178
420
    65793
370
     9
100
AcDbVertex
100
AcDb2dVertex
 10
-40.0642211813902
 20
-112.8485812434892
 30
0.0
  0
VERTEX
  5
2FD
330
2E9
100
AcDbEntity
  8
Livello 1
 62
   178
420
    65793
370
     9
100
AcDbVertex
100
AcDb2dVertex
 10
-41.84636907590994
 20
-117.0698567415659
 30
0.0
  0
VERTEX
  5
2FE
330
2E9
100
AcDbEntity
  8
Livello 1
 62
   178
420
    65793
370
     9
100
AcDbVertex
100
AcDb2dVertex
 10
-42.97257079003811
 20
-121.4792344531371
 30
0.0
  0
VERTEX
  5
2FF
330
2E9
100
AcDbEntity
  8
Livello 1
 62
   178
420
    65793
370
     9
100
AcDbVertex
100
AcDb2dVertex
 10
-43.25386283640876
 20
-125.9823187619072
 30
0.0
  0
VERTEX
  5
300
330
2E9
100
AcDbEntity
  8
Livello 1
 62
   178
420
    65793
370
     9
100
AcDbVertex
100
AcDb2dVertex
 10
-42.97257079003811
 20
-130.5787651583275
 30
0.0
  0
VERTEX
  5
301
330
2E9
100
AcDbEntity
  8
Livello 1
 62
   178
420
    65793
370
     9
100
AcDbVertex
100
AcDb2dVertex
 10
-41.84636907590994
 20
-134.9877983603503
 30
0.0
  0
VERTEX
  5
302
330
2E9
100
AcDbEntity
  8
Livello 1
 62
   178
420
    65793
370
     9
100
AcDbVertex
100
AcDb2dVertex
 10
-40.0642211813902
 20
-139.2094183679754
 30
0.0
  0
VERTEX
  5
303
330
2E9
100
AcDbEntity
  8
Livello 1
 62
   178
420
    65793
370
     9
100
AcDbVertex
100
AcDb2dVertex
 10
-37.71897242980637
 20
-143.1495740744557
 30
0.0
  0
VERTEX
  5
304
330
2E9
100
AcDbEntity
  8
Livello 1
 62
   178
420
    65793
370
     9
100
AcDbVertex
100
AcDb2dVertex
 10
-34.62320962676087
 20
-146.7142143730437
 30
0.0
  0
VERTEX
  5
305
330
2E9
100
AcDbEntity
  8
Livello 1
 62
   178
420
    65793
370
     9
100
AcDbVertex
100
AcDb2dVertex
 10
-31.15227592537165
 20
-149.7159260693419
 30
0.0
  0
VERTEX
  5
306
330
2E9
100
AcDbEntity
  8
Livello 1
 62
   178
420
    65793
370
     9
100
AcDbVertex
100
AcDb2dVertex
 10
-27.11841362169262
 20
-152.3428113768448
 30
0.0
  0
VERTEX
  5
307
330
2E9
100
AcDbEntity
  8
Livello 1
 62
   178
420
    65793
370
     9
100
AcDbVertex
100
AcDb2dVertex
 10
-22.80291476209441
 20
-154.3134059944078
 30
0.0
  0
VERTEX
  5
308
330
2E9
100
AcDbEntity
  8
Livello 1
 62
   178
420
    65793
370
     9
100
AcDbVertex
100
AcDb2dVertex
 10
-18.11258951370102
 20
-155.6263318838365
 30
0.0
  0
VERTEX
  5
309
330
2E9
100
AcDbEntity
  8
Livello 1
 62
   178
420
    65793
370
     9
100
AcDbVertex
100
AcDb2dVertex
 10
-13.42209201053337
 20
-156.2826225737766
 30
0.0
  0
VERTEX
  5
30A
330
2E9
100
AcDbEntity
  8
Livello 1
 62
   178
420
    65793
370
     9
100
AcDbVertex
100
AcDb2dVertex
 10
-8.54400905819386
 20
-156.2826225737766
 30
0.0
  0
VERTEX
  5
30B
330
2E9
100
AcDbEntity
  8
Livello 1
 62
   178
420
    65793
370
     9
100
AcDbVertex
100
AcDb2dVertex
 10
-3.759632703053148
 20
-155.6263318838365
 30
0.0
  0
VERTEX
  5
30C
330
2E9
100
AcDbEntity
  8
Livello 1
 62
   178
420
    65793
370
     9
100
AcDbVertex
100
AcDb2dVertex
 10
0.836985948141448
 20
-154.3134059944078
 30
0.0
  0
VERTEX
  5
30D
330
2E9
100
AcDbEntity
  8
Livello 1
 62
   178
420
    65793
370
     9
100
AcDbVertex
100
AcDb2dVertex
 10
5.246191404938452
 20
-152.3428113768448
 30
0.0
  0
VERTEX
  5
30E
330
2E9
100
AcDbEntity
  8
Livello 1
 62
   178
420
    65793
370
     9
100
AcDbVertex
100
AcDb2dVertex
 10
9.18634711141869
 20
-149.7159260693419
 30
0.0
  0
VERTEX
  5
30F
330
2E9
100
AcDbEntity
  8
Livello 1
 62
   178
420
    65793
370
     9
100
AcDbVertex
100
AcDb2dVertex
 10
12.75115966478096
 20
-146.7142143730437
 30
0.0
  0
VERTEX
  5
310
330
2E9
100
AcDbEntity
  8
Livello 1
 62
   178
420
    65793
370
     9
100
AcDbVertex
100
AcDb2dVertex
 10
15.75287136107914
 20
-143.1495740744557
 30
0.0
  0
VERTEX
  5
311
330
2E9
100
AcDbEntity
  8
Livello 1
 62
   178
420
    65793
370
     9
100
AcDbVertex
100
AcDb2dVertex
 10
18.19199896463603
 20
-139.2094183679754
 30
0.0
  0
VERTEX
  5
312
330
2E9
100
AcDbEntity
  8
Livello 1
 62
   178
420
    65793
370
     9
100
AcDbVertex
100
AcDb2dVertex
 10
19.97466362347856
 20
-134.9877983603503
 30
0.0
  0
VERTEX
  5
313
330
2E9
100
AcDbEntity
  8
Livello 1
 62
   178
420
    65793
370
     9
100
AcDbVertex
100
AcDb2dVertex
 10
21.00646972131088
 20
-130.5787651583275
 30
0.0
  0
VERTEX
  5
314
330
2E9
100
AcDbEntity
  8
Livello 1
 62
   178
420
    65793
370
     9
100
AcDbVertex
100
AcDb2dVertex
 10
21.38164061965459
 20
-125.9823187619072
 30
0.0
  0
SEQEND
  5
315
330
2E9
100
AcDbEntity
  8
Livello 1
370
     9
  0
POLYLINE
  5
316
330
1F
100
AcDbEntity
  8
Livello 1
 62
   178
420
    65793
370
     9
100
AcDb2dPolyline
 66
     1
 10
0.0
 20
0.0
 30
0.0
  0
VERTEX
  5
317
330
316
100
AcDbEntity
  8
Livello 1
 62
   178
420
    65793
370
     9
100
AcDbVertex
100
AcDb2dVertex
 10
-10.98279215220222
 20
-154.7815944708532
 30
0.0
  0
VERTEX
  5
318
330
316
100
AcDbEntity
  8
Livello 1
 62
   178
420
    65793
370
     9
100
AcDbVertex
100
AcDb2dVertex
 10
-6.480052352980682
 20
-154.4997856601598
 30
0.0
  0
VERTEX
  5
319
330
316
100
AcDbEntity
  8
Livello 1
 62
   178
420
    65793
370
     9
100
AcDbVertex
100
AcDb2dVertex
 10
-1.977140298984882
 20
-153.6557372662736
 30
0.0
  0
VERTEX
  5
31A
330
316
100
AcDbEntity
  8
Livello 1
 62
   178
420
    65793
370
     9
100
AcDbVertex
100
AcDb2dVertex
 10
2.244307453866007
 20
-152.1550536728987
 30
0.0
  0
VERTEX
  5
31B
330
316
100
AcDbEntity
  8
Livello 1
 62
   178
420
    65793
370
     9
100
AcDbVertex
100
AcDb2dVertex
 10
6.277997502770779
 20
-150.1854925839814
 30
0.0
  0
VERTEX
  5
31C
330
316
100
AcDbEntity
  8
Livello 1
 62
   178
420
    65793
370
     9
100
AcDbVertex
100
AcDb2dVertex
 10
9.936688908106106
 20
-147.6519693641287
 30
0.0
  0
VERTEX
  5
31D
330
316
100
AcDbEntity
  8
Livello 1
 62
   178
420
    65793
370
     9
100
AcDbVertex
100
AcDb2dVertex
 10
13.12650281789893
 20
-144.6502576678305
 30
0.0
  0
VERTEX
  5
31E
330
316
100
AcDbEntity
  8
Livello 1
 62
   178
420
    65793
370
     9
100
AcDbVertex
100
AcDb2dVertex
 10
15.94080131979952
 20
-141.2726860540916
 30
0.0
  0
VERTEX
  5
31F
330
316
100
AcDbEntity
  8
Livello 1
 62
   178
420
    65793
370
     9
100
AcDbVertex
100
AcDb2dVertex
 10
18.19199896463603
 20
-137.520632561106
 30
0.0
  0
VERTEX
  5
320
330
316
100
AcDbEntity
  8
Livello 1
 62
   178
420
    65793
370
     9
100
AcDbVertex
100
AcDb2dVertex
 10
19.8807847715055
 20
-133.5808213641743
 30
0.0
  0
VERTEX
  5
321
330
316
100
AcDbEntity
  8
Livello 1
 62
   178
420
    65793
370
     9
100
AcDbVertex
100
AcDb2dVertex
 10
20.91241861456356
 20
-129.4525634441994
 30
0.0
  0
VERTEX
  5
322
330
316
100
AcDbEntity
  8
Livello 1
 62
   178
420
    65793
370
     9
100
AcDbVertex
100
AcDb2dVertex
 10
21.38164061965459
 20
-125.2316324556713
 30
0.0
  0
SEQEND
  5
323
330
316
100
AcDbEntity
  8
Livello 1
370
     9
  0
POLYLINE
  5
324
330
1F
100
AcDbEntity
  8
Livello 1
 62
   178
420
    65793
370
     9
100
AcDb2dPolyline
 66
     1
 10
0.0
 20
0.0
 30
0.0
  0
VERTEX
  5
325
330
324
100
AcDbEntity
  8
Livello 1
 62
   178
420
    65793
370
     9
100
AcDbVertex
100
AcDb2dVertex
 10
-43.25386283640876
 20
-125.2316324556713
 30
0.0
  0
VERTEX
  5
326
330
324
100
AcDbEntity
  8
Livello 1
 62
   178
420
    65793
370
     9
100
AcDbVertex
100
AcDb2dVertex
 10
-42.87869193806505
 20
-129.4525634441994
 30
0.0
  0
VERTEX
  5
327
330
324
100
AcDbEntity
  8
Livello 1
 62
   178
420
    65793
370
     9
100
AcDbVertex
100
AcDb2dVertex
 10
-41.75300698825966
 20
-133.5808213641743
 30
0.0
  0
VERTEX
  5
328
330
324
100
AcDbEntity
  8
Livello 1
 62
   178
420
    65793
370
     9
100
AcDbVertex
100
AcDb2dVertex
 10
-40.0642211813902
 20
-137.520632561106
 30
0.0
  0
VERTEX
  5
329
330
324
100
AcDbEntity
  8
Livello 1
 62
   178
420
    65793
370
     9
100
AcDbVertex
100
AcDb2dVertex
 10
-37.90638562420396
 20
-141.2726860540916
 30
0.0
  0
VERTEX
  5
32A
330
324
100
AcDbEntity
  8
Livello 1
 62
   178
420
    65793
370
     9
100
AcDbVertex
100
AcDb2dVertex
 10
-35.09225937707763
 20
-144.6502576678305
 30
0.0
  0
VERTEX
  5
32B
330
324
100
AcDbEntity
  8
Livello 1
 62
   178
420
    65793
370
     9
100
AcDbVertex
100
AcDb2dVertex
 10
-31.80891112486027
 20
-147.6519693641287
 30
0.0
  0
VERTEX
  5
32C
330
324
100
AcDbEntity
  8
Livello 1
 62
   178
420
    65793
370
     9
100
AcDbVertex
100
AcDb2dVertex
 10
-28.15004746475068
 20
-150.1854925839814
 30
0.0
  0
VERTEX
  5
32D
330
324
100
AcDbEntity
  8
Livello 1
 62
   178
420
    65793
370
     9
100
AcDbVertex
100
AcDb2dVertex
 10
-24.21040852259323
 20
-152.1550536728987
 30
0.0
  0
VERTEX
  5
32E
330
324
100
AcDbEntity
  8
Livello 1
 62
   178
420
    65793
370
     9
100
AcDbVertex
100
AcDb2dVertex
 10
-19.89473740822076
 20
-153.6557372662736
 30
0.0
  0
VERTEX
  5
32F
330
324
100
AcDbEntity
  8
Livello 1
 62
   178
420
    65793
370
     9
100
AcDbVertex
100
AcDb2dVertex
 10
-15.48587646097228
 20
-154.4997856601598
 30
0.0
  0
VERTEX
  5
330
330
324
100
AcDbEntity
  8
Livello 1
 62
   178
420
    65793
370
     9
100
AcDbVertex
100
AcDb2dVertex
 10
-10.98279215220222
 20
-154.7815944708532
 30
0.0
  0
SEQEND
  5
331
330
324
100
AcDbEntity
  8
Livello 1
370
     9
  0
POLYLINE
  5
332
330
1F
100
AcDbEntity
  8
Livello 1
 62
   178
420
    65793
370
     9
100
AcDb2dPolyline
 66
     1
 10
0.0
 20
0.0
 30
0.0
  0
VERTEX
  5
333
330
332
100
AcDbEntity
  8
Livello 1
 62
   178
420
    65793
370
     9
100
AcDbVertex
100
AcDb2dVertex
 10
14.43994547165043
 20
-44.08550888654807
 30
0.0
  0
VERTEX
  5
334
330
332
100
AcDbEntity
  8
Livello 1
 62
   178
420
    65793
370
     9
100
AcDbVertex
100
AcDb2dVertex
 10
14.43994547165043
 20
-44.08550888654807
 30
0.0
  0
SEQEND
  5
335
330
332
100
AcDbEntity
  8
Livello 1
370
     9
  0
POLYLINE
  5
336
330
1F
100
AcDbEntity
  8
Livello 1
 62
   178
420
    65793
370
     9
100
AcDb2dPolyline
 66
     1
 10
0.0
 20
0.0
 30
0.0
  0
VERTEX
  5
337
330
336
100
AcDbEntity
  8
Livello 1
 62
   178
420
    65793
370
     9
100
AcDbVertex
100
AcDb2dVertex
 10
-32.18390976842972
 20
-87.4258436196366
 30
0.0
  0
VERTEX
  5
338
330
336
100
AcDbEntity
  8
Livello 1
 62
   178
420
    65793
370
     9
100
AcDbVertex
100
AcDb2dVertex
 10
-32.18390976842972
 20
-87.51989472638392
 30
0.0
  0
VERTEX
  5
339
330
336
100
AcDbEntity
  8
Livello 1
 62
   178
420
    65793
370
     9
100
AcDbVertex
100
AcDb2dVertex
 10
-32.09020317123093
 20
-87.61360132358271
 30
0.0
  0
VERTEX
  5
33A
330
336
100
AcDbEntity
  8
Livello 1
 62
   178
420
    65793
370
     9
100
AcDbVertex
100
AcDb2dVertex
 10
-31.99666882880639
 20
-87.70730792078152
 30
0.0
  0
VERTEX
  5
33B
330
336
100
AcDbEntity
  8
Livello 1
 62
   178
420
    65793
370
     9
100
AcDbVertex
100
AcDb2dVertex
 10
-31.80891112486027
 20
-87.80135902752883
 30
0.0
  0
VERTEX
  5
33C
330
336
100
AcDbEntity
  8
Livello 1
 62
   178
420
    65793
370
     9
100
AcDbVertex
100
AcDb2dVertex
 10
-31.71503227288721
 20
-87.80135902752883
 30
0.0
  0
VERTEX
  5
33D
330
336
100
AcDbEntity
  8
Livello 1
 62
   178
420
    65793
370
     9
100
AcDbVertex
100
AcDb2dVertex
 10
-31.62115342091416
 20
-87.89506562472762
 30
0.0
  0
VERTEX
  5
33E
330
336
100
AcDbEntity
  8
Livello 1
 62
   178
420
    65793
370
     9
100
AcDbVertex
100
AcDb2dVertex
 10
-31.4335679717423
 20
-87.89506562472762
 30
0.0
  0
VERTEX
  5
33F
330
336
100
AcDbEntity
  8
Livello 1
 62
   178
420
    65793
370
     9
100
AcDbVertex
100
AcDb2dVertex
 10
-31.24615477734471
 20
-87.9884277123779
 30
0.0
  0
SEQEND
  5
340
330
336
100
AcDbEntity
  8
Livello 1
370
     9
  0
POLYLINE
  5
341
330
1F
100
AcDbEntity
  8
Livello 1
 62
   178
420
    65793
370
     9
100
AcDb2dPolyline
 66
     1
 10
0.0
 20
0.0
 30
0.0
  0
VERTEX
  5
342
330
341
100
AcDbEntity
  8
Livello 1
 62
   178
420
    65793
370
     9
100
AcDbVertex
100
AcDb2dVertex
 10
11.71918131217437
 20
-95.68132593094079
 30
0.0
  0
VERTEX
  5
343
330
341
100
AcDbEntity
  8
Livello 1
 62
   178
420
    65793
370
     9
100
AcDbVertex
100
AcDb2dVertex
 10
11.34418266860493
 20
-95.68132593094079
 30
0.0
  0
VERTEX
  5
344
330
341
100
AcDbEntity
  8
Livello 1
 62
   178
420
    65793
370
     9
100
AcDbVertex
100
AcDb2dVertex
 10
10.8749606635139
 20
-95.96244572253717
 30
0.0
  0
VERTEX
  5
345
330
341
100
AcDbEntity
  8
Livello 1
 62
   178
420
    65793
370
     9
100
AcDbVertex
100
AcDb2dVertex
 10
10.21815320925102
 20
-96.43201223717672
 30
0.0
  0
VERTEX
  5
346
330
341
100
AcDbEntity
  8
Livello 1
 62
   178
420
    65793
370
     9
100
AcDbVertex
100
AcDb2dVertex
 10
9.561690264536661
 20
-97.18235403386414
 30
0.0
  0
VERTEX
  5
347
330
341
100
AcDbEntity
  8
Livello 1
 62
   178
420
    65793
370
     9
100
AcDbVertex
100
AcDb2dVertex
 10
8.717125106327664
 20
-98.02674693729887
 30
0.0
  0
VERTEX
  5
348
330
341
100
AcDbEntity
  8
Livello 1
 62
   178
420
    65793
370
     9
100
AcDbVertex
100
AcDb2dVertex
 10
7.872732202892928
 20
-99.15191512278147
 30
0.0
  0
VERTEX
  5
349
330
341
100
AcDbEntity
  8
Livello 1
 62
   178
420
    65793
370
     9
100
AcDbVertex
100
AcDb2dVertex
 10
6.93480495703366
 20
-100.372167943657
 30
0.0
  0
SEQEND
  5
34A
330
341
100
AcDbEntity
  8
Livello 1
370
     9
  0
POLYLINE
  5
34B
330
1F
100
AcDbEntity
  8
Livello 1
 62
   178
420
    65793
370
     9
100
AcDb2dPolyline
 66
     1
 10
0.0
 20
0.0
 30
0.0
  0
VERTEX
  5
34C
330
34B
100
AcDbEntity
  8
Livello 1
 62
   178
420
    65793
370
     9
100
AcDbVertex
100
AcDb2dVertex
 10
15.19028726833785
 20
-95.86873912533838
 30
0.0
  0
VERTEX
  5
34D
330
34B
100
AcDbEntity
  8
Livello 1
 62
   178
420
    65793
370
     9
100
AcDbVertex
100
AcDb2dVertex
 10
15.28399386553664
 20
-95.77434350904252
 30
0.0
  0
VERTEX
  5
34E
330
34B
100
AcDbEntity
  8
Livello 1
 62
   178
420
    65793
370
     9
100
AcDbVertex
100
AcDb2dVertex
 10
15.37770046273544
 20
-95.58761933374198
 30
0.0
  0
VERTEX
  5
34F
330
34B
100
AcDbEntity
  8
Livello 1
 62
   178
420
    65793
370
     9
100
AcDbVertex
100
AcDb2dVertex
 10
15.37770046273544
 20
-95.49356822699467
 30
0.0
  0
VERTEX
  5
350
330
34B
100
AcDbEntity
  8
Livello 1
 62
   178
420
    65793
370
     9
100
AcDbVertex
100
AcDb2dVertex
 10
15.47157931470849
 20
-95.39986162979588
 30
0.0
  0
VERTEX
  5
351
330
34B
100
AcDbEntity
  8
Livello 1
 62
   178
420
    65793
370
     9
100
AcDbVertex
100
AcDb2dVertex
 10
15.56563042145581
 20
-95.21175941630123
 30
0.0
  0
VERTEX
  5
352
330
34B
100
AcDbEntity
  8
Livello 1
 62
   178
420
    65793
370
     9
100
AcDbVertex
100
AcDb2dVertex
 10
15.56563042145581
 20
-95.11805281910243
 30
0.0
  0
VERTEX
  5
353
330
34B
100
AcDbEntity
  8
Livello 1
 62
   178
420
    65793
370
     9
100
AcDbVertex
100
AcDb2dVertex
 10
15.65899250910609
 20
-95.02434622190364
 30
0.0
  0
VERTEX
  5
354
330
34B
100
AcDbEntity
  8
Livello 1
 62
   178
420
    65793
370
     9
100
AcDbVertex
100
AcDb2dVertex
 10
15.65899250910609
 20
-94.93132864380189
 30
0.0
  0
VERTEX
  5
355
330
34B
100
AcDbEntity
  8
Livello 1
 62
   178
420
    65793
370
     9
100
AcDbVertex
100
AcDb2dVertex
 10
15.65899250910609
 20
-94.83727753705458
 30
0.0
  0
SEQEND
  5
356
330
34B
100
AcDbEntity
  8
Livello 1
370
     9
  0
POLYLINE
  5
357
330
1F
100
AcDbEntity
  8
Livello 1
 62
   178
420
    65793
370
     9
100
AcDb2dPolyline
 66
     1
 10
0.0
 20
0.0
 30
0.0
  0
VERTEX
  5
358
330
357
100
AcDbEntity
  8
Livello 1
 62
   178
420
    65793
370
     9
100
AcDbVertex
100
AcDb2dVertex
 10
-49.72650823409615
 20
-56.93743759427259
 30
0.0
  0
VERTEX
  5
359
330
357
100
AcDbEntity
  8
Livello 1
 62
   178
420
    65793
370
     9
100
AcDbVertex
100
AcDb2dVertex
 10
-52.35356579637342
 20
-61.25276419909653
 30
0.0
  0
VERTEX
  5
35A
330
357
100
AcDbEntity
  8
Livello 1
 62
   178
420
    65793
370
     9
100
AcDbVertex
100
AcDb2dVertex
 10
-54.41700573726381
 20
-65.84955510506539
 30
0.0
  0
VERTEX
  5
35B
330
357
100
AcDbEntity
  8
Livello 1
 62
   178
420
    65793
370
     9
100
AcDbVertex
100
AcDb2dVertex
 10
-55.91803384018716
 20
-70.63410371498037
 30
0.0
  0
VERTEX
  5
35C
330
357
100
AcDbEntity
  8
Livello 1
 62
   178
420
    65793
370
     9
100
AcDbVertex
100
AcDb2dVertex
 10
-56.85630559559495
 20
-75.51166990299708
 30
0.0
  0
VERTEX
  5
35D
330
357
100
AcDbEntity
  8
Livello 1
 62
   178
420
    65793
370
     9
100
AcDbVertex
100
AcDb2dVertex
 10
-57.13742538719134
 20
-80.48363170730966
 30
0.0
  0
SEQEND
  5
35E
330
357
100
AcDbEntity
  8
Livello 1
370
     9
  0
POLYLINE
  5
35F
330
1F
100
AcDbEntity
  8
Livello 1
 62
   178
420
    65793
370
     9
100
AcDb2dPolyline
 66
     1
 10
0.0
 20
0.0
 30
0.0
  0
VERTEX
  5
360
330
35F
100
AcDbEntity
  8
Livello 1
 62
   178
420
    65793
370
     9
100
AcDbVertex
100
AcDb2dVertex
 10
35.2655476799857
 20
-80.48363170730966
 30
0.0
  0
VERTEX
  5
361
330
35F
100
AcDbEntity
  8
Livello 1
 62
   178
420
    65793
370
     9
100
AcDbVertex
100
AcDb2dVertex
 10
34.98408337884079
 20
-75.79347871369052
 30
0.0
  0
VERTEX
  5
362
330
35F
100
AcDbEntity
  8
Livello 1
 62
   178
420
    65793
370
     9
100
AcDbVertex
100
AcDb2dVertex
 10
34.13969047540605
 20
-71.00858559422703
 30
0.0
  0
VERTEX
  5
363
330
35F
100
AcDbEntity
  8
Livello 1
 62
   178
420
    65793
370
     9
100
AcDbVertex
100
AcDb2dVertex
 10
32.73271347923001
 20
-66.50619030455401
 30
0.0
  0
VERTEX
  5
364
330
35F
100
AcDbEntity
  8
Livello 1
 62
   178
420
    65793
370
     9
100
AcDbVertex
100
AcDb2dVertex
 10
30.85685898751148
 20
-62.00345050533247
 30
0.0
  0
VERTEX
  5
365
330
35F
100
AcDbEntity
  8
Livello 1
 62
   178
420
    65793
370
     9
100
AcDbVertex
100
AcDb2dVertex
 10
28.41755912918033
 20
-57.87588160445464
 30
0.0
  0
SEQEND
  5
366
330
35F
100
AcDbEntity
  8
Livello 1
370
     9
  0
POLYLINE
  5
367
330
1F
100
AcDbEntity
  8
Livello 1
 62
   178
420
    65793
370
     9
100
AcDb2dPolyline
 66
     1
 10
0.0
 20
0.0
 30
0.0
  0
VERTEX
  5
368
330
367
100
AcDbEntity
  8
Livello 1
 62
   178
420
    65793
370
     9
100
AcDbVertex
100
AcDb2dVertex
 10
28.41755912918033
 20
-57.87588160445464
 30
0.0
  0
VERTEX
  5
369
330
367
100
AcDbEntity
  8
Livello 1
 62
   178
420
    65793
370
     9
100
AcDbVertex
100
AcDb2dVertex
 10
25.79084607645159
 20
-54.21753470866784
 30
0.0
  0
VERTEX
  5
36A
330
367
100
AcDbEntity
  8
Livello 1
 62
   178
420
    65793
370
     9
100
AcDbVertex
100
AcDb2dVertex
 10
22.78878987060489
 20
-50.83961858538038
 30
0.0
  0
VERTEX
  5
36B
330
367
100
AcDbEntity
  8
Livello 1
 62
   178
420
    65793
370
     9
100
AcDbVertex
100
AcDb2dVertex
 10
19.41173502118873
 20
-47.83825139863072
 30
0.0
  0
VERTEX
  5
36C
330
367
100
AcDbEntity
  8
Livello 1
 62
   178
420
    65793
370
     9
100
AcDbVertex
100
AcDb2dVertex
 10
15.65899250910609
 20
-45.02326387763308
 30
0.0
  0
SEQEND
  5
36D
330
367
100
AcDbEntity
  8
Livello 1
370
     9
  0
POLYLINE
  5
36E
330
1F
100
AcDbEntity
  8
Livello 1
 62
   178
420
    65793
370
     9
100
AcDb2dPolyline
 66
     1
 10
0.0
 20
0.0
 30
0.0
  0
VERTEX
  5
36F
330
36E
100
AcDbEntity
  8
Livello 1
 62
   178
420
    65793
370
     9
100
AcDbVertex
100
AcDb2dVertex
 10
-33.68511012612733
 20
-95.68132593094079
 30
0.0
  0
VERTEX
  5
370
330
36E
100
AcDbEntity
  8
Livello 1
 62
   178
420
    65793
370
     9
100
AcDbVertex
100
AcDb2dVertex
 10
-38.00026447617702
 20
-98.77743324353482
 30
0.0
  0
VERTEX
  5
371
330
36E
100
AcDbEntity
  8
Livello 1
 62
   178
420
    65793
370
     9
100
AcDbVertex
100
AcDb2dVertex
 10
-41.84636907590994
 20
-102.3417290325743
 30
0.0
  0
VERTEX
  5
372
330
36E
100
AcDbEntity
  8
Livello 1
 62
   178
420
    65793
370
     9
100
AcDbVertex
100
AcDb2dVertex
 10
-45.22376843487461
 20
-106.3755913362533
 30
0.0
  0
VERTEX
  5
373
330
36E
100
AcDbEntity
  8
Livello 1
 62
   178
420
    65793
370
     9
100
AcDbVertex
100
AcDb2dVertex
 10
-47.94418808480215
 20
-110.7846245382761
 30
0.0
  0
VERTEX
  5
374
330
36E
100
AcDbEntity
  8
Livello 1
 62
   178
420
    65793
370
     9
100
AcDbVertex
100
AcDb2dVertex
 10
-50.00831704478959
 20
-115.4747775318952
 30
0.0
  0
VERTEX
  5
375
330
36E
100
AcDbEntity
  8
Livello 1
 62
   178
420
    65793
370
     9
100
AcDbVertex
100
AcDb2dVertex
 10
-51.50900063816442
 20
-120.3533772485575
 30
0.0
  0
VERTEX
  5
376
330
36E
100
AcDbEntity
  8
Livello 1
 62
   178
420
    65793
370
     9
100
AcDbVertex
100
AcDb2dVertex
 10
-52.25985919917462
 20
-125.4193901596174
 30
0.0
  0
VERTEX
  5
377
330
36E
100
AcDbEntity
  8
Livello 1
 62
   178
420
    65793
370
     9
100
AcDbVertex
100
AcDb2dVertex
 10
-52.25985919917462
 20
-130.4847140515802
 30
0.0
  0
VERTEX
  5
378
330
36E
100
AcDbEntity
  8
Livello 1
 62
   178
420
    65793
370
     9
100
AcDbVertex
100
AcDb2dVertex
 10
-51.60270723536321
 20
-135.5510714721886
 30
0.0
  0
VERTEX
  5
379
330
36E
100
AcDbEntity
  8
Livello 1
 62
   178
420
    65793
370
     9
100
AcDbVertex
100
AcDb2dVertex
 10
-50.19573023918718
 20
-140.5223442574041
 30
0.0
  0
VERTEX
  5
37A
330
36E
100
AcDbEntity
  8
Livello 1
 62
   178
420
    65793
370
     9
100
AcDbVertex
100
AcDb2dVertex
 10
-48.13177353397401
 20
-145.2128417605718
 30
0.0
  0
VERTEX
  5
37B
330
36E
100
AcDbEntity
  8
Livello 1
 62
   178
420
    65793
370
     9
100
AcDbVertex
100
AcDb2dVertex
 10
-45.41135388404647
 20
-149.6222194721431
 30
0.0
  0
VERTEX
  5
37C
330
36E
100
AcDbEntity
  8
Livello 1
 62
   178
420
    65793
370
     9
100
AcDbVertex
100
AcDb2dVertex
 10
-42.12835014137764
 20
-153.7497883730209
 30
0.0
  0
VERTEX
  5
37D
330
36E
100
AcDbEntity
  8
Livello 1
 62
   178
420
    65793
370
     9
100
AcDbVertex
100
AcDb2dVertex
 10
-38.28190103209619
 20
-157.3147731811574
 30
0.0
  0
VERTEX
  5
37E
330
36E
100
AcDbEntity
  8
Livello 1
 62
   178
420
    65793
370
     9
100
AcDbVertex
100
AcDb2dVertex
 10
-33.96622991772372
 20
-160.4105359842029
 30
0.0
  0
VERTEX
  5
37F
330
36E
100
AcDbEntity
  8
Livello 1
 62
   178
420
    65793
370
     9
100
AcDbVertex
100
AcDb2dVertex
 10
-29.27573241455607
 20
-163.0367322726089
 30
0.0
  0
VERTEX
  5
380
330
36E
100
AcDbEntity
  8
Livello 1
 62
   178
420
    65793
370
     9
100
AcDbVertex
100
AcDb2dVertex
 10
-24.30394286501777
 20
-164.9132757834245
 30
0.0
  0
VERTEX
  5
381
330
36E
100
AcDbEntity
  8
Livello 1
 62
   178
420
    65793
370
     9
100
AcDbVertex
100
AcDb2dVertex
 10
-19.05086126910881
 20
-166.320597289149
 30
0.0
  0
VERTEX
  5
382
330
36E
100
AcDbEntity
  8
Livello 1
 62
   178
420
    65793
370
     9
100
AcDbVertex
100
AcDb2dVertex
 10
-13.70321180212975
 20
-166.9768879790891
 30
0.0
  0
VERTEX
  5
383
330
36E
100
AcDbEntity
  8
Livello 1
 62
   178
420
    65793
370
     9
100
AcDbVertex
100
AcDb2dVertex
 10
-8.262372502274685
 20
-166.9768879790891
 30
0.0
  0
VERTEX
  5
384
330
36E
100
AcDbEntity
  8
Livello 1
 62
   178
420
    65793
370
     9
100
AcDbVertex
100
AcDb2dVertex
 10
-2.821360947645354
 20
-166.320597289149
 30
0.0
  0
VERTEX
  5
385
330
36E
100
AcDbEntity
  8
Livello 1
 62
   178
420
    65793
370
     9
100
AcDbVertex
100
AcDb2dVertex
 10
2.338358560613327
 20
-164.9132757834245
 30
0.0
  0
VERTEX
  5
386
330
36E
100
AcDbEntity
  8
Livello 1
 62
   178
420
    65793
370
     9
100
AcDbVertex
100
AcDb2dVertex
 10
7.404026962124688
 20
-163.0367322726089
 30
0.0
  0
VERTEX
  5
387
330
36E
100
AcDbEntity
  8
Livello 1
 62
   178
420
    65793
370
     9
100
AcDbVertex
100
AcDb2dVertex
 10
12.09452446529234
 20
-160.4105359842029
 30
0.0
  0
VERTEX
  5
388
330
36E
100
AcDbEntity
  8
Livello 1
 62
   178
420
    65793
370
     9
100
AcDbVertex
100
AcDb2dVertex
 10
16.40985107011629
 20
-157.3147731811574
 30
0.0
  0
VERTEX
  5
389
330
36E
100
AcDbEntity
  8
Livello 1
 62
   178
420
    65793
370
     9
100
AcDbVertex
100
AcDb2dVertex
 10
20.25595566984921
 20
-153.7497883730209
 30
0.0
  0
VERTEX
  5
38A
330
36E
100
AcDbEntity
  8
Livello 1
 62
   178
420
    65793
370
     9
100
AcDbVertex
100
AcDb2dVertex
 10
23.5391316672923
 20
-149.6222194721431
 30
0.0
  0
VERTEX
  5
38B
330
36E
100
AcDbEntity
  8
Livello 1
 62
   178
420
    65793
370
     9
100
AcDbVertex
100
AcDb2dVertex
 10
26.16618922956956
 20
-145.2128417605718
 30
0.0
  0
VERTEX
  5
38C
330
36E
100
AcDbEntity
  8
Livello 1
 62
   178
420
    65793
370
     9
100
AcDbVertex
100
AcDb2dVertex
 10
28.22962917045995
 20
-140.5223442574041
 30
0.0
  0
VERTEX
  5
38D
330
36E
100
AcDbEntity
  8
Livello 1
 62
   178
420
    65793
370
     9
100
AcDbVertex
100
AcDb2dVertex
 10
29.63712293095877
 20
-135.5510714721886
 30
0.0
  0
VERTEX
  5
38E
330
36E
100
AcDbEntity
  8
Livello 1
 62
   178
420
    65793
370
     9
100
AcDbVertex
100
AcDb2dVertex
 10
30.29358587567313
 20
-130.4847140515802
 30
0.0
  0
VERTEX
  5
38F
330
36E
100
AcDbEntity
  8
Livello 1
 62
   178
420
    65793
370
     9
100
AcDbVertex
100
AcDb2dVertex
 10
30.29358587567313
 20
-125.4193901596174
 30
0.0
  0
VERTEX
  5
390
330
36E
100
AcDbEntity
  8
Livello 1
 62
   178
420
    65793
370
     9
100
AcDbVertex
100
AcDb2dVertex
 10
29.54324407898572
 20
-120.3533772485575
 30
0.0
  0
VERTEX
  5
391
330
36E
100
AcDbEntity
  8
Livello 1
 62
   178
420
    65793
370
     9
100
AcDbVertex
100
AcDb2dVertex
 10
28.13609482803542
 20
-115.4747775318952
 30
0.0
  0
VERTEX
  5
392
330
36E
100
AcDbEntity
  8
Livello 1
 62
   178
420
    65793
370
     9
100
AcDbVertex
100
AcDb2dVertex
 10
25.97843152562345
 20
-110.7846245382761
 30
0.0
  0
VERTEX
  5
393
330
36E
100
AcDbEntity
  8
Livello 1
 62
   178
420
    65793
370
     9
100
AcDbVertex
100
AcDb2dVertex
 10
23.25801187569591
 20
-106.3755913362533
 30
0.0
  0
VERTEX
  5
394
330
36E
100
AcDbEntity
  8
Livello 1
 62
   178
420
    65793
370
     9
100
AcDbVertex
100
AcDb2dVertex
 10
19.97466362347856
 20
-102.3417290325743
 30
0.0
  0
VERTEX
  5
395
330
36E
100
AcDbEntity
  8
Livello 1
 62
   178
420
    65793
370
     9
100
AcDbVertex
100
AcDb2dVertex
 10
16.03485242654684
 20
-98.77743324353482
 30
0.0
  0
VERTEX
  5
396
330
36E
100
AcDbEntity
  8
Livello 1
 62
   178
420
    65793
370
     9
100
AcDbVertex
100
AcDb2dVertex
 10
11.71918131217437
 20
-95.68132593094079
 30
0.0
  0
SEQEND
  5
397
330
36E
100
AcDbEntity
  8
Livello 1
370
     9
  0
POLYLINE
  5
398
330
1F
100
AcDbEntity
  8
Livello 1
 62
   178
420
    65793
370
     9
100
AcDb2dPolyline
 66
     1
 10
0.0
 20
0.0
 30
0.0
  0
VERTEX
  5
399
330
398
100
AcDbEntity
  8
Livello 1
 62
   178
420
    65793
370
     9
100
AcDbVertex
100
AcDb2dVertex
 10
-28.80702717378783
 20
-100.372167943657
 30
0.0
  0
VERTEX
  5
39A
330
398
100
AcDbEntity
  8
Livello 1
 62
   178
420
    65793
370
     9
100
AcDbVertex
100
AcDb2dVertex
 10
-29.7449544196471
 20
-99.15191512278147
 30
0.0
  0
VERTEX
  5
39B
330
398
100
AcDbEntity
  8
Livello 1
 62
   178
420
    65793
370
     9
100
AcDbVertex
100
AcDb2dVertex
 10
-30.58917506830757
 20
-98.02674693729887
 30
0.0
  0
VERTEX
  5
39C
330
398
100
AcDbEntity
  8
Livello 1
 62
   178
420
    65793
370
     9
100
AcDbVertex
100
AcDb2dVertex
 10
-31.4335679717423
 20
-97.18235403386414
 30
0.0
  0
VERTEX
  5
39D
330
398
100
AcDbEntity
  8
Livello 1
 62
   178
420
    65793
370
     9
100
AcDbVertex
100
AcDb2dVertex
 10
-32.18390976842972
 20
-96.43201223717672
 30
0.0
  0
VERTEX
  5
39E
330
398
100
AcDbEntity
  8
Livello 1
 62
   178
420
    65793
370
     9
100
AcDbVertex
100
AcDb2dVertex
 10
-32.8407172226926
 20
-95.96244572253717
 30
0.0
  0
VERTEX
  5
39F
330
398
100
AcDbEntity
  8
Livello 1
 62
   178
420
    65793
370
     9
100
AcDbVertex
100
AcDb2dVertex
 10
-33.30976697300937
 20
-95.68132593094079
 30
0.0
  0
VERTEX
  5
3A0
330
398
100
AcDbEntity
  8
Livello 1
 62
   178
420
    65793
370
     9
100
AcDbVertex
100
AcDb2dVertex
 10
-33.68511012612733
 20
-95.68132593094079
 30
0.0
  0
SEQEND
  5
3A1
330
398
100
AcDbEntity
  8
Livello 1
370
     9
  0
POLYLINE
  5
3A2
330
1F
100
AcDbEntity
  8
Livello 1
 62
   178
420
    65793
370
     9
100
AcDb2dPolyline
 66
     1
 10
0.0
 20
0.0
 30
0.0
  0
VERTEX
  5
3A3
330
3A2
100
AcDbEntity
  8
Livello 1
 62
   178
420
    65793
370
     9
100
AcDbVertex
100
AcDb2dVertex
 10
27.85445827211625
 20
-106.7504177250485
 30
0.0
  0
VERTEX
  5
3A4
330
3A2
100
AcDbEntity
  8
Livello 1
 62
   178
420
    65793
370
     9
100
AcDbVertex
100
AcDb2dVertex
 10
24.28964571875398
 20
-102.3417290325743
 30
0.0
  0
VERTEX
  5
3A5
330
3A2
100
AcDbEntity
  8
Livello 1
 62
   178
420
    65793
370
     9
100
AcDbVertex
100
AcDb2dVertex
 10
20.25595566984921
 20
-98.30786672889526
 30
0.0
  0
VERTEX
  5
3A6
330
3A2
100
AcDbEntity
  8
Livello 1
 62
   178
420
    65793
370
     9
100
AcDbVertex
100
AcDb2dVertex
 10
15.65899250910609
 20
-94.83727753705458
 30
0.0
  0
SEQEND
  5
3A7
330
3A2
100
AcDbEntity
  8
Livello 1
370
     9
  0
POLYLINE
  5
3A8
330
1F
100
AcDbEntity
  8
Livello 1
 62
   178
420
    65793
370
     9
100
AcDb2dPolyline
 66
     1
 10
0.0
 20
0.0
 30
0.0
  0
VERTEX
  5
3A9
330
3A8
100
AcDbEntity
  8
Livello 1
 62
   178
420
    65793
370
     9
100
AcDbVertex
100
AcDb2dVertex
 10
28.04238823083663
 20
-153.5627196881718
 30
0.0
  0
VERTEX
  5
3AA
330
3A8
100
AcDbEntity
  8
Livello 1
 62
   178
420
    65793
370
     9
100
AcDbVertex
100
AcDb2dVertex
 10
30.85685898751148
 20
-148.6844644810581
 30
0.0
  0
VERTEX
  5
3AB
330
3A8
100
AcDbEntity
  8
Livello 1
 62
   178
420
    65793
370
     9
100
AcDbVertex
100
AcDb2dVertex
 10
33.01400552560067
 20
-143.6181070604497
 30
0.0
  0
VERTEX
  5
3AC
330
3A8
100
AcDbEntity
  8
Livello 1
 62
   178
420
    65793
370
     9
100
AcDbVertex
100
AcDb2dVertex
 10
34.42132703132523
 20
-138.2709743577934
 30
0.0
  0
VERTEX
  5
3AD
330
3A8
100
AcDbEntity
  8
Livello 1
 62
   178
420
    65793
370
     9
100
AcDbVertex
100
AcDb2dVertex
 10
35.17201333756117
 20
-132.8301350579383
 30
0.0
  0
VERTEX
  5
3AE
330
3A8
100
AcDbEntity
  8
Livello 1
 62
   178
420
    65793
370
     9
100
AcDbVertex
100
AcDb2dVertex
 10
35.07796223081385
 20
-127.3892957580832
 30
0.0
  0
VERTEX
  5
3AF
330
3A8
100
AcDbEntity
  8
Livello 1
 62
   178
420
    65793
370
     9
100
AcDbVertex
100
AcDb2dVertex
 10
34.32762043412643
 20
-121.9481119486796
 30
0.0
  0
VERTEX
  5
3B0
330
3A8
100
AcDbEntity
  8
Livello 1
 62
   178
420
    65793
370
     9
100
AcDbVertex
100
AcDb2dVertex
 10
32.82659233120307
 20
-116.6013237555719
 30
0.0
  0
VERTEX
  5
3B1
330
3A8
100
AcDbEntity
  8
Livello 1
 62
   178
420
    65793
370
     9
100
AcDbVertex
100
AcDb2dVertex
 10
30.6689290287911
 20
-111.5349663349635
 30
0.0
  0
VERTEX
  5
3B2
330
3A8
100
AcDbEntity
  8
Livello 1
 62
   178
420
    65793
370
     9
100
AcDbVertex
100
AcDb2dVertex
 10
27.85445827211625
 20
-106.7504177250485
 30
0.0
  0
SEQEND
  5
3B3
330
3A8
100
AcDbEntity
  8
Livello 1
370
     9
  0
POLYLINE
  5
3B4
330
1F
100
AcDbEntity
  8
Livello 1
 62
   178
420
    65793
370
     9
100
AcDb2dPolyline
 66
     1
 10
0.0
 20
0.0
 30
0.0
  0
VERTEX
  5
3B5
330
3B4
100
AcDbEntity
  8
Livello 1
 62
   178
420
    65793
370
     9
100
AcDbVertex
100
AcDb2dVertex
 10
-50.19573023918718
 20
-107.5007595217359
 30
0.0
  0
VERTEX
  5
3B6
330
3B4
100
AcDbEntity
  8
Livello 1
 62
   178
420
    65793
370
     9
100
AcDbVertex
100
AcDb2dVertex
 10
-52.91632214388898
 20
-112.0982394468018
 30
0.0
  0
VERTEX
  5
3B7
330
3B4
100
AcDbEntity
  8
Livello 1
 62
   178
420
    65793
370
     9
100
AcDbVertex
100
AcDb2dVertex
 10
-54.88622774235483
 20
-117.0698567415659
 30
0.0
  0
VERTEX
  5
3B8
330
3B4
100
AcDbEntity
  8
Livello 1
 62
   178
420
    65793
370
     9
100
AcDbVertex
100
AcDb2dVertex
 10
-56.29320473853087
 20
-122.1358696526258
 30
0.0
  0
VERTEX
  5
3B9
330
3B4
100
AcDbEntity
  8
Livello 1
 62
   178
420
    65793
370
     9
100
AcDbVertex
100
AcDb2dVertex
 10
-57.04423555431534
 20
-127.3892957580832
 30
0.0
  0
VERTEX
  5
3BA
330
3B4
100
AcDbEntity
  8
Livello 1
 62
   178
420
    65793
370
     9
100
AcDbVertex
100
AcDb2dVertex
 10
-57.04423555431534
 20
-132.6423773539922
 30
0.0
  0
VERTEX
  5
3BB
330
3B4
100
AcDbEntity
  8
Livello 1
 62
   178
420
    65793
370
     9
100
AcDbVertex
100
AcDb2dVertex
 10
-56.48096244247699
 20
-137.8961479689982
 30
0.0
  0
VERTEX
  5
3BC
330
3B4
100
AcDbEntity
  8
Livello 1
 62
   178
420
    65793
370
     9
100
AcDbVertex
100
AcDb2dVertex
 10
-55.16751978872549
 20
-142.9618163705096
 30
0.0
  0
VERTEX
  5
3BD
330
3B4
100
AcDbEntity
  8
Livello 1
 62
   178
420
    65793
370
     9
100
AcDbVertex
100
AcDb2dVertex
 10
-53.19761419025963
 20
-147.9341226843706
 30
0.0
  0
VERTEX
  5
3BE
330
3B4
100
AcDbEntity
  8
Livello 1
 62
   178
420
    65793
370
     9
100
AcDbVertex
100
AcDb2dVertex
 10
-50.57090113753089
 20
-152.6242756779898
 30
0.0
  0
SEQEND
  5
3BF
330
3B4
100
AcDbEntity
  8
Livello 1
370
     9
  0
POLYLINE
  5
3C0
330
1F
100
AcDbEntity
  8
Livello 1
 62
   178
420
    65793
370
     9
100
AcDb2dPolyline
 66
     1
 10
0.0
 20
0.0
 30
0.0
  0
VERTEX
  5
3C1
330
3C0
100
AcDbEntity
  8
Livello 1
 62
   178
420
    65793
370
     9
100
AcDbVertex
100
AcDb2dVertex
 10
-37.62492132305905
 20
-94.83727753705458
 30
0.0
  0
VERTEX
  5
3C2
330
3C0
100
AcDbEntity
  8
Livello 1
 62
   178
420
    65793
370
     9
100
AcDbVertex
100
AcDb2dVertex
 10
-41.2839572379429
 20
-97.55718042265931
 30
0.0
  0
VERTEX
  5
3C3
330
3C0
100
AcDbEntity
  8
Livello 1
 62
   178
420
    65793
370
     9
100
AcDbVertex
100
AcDb2dVertex
 10
-44.56696098061173
 20
-100.559236628506
 30
0.0
  0
VERTEX
  5
3C4
330
3C0
100
AcDbEntity
  8
Livello 1
 62
   178
420
    65793
370
     9
100
AcDbVertex
100
AcDb2dVertex
 10
-47.5691894412327
 20
-103.8424126259491
 30
0.0
  0
VERTEX
  5
3C5
330
3C0
100
AcDbEntity
  8
Livello 1
 62
   178
420
    65793
370
     9
100
AcDbVertex
100
AcDb2dVertex
 10
-50.19573023918718
 20
-107.5007595217359
 30
0.0
  0
SEQEND
  5
3C6
330
3C0
100
AcDbEntity
  8
Livello 1
370
     9
  0
POLYLINE
  5
3C7
330
1F
100
AcDbEntity
  8
Livello 1
 62
   178
420
    65793
370
     9
100
AcDb2dPolyline
 66
     1
 10
0.0
 20
0.0
 30
0.0
  0
VERTEX
  5
3C8
330
3C7
100
AcDbEntity
  8
Livello 1
 62
   178
420
    65793
370
     9
100
AcDbVertex
100
AcDb2dVertex
 10
-36.87457952637163
 20
-97.55718042265931
 30
0.0
  0
VERTEX
  5
3C9
330
3C7
100
AcDbEntity
  8
Livello 1
 62
   178
420
    65793
370
     9
100
AcDbVertex
100
AcDb2dVertex
 10
-40.72068412610455
 20
-100.559236628506
 30
0.0
  0
VERTEX
  5
3CA
330
3C7
100
AcDbEntity
  8
Livello 1
 62
   178
420
    65793
370
     9
100
AcDbVertex
100
AcDb2dVertex
 10
-44.19179008226803
 20
-103.936808242245
 30
0.0
  0
VERTEX
  5
3CB
330
3C7
100
AcDbEntity
  8
Livello 1
 62
   178
420
    65793
370
     9
100
AcDbVertex
100
AcDb2dVertex
 10
-47.19384628811473
 20
-107.6888617352306
 30
0.0
  0
VERTEX
  5
3CC
330
3C7
100
AcDbEntity
  8
Livello 1
 62
   178
420
    65793
370
     9
100
AcDbVertex
100
AcDb2dVertex
 10
-49.72650823409615
 20
-111.7230685484581
 30
0.0
  0
VERTEX
  5
3CD
330
3C7
100
AcDbEntity
  8
Livello 1
 62
   178
420
    65793
370
     9
100
AcDbVertex
100
AcDb2dVertex
 10
-51.69658608733627
 20
-116.0383951532821
 30
0.0
  0
SEQEND
  5
3CE
330
3C7
100
AcDbEntity
  8
Livello 1
370
     9
  0
POLYLINE
  5
3CF
330
1F
100
AcDbEntity
  8
Livello 1
 62
   178
420
    65793
370
     9
100
AcDb2dPolyline
 66
     1
 10
0.0
 20
0.0
 30
0.0
  0
VERTEX
  5
3D0
330
3CF
100
AcDbEntity
  8
Livello 1
 62
   178
420
    65793
370
     9
100
AcDbVertex
100
AcDb2dVertex
 10
-51.69658608733627
 20
-116.0383951532821
 30
0.0
  0
VERTEX
  5
3D1
330
3CF
100
AcDbEntity
  8
Livello 1
 62
   178
420
    65793
370
     9
100
AcDbVertex
100
AcDb2dVertex
 10
-53.38537189420574
 20
-121.1037190452449
 30
0.0
  0
VERTEX
  5
3D2
330
3CF
100
AcDbEntity
  8
Livello 1
 62
   178
420
    65793
370
     9
100
AcDbVertex
100
AcDb2dVertex
 10
-54.32312688529075
 20
-126.2630940439551
 30
0.0
  0
VERTEX
  5
3D3
330
3CF
100
AcDbEntity
  8
Livello 1
 62
   178
420
    65793
370
     9
100
AcDbVertex
100
AcDb2dVertex
 10
-54.51105684401113
 20
-131.5172091685096
 30
0.0
  0
VERTEX
  5
3D4
330
3CF
100
AcDbEntity
  8
Livello 1
 62
   178
420
    65793
370
     9
100
AcDbVertex
100
AcDb2dVertex
 10
-53.94795598694704
 20
-136.7702907644185
 30
0.0
  0
VERTEX
  5
3D5
330
3CF
100
AcDbEntity
  8
Livello 1
 62
   178
420
    65793
370
     9
100
AcDbVertex
100
AcDb2dVertex
 10
-52.7283921851686
 20
-141.9293212535802
 30
0.0
  0
VERTEX
  5
3D6
330
3CF
100
AcDbEntity
  8
Livello 1
 62
   178
420
    65793
370
     9
100
AcDbVertex
100
AcDb2dVertex
 10
-50.85219318390154
 20
-146.8079209702425
 30
0.0
  0
VERTEX
  5
3D7
330
3CF
100
AcDbEntity
  8
Livello 1
 62
   178
420
    65793
370
     9
100
AcDbVertex
100
AcDb2dVertex
 10
-48.22582464072132
 20
-151.4980739638616
 30
0.0
  0
VERTEX
  5
3D8
330
3CF
100
AcDbEntity
  8
Livello 1
 62
   178
420
    65793
370
     9
100
AcDbVertex
100
AcDb2dVertex
 10
-45.03583847615424
 20
-155.8140895877826
 30
0.0
  0
VERTEX
  5
3D9
330
3CF
100
AcDbEntity
  8
Livello 1
 62
   178
420
    65793
370
     9
100
AcDbVertex
100
AcDb2dVertex
 10
-41.2839572379429
 20
-159.7542452942628
 30
0.0
  0
VERTEX
  5
3DA
330
3CF
100
AcDbEntity
  8
Livello 1
 62
   178
420
    65793
370
     9
100
AcDbVertex
100
AcDb2dVertex
 10
-37.06233723031775
 20
-163.1307833793562
 30
0.0
  0
VERTEX
  5
3DB
330
3CF
100
AcDbEntity
  8
Livello 1
 62
   178
420
    65793
370
     9
100
AcDbVertex
100
AcDb2dVertex
 10
-32.3718397271501
 20
-166.0394774975526
 30
0.0
  0
VERTEX
  5
3DC
330
3CF
100
AcDbEntity
  8
Livello 1
 62
   178
420
    65793
370
     9
100
AcDbVertex
100
AcDb2dVertex
 10
-27.306343580413
 20
-168.2908473971634
 30
0.0
  0
VERTEX
  5
3DD
330
3CF
100
AcDbEntity
  8
Livello 1
 62
   178
420
    65793
370
     9
100
AcDbVertex
100
AcDb2dVertex
 10
-22.052572965407
 20
-169.9796332040329
 30
0.0
  0
VERTEX
  5
3DE
330
3CF
100
AcDbEntity
  8
Livello 1
 62
   178
420
    65793
370
     9
100
AcDbVertex
100
AcDb2dVertex
 10
-16.51751030403035
 20
-171.0107502827682
 30
0.0
  0
VERTEX
  5
3DF
330
3CF
100
AcDbEntity
  8
Livello 1
 62
   178
420
    65793
370
     9
100
AcDbVertex
100
AcDb2dVertex
 10
-10.88925780977769
 20
-171.2925590934616
 30
0.0
  0
VERTEX
  5
3E0
330
3CF
100
AcDbEntity
  8
Livello 1
 62
   178
420
    65793
370
     9
100
AcDbVertex
100
AcDb2dVertex
 10
-5.354367403175297
 20
-171.0107502827682
 30
0.0
  0
VERTEX
  5
3E1
330
3CF
100
AcDbEntity
  8
Livello 1
 62
   178
420
    65793
370
     9
100
AcDbVertex
100
AcDb2dVertex
 10
0.1805230034270915
 20
-169.9796332040329
 30
0.0
  0
VERTEX
  5
3E2
330
3CF
100
AcDbEntity
  8
Livello 1
 62
   178
420
    65793
370
     9
100
AcDbVertex
100
AcDb2dVertex
 10
5.433949108884568
 20
-168.2908473971634
 30
0.0
  0
VERTEX
  5
3E3
330
3CF
100
AcDbEntity
  8
Livello 1
 62
   178
420
    65793
370
     9
100
AcDbVertex
100
AcDb2dVertex
 10
10.49978976517019
 20
-166.0394774975526
 30
0.0
  0
VERTEX
  5
3E4
330
3CF
100
AcDbEntity
  8
Livello 1
 62
   178
420
    65793
370
     9
100
AcDbVertex
100
AcDb2dVertex
 10
15.19028726833785
 20
-163.1307833793562
 30
0.0
  0
VERTEX
  5
3E5
330
3CF
100
AcDbEntity
  8
Livello 1
 62
   178
420
    65793
370
     9
100
AcDbVertex
100
AcDb2dVertex
 10
19.41173502118873
 20
-159.7542452942628
 30
0.0
  0
VERTEX
  5
3E6
330
3CF
100
AcDbEntity
  8
Livello 1
 62
   178
420
    65793
370
     9
100
AcDbVertex
100
AcDb2dVertex
 10
23.16396076894859
 20
-155.8140895877826
 30
0.0
  0
VERTEX
  5
3E7
330
3CF
100
AcDbEntity
  8
Livello 1
 62
   178
420
    65793
370
     9
100
AcDbVertex
100
AcDb2dVertex
 10
26.35360242396716
 20
-151.4980739638616
 30
0.0
  0
VERTEX
  5
3E8
330
3CF
100
AcDbEntity
  8
Livello 1
 62
   178
420
    65793
370
     9
100
AcDbVertex
100
AcDb2dVertex
 10
28.97997096714737
 20
-146.8079209702425
 30
0.0
  0
VERTEX
  5
3E9
330
3CF
100
AcDbEntity
  8
Livello 1
 62
   178
420
    65793
370
     9
100
AcDbVertex
100
AcDb2dVertex
 10
30.85685898751148
 20
-141.8363036754784
 30
0.0
  0
VERTEX
  5
3EA
330
3CF
100
AcDbEntity
  8
Livello 1
 62
   178
420
    65793
370
     9
100
AcDbVertex
100
AcDb2dVertex
 10
32.07590602496714
 20
-136.7702907644185
 30
0.0
  0
VERTEX
  5
3EB
330
3CF
100
AcDbEntity
  8
Livello 1
 62
   178
420
    65793
370
     9
100
AcDbVertex
100
AcDb2dVertex
 10
32.5449557752839
 20
-131.5172091685096
 30
0.0
  0
VERTEX
  5
3EC
330
3CF
100
AcDbEntity
  8
Livello 1
 62
   178
420
    65793
370
     9
100
AcDbVertex
100
AcDb2dVertex
 10
32.35754258088631
 20
-126.2630940439551
 30
0.0
  0
VERTEX
  5
3ED
330
3CF
100
AcDbEntity
  8
Livello 1
 62
   178
420
    65793
370
     9
100
AcDbVertex
100
AcDb2dVertex
 10
31.41927082547852
 20
-121.0103569575946
 30
0.0
  0
VERTEX
  5
3EE
330
3CF
100
AcDbEntity
  8
Livello 1
 62
   178
420
    65793
370
     9
100
AcDbVertex
100
AcDb2dVertex
 10
29.82453612535637
 20
-116.0383951532821
 30
0.0
  0
SEQEND
  5
3EF
330
3CF
100
AcDbEntity
  8
Livello 1
370
     9
  0
POLYLINE
  5
3F0
330
1F
100
AcDbEntity
  8
Livello 1
 62
   178
420
    65793
370
     9
100
AcDb2dPolyline
 66
     1
 10
0.0
 20
0.0
 30
0.0
  0
VERTEX
  5
3F1
330
3F0
100
AcDbEntity
  8
Livello 1
 62
   178
420
    65793
370
     9
100
AcDbVertex
100
AcDb2dVertex
 10
29.82453612535637
 20
-116.0383951532821
 30
0.0
  0
VERTEX
  5
3F2
330
3F0
100
AcDbEntity
  8
Livello 1
 62
   178
420
    65793
370
     9
100
AcDbVertex
100
AcDb2dVertex
 10
27.76092392969171
 20
-111.7230685484581
 30
0.0
  0
VERTEX
  5
3F3
330
3F0
100
AcDbEntity
  8
Livello 1
 62
   178
420
    65793
370
     9
100
AcDbVertex
100
AcDb2dVertex
 10
25.22808972893603
 20
-107.6888617352306
 30
0.0
  0
VERTEX
  5
3F4
330
3F0
100
AcDbEntity
  8
Livello 1
 62
   178
420
    65793
370
     9
100
AcDbVertex
100
AcDb2dVertex
 10
22.22603352308933
 20
-103.936808242245
 30
0.0
  0
VERTEX
  5
3F5
330
3F0
100
AcDbEntity
  8
Livello 1
 62
   178
420
    65793
370
     9
100
AcDbVertex
100
AcDb2dVertex
 10
18.75527207647438
 20
-100.559236628506
 30
0.0
  0
VERTEX
  5
3F6
330
3F0
100
AcDbEntity
  8
Livello 1
 62
   178
420
    65793
370
     9
100
AcDbVertex
100
AcDb2dVertex
 10
14.90865071241867
 20
-97.55718042265931
 30
0.0
  0
SEQEND
  5
3F7
330
3F0
100
AcDbEntity
  8
Livello 1
370
     9
  0
POLYLINE
  5
3F8
330
1F
100
AcDbEntity
  8
Livello 1
 62
   178
420
    65793
370
     9
100
AcDb2dPolyline
 66
     1
 10
0.0
 20
0.0
 30
0.0
  0
VERTEX
  5
3F9
330
3F8
100
AcDbEntity
  8
Livello 1
 62
   178
420
    65793
370
     9
100
AcDbVertex
100
AcDb2dVertex
 10
10.21815320925102
 20
-87.4258436196366
 30
0.0
  0
VERTEX
  5
3FA
330
3F8
100
AcDbEntity
  8
Livello 1
 62
   178
420
    65793
370
     9
100
AcDbVertex
100
AcDb2dVertex
 10
10.96849500593843
 20
-89.49014483439831
 30
0.0
  0
SEQEND
  5
3FB
330
3F8
100
AcDbEntity
  8
Livello 1
370
     9
  0
POLYLINE
  5
3FC
330
1F
100
AcDbEntity
  8
Livello 1
 62
   178
420
    65793
370
     9
100
AcDb2dPolyline
 66
     1
 10
0.0
 20
0.0
 30
0.0
  0
VERTEX
  5
3FD
330
3FC
100
AcDbEntity
  8
Livello 1
 62
   178
420
    65793
370
     9
100
AcDbVertex
100
AcDb2dVertex
 10
10.96849500593843
 20
-89.49014483439831
 30
0.0
  0
VERTEX
  5
3FE
330
3FC
100
AcDbEntity
  8
Livello 1
 62
   178
420
    65793
370
     9
100
AcDbVertex
100
AcDb2dVertex
 10
12.18805880771687
 20
-91.55341252051443
 30
0.0
  0
VERTEX
  5
3FF
330
3FC
100
AcDbEntity
  8
Livello 1
 62
   178
420
    65793
370
     9
100
AcDbVertex
100
AcDb2dVertex
 10
13.78296576261329
 20
-93.33659394367974
 30
0.0
  0
VERTEX
  5
400
330
3FC
100
AcDbEntity
  8
Livello 1
 62
   178
420
    65793
370
     9
100
AcDbVertex
100
AcDb2dVertex
 10
15.65899250910609
 20
-94.83727753705458
 30
0.0
  0
SEQEND
  5
401
330
3FC
100
AcDbEntity
  8
Livello 1
370
     9
  0
POLYLINE
  5
402
330
1F
100
AcDbEntity
  8
Livello 1
 62
   178
420
    65793
370
     9
100
AcDb2dPolyline
 66
     1
 10
0.0
 20
0.0
 30
0.0
  0
VERTEX
  5
403
330
402
100
AcDbEntity
  8
Livello 1
 62
   178
420
    65793
370
     9
100
AcDbVertex
100
AcDb2dVertex
 10
15.65899250910609
 20
-45.02326387763308
 30
0.0
  0
VERTEX
  5
404
330
402
100
AcDbEntity
  8
Livello 1
 62
   178
420
    65793
370
     9
100
AcDbVertex
100
AcDb2dVertex
 10
15.65899250910609
 20
-45.02326387763308
 30
0.0
  0
SEQEND
  5
405
330
402
100
AcDbEntity
  8
Livello 1
370
     9
  0
POLYLINE
  5
406
330
1F
100
AcDbEntity
  8
Livello 1
 62
   178
420
    65793
370
     9
100
AcDb2dPolyline
 66
     1
 10
0.0
 20
0.0
 30
0.0
  0
VERTEX
  5
407
330
406
100
AcDbEntity
  8
Livello 1
 62
   178
420
    65793
370
     9
100
AcDbVertex
100
AcDb2dVertex
 10
-37.62492132305905
 20
-94.83727753705458
 30
0.0
  0
VERTEX
  5
408
330
406
100
AcDbEntity
  8
Livello 1
 62
   178
420
    65793
370
     9
100
AcDbVertex
100
AcDb2dVertex
 10
-37.62492132305905
 20
-94.93132864380189
 30
0.0
  0
VERTEX
  5
409
330
406
100
AcDbEntity
  8
Livello 1
 62
   178
420
    65793
370
     9
100
AcDbVertex
100
AcDb2dVertex
 10
-37.53104247108599
 20
-95.02434622190364
 30
0.0
  0
VERTEX
  5
40A
330
406
100
AcDbEntity
  8
Livello 1
 62
   178
420
    65793
370
     9
100
AcDbVertex
100
AcDb2dVertex
 10
-37.53104247108599
 20
-95.11805281910243
 30
0.0
  0
VERTEX
  5
40B
330
406
100
AcDbEntity
  8
Livello 1
 62
   178
420
    65793
370
     9
100
AcDbVertex
100
AcDb2dVertex
 10
-37.43768038343572
 20
-95.21175941630123
 30
0.0
  0
VERTEX
  5
40C
330
406
100
AcDbEntity
  8
Livello 1
 62
   178
420
    65793
370
     9
100
AcDbVertex
100
AcDb2dVertex
 10
-37.43768038343572
 20
-95.39986162979588
 30
0.0
  0
VERTEX
  5
40D
330
406
100
AcDbEntity
  8
Livello 1
 62
   178
420
    65793
370
     9
100
AcDbVertex
100
AcDb2dVertex
 10
-37.34380153146266
 20
-95.49356822699467
 30
0.0
  0
VERTEX
  5
40E
330
406
100
AcDbEntity
  8
Livello 1
 62
   178
420
    65793
370
     9
100
AcDbVertex
100
AcDb2dVertex
 10
-37.24992267948961
 20
-95.58761933374198
 30
0.0
  0
VERTEX
  5
40F
330
406
100
AcDbEntity
  8
Livello 1
 62
   178
420
    65793
370
     9
100
AcDbVertex
100
AcDb2dVertex
 10
-37.15587157274229
 20
-95.77434350904252
 30
0.0
  0
VERTEX
  5
410
330
406
100
AcDbEntity
  8
Livello 1
 62
   178
420
    65793
370
     9
100
AcDbVertex
100
AcDb2dVertex
 10
-37.06233723031775
 20
-95.86873912533838
 30
0.0
  0
SEQEND
  5
411
330
406
100
AcDbEntity
  8
Livello 1
370
     9
  0
POLYLINE
  5
412
330
1F
100
AcDbEntity
  8
Livello 1
 62
   178
420
    65793
370
     9
100
AcDb2dPolyline
 66
     1
 10
0.0
 20
0.0
 30
0.0
  0
VERTEX
  5
413
330
412
100
AcDbEntity
  8
Livello 1
 62
   178
420
    65793
370
     9
100
AcDbVertex
100
AcDb2dVertex
 10
-37.62492132305905
 20
-94.83727753705458
 30
0.0
  0
VERTEX
  5
414
330
412
100
AcDbEntity
  8
Livello 1
 62
   178
420
    65793
370
     9
100
AcDbVertex
100
AcDb2dVertex
 10
-35.84277342853931
 20
-93.52297360943176
 30
0.0
  0
VERTEX
  5
415
330
412
100
AcDbEntity
  8
Livello 1
 62
   178
420
    65793
370
     9
100
AcDbVertex
100
AcDb2dVertex
 10
-34.34191758039022
 20
-91.92858341885814
 30
0.0
  0
VERTEX
  5
416
330
412
100
AcDbEntity
  8
Livello 1
 62
   178
420
    65793
370
     9
100
AcDbVertex
100
AcDb2dVertex
 10
-33.21588812103631
 20
-90.0527289271396
 30
0.0
  0
SEQEND
  5
417
330
412
100
AcDbEntity
  8
Livello 1
370
     9
  0
POLYLINE
  5
418
330
1F
100
AcDbEntity
  8
Livello 1
 62
   178
420
    65793
370
     9
100
AcDb2dPolyline
 66
     1
 10
0.0
 20
0.0
 30
0.0
  0
VERTEX
  5
419
330
418
100
AcDbEntity
  8
Livello 1
 62
   178
420
    65793
370
     9
100
AcDbVertex
100
AcDb2dVertex
 10
-33.21588812103631
 20
-90.0527289271396
 30
0.0
  0
VERTEX
  5
41A
330
418
100
AcDbEntity
  8
Livello 1
 62
   178
420
    65793
370
     9
100
AcDbVertex
100
AcDb2dVertex
 10
-32.65313177352075
 20
-88.73911401861383
 30
0.0
  0
VERTEX
  5
41B
330
418
100
AcDbEntity
  8
Livello 1
 62
   178
420
    65793
370
     9
100
AcDbVertex
100
AcDb2dVertex
 10
-32.18390976842972
 20
-87.4258436196366
 30
0.0
  0
SEQEND
  5
41C
330
418
100
AcDbEntity
  8
Livello 1
370
     9
  0
POLYLINE
  5
41D
330
1F
100
AcDbEntity
  8
Livello 1
 62
   178
420
    65793
370
     9
100
AcDb2dPolyline
 66
     1
 10
0.0
 20
0.0
 30
0.0
  0
VERTEX
  5
41E
330
41D
100
AcDbEntity
  8
Livello 1
 62
   178
420
    65793
370
     9
100
AcDbVertex
100
AcDb2dVertex
 10
-37.62492132305905
 20
-45.02326387763308
 30
0.0
  0
VERTEX
  5
41F
330
41D
100
AcDbEntity
  8
Livello 1
 62
   178
420
    65793
370
     9
100
AcDbVertex
100
AcDb2dVertex
 10
-36.31165092408181
 20
-44.08550888654807
 30
0.0
  0
SEQEND
  5
420
330
41D
100
AcDbEntity
  8
Livello 1
370
     9
  0
POLYLINE
  5
421
330
1F
100
AcDbEntity
  8
Livello 1
 62
   178
420
    65793
370
     9
100
AcDb2dPolyline
 66
     1
 10
0.0
 20
0.0
 30
0.0
  0
VERTEX
  5
422
330
421
100
AcDbEntity
  8
Livello 1
 62
   178
420
    65793
370
     9
100
AcDbVertex
100
AcDb2dVertex
 10
14.43994547165043
 20
-44.08550888654807
 30
0.0
  0
VERTEX
  5
423
330
421
100
AcDbEntity
  8
Livello 1
 62
   178
420
    65793
370
     9
100
AcDbVertex
100
AcDb2dVertex
 10
15.65899250910609
 20
-45.02326387763308
 30
0.0
  0
SEQEND
  5
424
330
421
100
AcDbEntity
  8
Livello 1
370
     9
  0
POLYLINE
  5
425
330
1F
100
AcDbEntity
  8
Livello 1
 62
   178
420
    65793
370
     9
100
AcDb2dPolyline
 66
     1
 10
0.0
 20
0.0
 30
0.0
  0
VERTEX
  5
426
330
425
100
AcDbEntity
  8
Livello 1
 62
   178
420
    65793
370
     9
100
AcDbVertex
100
AcDb2dVertex
 10
32.26366372891325
 20
183.4990491620246
 30
0.0
  0
VERTEX
  5
427
330
425
100
AcDbEntity
  8
Livello 1
 62
   178
420
    65793
370
     9
100
AcDbVertex
100
AcDb2dVertex
 10
31.70107963617195
 20
182.3730197026706
 30
0.0
  0
VERTEX
  5
428
330
425
100
AcDbEntity
  8
Livello 1
 62
   178
420
    65793
370
     9
100
AcDbVertex
100
AcDb2dVertex
 10
30.85685898751148
 20
181.1536281556665
 30
0.0
  0
VERTEX
  5
429
330
425
100
AcDbEntity
  8
Livello 1
 62
   178
420
    65793
370
     9
100
AcDbVertex
100
AcDb2dVertex
 10
29.54324407898572
 20
179.9342366086623
 30
0.0
  0
VERTEX
  5
42A
330
425
100
AcDbEntity
  8
Livello 1
 62
   178
420
    65793
370
     9
100
AcDbVertex
100
AcDb2dVertex
 10
27.94850937886357
 20
178.7145005521096
 30
0.0
  0
VERTEX
  5
42B
330
425
100
AcDbEntity
  8
Livello 1
 62
   178
420
    65793
370
     9
100
AcDbVertex
100
AcDb2dVertex
 10
25.97843152562345
 20
177.5888156023042
 30
0.0
  0
VERTEX
  5
42C
330
425
100
AcDbEntity
  8
Livello 1
 62
   178
420
    65793
370
     9
100
AcDbVertex
100
AcDb2dVertex
 10
23.72688937123842
 20
176.4631306524988
 30
0.0
  0
VERTEX
  5
42D
330
425
100
AcDbEntity
  8
Livello 1
 62
   178
420
    65793
370
     9
100
AcDbVertex
100
AcDb2dVertex
 10
21.10034857328394
 20
175.430980045118
 30
0.0
  0
VERTEX
  5
42E
330
425
100
AcDbEntity
  8
Livello 1
 62
   178
420
    65793
370
     9
100
AcDbVertex
100
AcDb2dVertex
 10
18.28605007138335
 20
174.4928805444844
 30
0.0
  0
VERTEX
  5
42F
330
425
100
AcDbEntity
  8
Livello 1
 62
   178
420
    65793
370
     9
100
AcDbVertex
100
AcDb2dVertex
 10
15.19028726833785
 20
173.648659895824
 30
0.0
  0
VERTEX
  5
430
330
425
100
AcDbEntity
  8
Livello 1
 62
   178
420
    65793
370
     9
100
AcDbVertex
100
AcDb2dVertex
 10
11.90676676134623
 20
172.8981458443623
 30
0.0
  0
VERTEX
  5
431
330
425
100
AcDbEntity
  8
Livello 1
 62
   178
420
    65793
370
     9
100
AcDbVertex
100
AcDb2dVertex
 10
8.341954207983957
 20
172.2413383900994
 30
0.0
  0
VERTEX
  5
432
330
425
100
AcDbEntity
  8
Livello 1
 62
   178
420
    65793
370
     9
100
AcDbVertex
100
AcDb2dVertex
 10
4.683607312197154
 20
171.6785820425838
 30
0.0
  0
VERTEX
  5
433
330
425
100
AcDbEntity
  8
Livello 1
 62
   178
420
    65793
370
     9
100
AcDbVertex
100
AcDb2dVertex
 10
-3.009118651591471
 20
170.9282402458964
 30
0.0
  0
VERTEX
  5
434
330
425
100
AcDbEntity
  8
Livello 1
 62
   178
420
    65793
370
     9
100
AcDbVertex
100
AcDb2dVertex
 10
-10.98279215220222
 20
170.6466036899772
 30
0.0
  0
VERTEX
  5
435
330
425
100
AcDbEntity
  8
Livello 1
 62
   178
420
    65793
370
     9
100
AcDbVertex
100
AcDb2dVertex
 10
-18.95681016236149
 20
170.9282402458964
 30
0.0
  0
VERTEX
  5
436
330
425
100
AcDbEntity
  8
Livello 1
 62
   178
420
    65793
370
     9
100
AcDbVertex
100
AcDb2dVertex
 10
-26.64919161660159
 20
171.6785820425838
 30
0.0
  0
VERTEX
  5
437
330
425
100
AcDbEntity
  8
Livello 1
 62
   178
420
    65793
370
     9
100
AcDbVertex
100
AcDb2dVertex
 10
-30.40176187390998
 20
172.2413383900994
 30
0.0
  0
VERTEX
  5
438
330
425
100
AcDbEntity
  8
Livello 1
 62
   178
420
    65793
370
     9
100
AcDbVertex
100
AcDb2dVertex
 10
-33.87269557529919
 20
172.8981458443623
 30
0.0
  0
VERTEX
  5
439
330
425
100
AcDbEntity
  8
Livello 1
 62
   178
420
    65793
370
     9
100
AcDbVertex
100
AcDb2dVertex
 10
-37.15587157274229
 20
173.648659895824
 30
0.0
  0
VERTEX
  5
43A
330
425
100
AcDbEntity
  8
Livello 1
 62
   178
420
    65793
370
     9
100
AcDbVertex
100
AcDb2dVertex
 10
-40.25163437578779
 20
174.4928805444844
 30
0.0
  0
VERTEX
  5
43B
330
425
100
AcDbEntity
  8
Livello 1
 62
   178
420
    65793
370
     9
100
AcDbVertex
100
AcDb2dVertex
 10
-43.15981172966143
 20
175.430980045118
 30
0.0
  0
VERTEX
  5
43C
330
425
100
AcDbEntity
  8
Livello 1
 62
   178
420
    65793
370
     9
100
AcDbVertex
100
AcDb2dVertex
 10
-45.69264593041712
 20
176.4631306524988
 30
0.0
  0
VERTEX
  5
43D
330
425
100
AcDbEntity
  8
Livello 1
 62
   178
420
    65793
370
     9
100
AcDbVertex
100
AcDb2dVertex
 10
-47.94418808480215
 20
177.5888156023042
 30
0.0
  0
VERTEX
  5
43E
330
425
100
AcDbEntity
  8
Livello 1
 62
   178
420
    65793
370
     9
100
AcDbVertex
100
AcDb2dVertex
 10
-49.91426593804227
 20
178.7145005521096
 30
0.0
  0
VERTEX
  5
43F
330
425
100
AcDbEntity
  8
Livello 1
 62
   178
420
    65793
370
     9
100
AcDbVertex
100
AcDb2dVertex
 10
-51.50900063816442
 20
179.9342366086623
 30
0.0
  0
VERTEX
  5
440
330
425
100
AcDbEntity
  8
Livello 1
 62
   178
420
    65793
370
     9
100
AcDbVertex
100
AcDb2dVertex
 10
-52.82227103714165
 20
181.1536281556665
 30
0.0
  0
VERTEX
  5
441
330
425
100
AcDbEntity
  8
Livello 1
 62
   178
420
    65793
370
     9
100
AcDbVertex
100
AcDb2dVertex
 10
-53.66666394057639
 20
182.3730197026706
 30
0.0
  0
VERTEX
  5
442
330
425
100
AcDbEntity
  8
Livello 1
 62
   178
420
    65793
370
     9
100
AcDbVertex
100
AcDb2dVertex
 10
-54.22976479764048
 20
183.5925835044491
 30
0.0
  0
SEQEND
  5
443
330
425
100
AcDbEntity
  8
Livello 1
370
     9
  0
POLYLINE
  5
444
330
1F
100
AcDbEntity
  8
Livello 1
 62
   178
420
    65793
370
     9
100
AcDb2dPolyline
 66
     1
 10
0.0
 20
0.0
 30
0.0
  0
VERTEX
  5
445
330
444
100
AcDbEntity
  8
Livello 1
 62
   178
420
    65793
370
     9
100
AcDbVertex
100
AcDb2dVertex
 10
-37.24992267948961
 20
198.5084689173868
 30
0.0
  0
VERTEX
  5
446
330
444
100
AcDbEntity
  8
Livello 1
 62
   178
420
    65793
370
     9
100
AcDbVertex
100
AcDb2dVertex
 10
-41.56507702953929
 20
197.2889051156083
 30
0.0
  0
VERTEX
  5
447
330
444
100
AcDbEntity
  8
Livello 1
 62
   178
420
    65793
370
     9
100
AcDbVertex
100
AcDb2dVertex
 10
-45.41135388404647
 20
195.9756347166311
 30
0.0
  0
VERTEX
  5
448
330
444
100
AcDbEntity
  8
Livello 1
 62
   178
420
    65793
370
     9
100
AcDbVertex
100
AcDb2dVertex
 10
-48.78858098823689
 20
194.4742621041592
 30
0.0
  0
VERTEX
  5
449
330
444
100
AcDbEntity
  8
Livello 1
 62
   178
420
    65793
370
     9
100
AcDbVertex
100
AcDb2dVertex
 10
-51.69658608733627
 20
192.8796996588113
 30
0.0
  0
VERTEX
  5
44A
330
444
100
AcDbEntity
  8
Livello 1
 62
   178
420
    65793
370
     9
100
AcDbVertex
100
AcDb2dVertex
 10
-53.94795598694704
 20
191.0972072547431
 30
0.0
  0
VERTEX
  5
44B
330
444
100
AcDbEntity
  8
Livello 1
 62
   178
420
    65793
370
     9
100
AcDbVertex
100
AcDb2dVertex
 10
-55.63674179381651
 20
189.2213527630245
 30
0.0
  0
VERTEX
  5
44C
330
444
100
AcDbEntity
  8
Livello 1
 62
   178
420
    65793
370
     9
100
AcDbVertex
100
AcDb2dVertex
 10
-56.76242674362189
 20
187.1573960578114
 30
0.0
  0
VERTEX
  5
44D
330
444
100
AcDbEntity
  8
Livello 1
 62
   178
420
    65793
370
     9
100
AcDbVertex
100
AcDb2dVertex
 10
-57.04423555431534
 20
186.1254177052048
 30
0.0
  0
VERTEX
  5
44E
330
444
100
AcDbEntity
  8
Livello 1
 62
   178
420
    65793
370
     9
100
AcDbVertex
100
AcDb2dVertex
 10
-57.13742538719134
 20
184.9997327553994
 30
0.0
  0
SEQEND
  5
44F
330
444
100
AcDbEntity
  8
Livello 1
370
     9
  0
POLYLINE
  5
450
330
1F
100
AcDbEntity
  8
Livello 1
 62
   178
420
    65793
370
     9
100
AcDb2dPolyline
 66
     1
 10
0.0
 20
0.0
 30
0.0
  0
VERTEX
  5
451
330
450
100
AcDbEntity
  8
Livello 1
 62
   178
420
    65793
370
     9
100
AcDbVertex
100
AcDb2dVertex
 10
35.17201333756117
 20
184.8119750514533
 30
0.0
  0
VERTEX
  5
452
330
450
100
AcDbEntity
  8
Livello 1
 62
   178
420
    65793
370
     9
100
AcDbVertex
100
AcDb2dVertex
 10
35.17201333756117
 20
185.9376600012586
 30
0.0
  0
VERTEX
  5
453
330
450
100
AcDbEntity
  8
Livello 1
 62
   178
420
    65793
370
     9
100
AcDbVertex
100
AcDb2dVertex
 10
34.89037678164199
 20
186.9698106086395
 30
0.0
  0
VERTEX
  5
454
330
450
100
AcDbEntity
  8
Livello 1
 62
   178
420
    65793
370
     9
100
AcDbVertex
100
AcDb2dVertex
 10
33.8583984290354
 20
189.0334228043042
 30
0.0
  0
VERTEX
  5
455
330
450
100
AcDbEntity
  8
Livello 1
 62
   178
420
    65793
370
     9
100
AcDbVertex
100
AcDb2dVertex
 10
32.16978487694019
 20
191.0035006575443
 30
0.0
  0
VERTEX
  5
456
330
450
100
AcDbEntity
  8
Livello 1
 62
   178
420
    65793
370
     9
100
AcDbVertex
100
AcDb2dVertex
 10
29.82453612535637
 20
192.7861653163868
 30
0.0
  0
VERTEX
  5
457
330
450
100
AcDbEntity
  8
Livello 1
 62
   178
420
    65793
370
     9
100
AcDbVertex
100
AcDb2dVertex
 10
27.0105821330043
 20
194.4742621041592
 30
0.0
  0
VERTEX
  5
458
330
450
100
AcDbEntity
  8
Livello 1
 62
   178
420
    65793
370
     9
100
AcDbVertex
100
AcDb2dVertex
 10
23.5391316672923
 20
195.9756347166311
 30
0.0
  0
VERTEX
  5
459
330
450
100
AcDbEntity
  8
Livello 1
 62
   178
420
    65793
370
     9
100
AcDbVertex
100
AcDb2dVertex
 10
19.69302706755938
 20
197.2889051156083
 30
0.0
  0
VERTEX
  5
45A
330
450
100
AcDbEntity
  8
Livello 1
 62
   178
420
    65793
370
     9
100
AcDbVertex
100
AcDb2dVertex
 10
15.37770046273544
 20
198.5084689173868
 30
0.0
  0
VERTEX
  5
45B
330
450
100
AcDbEntity
  8
Livello 1
 62
   178
420
    65793
370
     9
100
AcDbVertex
100
AcDb2dVertex
 10
13.50150146146838
 20
199.0713975196766
 30
0.0
  0
VERTEX
  5
45C
330
450
100
AcDbEntity
  8
Livello 1
 62
   178
420
    65793
370
     9
100
AcDbVertex
100
AcDb2dVertex
 10
11.90676676134623
 20
199.6339816124179
 30
0.0
  0
VERTEX
  5
45D
330
450
100
AcDbEntity
  8
Livello 1
 62
   178
420
    65793
370
     9
100
AcDbVertex
100
AcDb2dVertex
 10
10.78108181154084
 20
200.3844956638796
 30
0.0
  0
VERTEX
  5
45E
330
450
100
AcDbEntity
  8
Livello 1
 62
   178
420
    65793
370
     9
100
AcDbVertex
100
AcDb2dVertex
 10
10.12444661205222
 20
201.0414753729167
 30
0.0
  0
SEQEND
  5
45F
330
450
100
AcDbEntity
  8
Livello 1
370
     9
  0
POLYLINE
  5
460
330
1F
100
AcDbEntity
  8
Livello 1
 62
   178
420
    65793
370
     9
100
AcDb2dPolyline
 66
     1
 10
0.0
 20
0.0
 30
0.0
  0
VERTEX
  5
461
330
460
100
AcDbEntity
  8
Livello 1
 62
   178
420
    65793
370
     9
100
AcDbVertex
100
AcDb2dVertex
 10
-30.2138319151896
 20
201.1350097153413
 30
0.0
  0
VERTEX
  5
462
330
460
100
AcDbEntity
  8
Livello 1
 62
   178
420
    65793
370
     9
100
AcDbVertex
100
AcDb2dVertex
 10
-30.49546847110877
 20
200.8537176689706
 30
0.0
  0
SEQEND
  5
463
330
460
100
AcDbEntity
  8
Livello 1
370
     9
  0
POLYLINE
  5
464
330
1F
100
AcDbEntity
  8
Livello 1
 62
   178
420
    65793
370
     9
100
AcDb2dPolyline
 66
     1
 10
0.0
 20
0.0
 30
0.0
  0
VERTEX
  5
465
330
464
100
AcDbEntity
  8
Livello 1
 62
   178
420
    65793
370
     9
100
AcDbVertex
100
AcDb2dVertex
 10
-31.99666882880639
 20
201.0414753729167
 30
0.0
  0
VERTEX
  5
466
330
464
100
AcDbEntity
  8
Livello 1
 62
   178
420
    65793
370
     9
100
AcDbVertex
100
AcDb2dVertex
 10
-32.74718288026806
 20
200.3844956638796
 30
0.0
  0
VERTEX
  5
467
330
464
100
AcDbEntity
  8
Livello 1
 62
   178
420
    65793
370
     9
100
AcDbVertex
100
AcDb2dVertex
 10
-33.87269557529919
 20
199.6339816124179
 30
0.0
  0
VERTEX
  5
468
330
464
100
AcDbEntity
  8
Livello 1
 62
   178
420
    65793
370
     9
100
AcDbVertex
100
AcDb2dVertex
 10
-35.37372367822254
 20
199.0713975196766
 30
0.0
  0
VERTEX
  5
469
330
464
100
AcDbEntity
  8
Livello 1
 62
   178
420
    65793
370
     9
100
AcDbVertex
100
AcDb2dVertex
 10
-37.24992267948961
 20
198.5084689173868
 30
0.0
  0
SEQEND
  5
46A
330
464
100
AcDbEntity
  8
Livello 1
370
     9
  0
POLYLINE
  5
46B
330
1F
100
AcDbEntity
  8
Livello 1
 62
   178
420
    65793
370
     9
100
AcDb2dPolyline
 66
     1
 10
0.0
 20
0.0
 30
0.0
  0
VERTEX
  5
46C
330
46B
100
AcDbEntity
  8
Livello 1
 62
   178
420
    65793
370
     9
100
AcDbVertex
100
AcDb2dVertex
 10
-29.65142007722256
 20
201.2288885673143
 30
0.0
  0
VERTEX
  5
46D
330
46B
100
AcDbEntity
  8
Livello 1
 62
   178
420
    65793
370
     9
100
AcDbVertex
100
AcDb2dVertex
 10
-27.96263427035309
 20
199.1649318621011
 30
0.0
  0
VERTEX
  5
46E
330
46B
100
AcDbEntity
  8
Livello 1
 62
   178
420
    65793
370
     9
100
AcDbVertex
100
AcDb2dVertex
 10
-26.08660752386029
 20
197.3826117128071
 30
0.0
  0
SEQEND
  5
46F
330
46B
100
AcDbEntity
  8
Livello 1
370
     9
  0
POLYLINE
  5
470
330
1F
100
AcDbEntity
  8
Livello 1
 62
   178
420
    65793
370
     9
100
AcDb2dPolyline
 66
     1
 10
0.0
 20
0.0
 30
0.0
  0
VERTEX
  5
471
330
470
100
AcDbEntity
  8
Livello 1
 62
   178
420
    65793
370
     9
100
AcDbVertex
100
AcDb2dVertex
 10
8.341954207983957
 20
201.1350097153413
 30
0.0
  0
VERTEX
  5
472
330
470
100
AcDbEntity
  8
Livello 1
 62
   178
420
    65793
370
     9
100
AcDbVertex
100
AcDb2dVertex
 10
7.872732202892928
 20
201.1350097153413
 30
0.0
  0
VERTEX
  5
473
330
470
100
AcDbEntity
  8
Livello 1
 62
   178
420
    65793
370
     9
100
AcDbVertex
100
AcDb2dVertex
 10
7.685319008495338
 20
201.2288885673143
 30
0.0
  0
SEQEND
  5
474
330
470
100
AcDbEntity
  8
Livello 1
370
     9
  0
POLYLINE
  5
475
330
1F
100
AcDbEntity
  8
Livello 1
 62
   178
420
    65793
370
     9
100
AcDb2dPolyline
 66
     1
 10
0.0
 20
0.0
 30
0.0
  0
VERTEX
  5
476
330
475
100
AcDbEntity
  8
Livello 1
 62
   178
420
    65793
370
     9
100
AcDbVertex
100
AcDb2dVertex
 10
8.529711911930072
 20
200.8537176689706
 30
0.0
  0
VERTEX
  5
477
330
475
100
AcDbEntity
  8
Livello 1
 62
   178
420
    65793
370
     9
100
AcDbVertex
100
AcDb2dVertex
 10
8.341954207983957
 20
201.1350097153413
 30
0.0
  0
SEQEND
  5
478
330
475
100
AcDbEntity
  8
Livello 1
370
     9
  0
POLYLINE
  5
479
330
1F
100
AcDbEntity
  8
Livello 1
 62
   178
420
    65793
370
     9
100
AcDb2dPolyline
 66
     1
 10
0.0
 20
0.0
 30
0.0
  0
VERTEX
  5
47A
330
479
100
AcDbEntity
  8
Livello 1
 62
   178
420
    65793
370
     9
100
AcDbVertex
100
AcDb2dVertex
 10
-29.65142007722256
 20
201.2288885673143
 30
0.0
  0
VERTEX
  5
47B
330
479
100
AcDbEntity
  8
Livello 1
 62
   178
420
    65793
370
     9
100
AcDbVertex
100
AcDb2dVertex
 10
-29.7449544196471
 20
201.1350097153413
 30
0.0
  0
VERTEX
  5
47C
330
479
100
AcDbEntity
  8
Livello 1
 62
   178
420
    65793
370
     9
100
AcDbVertex
100
AcDb2dVertex
 10
-30.2138319151896
 20
201.1350097153413
 30
0.0
  0
SEQEND
  5
47D
330
479
100
AcDbEntity
  8
Livello 1
370
     9
  0
POLYLINE
  5
47E
330
1F
100
AcDbEntity
  8
Livello 1
 62
   178
420
    65793
370
     9
100
AcDb2dPolyline
 66
     1
 10
0.0
 20
0.0
 30
0.0
  0
VERTEX
  5
47F
330
47E
100
AcDbEntity
  8
Livello 1
 62
   178
420
    65793
370
     9
100
AcDbVertex
100
AcDb2dVertex
 10
4.120506455133068
 20
197.3826117128071
 30
0.0
  0
VERTEX
  5
480
330
47E
100
AcDbEntity
  8
Livello 1
 62
   178
420
    65793
370
     9
100
AcDbVertex
100
AcDb2dVertex
 10
5.996533201625867
 20
199.1649318621011
 30
0.0
  0
VERTEX
  5
481
330
47E
100
AcDbEntity
  8
Livello 1
 62
   178
420
    65793
370
     9
100
AcDbVertex
100
AcDb2dVertex
 10
7.685319008495338
 20
201.2288885673143
 30
0.0
  0
SEQEND
  5
482
330
47E
100
AcDbEntity
  8
Livello 1
370
     9
  0
POLYLINE
  5
483
330
1F
100
AcDbEntity
  8
Livello 1
 62
   178
420
    65793
370
     9
100
AcDb2dPolyline
 66
     1
 10
0.0
 20
0.0
 30
0.0
  0
VERTEX
  5
484
330
483
100
AcDbEntity
  8
Livello 1
 62
   178
420
    65793
370
     9
100
AcDbVertex
100
AcDb2dVertex
 10
14.90865071241867
 20
197.1950262636353
 30
0.0
  0
VERTEX
  5
485
330
483
100
AcDbEntity
  8
Livello 1
 62
   178
420
    65793
370
     9
100
AcDbVertex
100
AcDb2dVertex
 10
12.6572808128079
 20
197.9457125698712
 30
0.0
  0
VERTEX
  5
486
330
483
100
AcDbEntity
  8
Livello 1
 62
   178
420
    65793
370
     9
100
AcDbVertex
100
AcDb2dVertex
 10
10.78108181154084
 20
198.7897609637574
 30
0.0
  0
VERTEX
  5
487
330
483
100
AcDbEntity
  8
Livello 1
 62
   178
420
    65793
370
     9
100
AcDbVertex
100
AcDb2dVertex
 10
9.374104815364808
 20
199.821739316364
 30
0.0
  0
VERTEX
  5
488
330
483
100
AcDbEntity
  8
Livello 1
 62
   178
420
    65793
370
     9
100
AcDbVertex
100
AcDb2dVertex
 10
8.529711911930072
 20
200.8537176689706
 30
0.0
  0
SEQEND
  5
489
330
483
100
AcDbEntity
  8
Livello 1
370
     9
  0
POLYLINE
  5
48A
330
1F
100
AcDbEntity
  8
Livello 1
 62
   178
420
    65793
370
     9
100
AcDb2dPolyline
 66
     1
 10
0.0
 20
0.0
 30
0.0
  0
VERTEX
  5
48B
330
48A
100
AcDbEntity
  8
Livello 1
 62
   178
420
    65793
370
     9
100
AcDbVertex
100
AcDb2dVertex
 10
-30.49546847110877
 20
200.8537176689706
 30
0.0
  0
VERTEX
  5
48C
330
48A
100
AcDbEntity
  8
Livello 1
 62
   178
420
    65793
370
     9
100
AcDbVertex
100
AcDb2dVertex
 10
-31.33968911976925
 20
199.821739316364
 30
0.0
  0
VERTEX
  5
48D
330
48A
100
AcDbEntity
  8
Livello 1
 62
   178
420
    65793
370
     9
100
AcDbVertex
100
AcDb2dVertex
 10
-32.65313177352075
 20
198.7897609637574
 30
0.0
  0
VERTEX
  5
48E
330
48A
100
AcDbEntity
  8
Livello 1
 62
   178
420
    65793
370
     9
100
AcDbVertex
100
AcDb2dVertex
 10
-34.52950302956207
 20
197.9457125698712
 30
0.0
  0
VERTEX
  5
48F
330
48A
100
AcDbEntity
  8
Livello 1
 62
   178
420
    65793
370
     9
100
AcDbVertex
100
AcDb2dVertex
 10
-36.87457952637163
 20
197.1950262636353
 30
0.0
  0
SEQEND
  5
490
330
48A
100
AcDbEntity
  8
Livello 1
370
     9
  0
POLYLINE
  5
491
330
1F
100
AcDbEntity
  8
Livello 1
 62
   178
420
    65793
370
     9
100
AcDb2dPolyline
 66
     1
 10
0.0
 20
0.0
 30
0.0
  0
VERTEX
  5
492
330
491
100
AcDbEntity
  8
Livello 1
 62
   178
420
    65793
370
     9
100
AcDbVertex
100
AcDb2dVertex
 10
-57.13742538719134
 20
48.03634438903259
 30
0.0
  0
VERTEX
  5
493
330
491
100
AcDbEntity
  8
Livello 1
 62
   178
420
    65793
370
     9
100
AcDbVertex
100
AcDb2dVertex
 10
-56.85630559559495
 20
46.25419649451284
 30
0.0
  0
VERTEX
  5
494
330
491
100
AcDbEntity
  8
Livello 1
 62
   178
420
    65793
370
     9
100
AcDbVertex
100
AcDb2dVertex
 10
-56.10579154413328
 20
44.56541068764337
 30
0.0
  0
VERTEX
  5
495
330
491
100
AcDbEntity
  8
Livello 1
 62
   178
420
    65793
370
     9
100
AcDbVertex
100
AcDb2dVertex
 10
-54.88622774235483
 20
42.97067598752122
 30
0.0
  0
VERTEX
  5
496
330
491
100
AcDbEntity
  8
Livello 1
 62
   178
420
    65793
370
     9
100
AcDbVertex
100
AcDb2dVertex
 10
-53.29132078745842
 20
41.46964788459787
 30
0.0
  0
VERTEX
  5
497
330
491
100
AcDbEntity
  8
Livello 1
 62
   178
420
    65793
370
     9
100
AcDbVertex
100
AcDb2dVertex
 10
-51.32141518899257
 20
39.96861978167451
 30
0.0
  0
VERTEX
  5
498
330
491
100
AcDbEntity
  8
Livello 1
 62
   178
420
    65793
370
     9
100
AcDbVertex
100
AcDb2dVertex
 10
-48.88228758543568
 20
38.65534938269727
 30
0.0
  0
VERTEX
  5
499
330
491
100
AcDbEntity
  8
Livello 1
 62
   178
420
    65793
370
     9
100
AcDbVertex
100
AcDb2dVertex
 10
-46.16169568073389
 20
37.43578558091883
 30
0.0
  0
VERTEX
  5
49A
330
491
100
AcDbEntity
  8
Livello 1
 62
   178
420
    65793
370
     9
100
AcDbVertex
100
AcDb2dVertex
 10
-43.15981172966143
 20
36.30992837633919
 30
0.0
  0
VERTEX
  5
49B
330
491
100
AcDbEntity
  8
Livello 1
 62
   178
420
    65793
370
     9
100
AcDbVertex
100
AcDb2dVertex
 10
-39.78292913501955
 20
35.27846678805538
 30
0.0
  0
VERTEX
  5
49C
330
491
100
AcDbEntity
  8
Livello 1
 62
   178
420
    65793
370
     9
100
AcDbVertex
100
AcDb2dVertex
 10
-36.12423772968422
 20
34.3396782683248
 30
0.0
  0
VERTEX
  5
49D
330
491
100
AcDbEntity
  8
Livello 1
 62
   178
420
    65793
370
     9
100
AcDbVertex
100
AcDb2dVertex
 10
-32.27796087517704
 20
33.58968098118591
 30
0.0
  0
VERTEX
  5
49E
330
491
100
AcDbEntity
  8
Livello 1
 62
   178
420
    65793
370
     9
100
AcDbVertex
100
AcDb2dVertex
 10
-28.244098571498
 20
32.93270127214877
 30
0.0
  0
VERTEX
  5
49F
330
491
100
AcDbEntity
  8
Livello 1
 62
   178
420
    65793
370
     9
100
AcDbVertex
100
AcDb2dVertex
 10
-24.02265081864712
 20
32.37011717940747
 30
0.0
  0
VERTEX
  5
4A0
330
491
100
AcDbEntity
  8
Livello 1
 62
   178
420
    65793
370
     9
100
AcDbVertex
100
AcDb2dVertex
 10
-19.61344536185011
 20
31.99460177151524
 30
0.0
  0
VERTEX
  5
4A1
330
491
100
AcDbEntity
  8
Livello 1
 62
   178
420
    65793
370
     9
100
AcDbVertex
100
AcDb2dVertex
 10
-10.70150010583157
 20
31.71348197991885
 30
0.0
  0
VERTEX
  5
4A2
330
491
100
AcDbEntity
  8
Livello 1
 62
   178
420
    65793
370
     9
100
AcDbVertex
100
AcDb2dVertex
 10
-1.789554849813028
 20
32.08865287826256
 30
0.0
  0
VERTEX
  5
4A3
330
491
100
AcDbEntity
  8
Livello 1
 62
   178
420
    65793
370
     9
100
AcDbVertex
100
AcDb2dVertex
 10
2.525599500236656
 20
32.46382377660627
 30
0.0
  0
VERTEX
  5
4A4
330
491
100
AcDbEntity
  8
Livello 1
 62
   178
420
    65793
370
     9
100
AcDbVertex
100
AcDb2dVertex
 10
6.747219507861806
 20
32.93270127214877
 30
0.0
  0
VERTEX
  5
4A5
330
491
100
AcDbEntity
  8
Livello 1
 62
   178
420
    65793
370
     9
100
AcDbVertex
100
AcDb2dVertex
 10
10.8749606635139
 20
33.58968098118591
 30
0.0
  0
VERTEX
  5
4A6
330
491
100
AcDbEntity
  8
Livello 1
 62
   178
420
    65793
370
     9
100
AcDbVertex
100
AcDb2dVertex
 10
14.72123751802108
 20
34.43372937507213
 30
0.0
  0
VERTEX
  5
4A7
330
491
100
AcDbEntity
  8
Livello 1
 62
   178
420
    65793
370
     9
100
AcDbVertex
100
AcDb2dVertex
 10
18.28605007138335
 20
35.37217338525418
 30
0.0
  0
VERTEX
  5
4A8
330
491
100
AcDbEntity
  8
Livello 1
 62
   178
420
    65793
370
     9
100
AcDbVertex
100
AcDb2dVertex
 10
21.56922606882645
 20
36.40397948308651
 30
0.0
  0
VERTEX
  5
4A9
330
491
100
AcDbEntity
  8
Livello 1
 62
   178
420
    65793
370
     9
100
AcDbVertex
100
AcDb2dVertex
 10
24.57128227467315
 20
37.52983668766615
 30
0.0
  0
VERTEX
  5
4AA
330
491
100
AcDbEntity
  8
Livello 1
 62
   178
420
    65793
370
     9
100
AcDbVertex
100
AcDb2dVertex
 10
27.29170192460069
 20
38.84345159619192
 30
0.0
  0
VERTEX
  5
4AB
330
491
100
AcDbEntity
  8
Livello 1
 62
   178
420
    65793
370
     9
100
AcDbVertex
100
AcDb2dVertex
 10
29.63712293095877
 20
40.1560329760721
 30
0.0
  0
VERTEX
  5
4AC
330
491
100
AcDbEntity
  8
Livello 1
 62
   178
420
    65793
370
     9
100
AcDbVertex
100
AcDb2dVertex
 10
31.60720078419889
 20
41.65740558854398
 30
0.0
  0
VERTEX
  5
4AD
330
491
100
AcDbEntity
  8
Livello 1
 62
   178
420
    65793
370
     9
100
AcDbVertex
100
AcDb2dVertex
 10
33.10805663234799
 20
43.15843369146734
 30
0.0
  0
VERTEX
  5
4AE
330
491
100
AcDbEntity
  8
Livello 1
 62
   178
420
    65793
370
     9
100
AcDbVertex
100
AcDb2dVertex
 10
34.32762043412643
 20
44.75351290113801
 30
0.0
  0
VERTEX
  5
4AF
330
491
100
AcDbEntity
  8
Livello 1
 62
   178
420
    65793
370
     9
100
AcDbVertex
100
AcDb2dVertex
 10
34.98408337884079
 20
46.44126517936191
 30
0.0
  0
VERTEX
  5
4B0
330
491
100
AcDbEntity
  8
Livello 1
 62
   178
420
    65793
370
     9
100
AcDbVertex
100
AcDb2dVertex
 10
35.17201333756117
 20
48.2241020929787
 30
0.0
  0
SEQEND
  5
4B1
330
491
100
AcDbEntity
  8
Livello 1
370
     9
  0
POLYLINE
  5
4B2
330
1F
100
AcDbEntity
  8
Livello 1
 62
   178
420
    65793
370
     9
100
AcDb2dPolyline
 66
     1
 10
0.0
 20
0.0
 30
0.0
  0
VERTEX
  5
4B3
330
4B2
100
AcDbEntity
  8
Livello 1
 62
   178
420
    65793
370
     9
100
AcDbVertex
100
AcDb2dVertex
 10
-26.08660752386029
 20
197.3826117128071
 30
0.0
  0
VERTEX
  5
4B4
330
4B2
100
AcDbEntity
  8
Livello 1
 62
   178
420
    65793
370
     9
100
AcDbVertex
100
AcDb2dVertex
 10
-24.58506265661415
 20
196.1630479110287
 30
0.0
  0
VERTEX
  5
4B5
330
4B2
100
AcDbEntity
  8
Livello 1
 62
   178
420
    65793
370
     9
100
AcDbVertex
100
AcDb2dVertex
 10
-22.89696586884173
 20
195.0373629612233
 30
0.0
  0
VERTEX
  5
4B6
330
4B2
100
AcDbEntity
  8
Livello 1
 62
   178
420
    65793
370
     9
100
AcDbVertex
100
AcDb2dVertex
 10
-21.1143012099992
 20
194.0992634605898
 30
0.0
  0
VERTEX
  5
4B7
330
4B2
100
AcDbEntity
  8
Livello 1
 62
   178
420
    65793
370
     9
100
AcDbVertex
100
AcDb2dVertex
 10
-19.14422335675908
 20
193.2552150667036
 30
0.0
  0
VERTEX
  5
4B8
330
4B2
100
AcDbEntity
  8
Livello 1
 62
   178
420
    65793
370
     9
100
AcDbVertex
100
AcDb2dVertex
 10
-17.17466226784175
 20
192.5982353576664
 30
0.0
  0
VERTEX
  5
4B9
330
4B2
100
AcDbEntity
  8
Livello 1
 62
   178
420
    65793
370
     9
100
AcDbVertex
100
AcDb2dVertex
 10
-15.11070556262857
 20
192.1291856073497
 30
0.0
  0
VERTEX
  5
4BA
330
4B2
100
AcDbEntity
  8
Livello 1
 62
   178
420
    65793
370
     9
100
AcDbVertex
100
AcDb2dVertex
 10
-13.0467488574154
 20
191.847893560979
 30
0.0
  0
VERTEX
  5
4BB
330
4B2
100
AcDbEntity
  8
Livello 1
 62
   178
420
    65793
370
     9
100
AcDbVertex
100
AcDb2dVertex
 10
-10.98279215220222
 20
191.7538424542317
 30
0.0
  0
VERTEX
  5
4BC
330
4B2
100
AcDbEntity
  8
Livello 1
 62
   178
420
    65793
370
     9
100
AcDbVertex
100
AcDb2dVertex
 10
-8.82547335933877
 20
191.847893560979
 30
0.0
  0
VERTEX
  5
4BD
330
4B2
100
AcDbEntity
  8
Livello 1
 62
   178
420
    65793
370
     9
100
AcDbVertex
100
AcDb2dVertex
 10
-6.761516654125593
 20
192.1291856073497
 30
0.0
  0
VERTEX
  5
4BE
330
4B2
100
AcDbEntity
  8
Livello 1
 62
   178
420
    65793
370
     9
100
AcDbVertex
100
AcDb2dVertex
 10
-4.697559948912415
 20
192.5982353576664
 30
0.0
  0
VERTEX
  5
4BF
330
4B2
100
AcDbEntity
  8
Livello 1
 62
   178
420
    65793
370
     9
100
AcDbVertex
100
AcDb2dVertex
 10
-2.727482095672296
 20
193.2552150667036
 30
0.0
  0
VERTEX
  5
4C0
330
4B2
100
AcDbEntity
  8
Livello 1
 62
   178
420
    65793
370
     9
100
AcDbVertex
100
AcDb2dVertex
 10
-0.8512830944052349
 20
194.0992634605898
 30
0.0
  0
VERTEX
  5
4C1
330
4B2
100
AcDbEntity
  8
Livello 1
 62
   178
420
    65793
370
     9
100
AcDbVertex
100
AcDb2dVertex
 10
1.024915906861827
 20
195.0373629612233
 30
0.0
  0
VERTEX
  5
4C2
330
4B2
100
AcDbEntity
  8
Livello 1
 62
   178
420
    65793
370
     9
100
AcDbVertex
100
AcDb2dVertex
 10
2.619650606983976
 20
196.1630479110287
 30
0.0
  0
VERTEX
  5
4C3
330
4B2
100
AcDbEntity
  8
Livello 1
 62
   178
420
    65793
370
     9
100
AcDbVertex
100
AcDb2dVertex
 10
4.120506455133068
 20
197.3826117128071
 30
0.0
  0
SEQEND
  5
4C4
330
4B2
100
AcDbEntity
  8
Livello 1
370
     9
  0
POLYLINE
  5
4C5
330
1F
100
AcDbEntity
  8
Livello 1
 62
   178
420
    65793
370
     9
100
AcDb2dPolyline
 66
     1
 10
0.0
 20
0.0
 30
0.0
  0
VERTEX
  5
4C6
330
4C5
100
AcDbEntity
  8
Livello 1
 62
   178
420
    65793
370
     9
100
AcDbVertex
100
AcDb2dVertex
 10
132.8752658087951
 20
60.23198240681701
 30
0.0
  0
VERTEX
  5
4C7
330
4C5
100
AcDbEntity
  8
Livello 1
 62
   178
420
    65793
370
     9
100
AcDbVertex
100
AcDb2dVertex
 10
130.7176025063831
 20
60.98232420350442
 30
0.0
  0
VERTEX
  5
4C8
330
4C5
100
AcDbEntity
  8
Livello 1
 62
   178
420
    65793
370
     9
100
AcDbVertex
100
AcDb2dVertex
 10
128.185112815176
 20
61.73301050974036
 30
0.0
  0
VERTEX
  5
4C9
330
4C5
100
AcDbEntity
  8
Livello 1
 62
   178
420
    65793
370
     9
100
AcDbVertex
100
AcDb2dVertex
 10
125.3701252941783
 20
62.29559460248166
 30
0.0
  0
VERTEX
  5
4CA
330
4C5
100
AcDbEntity
  8
Livello 1
 62
   178
420
    65793
370
     9
100
AcDbVertex
100
AcDb2dVertex
 10
122.3684135978801
 20
62.76447209802416
 30
0.0
  0
SEQEND
  5
4CB
330
4C5
100
AcDbEntity
  8
Livello 1
370
     9
  0
POLYLINE
  5
4CC
330
1F
100
AcDbEntity
  8
Livello 1
 62
   178
420
    65793
370
     9
100
AcDb2dPolyline
 66
     1
 10
0.0
 20
0.0
 30
0.0
  0
VERTEX
  5
4CD
330
4CC
100
AcDbEntity
  8
Livello 1
 62
   178
420
    65793
370
     9
100
AcDbVertex
100
AcDb2dVertex
 10
176.3089626295339
 20
201.4164740164862
 30
0.0
  0
VERTEX
  5
4CE
330
4CC
100
AcDbEntity
  8
Livello 1
 62
   178
420
    65793
370
     9
100
AcDbVertex
100
AcDb2dVertex
 10
175.1837944440513
 20
201.604059465658
 30
0.0
  0
VERTEX
  5
4CF
330
4CC
100
AcDbEntity
  8
Livello 1
 62
   178
420
    65793
370
     9
100
AcDbVertex
100
AcDb2dVertex
 10
176.3089626295339
 20
201.3225951645131
 30
0.0
  0
SEQEND
  5
4D0
330
4CC
100
AcDbEntity
  8
Livello 1
370
     9
  0
POLYLINE
  5
4D1
330
1F
100
AcDbEntity
  8
Livello 1
 62
   178
420
    65793
370
     9
100
AcDb2dPolyline
 66
     1
 10
0.0
 20
0.0
 30
0.0
  0
VERTEX
  5
4D2
330
4D1
100
AcDbEntity
  8
Livello 1
 62
   178
420
    65793
370
     9
100
AcDbVertex
100
AcDb2dVertex
 10
125.6519341048717
 20
62.29559460248166
 30
0.0
  0
VERTEX
  5
4D3
330
4D1
100
AcDbEntity
  8
Livello 1
 62
   178
420
    65793
370
     9
100
AcDbVertex
100
AcDb2dVertex
 10
121.9934149543107
 20
62.76447209802416
 30
0.0
  0
SEQEND
  5
4D4
330
4D1
100
AcDbEntity
  8
Livello 1
370
     9
  0
POLYLINE
  5
4D5
330
1F
100
AcDbEntity
  8
Livello 1
 62
   178
420
    65793
370
     9
100
AcDb2dPolyline
 66
     1
 10
0.0
 20
0.0
 30
0.0
  0
VERTEX
  5
4D6
330
4D5
100
AcDbEntity
  8
Livello 1
 62
   178
420
    65793
370
     9
100
AcDbVertex
100
AcDb2dVertex
 10
175.9344807502872
 20
200.5722533678257
 30
0.0
  0
VERTEX
  5
4D7
330
4D5
100
AcDbEntity
  8
Livello 1
 62
   178
420
    65793
370
     9
100
AcDbVertex
100
AcDb2dVertex
 10
174.9023301429064
 20
200.7598388169976
 30
0.0
  0
SEQEND
  5
4D8
330
4D5
100
AcDbEntity
  8
Livello 1
370
     9
  0
POLYLINE
  5
4D9
330
1F
100
AcDbEntity
  8
Livello 1
 62
   178
420
    65793
370
     9
100
AcDb2dPolyline
 66
     1
 10
0.0
 20
0.0
 30
0.0
  0
VERTEX
  5
4DA
330
4D9
100
AcDbEntity
  8
Livello 1
 62
   178
420
    65793
370
     9
100
AcDbVertex
100
AcDb2dVertex
 10
122.4624647046275
 20
63.70291610820622
 30
0.0
  0
VERTEX
  5
4DB
330
4D9
100
AcDbEntity
  8
Livello 1
 62
   178
420
    65793
370
     9
100
AcDbVertex
100
AcDb2dVertex
 10
125.276763206528
 20
63.32740070031399
 30
0.0
  0
VERTEX
  5
4DC
330
4D9
100
AcDbEntity
  8
Livello 1
 62
   178
420
    65793
370
     9
100
AcDbVertex
100
AcDb2dVertex
 10
128.0907171988801
 20
62.76447209802416
 30
0.0
  0
VERTEX
  5
4DD
330
4D9
100
AcDbEntity
  8
Livello 1
 62
   178
420
    65793
370
     9
100
AcDbVertex
100
AcDb2dVertex
 10
130.529844802437
 20
62.10818140808407
 30
0.0
  0
VERTEX
  5
4DE
330
4D9
100
AcDbEntity
  8
Livello 1
 62
   178
420
    65793
370
     9
100
AcDbVertex
100
AcDb2dVertex
 10
132.5941460171987
 20
61.35783961139666
 30
0.0
  0
SEQEND
  5
4DF
330
4D9
100
AcDbEntity
  8
Livello 1
370
     9
  0
POLYLINE
  5
4E0
330
1F
100
AcDbEntity
  8
Livello 1
 62
   178
420
    65793
370
     9
100
AcDb2dPolyline
 66
     1
 10
0.0
 20
0.0
 30
0.0
  0
VERTEX
  5
4E1
330
4E0
100
AcDbEntity
  8
Livello 1
 62
   178
420
    65793
370
     9
100
AcDbVertex
100
AcDb2dVertex
 10
14.90865071241867
 20
-97.55718042265931
 30
0.0
  0
VERTEX
  5
4E2
330
4E0
100
AcDbEntity
  8
Livello 1
 62
   178
420
    65793
370
     9
100
AcDbVertex
100
AcDb2dVertex
 10
12.6572808128079
 20
-95.58761933374198
 30
0.0
  0
VERTEX
  5
4E3
330
4E0
100
AcDbEntity
  8
Livello 1
 62
   178
420
    65793
370
     9
100
AcDbVertex
100
AcDb2dVertex
 10
10.78108181154084
 20
-93.33659394367974
 30
0.0
  0
VERTEX
  5
4E4
330
4E0
100
AcDbEntity
  8
Livello 1
 62
   178
420
    65793
370
     9
100
AcDbVertex
100
AcDb2dVertex
 10
9.374104815364808
 20
-90.70936412662822
 30
0.0
  0
VERTEX
  5
4E5
330
4E0
100
AcDbEntity
  8
Livello 1
 62
   178
420
    65793
370
     9
100
AcDbVertex
100
AcDb2dVertex
 10
8.529711911930072
 20
-87.9884277123779
 30
0.0
  0
SEQEND
  5
4E6
330
4E0
100
AcDbEntity
  8
Livello 1
370
     9
  0
POLYLINE
  5
4E7
330
1F
100
AcDbEntity
  8
Livello 1
 62
   178
420
    65793
370
     9
100
AcDb2dPolyline
 66
     1
 10
0.0
 20
0.0
 30
0.0
  0
VERTEX
  5
4E8
330
4E7
100
AcDbEntity
  8
Livello 1
 62
   178
420
    65793
370
     9
100
AcDbVertex
100
AcDb2dVertex
 10
9.374104815364808
 20
-87.9884277123779
 30
0.0
  0
VERTEX
  5
4E9
330
4E7
100
AcDbEntity
  8
Livello 1
 62
   178
420
    65793
370
     9
100
AcDbVertex
100
AcDb2dVertex
 10
10.12444661205222
 20
-90.6153130198809
 30
0.0
  0
VERTEX
  5
4EA
330
4E7
100
AcDbEntity
  8
Livello 1
 62
   178
420
    65793
370
     9
100
AcDbVertex
100
AcDb2dVertex
 10
11.4375447562552
 20
-93.05444062343778
 30
0.0
  0
VERTEX
  5
4EB
330
4E7
100
AcDbEntity
  8
Livello 1
 62
   178
420
    65793
370
     9
100
AcDbVertex
100
AcDb2dVertex
 10
13.313571502748
 20
-95.21175941630123
 30
0.0
  0
VERTEX
  5
4EC
330
4E7
100
AcDbEntity
  8
Livello 1
 62
   178
420
    65793
370
     9
100
AcDbVertex
100
AcDb2dVertex
 10
15.47157931470849
 20
-97.08830292711681
 30
0.0
  0
SEQEND
  5
4ED
330
4E7
100
AcDbEntity
  8
Livello 1
370
     9
  0
POLYLINE
  5
4EE
330
1F
100
AcDbEntity
  8
Livello 1
 62
   178
420
    65793
370
     9
100
AcDb2dPolyline
 66
     1
 10
0.0
 20
0.0
 30
0.0
  0
VERTEX
  5
4EF
330
4EE
100
AcDbEntity
  8
Livello 1
 62
   178
420
    65793
370
     9
100
AcDbVertex
100
AcDb2dVertex
 10
-37.34380153146266
 20
-97.08830292711681
 30
0.0
  0
VERTEX
  5
4F0
330
4EE
100
AcDbEntity
  8
Livello 1
 62
   178
420
    65793
370
     9
100
AcDbVertex
100
AcDb2dVertex
 10
-35.18596597427643
 20
-95.21175941630123
 30
0.0
  0
VERTEX
  5
4F1
330
4EE
100
AcDbEntity
  8
Livello 1
 62
   178
420
    65793
370
     9
100
AcDbVertex
100
AcDb2dVertex
 10
-33.40364582498243
 20
-93.05444062343778
 30
0.0
  0
VERTEX
  5
4F2
330
4EE
100
AcDbEntity
  8
Livello 1
 62
   178
420
    65793
370
     9
100
AcDbVertex
100
AcDb2dVertex
 10
-32.09020317123093
 20
-90.6153130198809
 30
0.0
  0
VERTEX
  5
4F3
330
4EE
100
AcDbEntity
  8
Livello 1
 62
   178
420
    65793
370
     9
100
AcDbVertex
100
AcDb2dVertex
 10
-31.24615477734471
 20
-87.9884277123779
 30
0.0
  0
SEQEND
  5
4F4
330
4EE
100
AcDbEntity
  8
Livello 1
370
     9
  0
POLYLINE
  5
4F5
330
1F
100
AcDbEntity
  8
Livello 1
 62
   178
420
    65793
370
     9
100
AcDb2dPolyline
 66
     1
 10
0.0
 20
0.0
 30
0.0
  0
VERTEX
  5
4F6
330
4F5
100
AcDbEntity
  8
Livello 1
 62
   178
420
    65793
370
     9
100
AcDbVertex
100
AcDb2dVertex
 10
-30.49546847110877
 20
-87.9884277123779
 30
0.0
  0
VERTEX
  5
4F7
330
4F5
100
AcDbEntity
  8
Livello 1
 62
   178
420
    65793
370
     9
100
AcDbVertex
100
AcDb2dVertex
 10
-31.33968911976925
 20
-90.70936412662822
 30
0.0
  0
VERTEX
  5
4F8
330
4F5
100
AcDbEntity
  8
Livello 1
 62
   178
420
    65793
370
     9
100
AcDbVertex
100
AcDb2dVertex
 10
-32.65313177352075
 20
-93.33659394367974
 30
0.0
  0
VERTEX
  5
4F9
330
4F5
100
AcDbEntity
  8
Livello 1
 62
   178
420
    65793
370
     9
100
AcDbVertex
100
AcDb2dVertex
 10
-34.52950302956207
 20
-95.58761933374198
 30
0.0
  0
VERTEX
  5
4FA
330
4F5
100
AcDbEntity
  8
Livello 1
 62
   178
420
    65793
370
     9
100
AcDbVertex
100
AcDb2dVertex
 10
-36.87457952637163
 20
-97.55718042265931
 30
0.0
  0
SEQEND
  5
4FB
330
4F5
100
AcDbEntity
  8
Livello 1
370
     9
  0
POLYLINE
  5
4FC
330
1F
100
AcDbEntity
  8
Livello 1
 62
   178
420
    65793
370
     9
100
AcDb2dPolyline
 66
     1
 10
0.0
 20
0.0
 30
0.0
  0
VERTEX
  5
4FD
330
4FC
100
AcDbEntity
  8
Livello 1
 62
   178
420
    65793
370
     9
100
AcDbVertex
100
AcDb2dVertex
 10
14.90865071241867
 20
-97.55718042265931
 30
0.0
  0
VERTEX
  5
4FE
330
4FC
100
AcDbEntity
  8
Livello 1
 62
   178
420
    65793
370
     9
100
AcDbVertex
100
AcDb2dVertex
 10
13.40762260949532
 20
-96.61908092202579
 30
0.0
  0
VERTEX
  5
4FF
330
4FC
100
AcDbEntity
  8
Livello 1
 62
   178
420
    65793
370
     9
100
AcDbVertex
100
AcDb2dVertex
 10
11.71918131217437
 20
-95.68132593094079
 30
0.0
  0
SEQEND
  5
500
330
4FC
100
AcDbEntity
  8
Livello 1
370
     9
  0
POLYLINE
  5
501
330
1F
100
AcDbEntity
  8
Livello 1
 62
   178
420
    65793
370
     9
100
AcDb2dPolyline
 66
     1
 10
0.0
 20
0.0
 30
0.0
  0
VERTEX
  5
502
330
501
100
AcDbEntity
  8
Livello 1
 62
   178
420
    65793
370
     9
100
AcDbVertex
100
AcDb2dVertex
 10
4.401798501503717
 20
-90.0527289271396
 30
0.0
  0
VERTEX
  5
503
330
501
100
AcDbEntity
  8
Livello 1
 62
   178
420
    65793
370
     9
100
AcDbVertex
100
AcDb2dVertex
 10
7.966783309640249
 20
-93.05444062343778
 30
0.0
  0
VERTEX
  5
504
330
501
100
AcDbEntity
  8
Livello 1
 62
   178
420
    65793
370
     9
100
AcDbVertex
100
AcDb2dVertex
 10
11.71918131217437
 20
-95.68132593094079
 30
0.0
  0
SEQEND
  5
505
330
501
100
AcDbEntity
  8
Livello 1
370
     9
  0
POLYLINE
  5
506
330
1F
100
AcDbEntity
  8
Livello 1
 62
   178
420
    65793
370
     9
100
AcDb2dPolyline
 66
     1
 10
0.0
 20
0.0
 30
0.0
  0
VERTEX
  5
507
330
506
100
AcDbEntity
  8
Livello 1
 62
   178
420
    65793
370
     9
100
AcDbVertex
100
AcDb2dVertex
 10
4.120506455133068
 20
-78.60708819649406
 30
0.0
  0
VERTEX
  5
508
330
506
100
AcDbEntity
  8
Livello 1
 62
   178
420
    65793
370
     9
100
AcDbVertex
100
AcDb2dVertex
 10
5.996533201625867
 20
-80.29587400336354
 30
0.0
  0
VERTEX
  5
509
330
506
100
AcDbEntity
  8
Livello 1
 62
   178
420
    65793
370
     9
100
AcDbVertex
100
AcDb2dVertex
 10
7.685319008495338
 20
-81.89095321303421
 30
0.0
  0
SEQEND
  5
50A
330
506
100
AcDbEntity
  8
Livello 1
370
     9
  0
POLYLINE
  5
50B
330
1F
100
AcDbEntity
  8
Livello 1
 62
   178
420
    65793
370
     9
100
AcDb2dPolyline
 66
     1
 10
0.0
 20
0.0
 30
0.0
  0
VERTEX
  5
50C
330
50B
100
AcDbEntity
  8
Livello 1
 62
   178
420
    65793
370
     9
100
AcDbVertex
100
AcDb2dVertex
 10
-31.0583970733986
 20
-86.58145071620186
 30
0.0
  0
VERTEX
  5
50D
330
50B
100
AcDbEntity
  8
Livello 1
 62
   178
420
    65793
370
     9
100
AcDbVertex
100
AcDb2dVertex
 10
-30.58917506830757
 20
-84.23602970984378
 30
0.0
  0
VERTEX
  5
50E
330
50B
100
AcDbEntity
  8
Livello 1
 62
   178
420
    65793
370
     9
100
AcDbVertex
100
AcDb2dVertex
 10
-30.40176187390998
 20
-81.89095321303421
 30
0.0
  0
SEQEND
  5
50F
330
50B
100
AcDbEntity
  8
Livello 1
370
     9
  0
POLYLINE
  5
510
330
1F
100
AcDbEntity
  8
Livello 1
 62
   178
420
    65793
370
     9
100
AcDb2dPolyline
 66
     1
 10
0.0
 20
0.0
 30
0.0
  0
VERTEX
  5
511
330
510
100
AcDbEntity
  8
Livello 1
 62
   178
420
    65793
370
     9
100
AcDbVertex
100
AcDb2dVertex
 10
10.03074001485343
 20
-86.39334850270723
 30
0.0
  0
VERTEX
  5
512
330
510
100
AcDbEntity
  8
Livello 1
 62
   178
420
    65793
370
     9
100
AcDbVertex
100
AcDb2dVertex
 10
10.21815320925102
 20
-87.4258436196366
 30
0.0
  0
SEQEND
  5
513
330
510
100
AcDbEntity
  8
Livello 1
370
     9
  0
POLYLINE
  5
514
330
1F
100
AcDbEntity
  8
Livello 1
 62
   178
420
    65793
370
     9
100
AcDb2dPolyline
 66
     1
 10
0.0
 20
0.0
 30
0.0
  0
VERTEX
  5
515
330
514
100
AcDbEntity
  8
Livello 1
 62
   178
420
    65793
370
     9
100
AcDbVertex
100
AcDb2dVertex
 10
8.341954207983957
 20
-86.76920842014798
 30
0.0
  0
VERTEX
  5
516
330
514
100
AcDbEntity
  8
Livello 1
 62
   178
420
    65793
370
     9
100
AcDbVertex
100
AcDb2dVertex
 10
7.872732202892928
 20
-84.4237874137899
 30
0.0
  0
VERTEX
  5
517
330
514
100
AcDbEntity
  8
Livello 1
 62
   178
420
    65793
370
     9
100
AcDbVertex
100
AcDb2dVertex
 10
7.685319008495338
 20
-81.89095321303421
 30
0.0
  0
SEQEND
  5
518
330
514
100
AcDbEntity
  8
Livello 1
370
     9
  0
POLYLINE
  5
519
330
1F
100
AcDbEntity
  8
Livello 1
 62
   178
420
    65793
370
     9
100
AcDb2dPolyline
 66
     1
 10
0.0
 20
0.0
 30
0.0
  0
VERTEX
  5
51A
330
519
100
AcDbEntity
  8
Livello 1
 62
   178
420
    65793
370
     9
100
AcDbVertex
100
AcDb2dVertex
 10
8.529711911930072
 20
-87.9884277123779
 30
0.0
  0
VERTEX
  5
51B
330
519
100
AcDbEntity
  8
Livello 1
 62
   178
420
    65793
370
     9
100
AcDbVertex
100
AcDb2dVertex
 10
8.341954207983957
 20
-86.76920842014798
 30
0.0
  0
SEQEND
  5
51C
330
519
100
AcDbEntity
  8
Livello 1
370
     9
  0
POLYLINE
  5
51D
330
1F
100
AcDbEntity
  8
Livello 1
 62
   178
420
    65793
370
     9
100
AcDb2dPolyline
 66
     1
 10
0.0
 20
0.0
 30
0.0
  0
VERTEX
  5
51E
330
51D
100
AcDbEntity
  8
Livello 1
 62
   178
420
    65793
370
     9
100
AcDbVertex
100
AcDb2dVertex
 10
8.435833059957014
 20
-81.89095321303421
 30
0.0
  0
VERTEX
  5
51F
330
51D
100
AcDbEntity
  8
Livello 1
 62
   178
420
    65793
370
     9
100
AcDbVertex
100
AcDb2dVertex
 10
8.623246254354605
 20
-84.23602970984378
 30
0.0
  0
VERTEX
  5
520
330
51D
100
AcDbEntity
  8
Livello 1
 62
   178
420
    65793
370
     9
100
AcDbVertex
100
AcDb2dVertex
 10
9.092468259445633
 20
-86.58145071620186
 30
0.0
  0
SEQEND
  5
521
330
51D
100
AcDbEntity
  8
Livello 1
370
     9
  0
POLYLINE
  5
522
330
1F
100
AcDbEntity
  8
Livello 1
 62
   178
420
    65793
370
     9
100
AcDb2dPolyline
 66
     1
 10
0.0
 20
0.0
 30
0.0
  0
VERTEX
  5
523
330
522
100
AcDbEntity
  8
Livello 1
 62
   178
420
    65793
370
     9
100
AcDbVertex
100
AcDb2dVertex
 10
-29.65142007722256
 20
-81.89095321303421
 30
0.0
  0
VERTEX
  5
524
330
522
100
AcDbEntity
  8
Livello 1
 62
   178
420
    65793
370
     9
100
AcDbVertex
100
AcDb2dVertex
 10
-29.7449544196471
 20
-84.4237874137899
 30
0.0
  0
VERTEX
  5
525
330
522
100
AcDbEntity
  8
Livello 1
 62
   178
420
    65793
370
     9
100
AcDbVertex
100
AcDb2dVertex
 10
-30.2138319151896
 20
-86.76920842014798
 30
0.0
  0
SEQEND
  5
526
330
522
100
AcDbEntity
  8
Livello 1
370
     9
  0
POLYLINE
  5
527
330
1F
100
AcDbEntity
  8
Livello 1
 62
   178
420
    65793
370
     9
100
AcDb2dPolyline
 66
     1
 10
0.0
 20
0.0
 30
0.0
  0
VERTEX
  5
528
330
527
100
AcDbEntity
  8
Livello 1
 62
   178
420
    65793
370
     9
100
AcDbVertex
100
AcDb2dVertex
 10
-32.18390976842972
 20
-87.4258436196366
 30
0.0
  0
VERTEX
  5
529
330
527
100
AcDbEntity
  8
Livello 1
 62
   178
420
    65793
370
     9
100
AcDbVertex
100
AcDb2dVertex
 10
-31.99666882880639
 20
-86.39334850270723
 30
0.0
  0
SEQEND
  5
52A
330
527
100
AcDbEntity
  8
Livello 1
370
     9
  0
POLYLINE
  5
52B
330
1F
100
AcDbEntity
  8
Livello 1
 62
   178
420
    65793
370
     9
100
AcDb2dPolyline
 66
     1
 10
0.0
 20
0.0
 30
0.0
  0
VERTEX
  5
52C
330
52B
100
AcDbEntity
  8
Livello 1
 62
   178
420
    65793
370
     9
100
AcDbVertex
100
AcDb2dVertex
 10
-29.65142007722256
 20
-81.89095321303421
 30
0.0
  0
VERTEX
  5
52D
330
52B
100
AcDbEntity
  8
Livello 1
 62
   178
420
    65793
370
     9
100
AcDbVertex
100
AcDb2dVertex
 10
-27.96263427035309
 20
-80.29587400336354
 30
0.0
  0
VERTEX
  5
52E
330
52B
100
AcDbEntity
  8
Livello 1
 62
   178
420
    65793
370
     9
100
AcDbVertex
100
AcDb2dVertex
 10
-26.08660752386029
 20
-78.60708819649406
 30
0.0
  0
SEQEND
  5
52F
330
52B
100
AcDbEntity
  8
Livello 1
370
     9
  0
POLYLINE
  5
530
330
1F
100
AcDbEntity
  8
Livello 1
 62
   178
420
    65793
370
     9
100
AcDb2dPolyline
 66
     1
 10
0.0
 20
0.0
 30
0.0
  0
VERTEX
  5
531
330
530
100
AcDbEntity
  8
Livello 1
 62
   178
420
    65793
370
     9
100
AcDbVertex
100
AcDb2dVertex
 10
-33.68511012612733
 20
-95.68132593094079
 30
0.0
  0
VERTEX
  5
532
330
530
100
AcDbEntity
  8
Livello 1
 62
   178
420
    65793
370
     9
100
AcDbVertex
100
AcDb2dVertex
 10
-29.83883327162015
 20
-93.05444062343778
 30
0.0
  0
VERTEX
  5
533
330
530
100
AcDbEntity
  8
Livello 1
 62
   178
420
    65793
370
     9
100
AcDbVertex
100
AcDb2dVertex
 10
-26.36789957023094
 20
-90.0527289271396
 30
0.0
  0
SEQEND
  5
534
330
530
100
AcDbEntity
  8
Livello 1
370
     9
  0
POLYLINE
  5
535
330
1F
100
AcDbEntity
  8
Livello 1
 62
   178
420
    65793
370
     9
100
AcDb2dPolyline
 66
     1
 10
0.0
 20
0.0
 30
0.0
  0
VERTEX
  5
536
330
535
100
AcDbEntity
  8
Livello 1
 62
   178
420
    65793
370
     9
100
AcDbVertex
100
AcDb2dVertex
 10
-33.68511012612733
 20
-95.68132593094079
 30
0.0
  0
VERTEX
  5
537
330
535
100
AcDbEntity
  8
Livello 1
 62
   178
420
    65793
370
     9
100
AcDbVertex
100
AcDb2dVertex
 10
-35.37372367822254
 20
-96.61908092202579
 30
0.0
  0
VERTEX
  5
538
330
535
100
AcDbEntity
  8
Livello 1
 62
   178
420
    65793
370
     9
100
AcDbVertex
100
AcDb2dVertex
 10
-36.87457952637163
 20
-97.55718042265931
 30
0.0
  0
SEQEND
  5
539
330
535
100
AcDbEntity
  8
Livello 1
370
     9
  0
POLYLINE
  5
53A
330
1F
100
AcDbEntity
  8
Livello 1
 62
   178
420
    65793
370
     9
100
AcDb2dPolyline
 66
     1
 10
0.0
 20
0.0
 30
0.0
  0
VERTEX
  5
53B
330
53A
100
AcDbEntity
  8
Livello 1
 62
   178
420
    65793
370
     9
100
AcDbVertex
100
AcDb2dVertex
 10
-30.2138319151896
 20
-86.76920842014798
 30
0.0
  0
VERTEX
  5
53C
330
53A
100
AcDbEntity
  8
Livello 1
 62
   178
420
    65793
370
     9
100
AcDbVertex
100
AcDb2dVertex
 10
-30.49546847110877
 20
-87.9884277123779
 30
0.0
  0
SEQEND
  5
53D
330
53A
100
AcDbEntity
  8
Livello 1
370
     9
  0
POLYLINE
  5
53E
330
1F
100
AcDbEntity
  8
Livello 1
 62
   178
420
    65793
370
     9
100
AcDb2dPolyline
 66
     1
 10
0.0
 20
0.0
 30
0.0
  0
VERTEX
  5
53F
330
53E
100
AcDbEntity
  8
Livello 1
 62
   178
420
    65793
370
     9
100
AcDbVertex
100
AcDb2dVertex
 10
-34.06028102447105
 20
-41.55267468579239
 30
0.0
  0
VERTEX
  5
540
330
53E
100
AcDbEntity
  8
Livello 1
 62
   178
420
    65793
370
     9
100
AcDbVertex
100
AcDb2dVertex
 10
-35.09225937707763
 20
-42.86594508476963
 30
0.0
  0
VERTEX
  5
541
330
53E
100
AcDbEntity
  8
Livello 1
 62
   178
420
    65793
370
     9
100
AcDbVertex
100
AcDb2dVertex
 10
-36.31165092408181
 20
-44.08550888654807
 30
0.0
  0
VERTEX
  5
542
330
53E
100
AcDbEntity
  8
Livello 1
 62
   178
420
    65793
370
     9
100
AcDbVertex
100
AcDb2dVertex
 10
-37.62492132305905
 20
-45.02326387763308
 30
0.0
  0
SEQEND
  5
543
330
53E
100
AcDbEntity
  8
Livello 1
370
     9
  0
POLYLINE
  5
544
330
1F
100
AcDbEntity
  8
Livello 1
 62
   178
420
    65793
370
     9
100
AcDb2dPolyline
 66
     1
 10
0.0
 20
0.0
 30
0.0
  0
VERTEX
  5
545
330
544
100
AcDbEntity
  8
Livello 1
 62
   178
420
    65793
370
     9
100
AcDbVertex
100
AcDb2dVertex
 10
-23.9285997118998
 20
-89.39609372765098
 30
0.0
  0
VERTEX
  5
546
330
544
100
AcDbEntity
  8
Livello 1
 62
   178
420
    65793
370
     9
100
AcDbVertex
100
AcDb2dVertex
 10
-23.17825791521238
 20
-90.1464355243384
 30
0.0
  0
VERTEX
  5
547
330
544
100
AcDbEntity
  8
Livello 1
 62
   178
420
    65793
370
     9
100
AcDbVertex
100
AcDb2dVertex
 10
-22.42791611852497
 20
-91.0841905154234
 30
0.0
  0
VERTEX
  5
548
330
544
100
AcDbEntity
  8
Livello 1
 62
   178
420
    65793
370
     9
100
AcDbVertex
100
AcDb2dVertex
 10
-20.55154486248364
 20
-93.42926701223297
 30
0.0
  0
SEQEND
  5
549
330
544
100
AcDbEntity
  8
Livello 1
370
     9
  0
POLYLINE
  5
54A
330
1F
100
AcDbEntity
  8
Livello 1
 62
   178
420
    65793
370
     9
100
AcDb2dPolyline
 66
     1
 10
0.0
 20
0.0
 30
0.0
  0
VERTEX
  5
54B
330
54A
100
AcDbEntity
  8
Livello 1
 62
   178
420
    65793
370
     9
100
AcDbVertex
100
AcDb2dVertex
 10
1.775257703549241
 20
-89.39609372765098
 30
0.0
  0
VERTEX
  5
54C
330
54A
100
AcDbEntity
  8
Livello 1
 62
   178
420
    65793
370
     9
100
AcDbVertex
100
AcDb2dVertex
 10
1.118794758834885
 20
-90.1464355243384
 30
0.0
  0
VERTEX
  5
54D
330
54A
100
AcDbEntity
  8
Livello 1
 62
   178
420
    65793
370
     9
100
AcDbVertex
100
AcDb2dVertex
 10
0.2744018554001496
 20
-91.0841905154234
 30
0.0
  0
VERTEX
  5
54E
330
54A
100
AcDbEntity
  8
Livello 1
 62
   178
420
    65793
370
     9
100
AcDbVertex
100
AcDb2dVertex
 10
-1.320505099496263
 20
-93.42926701223297
 30
0.0
  0
VERTEX
  5
54F
330
54A
100
AcDbEntity
  8
Livello 1
 62
   178
420
    65793
370
     9
100
AcDbVertex
100
AcDb2dVertex
 10
-3.571874999107032
 20
-92.30409882675036
 30
0.0
  0
VERTEX
  5
550
330
54A
100
AcDbEntity
  8
Livello 1
 62
   178
420
    65793
370
     9
100
AcDbVertex
100
AcDb2dVertex
 10
-5.917123750690858
 20
-91.55341252051443
 30
0.0
  0
VERTEX
  5
551
330
54A
100
AcDbEntity
  8
Livello 1
 62
   178
420
    65793
370
     9
100
AcDbVertex
100
AcDb2dVertex
 10
-8.450130206220802
 20
-91.0841905154234
 30
0.0
  0
VERTEX
  5
552
330
54A
100
AcDbEntity
  8
Livello 1
 62
   178
420
    65793
370
     9
100
AcDbVertex
100
AcDb2dVertex
 10
-10.98279215220222
 20
-90.89746634012286
 30
0.0
  0
VERTEX
  5
553
330
54A
100
AcDbEntity
  8
Livello 1
 62
   178
420
    65793
370
     9
100
AcDbVertex
100
AcDb2dVertex
 10
-13.51597086250642
 20
-91.0841905154234
 30
0.0
  0
VERTEX
  5
554
330
54A
100
AcDbEntity
  8
Livello 1
 62
   178
420
    65793
370
     9
100
AcDbVertex
100
AcDb2dVertex
 10
-15.95509846606331
 20
-91.55341252051443
 30
0.0
  0
VERTEX
  5
555
330
54A
100
AcDbEntity
  8
Livello 1
 62
   178
420
    65793
370
     9
100
AcDbVertex
100
AcDb2dVertex
 10
-18.39388156007167
 20
-92.30409882675036
 30
0.0
  0
VERTEX
  5
556
330
54A
100
AcDbEntity
  8
Livello 1
 62
   178
420
    65793
370
     9
100
AcDbVertex
100
AcDb2dVertex
 10
-20.55154486248364
 20
-93.42926701223297
 30
0.0
  0
SEQEND
  5
557
330
54A
100
AcDbEntity
  8
Livello 1
370
     9
  0
POLYLINE
  5
558
330
1F
100
AcDbEntity
  8
Livello 1
 62
   178
420
    65793
370
     9
100
AcDb2dPolyline
 66
     1
 10
0.0
 20
0.0
 30
0.0
  0
VERTEX
  5
559
330
558
100
AcDbEntity
  8
Livello 1
 62
   178
420
    65793
370
     9
100
AcDbVertex
100
AcDb2dVertex
 10
14.43994547165043
 20
-44.08550888654807
 30
0.0
  0
VERTEX
  5
55A
330
558
100
AcDbEntity
  8
Livello 1
 62
   178
420
    65793
370
     9
100
AcDbVertex
100
AcDb2dVertex
 10
13.22038166987199
 20
-42.86594508476963
 30
0.0
  0
VERTEX
  5
55B
330
558
100
AcDbEntity
  8
Livello 1
 62
   178
420
    65793
370
     9
100
AcDbVertex
100
AcDb2dVertex
 10
12.09452446529234
 20
-41.55267468579239
 30
0.0
  0
SEQEND
  5
55C
330
558
100
AcDbEntity
  8
Livello 1
370
     9
  0
POLYLINE
  5
55D
330
1F
100
AcDbEntity
  8
Livello 1
 62
   178
420
    65793
370
     9
100
AcDb2dPolyline
 66
     1
 10
0.0
 20
0.0
 30
0.0
  0
VERTEX
  5
55E
330
55D
100
AcDbEntity
  8
Livello 1
 62
   178
420
    65793
370
     9
100
AcDbVertex
100
AcDb2dVertex
 10
6.93480495703366
 20
-100.372167943657
 30
0.0
  0
VERTEX
  5
55F
330
55D
100
AcDbEntity
  8
Livello 1
 62
   178
420
    65793
370
     9
100
AcDbVertex
100
AcDb2dVertex
 10
4.683607312197154
 20
-98.87079533118508
 30
0.0
  0
VERTEX
  5
560
330
55D
100
AcDbEntity
  8
Livello 1
 62
   178
420
    65793
370
     9
100
AcDbVertex
100
AcDb2dVertex
 10
2.525599500236656
 20
-97.18235403386414
 30
0.0
  0
VERTEX
  5
561
330
55D
100
AcDbEntity
  8
Livello 1
 62
   178
420
    65793
370
     9
100
AcDbVertex
100
AcDb2dVertex
 10
-1.320505099496263
 20
-93.42926701223297
 30
0.0
  0
SEQEND
  5
562
330
55D
100
AcDbEntity
  8
Livello 1
370
     9
  0
POLYLINE
  5
563
330
1F
100
AcDbEntity
  8
Livello 1
 62
   178
420
    65793
370
     9
100
AcDb2dPolyline
 66
     1
 10
0.0
 20
0.0
 30
0.0
  0
VERTEX
  5
564
330
563
100
AcDbEntity
  8
Livello 1
 62
   178
420
    65793
370
     9
100
AcDbVertex
100
AcDb2dVertex
 10
4.401798501503717
 20
-90.0527289271396
 30
0.0
  0
VERTEX
  5
565
330
563
100
AcDbEntity
  8
Livello 1
 62
   178
420
    65793
370
     9
100
AcDbVertex
100
AcDb2dVertex
 10
3.276113551698333
 20
-90.42755531593478
 30
0.0
  0
VERTEX
  5
566
330
563
100
AcDbEntity
  8
Livello 1
 62
   178
420
    65793
370
     9
100
AcDbVertex
100
AcDb2dVertex
 10
1.96318766226962
 20
-91.0841905154234
 30
0.0
  0
VERTEX
  5
567
330
563
100
AcDbEntity
  8
Livello 1
 62
   178
420
    65793
370
     9
100
AcDbVertex
100
AcDb2dVertex
 10
0.3684529621474701
 20
-92.11599661325573
 30
0.0
  0
VERTEX
  5
568
330
563
100
AcDbEntity
  8
Livello 1
 62
   178
420
    65793
370
     9
100
AcDbVertex
100
AcDb2dVertex
 10
-1.320505099496263
 20
-93.42926701223297
 30
0.0
  0
SEQEND
  5
569
330
563
100
AcDbEntity
  8
Livello 1
370
     9
  0
POLYLINE
  5
56A
330
1F
100
AcDbEntity
  8
Livello 1
 62
   178
420
    65793
370
     9
100
AcDb2dPolyline
 66
     1
 10
0.0
 20
0.0
 30
0.0
  0
VERTEX
  5
56B
330
56A
100
AcDbEntity
  8
Livello 1
 62
   178
420
    65793
370
     9
100
AcDbVertex
100
AcDb2dVertex
 10
-20.55154486248364
 20
-93.42926701223297
 30
0.0
  0
VERTEX
  5
56C
330
56A
100
AcDbEntity
  8
Livello 1
 62
   178
420
    65793
370
     9
100
AcDbVertex
100
AcDb2dVertex
 10
-24.49187282373815
 20
-97.18235403386414
 30
0.0
  0
VERTEX
  5
56D
330
56A
100
AcDbEntity
  8
Livello 1
 62
   178
420
    65793
370
     9
100
AcDbVertex
100
AcDb2dVertex
 10
-26.55565727417706
 20
-98.87079533118508
 30
0.0
  0
VERTEX
  5
56E
330
56A
100
AcDbEntity
  8
Livello 1
 62
   178
420
    65793
370
     9
100
AcDbVertex
100
AcDb2dVertex
 10
-28.80702717378783
 20
-100.372167943657
 30
0.0
  0
SEQEND
  5
56F
330
56A
100
AcDbEntity
  8
Livello 1
370
     9
  0
POLYLINE
  5
570
330
1F
100
AcDbEntity
  8
Livello 1
 62
   178
420
    65793
370
     9
100
AcDb2dPolyline
 66
     1
 10
0.0
 20
0.0
 30
0.0
  0
VERTEX
  5
571
330
570
100
AcDbEntity
  8
Livello 1
 62
   178
420
    65793
370
     9
100
AcDbVertex
100
AcDb2dVertex
 10
-20.55154486248364
 20
-93.42926701223297
 30
0.0
  0
VERTEX
  5
572
330
570
100
AcDbEntity
  8
Livello 1
 62
   178
420
    65793
370
     9
100
AcDbVertex
100
AcDb2dVertex
 10
-22.23998615980459
 20
-92.11599661325573
 30
0.0
  0
VERTEX
  5
573
330
570
100
AcDbEntity
  8
Livello 1
 62
   178
420
    65793
370
     9
100
AcDbVertex
100
AcDb2dVertex
 10
-23.83472085992674
 20
-91.0841905154234
 30
0.0
  0
VERTEX
  5
574
330
570
100
AcDbEntity
  8
Livello 1
 62
   178
420
    65793
370
     9
100
AcDbVertex
100
AcDb2dVertex
 10
-25.24221462042556
 20
-90.42755531593478
 30
0.0
  0
VERTEX
  5
575
330
570
100
AcDbEntity
  8
Livello 1
 62
   178
420
    65793
370
     9
100
AcDbVertex
100
AcDb2dVertex
 10
-26.36789957023094
 20
-90.0527289271396
 30
0.0
  0
SEQEND
  5
576
330
570
100
AcDbEntity
  8
Livello 1
370
     9
  0
POLYLINE
  5
577
330
1F
100
AcDbEntity
  8
Livello 1
 62
   178
420
    65793
370
     9
100
AcDb2dPolyline
 66
     1
 10
0.0
 20
0.0
 30
0.0
  0
VERTEX
  5
578
330
577
100
AcDbEntity
  8
Livello 1
 62
   178
420
    65793
370
     9
100
AcDbVertex
100
AcDb2dVertex
 10
-50.57090113753089
 20
-152.6242756779898
 30
0.0
  0
VERTEX
  5
579
330
577
100
AcDbEntity
  8
Livello 1
 62
   178
420
    65793
370
     9
100
AcDbVertex
100
AcDb2dVertex
 10
-48.97616643740874
 20
-154.9693521747993
 30
0.0
  0
VERTEX
  5
57A
330
577
100
AcDbEntity
  8
Livello 1
 62
   178
420
    65793
370
     9
100
AcDbVertex
100
AcDb2dVertex
 10
-47.19384628811473
 20
-157.2207220744101
 30
0.0
  0
VERTEX
  5
57B
330
577
100
AcDbEntity
  8
Livello 1
 62
   178
420
    65793
370
     9
100
AcDbVertex
100
AcDb2dVertex
 10
-43.34739717883329
 20
-161.348979994385
 30
0.0
  0
VERTEX
  5
57C
330
577
100
AcDbEntity
  8
Livello 1
 62
   178
420
    65793
370
     9
100
AcDbVertex
100
AcDb2dVertex
 10
-38.84465737961175
 20
-164.9132757834245
 30
0.0
  0
VERTEX
  5
57D
330
577
100
AcDbEntity
  8
Livello 1
 62
   178
420
    65793
370
     9
100
AcDbVertex
100
AcDb2dVertex
 10
-33.96622991772372
 20
-168.00903858647
 30
0.0
  0
VERTEX
  5
57E
330
577
100
AcDbEntity
  8
Livello 1
 62
   178
420
    65793
370
     9
100
AcDbVertex
100
AcDb2dVertex
 10
-28.71314832181477
 20
-170.4485106995754
 30
0.0
  0
VERTEX
  5
57F
330
577
100
AcDbEntity
  8
Livello 1
 62
   178
420
    65793
370
     9
100
AcDbVertex
100
AcDb2dVertex
 10
-23.17825791521238
 20
-172.2310031036436
 30
0.0
  0
VERTEX
  5
580
330
577
100
AcDbEntity
  8
Livello 1
 62
   178
420
    65793
370
     9
100
AcDbVertex
100
AcDb2dVertex
 10
-17.36190320746508
 20
-173.3558267795777
 30
0.0
  0
VERTEX
  5
581
330
577
100
AcDbEntity
  8
Livello 1
 62
   178
420
    65793
370
     9
100
AcDbVertex
100
AcDb2dVertex
 10
-11.5458930092663
 20
-173.7316866970185
 30
0.0
  0
VERTEX
  5
582
330
577
100
AcDbEntity
  8
Livello 1
 62
   178
420
    65793
370
     9
100
AcDbVertex
100
AcDb2dVertex
 10
-5.635831704320209
 20
-173.449877886325
 30
0.0
  0
VERTEX
  5
583
330
577
100
AcDbEntity
  8
Livello 1
 62
   178
420
    65793
370
     9
100
AcDbVertex
100
AcDb2dVertex
 10
0.0866441514540334
 20
-172.5117783856915
 30
0.0
  0
VERTEX
  5
584
330
577
100
AcDbEntity
  8
Livello 1
 62
   178
420
    65793
370
     9
100
AcDbVertex
100
AcDb2dVertex
 10
5.71541341002948
 20
-170.822992578822
 30
0.0
  0
VERTEX
  5
585
330
577
100
AcDbEntity
  8
Livello 1
 62
   178
420
    65793
370
     9
100
AcDbVertex
100
AcDb2dVertex
 10
11.06237385791149
 20
-168.4775715724639
 30
0.0
  0
VERTEX
  5
586
330
577
100
AcDbEntity
  8
Livello 1
 62
   178
420
    65793
370
     9
100
AcDbVertex
100
AcDb2dVertex
 10
16.03485242654684
 20
-165.5699109829131
 30
0.0
  0
VERTEX
  5
587
330
577
100
AcDbEntity
  8
Livello 1
 62
   178
420
    65793
370
     9
100
AcDbVertex
100
AcDb2dVertex
 10
20.53741997099412
 20
-162.0989772815239
 30
0.0
  0
VERTEX
  5
588
330
577
100
AcDbEntity
  8
Livello 1
 62
   178
420
    65793
370
     9
100
AcDbVertex
100
AcDb2dVertex
 10
24.57128227467315
 20
-158.0651149778448
 30
0.0
  0
VERTEX
  5
589
330
577
100
AcDbEntity
  8
Livello 1
 62
   178
420
    65793
370
     9
100
AcDbVertex
100
AcDb2dVertex
 10
26.35360242396716
 20
-155.9077961849814
 30
0.0
  0
VERTEX
  5
58A
330
577
100
AcDbEntity
  8
Livello 1
 62
   178
420
    65793
370
     9
100
AcDbVertex
100
AcDb2dVertex
 10
28.04238823083663
 20
-153.5627196881718
 30
0.0
  0
SEQEND
  5
58B
330
577
100
AcDbEntity
  8
Livello 1
370
     9
  0
POLYLINE
  5
58C
330
1F
100
AcDbEntity
  8
Livello 1
 62
   178
420
    65793
370
     9
100
AcDb2dPolyline
 66
     1
 10
0.0
 20
0.0
 30
0.0
  0
VERTEX
  5
58D
330
58C
100
AcDbEntity
  8
Livello 1
 62
   178
420
    65793
370
     9
100
AcDbVertex
100
AcDb2dVertex
 10
-23.9285997118998
 20
-89.39609372765098
 30
0.0
  0
VERTEX
  5
58E
330
58C
100
AcDbEntity
  8
Livello 1
 62
   178
420
    65793
370
     9
100
AcDbVertex
100
AcDb2dVertex
 10
-20.83318141840282
 20
-88.83282061581264
 30
0.0
  0
VERTEX
  5
58F
330
58C
100
AcDbEntity
  8
Livello 1
 62
   178
420
    65793
370
     9
100
AcDbVertex
100
AcDb2dVertex
 10
-17.64336750860999
 20
-88.36394312027014
 30
0.0
  0
VERTEX
  5
590
330
58C
100
AcDbEntity
  8
Livello 1
 62
   178
420
    65793
370
     9
100
AcDbVertex
100
AcDb2dVertex
 10
-11.07667100417528
 20
-87.9884277123779
 30
0.0
  0
VERTEX
  5
591
330
58C
100
AcDbEntity
  8
Livello 1
 62
   178
420
    65793
370
     9
100
AcDbVertex
100
AcDb2dVertex
 10
-4.60385335171362
 20
-88.36394312027014
 30
0.0
  0
VERTEX
  5
592
330
58C
100
AcDbEntity
  8
Livello 1
 62
   178
420
    65793
370
     9
100
AcDbVertex
100
AcDb2dVertex
 10
-1.320505099496263
 20
-88.73911401861383
 30
0.0
  0
VERTEX
  5
593
330
58C
100
AcDbEntity
  8
Livello 1
 62
   178
420
    65793
370
     9
100
AcDbVertex
100
AcDb2dVertex
 10
1.775257703549241
 20
-89.39609372765098
 30
0.0
  0
SEQEND
  5
594
330
58C
100
AcDbEntity
  8
Livello 1
370
     9
  0
POLYLINE
  5
595
330
1F
100
AcDbEntity
  8
Livello 1
 62
   178
420
    65793
370
     9
100
AcDb2dPolyline
 66
     1
 10
0.0
 20
0.0
 30
0.0
  0
VERTEX
  5
596
330
595
100
AcDbEntity
  8
Livello 1
 62
   178
420
    65793
370
     9
100
AcDbVertex
100
AcDb2dVertex
 10
-26.36789957023094
 20
-90.0527289271396
 30
0.0
  0
VERTEX
  5
597
330
595
100
AcDbEntity
  8
Livello 1
 62
   178
420
    65793
370
     9
100
AcDbVertex
100
AcDb2dVertex
 10
-25.24221462042556
 20
-89.67721351924737
 30
0.0
  0
VERTEX
  5
598
330
595
100
AcDbEntity
  8
Livello 1
 62
   178
420
    65793
370
     9
100
AcDbVertex
100
AcDb2dVertex
 10
-23.9285997118998
 20
-89.39609372765098
 30
0.0
  0
SEQEND
  5
599
330
595
100
AcDbEntity
  8
Livello 1
370
     9
  0
POLYLINE
  5
59A
330
1F
100
AcDbEntity
  8
Livello 1
 62
   178
420
    65793
370
     9
100
AcDb2dPolyline
 66
     1
 10
0.0
 20
0.0
 30
0.0
  0
VERTEX
  5
59B
330
59A
100
AcDbEntity
  8
Livello 1
 62
   178
420
    65793
370
     9
100
AcDbVertex
100
AcDb2dVertex
 10
1.775257703549241
 20
-89.39609372765098
 30
0.0
  0
VERTEX
  5
59C
330
59A
100
AcDbEntity
  8
Livello 1
 62
   178
420
    65793
370
     9
100
AcDbVertex
100
AcDb2dVertex
 10
3.182234699725275
 20
-89.58316241250004
 30
0.0
  0
VERTEX
  5
59D
330
59A
100
AcDbEntity
  8
Livello 1
 62
   178
420
    65793
370
     9
100
AcDbVertex
100
AcDb2dVertex
 10
4.401798501503717
 20
-90.0527289271396
 30
0.0
  0
SEQEND
  5
59E
330
59A
100
AcDbEntity
  8
Livello 1
370
     9
  0
POLYLINE
  5
59F
330
1F
100
AcDbEntity
  8
Livello 1
 62
   178
420
    65793
370
     9
100
AcDb2dPolyline
 66
     1
 10
0.0
 20
0.0
 30
0.0
  0
VERTEX
  5
5A0
330
59F
100
AcDbEntity
  8
Livello 1
 62
   178
420
    65793
370
     9
100
AcDbVertex
100
AcDb2dVertex
 10
-31.71503227288721
 20
-33.95451659307387
 30
0.0
  0
VERTEX
  5
5A1
330
59F
100
AcDbEntity
  8
Livello 1
 62
   178
420
    65793
370
     9
100
AcDbVertex
100
AcDb2dVertex
 10
-31.90278997683333
 20
-36.01743976964148
 30
0.0
  0
VERTEX
  5
5A2
330
59F
100
AcDbEntity
  8
Livello 1
 62
   178
420
    65793
370
     9
100
AcDbVertex
100
AcDb2dVertex
 10
-32.3718397271501
 20
-37.98734536810733
 30
0.0
  0
VERTEX
  5
5A3
330
59F
100
AcDbEntity
  8
Livello 1
 62
   178
420
    65793
370
     9
100
AcDbVertex
100
AcDb2dVertex
 10
-33.02830267186445
 20
-39.95759547612172
 30
0.0
  0
VERTEX
  5
5A4
330
59F
100
AcDbEntity
  8
Livello 1
 62
   178
420
    65793
370
     9
100
AcDbVertex
100
AcDb2dVertex
 10
-34.06028102447105
 20
-41.64638128299119
 30
0.0
  0
SEQEND
  5
5A5
330
59F
100
AcDbEntity
  8
Livello 1
370
     9
  0
POLYLINE
  5
5A6
330
1F
100
AcDbEntity
  8
Livello 1
 62
   178
420
    65793
370
     9
100
AcDb2dPolyline
 66
     1
 10
0.0
 20
0.0
 30
0.0
  0
VERTEX
  5
5A7
330
5A6
100
AcDbEntity
  8
Livello 1
 62
   178
420
    65793
370
     9
100
AcDbVertex
100
AcDb2dVertex
 10
-34.06028102447105
 20
-41.64638128299119
 30
0.0
  0
VERTEX
  5
5A8
330
5A6
100
AcDbEntity
  8
Livello 1
 62
   178
420
    65793
370
     9
100
AcDbVertex
100
AcDb2dVertex
 10
-35.09225937707763
 20
-42.95999619151695
 30
0.0
  0
VERTEX
  5
5A9
330
5A6
100
AcDbEntity
  8
Livello 1
 62
   178
420
    65793
370
     9
100
AcDbVertex
100
AcDb2dVertex
 10
-36.31165092408181
 20
-44.08550888654807
 30
0.0
  0
SEQEND
  5
5AA
330
5A6
100
AcDbEntity
  8
Livello 1
370
     9
  0
POLYLINE
  5
5AB
330
1F
100
AcDbEntity
  8
Livello 1
 62
   178
420
    65793
370
     9
100
AcDb2dPolyline
 66
     1
 10
0.0
 20
0.0
 30
0.0
  0
VERTEX
  5
5AC
330
5AB
100
AcDbEntity
  8
Livello 1
 62
   178
420
    65793
370
     9
100
AcDbVertex
100
AcDb2dVertex
 10
-26.08660752386029
 20
-78.60708819649406
 30
0.0
  0
VERTEX
  5
5AD
330
5AB
100
AcDbEntity
  8
Livello 1
 62
   178
420
    65793
370
     9
100
AcDbVertex
100
AcDb2dVertex
 10
-24.58506265661415
 20
-77.67002222450611
 30
0.0
  0
VERTEX
  5
5AE
330
5AB
100
AcDbEntity
  8
Livello 1
 62
   178
420
    65793
370
     9
100
AcDbVertex
100
AcDb2dVertex
 10
-22.89696586884173
 20
-76.91899140872164
 30
0.0
  0
VERTEX
  5
5AF
330
5AB
100
AcDbEntity
  8
Livello 1
 62
   178
420
    65793
370
     9
100
AcDbVertex
100
AcDb2dVertex
 10
-21.1143012099992
 20
-76.63752710757673
 30
0.0
  0
VERTEX
  5
5B0
330
5AB
100
AcDbEntity
  8
Livello 1
 62
   178
420
    65793
370
     9
100
AcDbVertex
100
AcDb2dVertex
 10
-19.14422335675908
 20
-76.54416501992647
 30
0.0
  0
VERTEX
  5
5B1
330
5AB
100
AcDbEntity
  8
Livello 1
 62
   178
420
    65793
370
     9
100
AcDbVertex
100
AcDb2dVertex
 10
-10.98279215220222
 20
-77.01269800592044
 30
0.0
  0
VERTEX
  5
5B2
330
5AB
100
AcDbEntity
  8
Livello 1
 62
   178
420
    65793
370
     9
100
AcDbVertex
100
AcDb2dVertex
 10
-2.727482095672296
 20
-76.54416501992647
 30
0.0
  0
VERTEX
  5
5B3
330
5AB
100
AcDbEntity
  8
Livello 1
 62
   178
420
    65793
370
     9
100
AcDbVertex
100
AcDb2dVertex
 10
-0.8512830944052349
 20
-76.63752710757673
 30
0.0
  0
VERTEX
  5
5B4
330
5AB
100
AcDbEntity
  8
Livello 1
 62
   178
420
    65793
370
     9
100
AcDbVertex
100
AcDb2dVertex
 10
1.024915906861827
 20
-76.91899140872164
 30
0.0
  0
VERTEX
  5
5B5
330
5AB
100
AcDbEntity
  8
Livello 1
 62
   178
420
    65793
370
     9
100
AcDbVertex
100
AcDb2dVertex
 10
2.619650606983976
 20
-77.67002222450611
 30
0.0
  0
VERTEX
  5
5B6
330
5AB
100
AcDbEntity
  8
Livello 1
 62
   178
420
    65793
370
     9
100
AcDbVertex
100
AcDb2dVertex
 10
4.120506455133068
 20
-78.60708819649406
 30
0.0
  0
SEQEND
  5
5B7
330
5AB
100
AcDbEntity
  8
Livello 1
370
     9
  0
POLYLINE
  5
5B8
330
1F
100
AcDbEntity
  8
Livello 1
 62
   178
420
    65793
370
     9
100
AcDb2dPolyline
 66
     1
 10
0.0
 20
0.0
 30
0.0
  0
VERTEX
  5
5B9
330
5B8
100
AcDbEntity
  8
Livello 1
 62
   178
420
    65793
370
     9
100
AcDbVertex
100
AcDb2dVertex
 10
-10.98279215220222
 20
-21.57043185224628
 30
0.0
  0
VERTEX
  5
5BA
330
5B8
100
AcDbEntity
  8
Livello 1
 62
   178
420
    65793
370
     9
100
AcDbVertex
100
AcDb2dVertex
 10
-11.82701280086269
 20
-21.7581895561924
 30
0.0
  0
VERTEX
  5
5BB
330
5B8
100
AcDbEntity
  8
Livello 1
 62
   178
420
    65793
370
     9
100
AcDbVertex
100
AcDb2dVertex
 10
-12.57752685232437
 20
-22.22810058038048
 30
0.0
  0
VERTEX
  5
5BC
330
5B8
100
AcDbEntity
  8
Livello 1
 62
   178
420
    65793
370
     9
100
AcDbVertex
100
AcDb2dVertex
 10
-13.14062770938845
 20
-22.97844237706789
 30
0.0
  0
VERTEX
  5
5BD
330
5B8
100
AcDbEntity
  8
Livello 1
 62
   178
420
    65793
370
     9
100
AcDbVertex
100
AcDb2dVertex
 10
-13.23467881613577
 20
-23.91585285860437
 30
0.0
  0
VERTEX
  5
5BE
330
5B8
100
AcDbEntity
  8
Livello 1
 62
   178
420
    65793
370
     9
100
AcDbVertex
100
AcDb2dVertex
 10
-13.14062770938845
 20
-24.7602457620391
 30
0.0
  0
VERTEX
  5
5BF
330
5B8
100
AcDbEntity
  8
Livello 1
 62
   178
420
    65793
370
     9
100
AcDbVertex
100
AcDb2dVertex
 10
-12.57752685232437
 20
-25.51058755872652
 30
0.0
  0
VERTEX
  5
5C0
330
5B8
100
AcDbEntity
  8
Livello 1
 62
   178
420
    65793
370
     9
100
AcDbVertex
100
AcDb2dVertex
 10
-11.82701280086269
 20
-25.98015407336607
 30
0.0
  0
VERTEX
  5
5C1
330
5B8
100
AcDbEntity
  8
Livello 1
 62
   178
420
    65793
370
     9
100
AcDbVertex
100
AcDb2dVertex
 10
-10.98279215220222
 20
-26.16791177731219
 30
0.0
  0
VERTEX
  5
5C2
330
5B8
100
AcDbEntity
  8
Livello 1
 62
   178
420
    65793
370
     9
100
AcDbVertex
100
AcDb2dVertex
 10
-10.04503716111721
 20
-25.98015407336607
 30
0.0
  0
VERTEX
  5
5C3
330
5B8
100
AcDbEntity
  8
Livello 1
 62
   178
420
    65793
370
     9
100
AcDbVertex
100
AcDb2dVertex
 10
-9.294350854881273
 20
-25.51058755872652
 30
0.0
  0
VERTEX
  5
5C4
330
5B8
100
AcDbEntity
  8
Livello 1
 62
   178
420
    65793
370
     9
100
AcDbVertex
100
AcDb2dVertex
 10
-8.82547335933877
 20
-24.7602457620391
 30
0.0
  0
VERTEX
  5
5C5
330
5B8
100
AcDbEntity
  8
Livello 1
 62
   178
420
    65793
370
     9
100
AcDbVertex
100
AcDb2dVertex
 10
-8.637543400618393
 20
-23.91585285860437
 30
0.0
  0
VERTEX
  5
5C6
330
5B8
100
AcDbEntity
  8
Livello 1
 62
   178
420
    65793
370
     9
100
AcDbVertex
100
AcDb2dVertex
 10
-8.82547335933877
 20
-22.97844237706789
 30
0.0
  0
VERTEX
  5
5C7
330
5B8
100
AcDbEntity
  8
Livello 1
 62
   178
420
    65793
370
     9
100
AcDbVertex
100
AcDb2dVertex
 10
-9.294350854881273
 20
-22.22810058038048
 30
0.0
  0
VERTEX
  5
5C8
330
5B8
100
AcDbEntity
  8
Livello 1
 62
   178
420
    65793
370
     9
100
AcDbVertex
100
AcDb2dVertex
 10
-10.04503716111721
 20
-21.7581895561924
 30
0.0
  0
VERTEX
  5
5C9
330
5B8
100
AcDbEntity
  8
Livello 1
 62
   178
420
    65793
370
     9
100
AcDbVertex
100
AcDb2dVertex
 10
-10.98279215220222
 20
-21.57043185224628
 30
0.0
  0
SEQEND
  5
5CA
330
5B8
100
AcDbEntity
  8
Livello 1
370
     9
  0
POLYLINE
  5
5CB
330
1F
100
AcDbEntity
  8
Livello 1
 62
   178
420
    65793
370
     9
100
AcDb2dPolyline
 66
     1
 10
0.0
 20
0.0
 30
0.0
  0
VERTEX
  5
5CC
330
5CB
100
AcDbEntity
  8
Livello 1
 62
   178
420
    65793
370
     9
100
AcDbVertex
100
AcDb2dVertex
 10
12.09452446529234
 20
-41.55267468579239
 30
0.0
  0
VERTEX
  5
5CD
330
5CB
100
AcDbEntity
  8
Livello 1
 62
   178
420
    65793
370
     9
100
AcDbVertex
100
AcDb2dVertex
 10
11.15642496465881
 20
-39.86388887892292
 30
0.0
  0
VERTEX
  5
5CE
330
5CB
100
AcDbEntity
  8
Livello 1
 62
   178
420
    65793
370
     9
100
AcDbVertex
100
AcDb2dVertex
 10
10.4060831679714
 20
-37.98734536810733
 30
0.0
  0
VERTEX
  5
5CF
330
5CB
100
AcDbEntity
  8
Livello 1
 62
   178
420
    65793
370
     9
100
AcDbVertex
100
AcDb2dVertex
 10
9.936688908106106
 20
-36.01743976964148
 30
0.0
  0
VERTEX
  5
5D0
330
5CB
100
AcDbEntity
  8
Livello 1
 62
   178
420
    65793
370
     9
100
AcDbVertex
100
AcDb2dVertex
 10
9.842810056133048
 20
-33.95451659307387
 30
0.0
  0
SEQEND
  5
5D1
330
5CB
100
AcDbEntity
  8
Livello 1
370
     9
  0
POLYLINE
  5
5D2
330
1F
100
AcDbEntity
  8
Livello 1
 62
   178
420
    65793
370
     9
100
AcDb2dPolyline
 66
     1
 10
0.0
 20
0.0
 30
0.0
  0
VERTEX
  5
5D3
330
5D2
100
AcDbEntity
  8
Livello 1
 62
   178
420
    65793
370
     9
100
AcDbVertex
100
AcDb2dVertex
 10
-37.62492132305905
 20
-45.02326387763308
 30
0.0
  0
VERTEX
  5
5D4
330
5D2
100
AcDbEntity
  8
Livello 1
 62
   178
420
    65793
370
     9
100
AcDbVertex
100
AcDb2dVertex
 10
-41.09602727922253
 20
-47.55609807838876
 30
0.0
  0
VERTEX
  5
5D5
330
5D2
100
AcDbEntity
  8
Livello 1
 62
   178
420
    65793
370
     9
100
AcDbVertex
100
AcDb2dVertex
 10
-44.28549667946682
 20
-50.3710855993864
 30
0.0
  0
VERTEX
  5
5D6
330
5D2
100
AcDbEntity
  8
Livello 1
 62
   178
420
    65793
370
     9
100
AcDbVertex
100
AcDb2dVertex
 10
-47.09996743614168
 20
-53.4668484024319
 30
0.0
  0
VERTEX
  5
5D7
330
5D2
100
AcDbEntity
  8
Livello 1
 62
   178
420
    65793
370
     9
100
AcDbVertex
100
AcDb2dVertex
 10
-49.72650823409615
 20
-56.93743759427259
 30
0.0
  0
SEQEND
  5
5D8
330
5D2
100
AcDbEntity
  8
Livello 1
370
     9
  0
ENDSEC
  0
SECTION
  2
OBJECTS
  0
DICTIONARY
  5
C
330
0
100
AcDbDictionary
281
     1
  3
ACAD_GROUP
350
D
  3
ACAD_LAYOUT
350
1A
  3
ACAD_MLINESTYLE
350
17
  3
ACAD_PLOTSETTINGS
350
19
  3
ACAD_PLOTSTYLENAME
350
E
  3
ACAD_TABLESTYLE
350
5D9
  3
ACAD_VISUALSTYLE
350
2A
  0
DICTIONARY
  5
D
102
{ACAD_REACTORS
330
C
102
}
330
C
100
AcDbDictionary
281
     1
  0
DICTIONARY
  5
1A
102
{ACAD_REACTORS
330
C
102
}
330
C
100
AcDbDictionary
281
     1
  3
Layout1
350
1E
  3
Layout2
350
26
  3
Model
350
22
  0
DICTIONARY
  5
17
102
{ACAD_REACTORS
330
C
102
}
330
C
100
AcDbDictionary
281
     1
  3
Standard
350
18
  0
DICTIONARY
  5
19
102
{ACAD_REACTORS
330
C
102
}
330
C
100
AcDbDictionary
281
     1
  0
ACDBDICTIONARYWDFLT
  5
E
102
{ACAD_REACTORS
330
C
102
}
330
C
100
AcDbDictionary
281
     1
  3
Normal
350
F
100
AcDbDictionaryWithDefault
340
F
  0
DICTIONARY
  5
5D9
102
{ACAD_REACTORS
330
C
102
}
330
C
100
AcDbDictionary
281
     1
  0
DICTIONARY
  5
2A
102
{ACAD_REACTORS
330
C
102
}
330
C
100
AcDbDictionary
281
     1
  3
2dWireframe
350
2F
  3
3D Hidden
350
31
  3
3dWireframe
350
30
  3
Basic
350
32
  3
Brighten
350
36
  3
ColorChange
350
3A
  3
Conceptual
350
34
  3
Dim
350
35
  3
Facepattern
350
39
  3
Flat
350
2B
  3
FlatWithEdges
350
2C
  3
Gouraud
350
2D
  3
GouraudWithEdges
350
2E
  3
Linepattern
350
38
  3
Realistic
350
33
  3
Thicken
350
37
  0
LAYOUT
  5
1E
102
{ACAD_REACTORS
330
1A
102
}
330
1A
100
AcDbPlotSettings
  1

  2
none_device
  4

  6

 40
0.0
 41
0.0
 42
0.0
 43
0.0
 44
0.0
 45
0.0
 46
0.0
 47
0.0
 48
0.0
 49
0.0
140
0.0
141
0.0
142
1.0
143
1.0
 70
   688
 72
     0
 73
     0
 74
     5
  7

 75
    16
 76
     0
 77
     2
 78
   300
147
1.0
148
0.0
149
0.0
100
AcDbLayout
  1
Layout1
 70
     1
 71
     1
 10
0.0
 20
0.0
 11
12.0
 21
9.0
 12
0.0
 22
0.0
 32
0.0
 14
1.000000000000000E+20
 24
1.000000000000000E+20
 34
1.000000000000000E+20
 15
-1.000000000000000E+20
 25
-1.000000000000000E+20
 35
-1.000000000000000E+20
146
0.0
 13
0.0
 23
0.0
 33
0.0
 16
1.0
 26
0.0
 36
0.0
 17
0.0
 27
1.0
 37
0.0
 76
     0
330
1B
  0
LAYOUT
  5
26
102
{ACAD_REACTORS
330
1A
102
}
330
1A
100
AcDbPlotSettings
  1

  2
none_device
  4

  6

 40
0.0
 41
0.0
 42
0.0
 43
0.0
 44
0.0
 45
0.0
 46
0.0
 47
0.0
 48
0.0
 49
0.0
140
0.0
141
0.0
142
1.0
143
1.0
 70
   688
 72
     0
 73
     0
 74
     5
  7

 75
    16
 76
     0
 77
     2
 78
   300
147
1.0
148
0.0
149
0.0
100
AcDbLayout
  1
Layout2
 70
     1
 71
     2
 10
0.0
 20
0.0
 11
0.0
 21
0.0
 12
0.0
 22
0.0
 32
0.0
 14
0.0
 24
0.0
 34
0.0
 15
0.0
 25
0.0
 35
0.0
146
0.0
 13
0.0
 23
0.0
 33
0.0
 16
1.0
 26
0.0
 36
0.0
 17
0.0
 27
1.0
 37
0.0
 76
     0
330
23
  0
LAYOUT
  5
22
102
{ACAD_REACTORS
330
1A
102
}
330
1A
100
AcDbPlotSettings
  1

  2
none_device
  4

  6

 40
0.0
 41
0.0
 42
0.0
 43
0.0
 44
0.0
 45
0.0
 46
0.0
 47
0.0
 48
0.0
 49
0.0
140
0.0
141
0.0
142
1.0
143
1.0
 70
  1712
 72
     0
 73
     0
 74
     0
  7

 75
     0
 76
     0
 77
     2
 78
   300
147
1.0
148
0.0
149
0.0
100
AcDbLayout
  1
Model
 70
     1
 71
     0
 10
0.0
 20
0.0
 11
12.0
 21
9.0
 12
0.0
 22
0.0
 32
0.0
 14
1.000000000000000E+20
 24
1.000000000000000E+20
 34
1.000000000000000E+20
 15
-1.000000000000000E+20
 25
-1.000000000000000E+20
 35
-1.000000000000000E+20
146
0.0
 13
0.0
 23
0.0
 33
0.0
 16
1.0
 26
0.0
 36
0.0
 17
0.0
 27
1.0
 37
0.0
 76
     0
330
1F
331
29
  0
MLINESTYLE
  5
18
102
{ACAD_REACTORS
330
17
102
}
330
17
100
AcDbMlineStyle
  2
Standard
 70
     0
  3

 62
   256
 51
90.0
 52
90.0
 71
     2
 49
0.5
 62
   256
  6
BYLAYER
 49
-0.5
 62
   256
  6
BYLAYER
  0
ACDBPLACEHOLDER
  5
F
102
{ACAD_REACTORS
330
E
102
}
330
E
  0
VISUALSTYLE
  5
2F
102
{ACAD_REACTORS
330
2A
102
}
330
2A
100
AcDbVisualStyle
  2
2dWireframe
 70
     4
 71
     0
 72
     2
 73
     0
 90
        0
 40
-0.6
 41
-30.0
 62
     5
 63
     7
421
 16777215
 74
     1
 91
        4
 64
     7
 65
   257
 75
     1
175
     1
 42
1.0
 92
        0
 66
   257
 43
1.0
 76
     1
 77
     6
 78
     2
 67
     7
 79
     5
170
     0
171
     0
290
     0
174
     0
 93
        1
 44
0.0
173
     0
291
     0
 45
0.0
1001
ACAD
1000
AcDbSavedByObjectVersion
1070
     0
  0
VISUALSTYLE
  5
31
102
{ACAD_REACTORS
330
2A
102
}
330
2A
100
AcDbVisualStyle
  2
3D Hidden
 70
     6
 71
     1
 72
     2
 73
     2
 90
        0
 40
-0.6
 41
-30.0
 62
     5
 63
     7
421
 16777215
 74
     2
 91
        2
 64
     7
 65
   257
 75
     2
175
     1
 42
40.0
 92
        0
 66
   257
 43
1.0
 76
     1
 77
     6
 78
     2
 67
     7
 79
     3
170
     0
171
     0
290
     0
174
     0
 93
        1
 44
0.0
173
     0
291
     0
 45
0.0
1001
ACAD
1000
AcDbSavedByObjectVersion
1070
     0
  0
VISUALSTYLE
  5
30
102
{ACAD_REACTORS
330
2A
102
}
330
2A
100
AcDbVisualStyle
  2
3dWireframe
 70
     5
 71
     0
 72
     2
 73
     0
 90
        0
 40
-0.6
 41
-30.0
 62
     5
 63
     7
421
 16777215
 74
     1
 91
        4
 64
     7
 65
   257
 75
     1
175
     1
 42
1.0
 92
        0
 66
   257
 43
1.0
 76
     1
 77
     6
 78
     2
 67
     7
 79
     5
170
     0
171
     0
290
     0
174
     0
 93
        1
 44
0.0
173
     0
291
     0
 45
0.0
1001
ACAD
1000
AcDbSavedByObjectVersion
1070
     0
  0
VISUALSTYLE
  5
32
102
{ACAD_REACTORS
330
2A
102
}
330
2A
100
AcDbVisualStyle
  2
Basic
 70
     7
 71
     1
 72
     0
 73
     1
 90
        0
 40
-0.6
 41
-30.0
 62
     5
 63
     7
421
 16777215
 74
     0
 91
        4
 64
     7
 65
   257
 75
     1
175
     1
 42
1.0
 92
        8
 66
     7
 43
1.0
 76
     1
 77
     6
 78
     2
 67
     7
 79
     5
170
     0
171
     0
290
     0
174
     0
 93
        1
 44
0.0
173
     0
291
     1
 45
0.0
1001
ACAD
1000
AcDbSavedByObjectVersion
1070
     0
  0
VISUALSTYLE
  5
36
102
{ACAD_REACTORS
330
2A
102
}
330
2A
100
AcDbVisualStyle
  2
Brighten
 70
    12
 71
     2
 72
     2
 73
     0
 90
        0
 40
-0.6
 41
-30.0
 62
     5
 63
     7
421
 16777215
 74
     1
 91
        4
 64
     7
 65
   257
 75
     1
175
     1
 42
1.0
 92
        8
 66
     7
 43
1.0
 76
     1
 77
     6
 78
     2
 67
     7
 79
     5
170
     0
171
     0
290
     0
174
     0
 93
        1
 44
50.0
173
     0
291
     1
 45
0.0
1001
ACAD
1000
AcDbSavedByObjectVersion
1070
     0
  0
VISUALSTYLE
  5
3A
102
{ACAD_REACTORS
330
2A
102
}
330
2A
100
AcDbVisualStyle
  2
ColorChange
 70
    16
 71
     2
 72
     2
 73
     3
 90
        0
 40
-0.6
 41
-30.0
 62
     5
 63
     8
421
  8421504
 74
     1
 91
        4
 64
     7
 65
   257
 75
     1
175
     1
 42
1.0
 92
        8
 66
     8
424
  8421504
 43
1.0
 76
     1
 77
     6
 78
     2
 67
     7
 79
     5
170
     0
171
     0
290
     0
174
     0
 93
        1
 44
0.0
173
     0
291
     1
 45
0.0
1001
ACAD
1000
AcDbSavedByObjectVersion
1070
     0
  0
VISUALSTYLE
  5
34
102
{ACAD_REACTORS
330
2A
102
}
330
2A
100
AcDbVisualStyle
  2
Conceptual
 70
     9
 71
     3
 72
     2
 73
     0
 90
        0
 40
-0.6
 41
-30.0
 62
     5
 63
     7
421
 16777215
 74
     2
 91
        2
 64
     7
 65
   257
 75
     1
175
     1
 42
40.0
 92
        8
 66
     7
 43
1.0
 76
     1
 77
     6
 78
     2
 67
     7
 79
     3
170
     0
171
     0
290
     0
174
     0
 93
        1
 44
0.0
173
     0
291
     0
 45
0.0
1001
ACAD
1000
AcDbSavedByObjectVersion
1070
     0
  0
VISUALSTYLE
  5
35
102
{ACAD_REACTORS
330
2A
102
}
330
2A
100
AcDbVisualStyle
  2
Dim
 70
    11
 71
     2
 72
     2
 73
     0
 90
        0
 40
-0.6
 41
-30.0
 62
     5
 63
     7
421
 16777215
 74
     1
 91
        4
 64
     7
 65
   257
 75
     1
175
     1
 42
1.0
 92
        8
 66
     7
 43
1.0
 76
     1
 77
     6
 78
     2
 67
     7
 79
     5
170
     0
171
     0
290
     0
174
     0
 93
        1
 44
-50.0
173
     0
291
     1
 45
0.0
1001
ACAD
1000
AcDbSavedByObjectVersion
1070
     0
  0
VISUALSTYLE
  5
39
102
{ACAD_REACTORS
330
2A
102
}
330
2A
100
AcDbVisualStyle
  2
Facepattern
 70
    15
 71
     2
 72
     2
 73
     0
 90
        0
 40
-0.6
 41
-30.0
 62
     5
 63
     7
421
 16777215
 74
     1
 91
        4
 64
     7
 65
   257
 75
     1
175
     1
 42
1.0
 92
        8
 66
     7
 43
1.0
 76
     1
 77
     6
 78
     2
 67
     7
 79
     5
170
     0
171
     0
290
     0
174
     0
 93
        1
 44
0.0
173
     0
291
     1
 45
0.0
1001
ACAD
1000
AcDbSavedByObjectVersion
1070
     0
  0
VISUALSTYLE
  5
2B
102
{ACAD_REACTORS
330
2A
102
}
330
2A
100
AcDbVisualStyle
  2
Flat
 70
     0
 71
     2
 72
     1
 73
     1
 90
        2
 40
-0.6
 41
30.0
 62
     5
 63
     7
421
 16777215
 74
     0
 91
        4
 64
     7
 65
   257
 75
     1
175
     1
 42
1.0
 92
        8
 66
     7
 43
1.0
 76
     1
 77
     6
 78
     2
 67
     7
 79
     5
170
     0
171
     0
290
     0
174
     0
 93
       13
 44
0.0
173
     0
291
     1
 45
0.0
1001
ACAD
1000
AcDbSavedByObjectVersion
1070
     0
  0
VISUALSTYLE
  5
2C
102
{ACAD_REACTORS
330
2A
102
}
330
2A
100
AcDbVisualStyle
  2
FlatWithEdges
 70
     1
 71
     2
 72
     1
 73
     1
 90
        2
 40
-0.6
 41
30.0
 62
     5
 63
     7
421
 16777215
 74
     1
 91
        4
 64
     7
 65
   257
 75
     1
175
     1
 42
1.0
 92
        0
 66
   257
 43
1.0
 76
     1
 77
     6
 78
     2
 67
     7
 79
     5
170
     0
171
     0
290
     0
174
     0
 93
       13
 44
0.0
173
     0
291
     1
 45
0.0
1001
ACAD
1000
AcDbSavedByObjectVersion
1070
     0
  0
VISUALSTYLE
  5
2D
102
{ACAD_REACTORS
330
2A
102
}
330
2A
100
AcDbVisualStyle
  2
Gouraud
 70
     2
 71
     2
 72
     2
 73
     1
 90
        2
 40
-0.6
 41
30.0
 62
     5
 63
     7
421
 16777215
 74
     0
 91
        4
 64
     7
 65
   257
 75
     1
175
     1
 42
1.0
 92
        0
 66
     7
 43
1.0
 76
     1
 77
     6
 78
     2
 67
     7
 79
     5
170
     0
171
     0
290
     0
174
     0
 93
       13
 44
0.0
173
     0
291
     1
 45
0.0
1001
ACAD
1000
AcDbSavedByObjectVersion
1070
     0
  0
VISUALSTYLE
  5
2E
102
{ACAD_REACTORS
330
2A
102
}
330
2A
100
AcDbVisualStyle
  2
GouraudWithEdges
 70
     3
 71
     2
 72
     2
 73
     1
 90
        2
 40
-0.6
 41
30.0
 62
     5
 63
     7
421
 16777215
 74
     1
 91
        4
 64
     7
 65
   257
 75
     1
175
     1
 42
1.0
 92
        0
 66
   257
 43
1.0
 76
     1
 77
     6
 78
     2
 67
     7
 79
     5
170
     0
171
     0
290
     0
174
     0
 93
       13
 44
0.0
173
     0
291
     1
 45
0.0
1001
ACAD
1000
AcDbSavedByObjectVersion
1070
     0
  0
VISUALSTYLE
  5
38
102
{ACAD_REACTORS
330
2A
102
}
330
2A
100
AcDbVisualStyle
  2
Linepattern
 70
    14
 71
     2
 72
     2
 73
     0
 90
        0
 40
-0.6
 41
-30.0
 62
     5
 63
     7
421
 16777215
 74
     1
 91
        4
 64
     7
 65
   257
 75
     7
175
     7
 42
1.0
 92
        8
 66
     7
 43
1.0
 76
     1
 77
     6
 78
     2
 67
     7
 79
     5
170
     0
171
     0
290
     0
174
     0
 93
        1
 44
0.0
173
     0
291
     1
 45
0.0
1001
ACAD
1000
AcDbSavedByObjectVersion
1070
     0
  0
VISUALSTYLE
  5
33
102
{ACAD_REACTORS
330
2A
102
}
330
2A
100
AcDbVisualStyle
  2
Realistic
 70
     8
 71
     2
 72
     2
 73
     0
 90
        0
 40
-0.6
 41
-30.0
 62
     5
 63
     7
421
 16777215
 74
     1
 91
        0
 64
     7
 65
   257
 75
     1
175
     1
 42
1.0
 92
        8
 66
     8
424
  7895160
 43
1.0
 76
     1
 77
     6
 78
     2
 67
     7
 79
     5
170
     0
171
     0
290
     0
174
     0
 93
       13
 44
0.0
173
     0
291
     0
 45
0.0
1001
ACAD
1000
AcDbSavedByObjectVersion
1070
     0
  0
VISUALSTYLE
  5
37
102
{ACAD_REACTORS
330
2A
102
}
330
2A
100
AcDbVisualStyle
  2
Thicken
 70
    13
 71
     2
 72
     2
 73
     0
 90
        0
 40
-0.6
 41
-30.0
 62
     5
 63
     7
421
 16777215
 74
     1
 91
        4
 64
     7
 65
   257
 75
     1
175
     1
 42
1.0
 92
       12
 66
     7
 43
1.0
 76
     1
 77
     6
 78
     2
 67
     7
 79
     5
170
     0
171
     0
290
     0
174
     0
 93
        1
 44
0.0
173
     0
291
     1
 45
0.0
1001
ACAD
1000
AcDbSavedByObjectVersion
1070
     0
  0
ENDSEC
  0
EOF
