  0
SECTION
  2
HEADER
  9
$ACADVER
  1
AC1018
  9
$ACADMAINTVER
 70
     0
  9
$DWGCODEPAGE
  3
ANSI_1252
  9
$INSBASE
 10
0.0
 20
0.0
 30
0.0
  9
$EXTMIN
 10
0.0
 20
-0.0000000000000008
 30
0.0
  9
$EXTMAX
 10
373.2838135810822
 20
564.5014555631174
 30
0.0
  9
$LIMMIN
 10
0.0
 20
0.0
  9
$LIMMAX
 10
12.0
 20
9.0
  9
$ORTHOMODE
 70
     0
  9
$REGENMODE
 70
     1
  9
$FILLMODE
 70
     1
  9
$QTEXTMODE
 70
     0
  9
$MIRRTEXT
 70
     1
  9
$LTSCALE
 40
1.0
  9
$ATTMODE
 70
     1
  9
$TEXTSIZE
 40
0.2
  9
$TRACEWID
 40
0.05
  9
$TEXTSTYLE
  7
Standard
  9
$CLAYER
  8
Predefinito
  9
$CELTYPE
  6
ByLayer
  9
$CECOLOR
 62
   256
  9
$CELTSCALE
 40
1.0
  9
$DISPSILH
 70
     0
  9
$DIMSCALE
 40
1.0
  9
$DIMASZ
 40
0.18
  9
$DIMEXO
 40
0.0625
  9
$DIMDLI
 40
0.38
  9
$DIMRND
 40
0.0
  9
$DIMDLE
 40
0.0
  9
$DIMEXE
 40
0.18
  9
$DIMTP
 40
0.0
  9
$DIMTM
 40
0.0
  9
$DIMTXT
 40
0.18
  9
$DIMCEN
 40
0.09
  9
$DIMTSZ
 40
0.0
  9
$DIMTOL
 70
     0
  9
$DIMLIM
 70
     0
  9
$DIMTIH
 70
     1
  9
$DIMTOH
 70
     1
  9
$DIMSE1
 70
     0
  9
$DIMSE2
 70
     0
  9
$DIMTAD
 70
     0
  9
$DIMZIN
 70
     0
  9
$DIMBLK
  1

  9
$DIMASO
 70
     1
  9
$DIMSHO
 70
     1
  9
$DIMPOST
  1

  9
$DIMAPOST
  1

  9
$DIMALT
 70
     0
  9
$DIMALTD
 70
     2
  9
$DIMALTF
 40
25.4
  9
$DIMLFAC
 40
1.0
  9
$DIMTOFL
 70
     0
  9
$DIMTVP
 40
0.0
  9
$DIMTIX
 70
     0
  9
$DIMSOXD
 70
     0
  9
$DIMSAH
 70
     0
  9
$DIMBLK1
  1

  9
$DIMBLK2
  1

  9
$DIMSTYLE
  2
Standard
  9
$DIMCLRD
 70
     0
  9
$DIMCLRE
 70
     0
  9
$DIMCLRT
 70
     0
  9
$DIMTFAC
 40
1.0
  9
$DIMGAP
 40
0.09
  9
$DIMJUST
 70
     0
  9
$DIMSD1
 70
     0
  9
$DIMSD2
 70
     0
  9
$DIMTOLJ
 70
     1
  9
$DIMTZIN
 70
     0
  9
$DIMALTZ
 70
     0
  9
$DIMALTTZ
 70
     0
  9
$DIMUPT
 70
     0
  9
$DIMDEC
 70
     4
  9
$DIMTDEC
 70
     4
  9
$DIMALTU
 70
     2
  9
$DIMALTTD
 70
     2
  9
$DIMTXSTY
  7
Standard
  9
$DIMAUNIT
 70
     0
  9
$DIMADEC
 70
     0
  9
$DIMALTRND
 40
0.0
  9
$DIMAZIN
 70
     0
  9
$DIMDSEP
 70
    46
  9
$DIMATFIT
 70
     3
  9
$DIMFRAC
 70
     0
  9
$DIMLDRBLK
  1

  9
$DIMLUNIT
 70
     2
  9
$DIMLWD
 70
    -2
  9
$DIMLWE
 70
    -2
  9
$DIMTMOVE
 70
     2
  9
$LUNITS
 70
     2
  9
$LUPREC
 70
     3
  9
$SKETCHINC
 40
0.1
  9
$FILLETRAD
 40
0.5
  9
$AUNITS
 70
     0
  9
$AUPREC
 70
     0
  9
$MENU
  1
.
  9
$ELEVATION
 40
0.0
  9
$PELEVATION
 40
0.0
  9
$THICKNESS
 40
0.0
  9
$LIMCHECK
 70
     0
  9
$CHAMFERA
 40
0.5
  9
$CHAMFERB
 40
0.5
  9
$CHAMFERC
 40
1.0
  9
$CHAMFERD
 40
0.0
  9
$SKPOLY
 70
     0
  9
$TDCREATE
 40
2456099.392653021
  9
$TDUCREATE
 40
2456099.309319688
  9
$TDUPDATE
 40
2456099.392653032
  9
$TDUUPDATE
 40
2456099.309319699
  9
$TDINDWG
 40
0.0000000116
  9
$TDUSRTIMER
 40
0.0000000116
  9
$USRTIMER
 70
     1
  9
$ANGBASE
 50
0.0
  9
$ANGDIR
 70
     0
  9
$PDMODE
 70
     0
  9
$PDSIZE
 40
0.0
  9
$PLINEWID
 40
0.0
  9
$SPLFRAME
 70
     0
  9
$SPLINETYPE
 70
     6
  9
$SPLINESEGS
 70
     8
  9
$HANDSEED
  5
F3
  9
$SURFTAB1
 70
     6
  9
$SURFTAB2
 70
     6
  9
$SURFTYPE
 70
     6
  9
$SURFU
 70
     6
  9
$SURFV
 70
     6
  9
$UCSBASE
  2

  9
$UCSNAME
  2

  9
$UCSORG
 10
0.0
 20
0.0
 30
0.0
  9
$UCSXDIR
 10
1.0
 20
0.0
 30
0.0
  9
$UCSYDIR
 10
0.0
 20
1.0
 30
0.0
  9
$UCSORTHOREF
  2

  9
$UCSORTHOVIEW
 70
     0
  9
$UCSORGTOP
 10
0.0
 20
0.0
 30
0.0
  9
$UCSORGBOTTOM
 10
0.0
 20
0.0
 30
0.0
  9
$UCSORGLEFT
 10
0.0
 20
0.0
 30
0.0
  9
$UCSORGRIGHT
 10
0.0
 20
0.0
 30
0.0
  9
$UCSORGFRONT
 10
0.0
 20
0.0
 30
0.0
  9
$UCSORGBACK
 10
0.0
 20
0.0
 30
0.0
  9
$PUCSBASE
  2

  9
$PUCSNAME
  2

  9
$PUCSORG
 10
0.0
 20
0.0
 30
0.0
  9
$PUCSXDIR
 10
1.0
 20
0.0
 30
0.0
  9
$PUCSYDIR
 10
0.0
 20
1.0
 30
0.0
  9
$PUCSORTHOREF
  2

  9
$PUCSORTHOVIEW
 70
     0
  9
$PUCSORGTOP
 10
0.0
 20
0.0
 30
0.0
  9
$PUCSORGBOTTOM
 10
0.0
 20
0.0
 30
0.0
  9
$PUCSORGLEFT
 10
0.0
 20
0.0
 30
0.0
  9
$PUCSORGRIGHT
 10
0.0
 20
0.0
 30
0.0
  9
$PUCSORGFRONT
 10
0.0
 20
0.0
 30
0.0
  9
$PUCSORGBACK
 10
0.0
 20
0.0
 30
0.0
  9
$USERI1
 70
     0
  9
$USERI2
 70
     0
  9
$USERI3
 70
     0
  9
$USERI4
 70
     0
  9
$USERI5
 70
     0
  9
$USERR1
 40
0.0
  9
$USERR2
 40
0.0
  9
$USERR3
 40
0.0
  9
$USERR4
 40
0.0
  9
$USERR5
 40
0.0
  9
$WORLDVIEW
 70
     1
  9
$SHADEDGE
 70
     3
  9
$SHADEDIF
 70
    70
  9
$TILEMODE
 70
     1
  9
$MAXACTVP
 70
    64
  9
$PINSBASE
 10
0.0
 20
0.0
 30
0.0
  9
$PLIMCHECK
 70
     0
  9
$PEXTMIN
 10
1.000000000000000E+20
 20
1.000000000000000E+20
 30
1.000000000000000E+20
  9
$PEXTMAX
 10
-1.000000000000000E+20
 20
-1.000000000000000E+20
 30
-1.000000000000000E+20
  9
$PLIMMIN
 10
0.0
 20
0.0
  9
$PLIMMAX
 10
12.0
 20
9.0
  9
$UNITMODE
 70
     0
  9
$VISRETAIN
 70
     1
  9
$PLINEGEN
 70
     0
  9
$PSLTSCALE
 70
     1
  9
$TREEDEPTH
 70
  3020
  9
$CMLSTYLE
  2
Standard
  9
$CMLJUST
 70
     0
  9
$CMLSCALE
 40
1.0
  9
$PROXYGRAPHICS
 70
     1
  9
$MEASUREMENT
 70
     0
  9
$CELWEIGHT
370
    -1
  9
$ENDCAPS
280
     0
  9
$JOINSTYLE
280
     0
  9
$LWDISPLAY
290
     0
  9
$INSUNITS
 70
     4
  9
$HYPERLINKBASE
  1

  9
$STYLESHEET
  1

  9
$XEDIT
290
     1
  9
$CEPSNTYPE
380
     0
  9
$PSTYLEMODE
290
     1
  9
$FINGERPRINTGUID
  2
{A8F0AE6E-EC8A-4204-BB0F-B31A3EFB62D7}
  9
$VERSIONGUID
  2
{FAEB1C32-E019-11D5-929B-00C0DF256EC4}
  9
$EXTNAMES
290
     1
  9
$PSVPSCALE
 40
0.0
  9
$OLESTARTUP
290
     0
  9
$SORTENTS
280
   127
  9
$INDEXCTL
280
     0
  9
$HIDETEXT
280
     1
  9
$XCLIPFRAME
290
     0
  9
$HALOGAP
280
     0
  9
$OBSCOLOR
 70
   257
  9
$OBSLTYPE
280
     0
  9
$INTERSECTIONDISPLAY
280
     0
  9
$INTERSECTIONCOLOR
 70
   257
  9
$DIMASSOC
280
     2
  9
$PROJECTNAME
  1

  0
ENDSEC
  0
SECTION
  2
CLASSES
  0
CLASS
  1
ACDBDICTIONARYWDFLT
  2
AcDbDictionaryWithDefault
  3
ObjectDBX Classes
 90
        0
 91
        4
280
     0
281
     0
  0
CLASS
  1
VISUALSTYLE
  2
AcDbVisualStyle
  3
ObjectDBX Classes
 90
     4095
 91
        4
280
     0
281
     0
  0
ENDSEC
  0
SECTION
  2
TABLES
  0
TABLE
  2
VPORT
  5
8
330
0
100
AcDbSymbolTable
 70
     1
  0
VPORT
  5
29
330
8
100
AcDbSymbolTableRecord
100
AcDbViewportTableRecord
  2
*Active
 70
     0
 10
0.0
 20
0.0
 11
1.0
 21
1.0
 12
186.6419067905411
 22
282.2507277815587
 13
0.0
 23
0.0
 14
0.5
 24
0.5
 15
0.5
 25
0.5
 16
0.0
 26
0.0
 36
1.0
 17
0.0
 27
0.0
 37
0.0
 40
575.7914846743797
 41
0.6612628008349662
 42
50.0
 43
0.0
 44
0.0
 50
0.0
 51
0.0
 71
     0
 72
   100
 73
     1
 74
     3
 75
     0
 76
     0
 77
     0
 78
     0
281
     0
 65
     1
110
0.0
120
0.0
130
0.0
111
1.0
121
0.0
131
0.0
112
0.0
122
1.0
132
0.0
 79
     0
146
0.0
  0
ENDTAB
  0
TABLE
  2
LTYPE
  5
5
330
0
100
AcDbSymbolTable
 70
     1
  0
LTYPE
  5
14
330
5
100
AcDbSymbolTableRecord
100
AcDbLinetypeTableRecord
  2
ByBlock
 70
     0
  3

 72
    65
 73
     0
 40
0.0
  0
LTYPE
  5
15
330
5
100
AcDbSymbolTableRecord
100
AcDbLinetypeTableRecord
  2
ByLayer
 70
     0
  3

 72
    65
 73
     0
 40
0.0
  0
LTYPE
  5
16
330
5
100
AcDbSymbolTableRecord
100
AcDbLinetypeTableRecord
  2
Continuous
 70
     0
  3
Solid line
 72
    65
 73
     0
 40
0.0
  0
ENDTAB
  0
TABLE
  2
LAYER
  5
2
330
0
100
AcDbSymbolTable
 70
     3
  0
LAYER
  5
10
330
2
100
AcDbSymbolTableRecord
100
AcDbLayerTableRecord
  2
0
 70
     0
 62
     7
  6
Continuous
370
    -3
390
F
  0
LAYER
  5
3B
330
2
100
AcDbSymbolTableRecord
100
AcDbLayerTableRecord
  2
Linee visibili 2D
 70
     0
 62
     7
  6
Continuous
370
    -3
390
F
  0
LAYER
  5
3E
330
2
100
AcDbSymbolTableRecord
100
AcDbLayerTableRecord
  2
Predefinito
 70
     0
 62
     7
  6
Continuous
370
    -3
390
F
  0
ENDTAB
  0
TABLE
  2
STYLE
  5
3
330
0
100
AcDbSymbolTable
 70
     1
  0
STYLE
  5
11
330
3
100
AcDbSymbolTableRecord
100
AcDbTextStyleTableRecord
  2
Standard
 70
     0
 40
0.0
 41
1.0
 50
0.0
 71
     0
 42
0.2
  3
txt
  4

  0
ENDTAB
  0
TABLE
  2
VIEW
  5
6
330
0
100
AcDbSymbolTable
 70
     0
  0
ENDTAB
  0
TABLE
  2
UCS
  5
7
330
0
100
AcDbSymbolTable
 70
     0
  0
ENDTAB
  0
TABLE
  2
APPID
  5
9
330
0
100
AcDbSymbolTable
 70
     1
  0
APPID
  5
12
330
9
100
AcDbSymbolTableRecord
100
AcDbRegAppTableRecord
  2
ACAD
 70
     0
  0
ENDTAB
  0
TABLE
  2
DIMSTYLE
  5
A
330
0
100
AcDbSymbolTable
 70
     1
100
AcDbDimStyleTable
  0
DIMSTYLE
105
27
330
A
100
AcDbSymbolTableRecord
100
AcDbDimStyleTableRecord
  2
Standard
 70
     0
340
11
  0
ENDTAB
  0
TABLE
  2
BLOCK_RECORD
  5
1
330
0
100
AcDbSymbolTable
 70
     1
  0
BLOCK_RECORD
  5
1F
330
1
100
AcDbSymbolTableRecord
100
AcDbBlockTableRecord
  2
*Model_Space
340
22
  0
BLOCK_RECORD
  5
1B
330
1
100
AcDbSymbolTableRecord
100
AcDbBlockTableRecord
  2
*Paper_Space
340
1E
  0
BLOCK_RECORD
  5
23
330
1
100
AcDbSymbolTableRecord
100
AcDbBlockTableRecord
  2
*Paper_Space0
340
26
  0
ENDTAB
  0
ENDSEC
  0
SECTION
  2
BLOCKS
  0
BLOCK
  5
20
330
1F
100
AcDbEntity
  8
0
100
AcDbBlockBegin
  2
*Model_Space
 70
     0
 10
0.0
 20
0.0
 30
0.0
  3
*Model_Space
  1

  0
ENDBLK
  5
21
330
1F
100
AcDbEntity
  8
0
100
AcDbBlockEnd
  0
BLOCK
  5
1C
330
1B
100
AcDbEntity
 67
     1
  8
0
100
AcDbBlockBegin
  2
*Paper_Space
 70
     0
 10
0.0
 20
0.0
 30
0.0
  3
*Paper_Space
  1

  0
ENDBLK
  5
1D
330
1B
100
AcDbEntity
 67
     1
  8
0
100
AcDbBlockEnd
  0
BLOCK
  5
24
330
23
100
AcDbEntity
  8
0
100
AcDbBlockBegin
  2
*Paper_Space0
 70
     0
 10
0.0
 20
0.0
 30
0.0
  3
*Paper_Space0
  1

  0
ENDBLK
  5
25
330
23
100
AcDbEntity
  8
0
100
AcDbBlockEnd
  0
ENDSEC
  0
SECTION
  2
ENTITIES
  0
ARC
  5
3C
330
1F
100
AcDbEntity
  8
Linee visibili 2D
 62
   255
100
AcDbCircle
 10
293.3799636200947
 20
57.40439973349978
 30
0.0
 40
7.000121637942626
100
AcDbArc
 50
180.3959144684107
 51
272.4872185193803
  0
ARC
  5
3D
330
1F
100
AcDbEntity
  8
Linee visibili 2D
 62
   255
100
AcDbCircle
 10
292.2934251826352
 20
82.28617044170785
 30
0.0
 40
31.90560441065436
100
AcDbArc
 50
272.4975130443012
 51
0.0000946116977346
  0
LINE
  5
3F
330
1F
100
AcDbEntity
  8
Predefinito
 62
   255
100
AcDbLine
 10
269.7753529957648
 20
18.72935015225124
 30
0.0
 11
280.0927105877358
 21
18.72935015225121
 31
0.0
  0
ARC
  5
40
330
1F
100
AcDbEntity
  8
Predefinito
 62
   255
100
AcDbCircle
 10
269.6670827564233
 20
19.63042231667916
 30
0.0
 40
0.9075535743050759
100
AcDbArc
 50
193.2842809376577
 51
276.8516479649605
  0
LINE
  5
41
330
1F
100
AcDbEntity
  8
Predefinito
 62
   255
100
AcDbLine
 10
269.7753529957648
 20
145.8430972730517
 30
0.0
 11
280.0927105877358
 21
145.8430972730517
 31
0.0
  0
ARC
  5
42
330
1F
100
AcDbEntity
  8
Predefinito
 62
   255
100
AcDbCircle
 10
269.6670827564233
 20
144.9420251086237
 30
0.0
 40
0.9075535743050759
100
AcDbArc
 50
83.14835203503927
 51
166.715719062342
  0
LINE
  5
43
330
1F
100
AcDbEntity
  8
Linee visibili 2D
 62
   255
100
AcDbLine
 10
82.28622370525761
 20
564.5014555631174
 30
0.0
 11
115.6771005499957
 21
563.9640503550368
 31
0.0
  0
LINE
  5
44
330
1F
100
AcDbEntity
  8
Linee visibili 2D
 62
   255
100
AcDbLine
 10
162.3375632013996
 20
334.3997600218602
 30
0.0
 11
82.28622370928834
 21
333.10641084186
 31
0.0
  0
LINE
  5
45
330
1F
100
AcDbEntity
  8
Linee visibili 2D
 62
   255
100
AcDbLine
 10
115.6779393035161
 20
563.9640797319357
 30
0.0
 11
117.0842516951421
 21
563.7178005796598
 31
0.0
  0
SPLINE
  5
46
330
1F
100
AcDbEntity
  8
Linee visibili 2D
 62
   255
100
AcDbSpline
210
0.0
220
0.0
230
1.0
 70
     8
 71
     3
 72
    12
 73
     8
 74
     0
 42
0.0000000001
 43
0.0000000001
 40
0.0
 40
0.0
 40
0.0
 40
0.0
 40
20.10454985027553
 40
44.47280749934593
 40
99.91750940523737
 40
163.8458420782773
 40
235.5659279898084
 40
235.5659279898084
 40
235.5659279898084
 40
235.5659279898084
 10
117.6023649619344
 20
563.3875226141188
 30
0.0
 10
121.4439146116633
 20
557.8886905732804
 30
0.0
 10
128.7658237095573
 20
544.9693394720783
 30
0.0
 10
141.7295436834197
 20
514.2290117575025
 30
0.0
 10
154.2398333260669
 20
467.8365278792114
 30
0.0
 10
162.8965358963079
 20
404.6407077825268
 30
0.0
 10
164.5741445782176
 20
359.4057538157923
 30
0.0
 10
164.5724474253029
 20
335.5018037769022
 30
0.0
  0
LINE
  5
47
330
1F
100
AcDbEntity
  8
Linee visibili 2D
 62
   255
100
AcDbLine
 10
164.572447425298
 20
335.5018009816452
 30
0.0
 11
163.9313865733375
 21
334.7185162993192
 31
0.0
  0
LINE
  5
48
330
1F
100
AcDbEntity
  8
Linee visibili 2D
 62
   255
100
AcDbLine
 10
163.9289724169118
 20
334.7172657427689
 30
0.0
 11
162.3375632024849
 21
334.3997600220767
 31
0.0
  0
LINE
  5
49
330
1F
100
AcDbEntity
  8
Linee visibili 2D
 62
   255
100
AcDbLine
 10
117.0856475036878
 20
563.7169260719228
 30
0.0
 11
117.6023629636902
 21
563.3875212193202
 31
0.0
  0
LINE
  5
4A
330
1F
100
AcDbEntity
  8
Linee visibili 2D
 62
   255
100
AcDbLine
 10
48.89534687530727
 20
563.9640503550368
 30
0.0
 11
82.28622372004521
 21
564.5014555631174
 31
0.0
  0
LINE
  5
4B
330
1F
100
AcDbEntity
  8
Linee visibili 2D
 62
   255
100
AcDbLine
 10
82.28622371601466
 20
333.10641084186
 30
0.0
 11
2.234884223905607
 21
334.3997600218597
 31
0.0
  0
LINE
  5
4C
330
1F
100
AcDbEntity
  8
Linee visibili 2D
 62
   255
100
AcDbLine
 10
47.48819573016027
 20
563.7178005796595
 30
0.0
 11
48.89450812178612
 21
563.9640797319357
 31
0.0
  0
SPLINE
  5
4D
330
1F
100
AcDbEntity
  8
Linee visibili 2D
 62
   255
100
AcDbSpline
210
0.0
220
0.0
230
1.0
 70
     8
 71
     3
 72
    13
 73
     9
 74
     0
 42
0.0000000001
 43
0.0000000001
 40
0.0
 40
0.0
 40
0.0
 40
0.0
 40
37.74791661441093
 40
71.72367288122572
 40
134.9800057436231
 40
191.0931211804903
 40
215.6842381518521
 40
235.5659469081403
 40
235.5659469081403
 40
235.5659469081403
 40
235.5659469081403
 10
0.0
 20
335.5018037769022
 30
0.0
 10
0.001047368193938
 20
348.0842946146429
 30
0.0
 10
0.4635313987113195
 20
371.9936585796075
 30
0.0
 10
3.371975693297546
 20
416.9037936561049
 30
0.0
 10
10.29398461788306
 20
467.6166191389574
 30
0.0
 10
22.77741107161951
 20
514.0937508253135
 30
0.0
 10
35.83572278937754
 20
545.0387443160906
 30
0.0
 10
43.17200758067569
 20
557.9497137980339
 30
0.0
 10
46.97008246336144
 20
563.3875226141089
 30
0.0
  0
LINE
  5
4E
330
1F
100
AcDbEntity
  8
Linee visibili 2D
 62
   255
100
AcDbLine
 10
0.6409445395715077
 20
334.7179680641403
 30
0.0
 11
0.0000000000049182
 21
335.5018009816451
 31
0.0
  0
LINE
  5
4F
330
1F
100
AcDbEntity
  8
Linee visibili 2D
 62
   255
100
AcDbLine
 10
2.234884222810138
 20
334.3997600220782
 30
0.0
 11
0.6434750083832057
 21
334.7172657427704
 31
0.0
  0
LINE
  5
50
330
1F
100
AcDbEntity
  8
Linee visibili 2D
 62
   255
100
AcDbLine
 10
46.97008446161271
 20
563.3875212193202
 30
0.0
 11
47.48679992161239
 21
563.7169260719303
 31
0.0
  0
LINE
  5
51
330
1F
100
AcDbEntity
  8
Linee visibili 2D
 62
   255
100
AcDbLine
 10
53.86848026458863
 20
563.8880172208136
 30
0.0
 11
111.2597007552691
 21
563.8705600698532
 31
0.0
  0
LINE
  5
52
330
1F
100
AcDbEntity
  8
Linee visibili 2D
 62
   255
100
AcDbLine
 10
372.7679900950695
 20
333.1589064931778
 30
0.0
 11
372.6794727227137
 21
333.1309462086055
 31
0.0
  0
LINE
  5
53
330
1F
100
AcDbEntity
  8
Linee visibili 2D
 62
   255
100
AcDbLine
 10
373.2838135810822
 20
333.9064108407559
 30
0.0
 11
372.7679901006743
 21
333.1589064784113
 31
0.0
  0
LINE
  5
54
330
1F
100
AcDbEntity
  8
Linee visibili 2D
 62
   255
100
AcDbLine
 10
280.0925397491126
 20
549.7064160866872
 30
0.0
 11
280.2838135458952
 21
549.7489640940662
 31
0.0
  0
LINE
  5
55
330
1F
100
AcDbEntity
  8
Linee visibili 2D
 62
   255
100
AcDbLine
 10
280.2838135458939
 20
348.6830836717878
 30
0.0
 11
280.0925397491134
 21
348.7249981842587
 31
0.0
  0
LINE
  5
56
330
1F
100
AcDbEntity
  8
Linee visibili 2D
 62
   255
100
AcDbLine
 10
268.2838135458952
 20
352.2157982933543
 30
0.0
 11
266.2838135458952
 21
352.2157982933543
 31
0.0
  0
LINE
  5
57
330
1F
100
AcDbEntity
  8
Linee visibili 2D
 62
   255
100
AcDbLine
 10
268.2838135460127
 20
361.6210651010719
 30
0.0
 11
268.7838135459255
 21
361.3231219074025
 31
0.0
  0
LINE
  5
58
330
1F
100
AcDbEntity
  8
Linee visibili 2D
 62
   255
100
AcDbLine
 10
268.7838135458843
 20
363.8828273216937
 30
0.0
 11
268.3265097412895
 21
364.9465464942645
 31
0.0
  0
LINE
  5
59
330
1F
100
AcDbEntity
  8
Linee visibili 2D
 62
   255
100
AcDbLine
 10
266.2838135458952
 20
546.2158016489923
 30
0.0
 11
268.2838135458952
 21
546.2158016489923
 31
0.0
  0
LINE
  5
5A
330
1F
100
AcDbEntity
  8
Linee visibili 2D
 62
   255
100
AcDbLine
 10
268.2838135458953
 20
352.7289992060982
 30
0.0
 11
268.2838135458952
 21
352.2551316720867
 31
0.0
  0
LINE
  5
5B
330
1F
100
AcDbEntity
  8
Linee visibili 2D
 62
   255
100
AcDbLine
 10
268.2838135458952
 20
545.9584943611583
 30
0.0
 11
268.2838135458953
 21
352.7289992060982
 31
0.0
  0
LINE
  5
5C
330
1F
100
AcDbEntity
  8
Linee visibili 2D
 62
   255
100
AcDbLine
 10
268.2838135458952
 20
546.1806957995415
 30
0.0
 11
268.2838135458952
 21
545.9584943611583
 31
0.0
  0
LINE
  5
5D
330
1F
100
AcDbEntity
  8
Linee visibili 2D
 62
   255
100
AcDbLine
 10
266.2838135458952
 20
545.9584943611583
 30
0.0
 11
266.2838135458952
 21
546.2158016489923
 31
0.0
  0
LINE
  5
5E
330
1F
100
AcDbEntity
  8
Linee visibili 2D
 62
   255
100
AcDbLine
 10
266.2838135458952
 20
352.7289992060982
 30
0.0
 11
266.2838135458952
 21
545.9584943611583
 31
0.0
  0
LINE
  5
5F
330
1F
100
AcDbEntity
  8
Linee visibili 2D
 62
   255
100
AcDbLine
 10
266.2838135458953
 20
352.2551316720866
 30
0.0
 11
266.2838135458952
 21
352.7289992060982
 31
0.0
  0
LINE
  5
60
330
1F
100
AcDbEntity
  8
Linee visibili 2D
 62
   255
100
AcDbLine
 10
268.3105249564287
 20
534.306942532852
 30
0.0
 11
268.7838135458949
 21
535.1776966528545
 31
0.0
  0
LINE
  5
61
330
1F
100
AcDbEntity
  8
Linee visibili 2D
 62
   255
100
AcDbLine
 10
268.7838135458958
 20
537.4436289491933
 30
0.0
 11
268.283813546123
 21
537.2407047484251
 31
0.0
  0
LINE
  5
62
330
1F
100
AcDbEntity
  8
Linee visibili 2D
 62
   255
100
AcDbLine
 10
325.9445727225011
 20
564.1647038620197
 30
0.0
 11
325.2784072291699
 21
564.5013341755581
 31
0.0
  0
LINE
  5
63
330
1F
100
AcDbEntity
  8
Linee visibili 2D
 62
   255
100
AcDbLine
 10
372.4698516552852
 20
333.1065326846361
 30
0.0
 11
372.6795230943916
 21
333.1307235339144
 31
0.0
  0
SPLINE
  5
64
330
1F
100
AcDbEntity
  8
Linee visibili 2D
 62
   255
100
AcDbSpline
210
0.0
220
0.0
230
1.0
 70
    12
 71
     3
 72
    26
 73
    22
 74
     0
 42
0.0000000001
 43
0.0000000001
 40
0.0
 40
0.0
 40
0.0
 40
0.0
 40
9.95222976256654
 40
9.95222976256654
 40
9.95222976256654
 40
21.91468292934985
 40
21.91468292934985
 40
21.91468292934985
 40
44.74642782167874
 40
44.74642782167874
 40
44.74642782167874
 40
86.22841597227452
 40
86.22841597227452
 40
86.22841597227452
 40
151.5695816968385
 40
151.5695816968385
 40
151.5695816968385
 40
216.9107474214024
 40
216.9107474214024
 40
216.9107474214024
 40
280.6897199713695
 40
280.6897199713695
 40
280.6897199713695
 40
280.6897199713695
 10
373.2836917299792
 20
333.9064109672032
 30
0.0
 41
1.0
 10
373.2855627609762
 20
337.2238296641538
 30
0.0
 41
0.9999943909973578
 10
373.2738255091551
 20
340.541228125079
 30
0.0
 41
0.9999943909973581
 10
373.2484801720183
 20
343.8585505280902
 30
0.0
 41
1.0
 10
373.2137982097761
 20
347.8459140453997
 30
0.0
 41
0.9999849747719343
 10
373.1523466484676
 20
351.8329548482113
 30
0.0
 41
0.9999849747719345
 10
373.0641282580642
 20
355.8194932179338
 30
0.0
 41
1.0
 10
372.8971395195232
 20
363.4284863210157
 30
0.0
 41
0.9999359774033554
 10
372.6247174369779
 20
371.0344344861356
 30
0.0
 41
0.999935977403355
 10
372.2469143339364
 20
378.635876855639
 30
0.0
 41
1.0
 10
371.5714049536202
 20
392.4487055919186
 30
0.0
 41
0.9997097507798995
 10
370.4886390976889
 20
406.2355895299926
 30
0.0
 41
0.9997097507798993
 10
368.9995595819781
 20
419.9845237729285
 30
0.0
 41
1.0
 10
366.1867864631392
 20
445.6987543409065
 30
0.0
 41
1.0
 10
362.1702711669922
 20
467.7799692186023
 30
0.0
 41
1.0
 10
357.5016416592986
 20
486.647987010232
 30
0.0
 41
1.0
 10
352.8330121516051
 20
505.5160048018618
 30
0.0
 41
1.0
 10
347.5123416608923
 20
521.1706997053251
 30
0.0
 41
1.0
 10
342.0907033717364
 20
534.0318452091863
 30
0.0
 41
1.0
 10
336.7986869868812
 20
546.5855031820118
 30
0.0
 41
1.22531027997014
 10
331.4052928144582
 20
556.4876143746361
 30
0.0
 41
1.501385282200503
 10
325.944572722501
 20
564.1647038620196
 30
0.0
 41
1.839662820476146
  0
LINE
  5
65
330
1F
100
AcDbEntity
  8
Linee visibili 2D
 62
   255
100
AcDbLine
 10
372.4698516552852
 20
333.1065326846361
 30
0.0
 11
299.2597421891073
 21
334.3844198987702
 31
0.0
  0
LINE
  5
66
330
1F
100
AcDbEntity
  8
Linee visibili 2D
 62
   255
100
AcDbLine
 10
295.1791144332479
 20
563.9759490655118
 30
0.0
 11
325.2421960385349
 21
564.5007021068743
 31
0.0
  0
LINE
  5
67
330
1F
100
AcDbEntity
  8
Linee visibili 2D
 62
   255
100
AcDbLine
 10
295.1791144332479
 20
563.9759490655118
 30
0.0
 11
281.0698516207456
 21
563.7296709670304
 31
0.0
  0
LINE
  5
68
330
1F
100
AcDbEntity
  8
Linee visibili 2D
 62
   255
100
AcDbLine
 10
280.2838135458953
 20
562.9297928109052
 30
0.0
 11
280.2838135458953
 21
335.5018037758032
 31
0.0
  0
LINE
  5
69
330
1F
100
AcDbEntity
  8
Linee visibili 2D
 62
   255
100
AcDbLine
 10
280.2838135458953
 20
335.5018037758032
 30
0.0
 11
281.0698516207456
 21
334.7019256196781
 31
0.0
  0
LINE
  5
6A
330
1F
100
AcDbEntity
  8
Linee visibili 2D
 62
   255
100
AcDbLine
 10
281.0698516207456
 20
334.7019256196781
 30
0.0
 11
299.2597421891073
 21
334.3844198987702
 31
0.0
  0
LINE
  5
6B
330
1F
100
AcDbEntity
  8
Linee visibili 2D
 62
   255
100
AcDbLine
 10
281.0698516207456
 20
563.7296709670304
 30
0.0
 11
280.2838135458953
 21
562.9297928109052
 31
0.0
  0
LINE
  5
6C
330
1F
100
AcDbEntity
  8
Linee visibili 2D
 62
   255
100
AcDbLine
 10
280.0925397491126
 20
549.7064160866878
 30
0.0
 11
269.2750873426753
 21
549.5175967525752
 31
0.0
  0
LINE
  5
6D
330
1F
100
AcDbEntity
  8
Linee visibili 2D
 62
   255
100
AcDbLine
 10
268.783813545894
 20
349.4137413659491
 30
0.0
 11
269.2750873426753
 21
348.9138175183709
 31
0.0
  0
LINE
  5
6E
330
1F
100
AcDbEntity
  8
Linee visibili 2D
 62
   255
100
AcDbLine
 10
268.783813545894
 20
549.0176729049972
 30
0.0
 11
269.2750873426753
 21
549.5175967525752
 31
0.0
  0
LINE
  5
6F
330
1F
100
AcDbEntity
  8
Linee visibili 2D
 62
   255
100
AcDbLine
 10
269.2750873426753
 20
348.9138175183709
 30
0.0
 11
280.0925397491134
 21
348.7249981842587
 31
0.0
  0
LINE
  5
70
330
1F
100
AcDbEntity
  8
Linee visibili 2D
 62
   255
100
AcDbLine
 10
268.783813545894
 20
549.0176729049972
 30
0.0
 11
268.783813545894
 21
349.4137413659491
 31
0.0
  0
LINE
  5
71
330
1F
100
AcDbEntity
  8
Linee visibili 2D
 62
   255
100
AcDbLine
 10
266.2838135458952
 20
142.1723618061217
 30
0.0
 11
268.2838135458952
 21
142.1723618061217
 31
0.0
  0
LINE
  5
72
330
1F
100
AcDbEntity
  8
Linee visibili 2D
 62
   255
100
AcDbLine
 10
268.2838135458952
 20
22.40008503972087
 30
0.0
 11
266.2838135458952
 21
22.40008503972088
 31
0.0
  0
ARC
  5
73
330
1F
100
AcDbEntity
  8
Linee visibili 2D
 62
   255
100
AcDbCircle
 10
292.3092870010135
 20
82.32656872702121
 30
0.0
 40
80.95253779501502
100
AcDbArc
 50
54.63193019417993
 51
71.3616957082921
  0
LINE
  5
74
330
1F
100
AcDbEntity
  8
Linee visibili 2D
 62
   255
100
AcDbLine
 10
343.4648054754293
 20
145.0672688212825
 30
0.0
 11
351.5122394745632
 21
137.5401342688106
 31
0.0
  0
LINE
  5
75
330
1F
100
AcDbEntity
  8
Linee visibili 2D
 62
   255
100
AcDbLine
 10
352.1839363357548
 20
136.8112235029374
 30
0.0
 11
360.3255936750627
 21
126.2331315491808
 31
0.0
  0
LINE
  5
76
330
1F
100
AcDbEntity
  8
Linee visibili 2D
 62
   255
100
AcDbLine
 10
361.5047807736271
 20
124.3511423746383
 30
0.0
 11
367.6207173456095
 21
112.041068190704
 31
0.0
  0
ARC
  5
77
330
1F
100
AcDbEntity
  8
Linee visibili 2D
 62
   255
100
AcDbCircle
 10
292.2276547059944
 20
82.27024971489263
 30
0.0
 40
81.05816421436528
100
AcDbArc
 50
10.9125920342655
 51
20.82461437807799
  0
LINE
  5
78
330
1F
100
AcDbEntity
  8
Linee visibili 2D
 62
   255
100
AcDbLine
 10
373.250726773837
 20
84.60409435689455
 30
0.0
 11
373.2838135807795
 21
82.28622371209592
 31
0.0
  0
LINE
  5
79
330
1F
100
AcDbEntity
  8
Linee visibili 2D
 62
   255
100
AcDbLine
 10
372.0028354246149
 20
96.63473972971788
 30
0.0
 11
372.4595564034886
 21
93.81479769975084
 31
0.0
  0
LINE
  5
7A
330
1F
100
AcDbEntity
  8
Linee visibili 2D
 62
   255
100
AcDbLine
 10
299.3434287084553
 20
162.9779939682675
 30
0.0
 11
310.7787519713842
 21
161.1468522409256
 31
0.0
  0
LINE
  5
7B
330
1F
100
AcDbEntity
  8
Linee visibili 2D
 62
   255
100
AcDbLine
 10
339.1667872038495
 20
16.23309167792752
 30
0.0
 11
327.9406311999774
 21
9.556656705454909
 31
0.0
  0
LINE
  5
7C
330
1F
100
AcDbEntity
  8
Linee visibili 2D
 62
   255
100
AcDbLine
 10
351.5122390289103
 20
27.03231267876825
 30
0.0
 11
343.4648054695551
 21
19.50517859923124
 31
0.0
  0
LINE
  5
7D
330
1F
100
AcDbEntity
  8
Linee visibili 2D
 62
   255
100
AcDbLine
 10
360.3255934202127
 20
38.33931548144724
 30
0.0
 11
352.1839363330521
 21
27.76122391939648
 31
0.0
  0
LINE
  5
7E
330
1F
100
AcDbEntity
  8
Linee visibili 2D
 62
   255
100
AcDbLine
 10
367.6207173496924
 20
52.53137924493656
 30
0.0
 11
361.5047807678627
 21
40.22130504117857
 31
0.0
  0
ARC
  5
7F
330
1F
100
AcDbEntity
  8
Linee visibili 2D
 62
   255
100
AcDbCircle
 10
292.2308990420937
 20
82.30127545874635
 30
0.0
 40
81.05480395308369
100
AcDbArc
 50
339.1751796545468
 51
349.0876139286667
  0
LINE
  5
80
330
1F
100
AcDbEntity
  8
Linee visibili 2D
 62
   255
100
AcDbLine
 10
373.2838135807795
 20
82.28622371320697
 30
0.0
 11
373.1513350361257
 21
77.65413811716427
 31
0.0
  0
LINE
  5
81
330
1F
100
AcDbEntity
  8
Linee visibili 2D
 62
   255
100
AcDbLine
 10
310.7787519862961
 20
3.425595187877022
 30
0.0
 11
299.3434287084553
 21
1.594453457035408
 31
0.0
  0
LINE
  5
82
330
1F
100
AcDbEntity
  8
Linee visibili 2D
 62
   255
100
AcDbLine
 10
280.0927105877358
 20
145.8430972730517
 30
0.0
 11
280.2838135458933
 21
145.8861093404005
 31
0.0
  0
LINE
  5
83
330
1F
100
AcDbEntity
  8
Linee visibili 2D
 62
   255
100
AcDbLine
 10
280.2838135458953
 20
18.68741771959323
 30
0.0
 11
280.0927107448225
 21
18.72934947941182
 31
0.0
  0
LINE
  5
84
330
1F
100
AcDbEntity
  8
Linee visibili 2D
 62
   255
100
AcDbLine
 10
266.2838135458952
 20
89.7862234229213
 30
0.0
 11
266.2838135458952
 21
74.7862234229213
 31
0.0
  0
LINE
  5
85
330
1F
100
AcDbEntity
  8
Linee visibili 2D
 62
   255
100
AcDbLine
 10
268.2838135458952
 20
90.7862234229213
 30
0.0
 11
266.2838135458952
 21
90.7862234229213
 31
0.0
  0
LINE
  5
86
330
1F
100
AcDbEntity
  8
Linee visibili 2D
 62
   255
100
AcDbLine
 10
266.2838135458952
 20
73.7862234229213
 30
0.0
 11
268.2838135458952
 21
73.7862234229213
 31
0.0
  0
LINE
  5
87
330
1F
100
AcDbEntity
  8
Linee visibili 2D
 62
   255
100
AcDbLine
 10
268.2838135458952
 20
90.7511175734567
 30
0.0
 11
268.2838135458952
 21
89.7862234229213
 31
0.0
  0
LINE
  5
88
330
1F
100
AcDbEntity
  8
Linee visibili 2D
 62
   255
100
AcDbLine
 10
268.2838135458952
 20
91.28622342292131
 30
0.0
 11
268.2838135458953
 21
90.82132927239009
 31
0.0
  0
LINE
  5
89
330
1F
100
AcDbEntity
  8
Linee visibili 2D
 62
   255
100
AcDbLine
 10
268.2838135458952
 20
102.0904753525301
 30
0.0
 11
268.2838135458952
 21
91.28622342292131
 31
0.0
  0
LINE
  5
8A
330
1F
100
AcDbEntity
  8
Linee visibili 2D
 62
   255
100
AcDbLine
 10
268.2838135458952
 20
102.5276254954577
 30
0.0
 11
268.2838135458952
 21
102.0904753525301
 31
0.0
  0
LINE
  5
8B
330
1F
100
AcDbEntity
  8
Linee visibili 2D
 62
   255
100
AcDbLine
 10
268.2838135458952
 20
142.1380000130439
 30
0.0
 11
268.2838135458952
 21
102.5276254954577
 31
0.0
  0
LINE
  5
8C
330
1F
100
AcDbEntity
  8
Linee visibili 2D
 62
   255
100
AcDbLine
 10
268.2838135458952
 20
62.04482135038471
 30
0.0
 11
268.2838135458953
 21
22.40025933419671
 31
0.0
  0
LINE
  5
8D
330
1F
100
AcDbEntity
  8
Linee visibili 2D
 62
   255
100
AcDbLine
 10
268.2838135458952
 20
62.48197149331232
 30
0.0
 11
268.2838135458952
 21
62.04482135038471
 31
0.0
  0
LINE
  5
8E
330
1F
100
AcDbEntity
  8
Linee visibili 2D
 62
   255
100
AcDbLine
 10
268.2838135458952
 20
73.2862234229213
 30
0.0
 11
268.2838135458952
 21
62.48197149331232
 31
0.0
  0
LINE
  5
8F
330
1F
100
AcDbEntity
  8
Linee visibili 2D
 62
   255
100
AcDbLine
 10
268.2838135458952
 20
73.7862234229213
 30
0.0
 11
268.2838135458952
 21
73.2862234229213
 31
0.0
  0
LINE
  5
90
330
1F
100
AcDbEntity
  8
Linee visibili 2D
 62
   255
100
AcDbLine
 10
268.2838135458952
 20
74.7862234229213
 30
0.0
 11
268.2838135458952
 21
73.82132927239007
 31
0.0
  0
LINE
  5
91
330
1F
100
AcDbEntity
  8
Linee visibili 2D
 62
   255
100
AcDbLine
 10
266.2838135458952
 20
62.04482135038471
 30
0.0
 11
266.2838135458952
 21
62.48197149331232
 31
0.0
  0
LINE
  5
92
330
1F
100
AcDbEntity
  8
Linee visibili 2D
 62
   255
100
AcDbLine
 10
266.2838135458952
 20
22.43444683279578
 30
0.0
 11
266.2838135458952
 21
62.04482135038471
 31
0.0
  0
LINE
  5
93
330
1F
100
AcDbEntity
  8
Linee visibili 2D
 62
   255
100
AcDbLine
 10
266.2838135458952
 20
102.5276254954577
 30
0.0
 11
266.2838135458952
 21
142.1721875116459
 31
0.0
  0
LINE
  5
94
330
1F
100
AcDbEntity
  8
Linee visibili 2D
 62
   255
100
AcDbLine
 10
266.2838135458952
 20
102.0904753525301
 30
0.0
 11
266.2838135458952
 21
102.5276254954577
 31
0.0
  0
LINE
  5
95
330
1F
100
AcDbEntity
  8
Linee visibili 2D
 62
   255
100
AcDbLine
 10
266.2838135458952
 20
91.28622342292131
 30
0.0
 11
266.2838135458952
 21
102.0904753525301
 31
0.0
  0
LINE
  5
96
330
1F
100
AcDbEntity
  8
Linee visibili 2D
 62
   255
100
AcDbLine
 10
266.2838135458952
 20
90.7862234229213
 30
0.0
 11
266.2838135458952
 21
91.28622342292131
 31
0.0
  0
LINE
  5
97
330
1F
100
AcDbEntity
  8
Linee visibili 2D
 62
   255
100
AcDbLine
 10
266.2838135458952
 20
89.7862234229213
 30
0.0
 11
266.2838135458952
 21
90.75111757345252
 31
0.0
  0
LINE
  5
98
330
1F
100
AcDbEntity
  8
Linee visibili 2D
 62
   255
100
AcDbLine
 10
266.2838135458952
 20
73.7862234229213
 30
0.0
 11
266.2838135458952
 21
74.7862234229213
 31
0.0
  0
LINE
  5
99
330
1F
100
AcDbEntity
  8
Linee visibili 2D
 62
   255
100
AcDbLine
 10
266.2838135458952
 20
73.2862234229213
 30
0.0
 11
266.2838135458952
 21
73.7511175734525
 31
0.0
  0
LINE
  5
9A
330
1F
100
AcDbEntity
  8
Linee visibili 2D
 62
   255
100
AcDbLine
 10
266.2838135458952
 20
62.48197149331232
 30
0.0
 11
266.2838135458952
 21
73.2862234229213
 31
0.0
  0
LINE
  5
9B
330
1F
100
AcDbEntity
  8
Linee visibili 2D
 62
   255
100
AcDbLine
 10
266.2838135458952
 20
89.7862234229213
 30
0.0
 11
268.7838135458941
 21
89.7862234229213
 31
0.0
  0
LINE
  5
9C
330
1F
100
AcDbEntity
  8
Linee visibili 2D
 62
   255
100
AcDbLine
 10
268.7838135458966
 20
74.78622342292128
 30
0.0
 11
266.2838135458952
 21
74.7862234229213
 31
0.0
  0
ARC
  5
9D
330
1F
100
AcDbEntity
  8
Linee visibili 2D
 62
   255
100
AcDbCircle
 10
292.2526297871406
 20
82.38359046356265
 30
0.0
 40
31.50019228598266
100
AcDbArc
 50
272.301185070529
 51
87.69881492961561
  0
ARC
  5
9E
330
1F
100
AcDbEntity
  8
Linee visibili 2D
 62
   255
100
AcDbCircle
 10
292.2439827877907
 20
82.38359046356273
 30
0.0
 40
31.00018923453494
100
AcDbArc
 50
272.3011937022495
 51
87.69880629789252
  0
ARC
  5
9F
330
1F
100
AcDbEntity
  8
Linee visibili 2D
 62
   255
100
AcDbCircle
 10
293.2579151986067
 20
107.3641055280953
 30
0.0
 40
6.499457867318558
100
AcDbArc
 50
87.71166623898212
 51
180.0046111164705
  0
ARC
  5
A0
330
1F
100
AcDbEntity
  8
Linee visibili 2D
 62
   255
100
AcDbCircle
 10
293.2491545470995
 20
107.3640652918691
 30
0.0
 40
5.999499569832651
100
AcDbArc
 50
87.71166623898405
 51
180.0046111164697
  0
ARC
  5
A1
330
1F
100
AcDbEntity
  8
Linee visibili 2D
 62
   255
100
AcDbCircle
 10
293.2579151986035
 20
57.40307539902674
 30
0.0
 40
6.499457867315361
100
AcDbArc
 50
179.9953888834995
 51
272.2883337617477
  0
ARC
  5
A2
330
1F
100
AcDbEntity
  8
Linee visibili 2D
 62
   255
100
AcDbCircle
 10
293.2491545470993
 20
57.40311563525617
 30
0.0
 40
5.999499569832402
100
AcDbArc
 50
179.9953888835291
 51
272.2883337617527
  0
LINE
  5
A3
330
1F
100
AcDbEntity
  8
Linee visibili 2D
 62
   255
100
AcDbLine
 10
287.249654996696
 20
57.40359846996911
 30
0.0
 11
287.2496549966959
 21
107.3635824571562
 31
0.0
  0
LINE
  5
A4
330
1F
100
AcDbEntity
  8
Linee visibili 2D
 62
   255
100
AcDbLine
 10
286.7584573523363
 20
107.3635824571563
 30
0.0
 11
286.7584573523363
 21
57.40359846996911
 31
0.0
  0
ARC
  5
A5
330
1F
100
AcDbEntity
  8
Linee visibili 2D
 62
   255
100
AcDbCircle
 10
274.7838135458953
 20
82.28622342292132
 30
0.0
 40
3.400000000000006
100
AcDbArc
 50
90.0
 51
270.0
  0
ARC
  5
A6
330
1F
100
AcDbEntity
  8
Linee visibili 2D
 62
   255
100
AcDbCircle
 10
274.7838135458953
 20
82.28622342292131
 30
0.0
 40
3.399999999999991
100
AcDbArc
 50
270.0
 51
90.0
  0
LINE
  5
A7
330
1F
100
AcDbEntity
  8
Linee visibili 2D
 62
   255
100
AcDbLine
 10
276.2838135458953
 20
83.15224882670574
 30
0.0
 11
276.2838135458953
 21
81.42019801913688
 31
0.0
  0
LINE
  5
A8
330
1F
100
AcDbEntity
  8
Linee visibili 2D
 62
   255
100
AcDbLine
 10
274.7838211218792
 20
84.01826985649387
 30
0.0
 11
276.2838135458953
 21
83.15224882670574
 31
0.0
  0
LINE
  5
A9
330
1F
100
AcDbEntity
  8
Linee visibili 2D
 62
   255
100
AcDbLine
 10
273.2838135458953
 20
83.15224882670574
 30
0.0
 11
274.7838135458953
 21
84.01827423049019
 31
0.0
  0
LINE
  5
AA
330
1F
100
AcDbEntity
  8
Linee visibili 2D
 62
   255
100
AcDbLine
 10
273.2838135458953
 20
81.42019801913688
 30
0.0
 11
273.2838135458953
 21
83.15224882670574
 31
0.0
  0
LINE
  5
AB
330
1F
100
AcDbEntity
  8
Linee visibili 2D
 62
   255
100
AcDbLine
 10
274.7838059699121
 20
80.55417698934839
 30
0.0
 11
273.2838135458953
 21
81.42019801913688
 31
0.0
  0
LINE
  5
AC
330
1F
100
AcDbEntity
  8
Linee visibili 2D
 62
   255
100
AcDbLine
 10
276.2838135458953
 20
81.42019801913688
 30
0.0
 11
274.7838135458953
 21
80.55417261535244
 31
0.0
  0
ARC
  5
AD
330
1F
100
AcDbEntity
  8
Linee visibili 2D
 62
   255
100
AcDbCircle
 10
274.7838135458953
 20
82.28622342292131
 30
0.0
 40
3.100000000000009
100
AcDbArc
 50
90.0
 51
270.0
  0
ARC
  5
AE
330
1F
100
AcDbEntity
  8
Linee visibili 2D
 62
   255
100
AcDbCircle
 10
274.7838135458952
 20
82.28622342292132
 30
0.0
 40
3.100000000000023
100
AcDbArc
 50
270.0000000000021
 51
89.99999999999896
  0
LINE
  5
AF
330
1F
100
AcDbEntity
  8
Linee visibili 2D
 62
   255
100
AcDbLine
 10
286.273259823734
 20
107.2783068196945
 30
0.0
 11
286.273259823734
 21
82.28622371265145
 31
0.0
  0
LINE
  5
B0
330
1F
100
AcDbEntity
  8
Linee visibili 2D
 62
   255
100
AcDbLine
 10
318.1816714238472
 20
159.0351209037351
 30
0.0
 11
310.7793727620946
 21
161.1495011897735
 31
0.0
  0
LINE
  5
B1
330
1F
100
AcDbEntity
  8
Linee visibili 2D
 62
   255
100
AcDbLine
 10
343.464875837225
 20
145.0674237638743
 30
0.0
 11
339.1666749369855
 21
148.3391446453068
 31
0.0
  0
LINE
  5
B2
330
1F
100
AcDbEntity
  8
Linee visibili 2D
 62
   255
100
AcDbLine
 10
352.1772612914641
 20
136.8051787048664
 30
0.0
 11
351.5063549253587
 21
137.5346436105638
 31
0.0
  0
LINE
  5
B3
330
1F
100
AcDbEntity
  8
Linee visibili 2D
 62
   255
100
AcDbLine
 10
361.5002468585061
 20
124.3483932833507
 30
0.0
 11
360.3192101801264
 21
126.2290090468973
 31
0.0
  0
LINE
  5
B4
330
1F
100
AcDbEntity
  8
Linee visibili 2D
 62
   255
100
AcDbLine
 10
367.9809513013645
 20
111.0835689279243
 30
0.0
 11
367.613230405802
 21
112.0380849067887
 31
0.0
  0
LINE
  5
B5
330
1F
100
AcDbEntity
  8
Linee visibili 2D
 62
   255
100
AcDbLine
 10
371.9807140859098
 20
96.63074744729343
 30
0.0
 11
371.7969959590307
 21
97.61096537563242
 31
0.0
  0
LINE
  5
B6
330
1F
100
AcDbEntity
  8
Linee visibili 2D
 62
   255
100
AcDbLine
 10
373.2492027464615
 20
84.60405083805088
 30
0.0
 11
372.4411460574501
 21
93.81214724198054
 31
0.0
  0
LINE
  5
B7
330
1F
100
AcDbEntity
  8
Linee visibili 2D
 62
   255
100
AcDbLine
 10
280.2838135459252
 20
153.6677279809248
 30
0.0
 11
280.2838135458953
 21
163.7724474253029
 31
0.0
  0
LINE
  5
B8
330
1F
100
AcDbEntity
  8
Linee visibili 2D
 62
   255
100
AcDbLine
 10
280.2838135458953
 20
82.28622371265145
 30
0.0
 11
280.2838135458953
 21
116.946252571542
 31
0.0
  0
LINE
  5
B9
330
1F
100
AcDbEntity
  8
Linee visibili 2D
 62
   255
100
AcDbLine
 10
280.2838135458953
 20
153.6677279809248
 30
0.0
 11
280.2838135458953
 21
116.946252571542
 31
0.0
  0
LINE
  5
BA
330
1F
100
AcDbEntity
  8
Linee visibili 2D
 62
   255
100
AcDbLine
 10
281.0838135458953
 20
164.5724474253029
 30
0.0
 11
281.153512990229
 21
164.5691157193064
 31
0.0
  0
LINE
  5
BB
330
1F
100
AcDbEntity
  8
Linee visibili 2D
 62
   255
100
AcDbLine
 10
280.2838135458953
 20
163.7724474253029
 30
0.0
 11
281.0838135458953
 21
164.5724474253029
 31
0.0
  0
ARC
  5
BC
330
1F
100
AcDbEntity
  8
Linee visibili 2D
 62
   255
100
AcDbCircle
 10
293.3799636200947
 20
107.1680471123428
 30
0.0
 40
7.000121637942626
100
AcDbArc
 50
87.51278148061974
 51
179.6040855315892
  0
LINE
  5
BD
330
1F
100
AcDbEntity
  8
Linee visibili 2D
 62
   255
100
AcDbLine
 10
286.273259823734
 20
107.2783068196945
 30
0.0
 11
286.3798337056378
 21
107.167201731183
 31
0.0
  0
LINE
  5
BE
330
1F
100
AcDbEntity
  8
Linee visibili 2D
 62
   255
100
AcDbLine
 10
299.3433902867837
 20
162.9775548055768
 30
0.0
 11
281.1535129901076
 21
164.5691157184665
 31
0.0
  0
LINE
  5
BF
330
1F
100
AcDbEntity
  8
Linee visibili 2D
 62
   255
100
AcDbLine
 10
286.273259823734
 20
82.28622371265145
 30
0.0
 11
286.273259823734
 21
57.29414060560844
 31
0.0
  0
LINE
  5
C0
330
1F
100
AcDbEntity
  8
Linee visibili 2D
 62
   255
100
AcDbLine
 10
371.7969953529813
 20
66.96148216443108
 30
0.0
 11
373.1465221608053
 21
77.65441357791055
 31
0.0
  0
LINE
  5
C1
330
1F
100
AcDbEntity
  8
Linee visibili 2D
 62
   255
100
AcDbLine
 10
367.6132297047326
 20
52.53436282786777
 30
0.0
 11
367.9809505289057
 21
53.48887880448982
 31
0.0
  0
LINE
  5
C2
330
1F
100
AcDbEntity
  8
Linee visibili 2D
 62
   255
100
AcDbLine
 10
360.3192179275999
 20
38.34343282398391
 30
0.0
 11
361.5002517790754
 21
40.22405075880273
 31
0.0
  0
LINE
  5
C3
330
1F
100
AcDbEntity
  8
Linee visibili 2D
 62
   255
100
AcDbLine
 10
351.506377255898
 20
27.03778202864177
 30
0.0
 11
352.1772825153718
 21
27.76724571871208
 31
0.0
  0
LINE
  5
C4
330
1F
100
AcDbEntity
  8
Linee visibili 2D
 62
   255
100
AcDbLine
 10
339.1666781579455
 20
16.23330653655795
 30
0.0
 11
343.4648745289447
 21
19.50502178559366
 31
0.0
  0
ARC
  5
C5
330
1F
100
AcDbEntity
  8
Linee visibili 2D
 62
   255
100
AcDbCircle
 10
292.2103570536732
 20
82.44042948733974
 30
0.0
 40
81.17001284745126
100
AcDbArc
 50
283.2244873971785
 51
296.1157444412167
  0
LINE
  5
C6
330
1F
100
AcDbEntity
  8
Linee visibili 2D
 62
   255
100
AcDbLine
 10
280.2838135458953
 20
47.62619485376091
 30
0.0
 11
280.2838135458953
 21
82.28622371265145
 31
0.0
  0
LINE
  5
C7
330
1F
100
AcDbEntity
  8
Linee visibili 2D
 62
   255
100
AcDbLine
 10
280.2838135458977
 20
0.8572752505874996
 30
0.0
 11
280.2838135459252
 21
10.90471944437814
 31
0.0
  0
LINE
  5
C8
330
1F
100
AcDbEntity
  8
Linee visibili 2D
 62
   255
100
AcDbLine
 10
280.2838135458953
 20
0.8572752505831998
 30
0.0
 11
280.2838135458953
 21
0.8000000000000114
 31
0.0
  0
LINE
  5
C9
330
1F
100
AcDbEntity
  8
Linee visibili 2D
 62
   255
100
AcDbLine
 10
280.2838135458953
 20
47.62619485376091
 30
0.0
 11
280.2838135458953
 21
10.90471944437807
 31
0.0
  0
LINE
  5
CA
330
1F
100
AcDbEntity
  8
Linee visibili 2D
 62
   255
100
AcDbLine
 10
281.0838135458953
 20
0.0000000000000142
 30
0.0
 11
280.2838135458953
 21
0.8000000000000113
 31
0.0
  0
LINE
  5
CB
330
1F
100
AcDbEntity
  8
Linee visibili 2D
 62
   255
100
AcDbLine
 10
281.1535129902113
 20
0.0033317059949525
 30
0.0
 11
281.0838135458953
 21
-0.0000000000000008
 31
0.0
  0
LINE
  5
CC
330
1F
100
AcDbEntity
  8
Linee visibili 2D
 62
   255
100
AcDbLine
 10
286.3798272799501
 20
57.40524566696716
 30
0.0
 11
286.273259823734
 21
57.29414060560844
 31
0.0
  0
LINE
  5
CD
330
1F
100
AcDbEntity
  8
Linee visibili 2D
 62
   255
100
AcDbLine
 10
281.1535129902186
 20
0.0033317049965262
 30
0.0
 11
299.3433902867553
 21
1.594892619070337
 31
0.0
  0
ARC
  5
CE
330
1F
100
AcDbEntity
  8
Linee visibili 2D
 62
   255
100
AcDbCircle
 10
292.0070463501052
 20
82.28622357604293
 30
0.0
 40
78.77993500901111
100
AcDbArc
 50
274.5490590394705
 51
85.4509420619026
  0
ARC
  5
CF
330
1F
100
AcDbEntity
  8
Linee visibili 2D
 62
   255
100
AcDbCircle
 10
292.2934251826352
 20
82.28627640413474
 30
0.0
 40
31.90560441065436
100
AcDbArc
 50
359.9999053883023
 51
87.50248695569881
  0
LINE
  5
D0
330
1F
100
AcDbEntity
  8
Linee visibili 2D
 62
   255
100
AcDbLine
 10
286.3798272799501
 20
57.40524566696716
 30
0.0
 11
286.4175851823821
 21
56.66847685527269
 31
0.0
  0
LINE
  5
D1
330
1F
100
AcDbEntity
  8
Linee visibili 2D
 62
   255
100
AcDbLine
 10
286.3798393127508
 20
82.28622369516329
 30
0.0
 11
286.3798272799067
 21
57.40524566696717
 31
0.0
  0
LINE
  5
D2
330
1F
100
AcDbEntity
  8
Linee visibili 2D
 62
   255
100
AcDbLine
 10
286.3798337057233
 20
107.167201731183
 30
0.0
 11
286.3798393128559
 21
82.28622369516329
 31
0.0
  0
ARC
  5
D3
330
1F
100
AcDbEntity
  8
Linee visibili 2D
 62
   255
100
AcDbCircle
 10
274.7838135458942
 20
82.28622342292137
 30
0.0
 40
4.25
100
AcDbArc
 50
179.9999999999991
 51
0.0000000000001916
  0
ARC
  5
D4
330
1F
100
AcDbEntity
  8
Linee visibili 2D
 62
   255
100
AcDbCircle
 10
274.7838135458942
 20
82.28622342575542
 30
0.0
 40
4.249999999999943
100
AcDbArc
 50
359.9999999617933
 51
180.000000038206
  0
LINE
  5
D5
330
1F
100
AcDbEntity
  8
Linee visibili 2D
 62
   255
100
AcDbLine
 10
268.783813545894
 20
60.49309463023211
 30
0.0
 11
268.783813545894
 21
19.42188159228791
 31
0.0
  0
LINE
  5
D6
330
1F
100
AcDbEntity
  8
Linee visibili 2D
 62
   255
100
AcDbLine
 10
268.783813545894
 20
104.079352214933
 30
0.0
 11
268.783813545894
 21
60.49309463023211
 31
0.0
  0
LINE
  5
D7
330
1F
100
AcDbEntity
  8
Linee visibili 2D
 62
   255
100
AcDbLine
 10
268.783813545894
 20
145.150565253356
 30
0.0
 11
268.783813545894
 21
104.079352214933
 31
0.0
  0
LINE
  5
D8
330
1F
100
AcDbEntity
  8
Linee visibili 2D
 62
   255
100
AcDbLine
 10
94.06395747379938
 20
224.1793471568251
 30
0.0
 11
94.07109891093958
 21
223.382315967621
 31
0.0
  0
LINE
  5
D9
330
1F
100
AcDbEntity
  8
Linee visibili 2D
 62
   255
100
AcDbLine
 10
39.92146706559376
 20
219.9552648575352
 30
0.0
 11
39.91047268820476
 21
220.3494009883529
 31
0.0
  0
LINE
  5
DA
330
1F
100
AcDbEntity
  8
Linee visibili 2D
 62
   255
100
AcDbLine
 10
93.00131356044172
 20
226.3806864520632
 30
0.0
 11
93.10330830638172
 21
226.2859755483363
 31
0.0
  0
LINE
  5
DB
330
1F
100
AcDbEntity
  8
Linee visibili 2D
 62
   255
100
AcDbLine
 10
40.10355458063828
 20
220.7455598932168
 30
0.0
 11
40.35369914264913
 21
220.9935046030742
 31
0.0
  0
LINE
  5
DC
330
1F
100
AcDbEntity
  8
Linee visibili 2D
 62
   255
100
AcDbLine
 10
58.99123457127801
 20
226.6947124180021
 30
0.0
 11
85.12415537718873
 21
231.3840567808155
 31
0.0
  0
LINE
  5
DD
330
1F
100
AcDbEntity
  8
Linee visibili 2D
 62
   255
100
AcDbLine
 10
91.8432756484168
 20
228.6679519163359
 30
0.0
 11
95.66018831233293
 21
226.0706057786639
 31
0.0
  0
SPLINE
  5
DE
330
1F
100
AcDbEntity
  8
Linee visibili 2D
 62
   255
100
AcDbSpline
210
0.0
220
0.0
230
1.0
 70
     8
 71
     3
 72
    12
 73
     8
 74
     0
 42
0.0000000001
 43
0.0000000001
 40
0.0
 40
0.0
 40
0.0
 40
0.0
 40
3.632006505929136
 40
7.638221796913151
 40
16.61202318072258
 40
27.55065963911061
 40
40.64248214492445
 40
40.64248214492445
 40
40.64248214492445
 40
40.64248214492445
 10
136.4155238204925
 20
30.82087678189286
 30
0.0
 10
136.3899447138238
 20
29.60740398928554
 30
0.0
 10
136.0178783904707
 20
27.07898155629953
 30
0.0
 10
133.8152374890928
 20
21.92669964805459
 30
0.0
 10
128.3725562067501
 20
15.94287696841023
 30
0.0
 10
118.9985316770775
 20
10.07580752030032
 30
0.0
 10
111.5149166676036
 20
7.139039655159237
 30
0.0
 10
107.3577071674759
 20
5.816161944630894
 30
0.0
  0
ARC
  5
DF
330
1F
100
AcDbEntity
  8
Linee visibili 2D
 62
   255
100
AcDbCircle
 10
80.82909728883043
 20
237.3650900438371
 30
0.0
 40
18.80046677707093
100
AcDbArc
 50
273.2502000079853
 51
316.5645334993757
  0
SPLINE
  5
E0
330
1F
100
AcDbEntity
  8
Linee visibili 2D
 62
   255
100
AcDbSpline
210
0.0
220
0.0
230
1.0
 70
     8
 71
     3
 72
    12
 73
     8
 74
     0
 42
0.0000000001
 43
0.0000000001
 40
0.0
 40
0.0
 40
0.0
 40
0.0
 40
17.85969901031683
 40
39.13979213425795
 40
87.64589510256641
 40
142.0203333873979
 40
202.3252402969237
 40
202.3252402969237
 40
202.3252402969237
 40
202.3252402969237
 10
95.6601725774822
 20
226.0705941929001
 30
0.0
 10
99.18441262242251
 20
221.2658239831088
 30
0.0
 10
105.8457684282382
 20
210.0174637985128
 30
0.0
 10
117.573528933007
 20
183.2009805177644
 30
0.0
 10
128.6499801938382
 20
143.1882034541324
 30
0.0
 10
135.8877175207625
 20
89.18336336717863
 30
0.0
 10
136.8033134649413
 20
50.91685325217247
 30
0.0
 10
136.4152249653739
 20
30.82088244947027
 30
0.0
  0
LINE
  5
E1
330
1F
100
AcDbEntity
  8
Linee visibili 2D
 62
   255
100
AcDbLine
 10
85.53060398767784
 20
231.3385422831523
 30
0.0
 11
91.84343855804052
 21
228.6683371165329
 31
0.0
  0
LINE
  5
E2
330
1F
100
AcDbEntity
  8
Linee visibili 2D
 62
   255
100
AcDbLine
 10
85.12415537718901
 20
231.3840567808158
 30
0.0
 11
85.53049074537046
 21
231.3383460913183
 31
0.0
  0
LINE
  5
E3
330
1F
100
AcDbEntity
  8
Linee visibili 2D
 62
   255
100
AcDbLine
 10
32.0291284601966
 20
221.8565773606694
 30
0.0
 11
58.99123457127801
 21
226.6947124180021
 31
0.0
  0
SPLINE
  5
E4
330
1F
100
AcDbEntity
  8
Linee visibili 2D
 62
   255
100
AcDbSpline
210
0.0
220
0.0
230
1.0
 70
     8
 71
     3
 72
    13
 73
     9
 74
     0
 42
0.0000000001
 43
0.0000000001
 40
0.0
 40
0.0
 40
0.0
 40
0.0
 40
11.84369254900823
 40
24.93712754151871
 40
52.20525861986066
 40
77.86969495954406
 40
89.39144307593196
 40
99.5288795046989
 40
99.5288795046989
 40
99.5288795046989
 40
99.5288795046989
 10
107.357707167479
 20
5.816161944633169
 30
0.0
 10
103.5937885778269
 20
4.619606843593394
 30
0.0
 10
95.53034458690666
 20
2.569454950092571
 30
0.0
 10
78.29759424223276
 20
-0.028833383616742
 30
0.0
 10
56.22012860157121
 20
-0.3913364472655353
 30
0.0
 10
34.88722651147781
 20
2.818311941604643
 30
0.0
 10
19.83217080205022
 20
7.655050456466686
 30
0.0
 10
13.30828516141544
 20
10.78263204595766
 30
0.0
 10
10.40231440868785
 20
12.5123969819744
 30
0.0
  0
ARC
  5
E5
330
1F
100
AcDbEntity
  8
Linee visibili 2D
 62
   255
100
AcDbCircle
 10
63.95384245362411
 20
317.2455725924167
 30
0.0
 40
100.2688778501447
100
AcDbArc
 50
256.3599009817497
 51
280.3074769211286
  0
SPLINE
  5
E6
330
1F
100
AcDbEntity
  8
Linee visibili 2D
 62
   255
100
AcDbSpline
210
0.0
220
0.0
230
1.0
 70
     8
 71
     3
 72
    13
 73
     9
 74
     0
 42
0.0000000001
 43
0.0000000001
 40
0.0
 40
0.0
 40
0.0
 40
0.0
 40
30.84989066298602
 40
60.31110235480567
 40
115.8713863665551
 40
166.2449663629156
 40
188.3509255850796
 40
206.9032109607813
 40
206.9032109607813
 40
206.9032109607813
 40
206.9032109607813
 10
0.4760372438452327
 20
18.82453641437986
 30
0.0
 10
0.1142260118391551
 20
29.10116259990745
 30
0.0
 10
-0.2064910372531319
 20
49.20743088915034
 30
0.0
 10
0.8427208671161903
 20
87.8247211673389
 30
0.0
 10
5.089613729601915
 20
132.8091832637165
 30
0.0
 10
13.77122661960136
 20
174.6824747307589
 30
0.0
 10
23.19933094488771
 20
203.5606080051295
 30
0.0
 10
28.61237643896341
 20
216.0023123363325
 30
0.0
 10
31.50464215663225
 20
221.4726972195997
 30
0.0
  0
LINE
  5
E7
330
1F
100
AcDbEntity
  8
Linee visibili 2D
 62
   255
100
AcDbLine
 10
0.8193360296136795
 20
18.24392244525209
 30
0.0
 11
0.4760372438454334
 21
18.82453641437381
 31
0.0
  0
LINE
  5
E8
330
1F
100
AcDbEntity
  8
Linee visibili 2D
 62
   255
100
AcDbLine
 10
10.40231440748303
 20
12.51239698269496
 30
0.0
 11
0.8190719706892571
 21
18.24348278135151
 31
0.0
  0
LINE
  5
E9
330
1F
100
AcDbEntity
  8
Linee visibili 2D
 62
   255
100
AcDbLine
 10
39.36585251662982
 20
220.3484376822731
 30
0.0
 11
40.30329971915123
 21
219.8063252500571
 31
0.0
  0
LINE
  5
EA
330
1F
100
AcDbEntity
  8
Linee visibili 2D
 62
   255
100
AcDbLine
 10
31.50420283972701
 20
221.4730165925782
 30
0.0
 11
32.02912846019689
 21
221.8565773606697
 31
0.0
  0
ARC
  5
EB
330
1F
100
AcDbEntity
  8
Linee visibili 2D
 62
   255
100
AcDbCircle
 10
91.4525260865551
 20
224.3056707036348
 30
0.0
 40
2.578117379899219
100
AcDbArc
 50
283.8006375809991
 51
50.18541207179734
  0
SPLINE
  5
EC
330
1F
100
AcDbEntity
  8
Linee visibili 2D
 62
   255
100
AcDbSpline
210
0.0
220
0.0
230
1.0
 70
    12
 71
     2
 72
     8
 73
     5
 74
     0
 42
0.0000000001
 43
0.0000000001
 40
0.0400106743539888
 40
0.0400106743539888
 40
0.0400106743539888
 40
1.57079632679365
 40
1.57079632679365
 40
3.10158197923332
 40
3.10158197923332
 40
3.10158197923332
 10
89.03586159388541
 20
228.6876386731567
 30
0.0
 41
1185.889911737913
 10
104.0437210937568
 20
223.1334634797374
 30
0.0
 41
838.339103509854
 10
81.216118138468
 20
218.8765495281879
 30
0.0
 41
1146.744664088335
 10
57.74976260552094
 20
214.5005203649033
 30
0.0
 41
815.5195709852202
 10
41.38280501702906
 20
220.0396746897127
 30
0.0
 41
1152.979113898019
  0
LINE
  5
ED
330
1F
100
AcDbEntity
  8
Linee visibili 2D
 62
   255
100
AcDbLine
 10
81.29078879832672
 20
228.9813533431117
 30
0.0
 11
89.03586159388541
 21
228.6876386731567
 31
0.0
  0
LINE
  5
EE
330
1F
100
AcDbEntity
  8
Linee visibili 2D
 62
   255
100
AcDbLine
 10
40.10274384365222
 20
220.7447554170055
 30
0.0
 11
40.31421604544342
 21
219.8208523905927
 31
0.0
  0
SPLINE
  5
EF
330
1F
100
AcDbEntity
  8
Linee visibili 2D
 62
   255
100
AcDbSpline
210
0.0
220
0.0
230
1.0
 70
    12
 71
     2
 72
     8
 73
     5
 74
     0
 42
0.0000000001
 43
0.0000000001
 40
3.10158197922299
 40
3.10158197922299
 40
3.10158197922299
 40
3.90698547980384
 40
3.90698547980384
 40
4.71238898038469
 40
4.71238898038469
 40
4.71238898038469
 10
41.38280501702906
 20
220.0396746897127
 30
0.0
 41
1152.979113898019
 10
40.00740740125135
 20
220.5051576367047
 30
0.0
 41
1062.488547135535
 10
40.47361041556951
 20
221.1033367248597
 30
0.0
 41
1157.217849874534
 10
40.93792706860424
 20
221.6990954471272
 30
0.0
 41
1066.805078206604
 10
42.94675547351576
 20
222.0616176050679
 30
0.0
 41
1160.921578745251
  0
LINE
  5
F0
330
1F
100
AcDbEntity
  8
Linee visibili 2D
 62
   255
100
AcDbLine
 10
42.94675547351576
 20
222.0616176050679
 30
0.0
 11
81.29078879832672
 21
228.9813533431117
 31
0.0
  0
ENDSEC
  0
SECTION
  2
OBJECTS
  0
DICTIONARY
  5
C
330
0
100
AcDbDictionary
281
     1
  3
ACAD_GROUP
350
D
  3
ACAD_LAYOUT
350
1A
  3
ACAD_MLEADERSTYLE
350
F2
  3
ACAD_MLINESTYLE
350
17
  3
ACAD_PLOTSETTINGS
350
19
  3
ACAD_PLOTSTYLENAME
350
E
  3
ACAD_TABLESTYLE
350
F1
  3
ACAD_VISUALSTYLE
350
2A
  0
DICTIONARY
  5
D
102
{ACAD_REACTORS
330
C
102
}
330
C
100
AcDbDictionary
281
     1
  0
DICTIONARY
  5
1A
102
{ACAD_REACTORS
330
C
102
}
330
C
100
AcDbDictionary
281
     1
  3
Layout1
350
1E
  3
Layout2
350
26
  3
Model
350
22
  0
DICTIONARY
  5
F2
102
{ACAD_REACTORS
330
C
102
}
330
C
100
AcDbDictionary
281
     1
  0
DICTIONARY
  5
17
102
{ACAD_REACTORS
330
C
102
}
330
C
100
AcDbDictionary
281
     1
  3
Standard
350
18
  0
DICTIONARY
  5
19
102
{ACAD_REACTORS
330
C
102
}
330
C
100
AcDbDictionary
281
     1
  0
ACDBDICTIONARYWDFLT
  5
E
102
{ACAD_REACTORS
330
C
102
}
330
C
100
AcDbDictionary
281
     1
  3
Normal
350
F
100
AcDbDictionaryWithDefault
340
F
  0
DICTIONARY
  5
F1
102
{ACAD_REACTORS
330
C
102
}
330
C
100
AcDbDictionary
281
     1
  0
DICTIONARY
  5
2A
102
{ACAD_REACTORS
330
C
102
}
330
C
100
AcDbDictionary
281
     1
  3
2dWireframe
350
2F
  3
3D Hidden
350
31
  3
3dWireframe
350
30
  3
Basic
350
32
  3
Brighten
350
36
  3
ColorChange
350
3A
  3
Conceptual
350
34
  3
Dim
350
35
  3
Facepattern
350
39
  3
Flat
350
2B
  3
FlatWithEdges
350
2C
  3
Gouraud
350
2D
  3
GouraudWithEdges
350
2E
  3
Linepattern
350
38
  3
Realistic
350
33
  3
Thicken
350
37
  0
LAYOUT
  5
1E
102
{ACAD_REACTORS
330
1A
102
}
330
1A
100
AcDbPlotSettings
  1

  2
none_device
  4

  6

 40
0.0
 41
0.0
 42
0.0
 43
0.0
 44
0.0
 45
0.0
 46
0.0
 47
0.0
 48
0.0
 49
0.0
140
0.0
141
0.0
142
1.0
143
1.0
 70
   688
 72
     0
 73
     0
 74
     5
  7

 75
    16
 76
     0
 77
     2
 78
   300
147
1.0
148
0.0
149
0.0
100
AcDbLayout
  1
Layout1
 70
     1
 71
     1
 10
0.0
 20
0.0
 11
12.0
 21
9.0
 12
0.0
 22
0.0
 32
0.0
 14
1.000000000000000E+20
 24
1.000000000000000E+20
 34
1.000000000000000E+20
 15
-1.000000000000000E+20
 25
-1.000000000000000E+20
 35
-1.000000000000000E+20
146
0.0
 13
0.0
 23
0.0
 33
0.0
 16
1.0
 26
0.0
 36
0.0
 17
0.0
 27
1.0
 37
0.0
 76
     0
330
1B
  0
LAYOUT
  5
26
102
{ACAD_REACTORS
330
1A
102
}
330
1A
100
AcDbPlotSettings
  1

  2
none_device
  4

  6

 40
0.0
 41
0.0
 42
0.0
 43
0.0
 44
0.0
 45
0.0
 46
0.0
 47
0.0
 48
0.0
 49
0.0
140
0.0
141
0.0
142
1.0
143
1.0
 70
   688
 72
     0
 73
     0
 74
     5
  7

 75
    16
 76
     0
 77
     2
 78
   300
147
1.0
148
0.0
149
0.0
100
AcDbLayout
  1
Layout2
 70
     1
 71
     2
 10
0.0
 20
0.0
 11
0.0
 21
0.0
 12
0.0
 22
0.0
 32
0.0
 14
0.0
 24
0.0
 34
0.0
 15
0.0
 25
0.0
 35
0.0
146
0.0
 13
0.0
 23
0.0
 33
0.0
 16
1.0
 26
0.0
 36
0.0
 17
0.0
 27
1.0
 37
0.0
 76
     0
330
23
  0
LAYOUT
  5
22
102
{ACAD_REACTORS
330
1A
102
}
330
1A
100
AcDbPlotSettings
  1

  2
none_device
  4

  6

 40
0.0
 41
0.0
 42
0.0
 43
0.0
 44
0.0
 45
0.0
 46
0.0
 47
0.0
 48
0.0
 49
0.0
140
0.0
141
0.0
142
1.0
143
1.0
 70
  1712
 72
     0
 73
     0
 74
     0
  7

 75
     0
 76
     0
 77
     2
 78
   300
147
1.0
148
0.0
149
0.0
100
AcDbLayout
  1
Model
 70
     1
 71
     0
 10
0.0
 20
0.0
 11
12.0
 21
9.0
 12
0.0
 22
0.0
 32
0.0
 14
0.0
 24
-0.0000000000000008
 34
0.0
 15
373.2838135810822
 25
564.5014555631174
 35
0.0
146
0.0
 13
0.0
 23
0.0
 33
0.0
 16
1.0
 26
0.0
 36
0.0
 17
0.0
 27
1.0
 37
0.0
 76
     0
330
1F
331
29
  0
MLINESTYLE
  5
18
102
{ACAD_REACTORS
330
17
102
}
330
17
100
AcDbMlineStyle
  2
Standard
 70
     0
  3

 62
   256
 51
90.0
 52
90.0
 71
     2
 49
0.5
 62
   256
  6
BYLAYER
 49
-0.5
 62
   256
  6
BYLAYER
  0
ACDBPLACEHOLDER
  5
F
102
{ACAD_REACTORS
330
E
102
}
330
E
  0
VISUALSTYLE
  5
2F
102
{ACAD_REACTORS
330
2A
102
}
330
2A
100
AcDbVisualStyle
  2
2dWireframe
 70
     4
 71
     0
 72
     2
 73
     0
 90
        0
 40
-0.6
 41
-30.0
 62
     5
 63
     7
421
 16777215
 74
     1
 91
        4
 64
     7
 65
   257
 75
     1
175
     1
 42
1.0
 92
        0
 66
   257
 43
1.0
 76
     1
 77
     6
 78
     2
 67
     7
 79
     5
170
     0
171
     0
290
     0
174
     0
 93
        1
 44
0.0
173
     0
291
     0
 45
0.0
1001
ACAD
1000
AcDbSavedByObjectVersion
1070
     0
  0
VISUALSTYLE
  5
31
102
{ACAD_REACTORS
330
2A
102
}
330
2A
100
AcDbVisualStyle
  2
3D Hidden
 70
     6
 71
     1
 72
     2
 73
     2
 90
        0
 40
-0.6
 41
-30.0
 62
     5
 63
     7
421
 16777215
 74
     2
 91
        2
 64
     7
 65
   257
 75
     2
175
     1
 42
40.0
 92
        0
 66
   257
 43
1.0
 76
     1
 77
     6
 78
     2
 67
     7
 79
     3
170
     0
171
     0
290
     0
174
     0
 93
        1
 44
0.0
173
     0
291
     0
 45
0.0
1001
ACAD
1000
AcDbSavedByObjectVersion
1070
     0
  0
VISUALSTYLE
  5
30
102
{ACAD_REACTORS
330
2A
102
}
330
2A
100
AcDbVisualStyle
  2
3dWireframe
 70
     5
 71
     0
 72
     2
 73
     0
 90
        0
 40
-0.6
 41
-30.0
 62
     5
 63
     7
421
 16777215
 74
     1
 91
        4
 64
     7
 65
   257
 75
     1
175
     1
 42
1.0
 92
        0
 66
   257
 43
1.0
 76
     1
 77
     6
 78
     2
 67
     7
 79
     5
170
     0
171
     0
290
     0
174
     0
 93
        1
 44
0.0
173
     0
291
     0
 45
0.0
1001
ACAD
1000
AcDbSavedByObjectVersion
1070
     0
  0
VISUALSTYLE
  5
32
102
{ACAD_REACTORS
330
2A
102
}
330
2A
100
AcDbVisualStyle
  2
Basic
 70
     7
 71
     1
 72
     0
 73
     1
 90
        0
 40
-0.6
 41
-30.0
 62
     5
 63
     7
421
 16777215
 74
     0
 91
        4
 64
     7
 65
   257
 75
     1
175
     1
 42
1.0
 92
        8
 66
     7
 43
1.0
 76
     1
 77
     6
 78
     2
 67
     7
 79
     5
170
     0
171
     0
290
     0
174
     0
 93
        1
 44
0.0
173
     0
291
     1
 45
0.0
1001
ACAD
1000
AcDbSavedByObjectVersion
1070
     0
  0
VISUALSTYLE
  5
36
102
{ACAD_REACTORS
330
2A
102
}
330
2A
100
AcDbVisualStyle
  2
Brighten
 70
    12
 71
     2
 72
     2
 73
     0
 90
        0
 40
-0.6
 41
-30.0
 62
     5
 63
     7
421
 16777215
 74
     1
 91
        4
 64
     7
 65
   257
 75
     1
175
     1
 42
1.0
 92
        8
 66
     7
 43
1.0
 76
     1
 77
     6
 78
     2
 67
     7
 79
     5
170
     0
171
     0
290
     0
174
     0
 93
        1
 44
50.0
173
     0
291
     1
 45
0.0
1001
ACAD
1000
AcDbSavedByObjectVersion
1070
     0
  0
VISUALSTYLE
  5
3A
102
{ACAD_REACTORS
330
2A
102
}
330
2A
100
AcDbVisualStyle
  2
ColorChange
 70
    16
 71
     2
 72
     2
 73
     3
 90
        0
 40
-0.6
 41
-30.0
 62
     5
 63
     8
421
  8421504
 74
     1
 91
        4
 64
     7
 65
   257
 75
     1
175
     1
 42
1.0
 92
        8
 66
     8
424
  8421504
 43
1.0
 76
     1
 77
     6
 78
     2
 67
     7
 79
     5
170
     0
171
     0
290
     0
174
     0
 93
        1
 44
0.0
173
     0
291
     1
 45
0.0
1001
ACAD
1000
AcDbSavedByObjectVersion
1070
     0
  0
VISUALSTYLE
  5
34
102
{ACAD_REACTORS
330
2A
102
}
330
2A
100
AcDbVisualStyle
  2
Conceptual
 70
     9
 71
     3
 72
     2
 73
     0
 90
        0
 40
-0.6
 41
-30.0
 62
     5
 63
     7
421
 16777215
 74
     2
 91
        2
 64
     7
 65
   257
 75
     1
175
     1
 42
40.0
 92
        8
 66
     7
 43
1.0
 76
     1
 77
     6
 78
     2
 67
     7
 79
     3
170
     0
171
     0
290
     0
174
     0
 93
        1
 44
0.0
173
     0
291
     0
 45
0.0
1001
ACAD
1000
AcDbSavedByObjectVersion
1070
     0
  0
VISUALSTYLE
  5
35
102
{ACAD_REACTORS
330
2A
102
}
330
2A
100
AcDbVisualStyle
  2
Dim
 70
    11
 71
     2
 72
     2
 73
     0
 90
        0
 40
-0.6
 41
-30.0
 62
     5
 63
     7
421
 16777215
 74
     1
 91
        4
 64
     7
 65
   257
 75
     1
175
     1
 42
1.0
 92
        8
 66
     7
 43
1.0
 76
     1
 77
     6
 78
     2
 67
     7
 79
     5
170
     0
171
     0
290
     0
174
     0
 93
        1
 44
-50.0
173
     0
291
     1
 45
0.0
1001
ACAD
1000
AcDbSavedByObjectVersion
1070
     0
  0
VISUALSTYLE
  5
39
102
{ACAD_REACTORS
330
2A
102
}
330
2A
100
AcDbVisualStyle
  2
Facepattern
 70
    15
 71
     2
 72
     2
 73
     0
 90
        0
 40
-0.6
 41
-30.0
 62
     5
 63
     7
421
 16777215
 74
     1
 91
        4
 64
     7
 65
   257
 75
     1
175
     1
 42
1.0
 92
        8
 66
     7
 43
1.0
 76
     1
 77
     6
 78
     2
 67
     7
 79
     5
170
     0
171
     0
290
     0
174
     0
 93
        1
 44
0.0
173
     0
291
     1
 45
0.0
1001
ACAD
1000
AcDbSavedByObjectVersion
1070
     0
  0
VISUALSTYLE
  5
2B
102
{ACAD_REACTORS
330
2A
102
}
330
2A
100
AcDbVisualStyle
  2
Flat
 70
     0
 71
     2
 72
     1
 73
     1
 90
        2
 40
-0.6
 41
30.0
 62
     5
 63
     7
421
 16777215
 74
     0
 91
        4
 64
     7
 65
   257
 75
     1
175
     1
 42
1.0
 92
        8
 66
     7
 43
1.0
 76
     1
 77
     6
 78
     2
 67
     7
 79
     5
170
     0
171
     0
290
     0
174
     0
 93
       13
 44
0.0
173
     0
291
     1
 45
0.0
1001
ACAD
1000
AcDbSavedByObjectVersion
1070
     0
  0
VISUALSTYLE
  5
2C
102
{ACAD_REACTORS
330
2A
102
}
330
2A
100
AcDbVisualStyle
  2
FlatWithEdges
 70
     1
 71
     2
 72
     1
 73
     1
 90
        2
 40
-0.6
 41
30.0
 62
     5
 63
     7
421
 16777215
 74
     1
 91
        4
 64
     7
 65
   257
 75
     1
175
     1
 42
1.0
 92
        0
 66
   257
 43
1.0
 76
     1
 77
     6
 78
     2
 67
     7
 79
     5
170
     0
171
     0
290
     0
174
     0
 93
       13
 44
0.0
173
     0
291
     1
 45
0.0
1001
ACAD
1000
AcDbSavedByObjectVersion
1070
     0
  0
VISUALSTYLE
  5
2D
102
{ACAD_REACTORS
330
2A
102
}
330
2A
100
AcDbVisualStyle
  2
Gouraud
 70
     2
 71
     2
 72
     2
 73
     1
 90
        2
 40
-0.6
 41
30.0
 62
     5
 63
     7
421
 16777215
 74
     0
 91
        4
 64
     7
 65
   257
 75
     1
175
     1
 42
1.0
 92
        0
 66
     7
 43
1.0
 76
     1
 77
     6
 78
     2
 67
     7
 79
     5
170
     0
171
     0
290
     0
174
     0
 93
       13
 44
0.0
173
     0
291
     1
 45
0.0
1001
ACAD
1000
AcDbSavedByObjectVersion
1070
     0
  0
VISUALSTYLE
  5
2E
102
{ACAD_REACTORS
330
2A
102
}
330
2A
100
AcDbVisualStyle
  2
GouraudWithEdges
 70
     3
 71
     2
 72
     2
 73
     1
 90
        2
 40
-0.6
 41
30.0
 62
     5
 63
     7
421
 16777215
 74
     1
 91
        4
 64
     7
 65
   257
 75
     1
175
     1
 42
1.0
 92
        0
 66
   257
 43
1.0
 76
     1
 77
     6
 78
     2
 67
     7
 79
     5
170
     0
171
     0
290
     0
174
     0
 93
       13
 44
0.0
173
     0
291
     1
 45
0.0
1001
ACAD
1000
AcDbSavedByObjectVersion
1070
     0
  0
VISUALSTYLE
  5
38
102
{ACAD_REACTORS
330
2A
102
}
330
2A
100
AcDbVisualStyle
  2
Linepattern
 70
    14
 71
     2
 72
     2
 73
     0
 90
        0
 40
-0.6
 41
-30.0
 62
     5
 63
     7
421
 16777215
 74
     1
 91
        4
 64
     7
 65
   257
 75
     7
175
     7
 42
1.0
 92
        8
 66
     7
 43
1.0
 76
     1
 77
     6
 78
     2
 67
     7
 79
     5
170
     0
171
     0
290
     0
174
     0
 93
        1
 44
0.0
173
     0
291
     1
 45
0.0
1001
ACAD
1000
AcDbSavedByObjectVersion
1070
     0
  0
VISUALSTYLE
  5
33
102
{ACAD_REACTORS
330
2A
102
}
330
2A
100
AcDbVisualStyle
  2
Realistic
 70
     8
 71
     2
 72
     2
 73
     0
 90
        0
 40
-0.6
 41
-30.0
 62
     5
 63
     7
421
 16777215
 74
     1
 91
        0
 64
     7
 65
   257
 75
     1
175
     1
 42
1.0
 92
        8
 66
     8
424
  7895160
 43
1.0
 76
     1
 77
     6
 78
     2
 67
     7
 79
     5
170
     0
171
     0
290
     0
174
     0
 93
       13
 44
0.0
173
     0
291
     0
 45
0.0
1001
ACAD
1000
AcDbSavedByObjectVersion
1070
     0
  0
VISUALSTYLE
  5
37
102
{ACAD_REACTORS
330
2A
102
}
330
2A
100
AcDbVisualStyle
  2
Thicken
 70
    13
 71
     2
 72
     2
 73
     0
 90
        0
 40
-0.6
 41
-30.0
 62
     5
 63
     7
421
 16777215
 74
     1
 91
        4
 64
     7
 65
   257
 75
     1
175
     1
 42
1.0
 92
       12
 66
     7
 43
1.0
 76
     1
 77
     6
 78
     2
 67
     7
 79
     5
170
     0
171
     0
290
     0
174
     0
 93
        1
 44
0.0
173
     0
291
     1
 45
0.0
1001
ACAD
1000
AcDbSavedByObjectVersion
1070
     0
  0
ENDSEC
  0
EOF
