  0
SECTION
  2
HEADER
  9
$ACADVER
  1
AC1018
  9
$ACADMAINTVER
 70
     0
  9
$DWGCODEPAGE
  3
ANSI_1252
  9
$INSBASE
 10
0.0
 20
0.0
 30
0.0
  9
$EXTMIN
 10
0.0000332914244981
 20
-0.0012035420637423
 30
0.0
  9
$EXTMAX
 10
493.5255451249808
 20
398.3406114660999
 30
0.0
  9
$LIMMIN
 10
0.0
 20
0.0
  9
$LIMMAX
 10
12.0
 20
9.0
  9
$ORTHOMODE
 70
     0
  9
$REGENMODE
 70
     1
  9
$FILLMODE
 70
     1
  9
$QTEXTMODE
 70
     0
  9
$MIRRTEXT
 70
     1
  9
$LTSCALE
 40
1.0
  9
$ATTMODE
 70
     1
  9
$TEXTSIZE
 40
0.2
  9
$TRACEWID
 40
0.05
  9
$TEXTSTYLE
  7
Standard
  9
$CLAYER
  8
Predefinito
  9
$CELTYPE
  6
ByLayer
  9
$CECOLOR
 62
   256
  9
$CELTSCALE
 40
1.0
  9
$DISPSILH
 70
     0
  9
$DIMSCALE
 40
1.0
  9
$DIMASZ
 40
0.18
  9
$DIMEXO
 40
0.0625
  9
$DIMDLI
 40
0.38
  9
$DIMRND
 40
0.0
  9
$DIMDLE
 40
0.0
  9
$DIMEXE
 40
0.18
  9
$DIMTP
 40
0.0
  9
$DIMTM
 40
0.0
  9
$DIMTXT
 40
0.18
  9
$DIMCEN
 40
0.09
  9
$DIMTSZ
 40
0.0
  9
$DIMTOL
 70
     0
  9
$DIMLIM
 70
     0
  9
$DIMTIH
 70
     1
  9
$DIMTOH
 70
     1
  9
$DIMSE1
 70
     0
  9
$DIMSE2
 70
     0
  9
$DIMTAD
 70
     0
  9
$DIMZIN
 70
     0
  9
$DIMBLK
  1

  9
$DIMASO
 70
     1
  9
$DIMSHO
 70
     1
  9
$DIMPOST
  1

  9
$DIMAPOST
  1

  9
$DIMALT
 70
     0
  9
$DIMALTD
 70
     2
  9
$DIMALTF
 40
25.4
  9
$DIMLFAC
 40
1.0
  9
$DIMTOFL
 70
     0
  9
$DIMTVP
 40
0.0
  9
$DIMTIX
 70
     0
  9
$DIMSOXD
 70
     0
  9
$DIMSAH
 70
     0
  9
$DIMBLK1
  1

  9
$DIMBLK2
  1

  9
$DIMSTYLE
  2
Standard
  9
$DIMCLRD
 70
     0
  9
$DIMCLRE
 70
     0
  9
$DIMCLRT
 70
     0
  9
$DIMTFAC
 40
1.0
  9
$DIMGAP
 40
0.09
  9
$DIMJUST
 70
     0
  9
$DIMSD1
 70
     0
  9
$DIMSD2
 70
     0
  9
$DIMTOLJ
 70
     1
  9
$DIMTZIN
 70
     0
  9
$DIMALTZ
 70
     0
  9
$DIMALTTZ
 70
     0
  9
$DIMUPT
 70
     0
  9
$DIMDEC
 70
     4
  9
$DIMTDEC
 70
     4
  9
$DIMALTU
 70
     2
  9
$DIMALTTD
 70
     2
  9
$DIMTXSTY
  7
Standard
  9
$DIMAUNIT
 70
     0
  9
$DIMADEC
 70
     0
  9
$DIMALTRND
 40
0.0
  9
$DIMAZIN
 70
     0
  9
$DIMDSEP
 70
    46
  9
$DIMATFIT
 70
     3
  9
$DIMFRAC
 70
     0
  9
$DIMLDRBLK
  1

  9
$DIMLUNIT
 70
     2
  9
$DIMLWD
 70
    -2
  9
$DIMLWE
 70
    -2
  9
$DIMTMOVE
 70
     2
  9
$LUNITS
 70
     2
  9
$LUPREC
 70
     3
  9
$SKETCHINC
 40
0.1
  9
$FILLETRAD
 40
0.5
  9
$AUNITS
 70
     0
  9
$AUPREC
 70
     0
  9
$MENU
  1
.
  9
$ELEVATION
 40
0.0
  9
$PELEVATION
 40
0.0
  9
$THICKNESS
 40
0.0
  9
$LIMCHECK
 70
     0
  9
$CHAMFERA
 40
0.5
  9
$CHAMFERB
 40
0.5
  9
$CHAMFERC
 40
1.0
  9
$CHAMFERD
 40
0.0
  9
$SKPOLY
 70
     0
  9
$TDCREATE
 40
2455916.450389178
  9
$TDUCREATE
 40
2455916.408722511
  9
$TDUPDATE
 40
2455916.45038919
  9
$TDUUPDATE
 40
2455916.408722523
  9
$TDINDWG
 40
0.0000000116
  9
$TDUSRTIMER
 40
0.0000000116
  9
$USRTIMER
 70
     1
  9
$ANGBASE
 50
0.0
  9
$ANGDIR
 70
     0
  9
$PDMODE
 70
     0
  9
$PDSIZE
 40
0.0
  9
$PLINEWID
 40
0.0
  9
$SPLFRAME
 70
     0
  9
$SPLINETYPE
 70
     6
  9
$SPLINESEGS
 70
     8
  9
$HANDSEED
  5
6C3
  9
$SURFTAB1
 70
     6
  9
$SURFTAB2
 70
     6
  9
$SURFTYPE
 70
     6
  9
$SURFU
 70
     6
  9
$SURFV
 70
     6
  9
$UCSBASE
  2

  9
$UCSNAME
  2

  9
$UCSORG
 10
0.0
 20
0.0
 30
0.0
  9
$UCSXDIR
 10
1.0
 20
0.0
 30
0.0
  9
$UCSYDIR
 10
0.0
 20
1.0
 30
0.0
  9
$UCSORTHOREF
  2

  9
$UCSORTHOVIEW
 70
     0
  9
$UCSORGTOP
 10
0.0
 20
0.0
 30
0.0
  9
$UCSORGBOTTOM
 10
0.0
 20
0.0
 30
0.0
  9
$UCSORGLEFT
 10
0.0
 20
0.0
 30
0.0
  9
$UCSORGRIGHT
 10
0.0
 20
0.0
 30
0.0
  9
$UCSORGFRONT
 10
0.0
 20
0.0
 30
0.0
  9
$UCSORGBACK
 10
0.0
 20
0.0
 30
0.0
  9
$PUCSBASE
  2

  9
$PUCSNAME
  2

  9
$PUCSORG
 10
0.0
 20
0.0
 30
0.0
  9
$PUCSXDIR
 10
1.0
 20
0.0
 30
0.0
  9
$PUCSYDIR
 10
0.0
 20
1.0
 30
0.0
  9
$PUCSORTHOREF
  2

  9
$PUCSORTHOVIEW
 70
     0
  9
$PUCSORGTOP
 10
0.0
 20
0.0
 30
0.0
  9
$PUCSORGBOTTOM
 10
0.0
 20
0.0
 30
0.0
  9
$PUCSORGLEFT
 10
0.0
 20
0.0
 30
0.0
  9
$PUCSORGRIGHT
 10
0.0
 20
0.0
 30
0.0
  9
$PUCSORGFRONT
 10
0.0
 20
0.0
 30
0.0
  9
$PUCSORGBACK
 10
0.0
 20
0.0
 30
0.0
  9
$USERI1
 70
     0
  9
$USERI2
 70
     0
  9
$USERI3
 70
     0
  9
$USERI4
 70
     0
  9
$USERI5
 70
     0
  9
$USERR1
 40
0.0
  9
$USERR2
 40
0.0
  9
$USERR3
 40
0.0
  9
$USERR4
 40
0.0
  9
$USERR5
 40
0.0
  9
$WORLDVIEW
 70
     1
  9
$SHADEDGE
 70
     3
  9
$SHADEDIF
 70
    70
  9
$TILEMODE
 70
     1
  9
$MAXACTVP
 70
    64
  9
$PINSBASE
 10
0.0
 20
0.0
 30
0.0
  9
$PLIMCHECK
 70
     0
  9
$PEXTMIN
 10
1.000000000000000E+20
 20
1.000000000000000E+20
 30
1.000000000000000E+20
  9
$PEXTMAX
 10
-1.000000000000000E+20
 20
-1.000000000000000E+20
 30
-1.000000000000000E+20
  9
$PLIMMIN
 10
0.0
 20
0.0
  9
$PLIMMAX
 10
12.0
 20
9.0
  9
$UNITMODE
 70
     0
  9
$VISRETAIN
 70
     1
  9
$PLINEGEN
 70
     0
  9
$PSLTSCALE
 70
     1
  9
$TREEDEPTH
 70
  3020
  9
$CMLSTYLE
  2
Standard
  9
$CMLJUST
 70
     0
  9
$CMLSCALE
 40
1.0
  9
$PROXYGRAPHICS
 70
     1
  9
$MEASUREMENT
 70
     0
  9
$CELWEIGHT
370
    -1
  9
$ENDCAPS
280
     0
  9
$JOINSTYLE
280
     0
  9
$LWDISPLAY
290
     0
  9
$INSUNITS
 70
     4
  9
$HYPERLINKBASE
  1

  9
$STYLESHEET
  1

  9
$XEDIT
290
     1
  9
$CEPSNTYPE
380
     0
  9
$PSTYLEMODE
290
     1
  9
$FINGERPRINTGUID
  2
{9A84E5E9-C9B0-45E8-BDAF-A475CC5D4CE5}
  9
$VERSIONGUID
  2
{FAEB1C32-E019-11D5-929B-00C0DF256EC4}
  9
$EXTNAMES
290
     1
  9
$PSVPSCALE
 40
0.0
  9
$OLESTARTUP
290
     0
  9
$SORTENTS
280
   127
  9
$INDEXCTL
280
     0
  9
$HIDETEXT
280
     1
  9
$XCLIPFRAME
290
     0
  9
$HALOGAP
280
     0
  9
$OBSCOLOR
 70
   257
  9
$OBSLTYPE
280
     0
  9
$INTERSECTIONDISPLAY
280
     0
  9
$INTERSECTIONCOLOR
 70
   257
  9
$DIMASSOC
280
     2
  9
$PROJECTNAME
  1

  0
ENDSEC
  0
SECTION
  2
CLASSES
  0
CLASS
  1
ACDBDICTIONARYWDFLT
  2
AcDbDictionaryWithDefault
  3
ObjectDBX Classes
 90
        0
 91
        4
280
     0
281
     0
  0
CLASS
  1
VISUALSTYLE
  2
AcDbVisualStyle
  3
ObjectDBX Classes
 90
     4095
 91
        4
280
     0
281
     0
  0
ENDSEC
  0
SECTION
  2
TABLES
  0
TABLE
  2
VPORT
  5
8
330
0
100
AcDbSymbolTable
 70
     1
  0
VPORT
  5
29
330
8
100
AcDbSymbolTableRecord
100
AcDbViewportTableRecord
  2
*Active
 70
     0
 10
0.0
 20
0.0
 11
1.0
 21
1.0
 12
246.7627892082026
 22
199.1697039620181
 13
0.0
 23
0.0
 14
0.5
 24
0.5
 15
0.5
 25
0.5
 16
0.0
 26
0.0
 36
1.0
 17
0.0
 27
0.0
 37
0.0
 40
406.3086513083269
 41
1.238949799491781
 42
50.0
 43
0.0
 44
0.0
 50
0.0
 51
0.0
 71
     0
 72
   100
 73
     1
 74
     3
 75
     0
 76
     0
 77
     0
 78
     0
281
     0
 65
     1
110
0.0
120
0.0
130
0.0
111
1.0
121
0.0
131
0.0
112
0.0
122
1.0
132
0.0
 79
     0
146
0.0
  0
ENDTAB
  0
TABLE
  2
LTYPE
  5
5
330
0
100
AcDbSymbolTable
 70
     1
  0
LTYPE
  5
14
330
5
100
AcDbSymbolTableRecord
100
AcDbLinetypeTableRecord
  2
ByBlock
 70
     0
  3

 72
    65
 73
     0
 40
0.0
  0
LTYPE
  5
15
330
5
100
AcDbSymbolTableRecord
100
AcDbLinetypeTableRecord
  2
ByLayer
 70
     0
  3

 72
    65
 73
     0
 40
0.0
  0
LTYPE
  5
16
330
5
100
AcDbSymbolTableRecord
100
AcDbLinetypeTableRecord
  2
Continuous
 70
     0
  3
Solid line
 72
    65
 73
     0
 40
0.0
  0
ENDTAB
  0
TABLE
  2
LAYER
  5
2
330
0
100
AcDbSymbolTable
 70
     3
  0
LAYER
  5
10
330
2
100
AcDbSymbolTableRecord
100
AcDbLayerTableRecord
  2
0
 70
     0
 62
     7
  6
Continuous
370
    -3
390
F
  0
LAYER
  5
3B
330
2
100
AcDbSymbolTableRecord
100
AcDbLayerTableRecord
  2
Predefinito
 70
     0
 62
     7
  6
Continuous
370
    -3
390
F
  0
LAYER
  5
3E
330
2
100
AcDbSymbolTableRecord
100
AcDbLayerTableRecord
  2
Linee visibili 2D
 70
     0
 62
     7
  6
Continuous
370
    -3
390
F
  0
ENDTAB
  0
TABLE
  2
STYLE
  5
3
330
0
100
AcDbSymbolTable
 70
     1
  0
STYLE
  5
11
330
3
100
AcDbSymbolTableRecord
100
AcDbTextStyleTableRecord
  2
Standard
 70
     0
 40
0.0
 41
1.0
 50
0.0
 71
     0
 42
0.2
  3
txt
  4

  0
ENDTAB
  0
TABLE
  2
VIEW
  5
6
330
0
100
AcDbSymbolTable
 70
     0
  0
ENDTAB
  0
TABLE
  2
UCS
  5
7
330
0
100
AcDbSymbolTable
 70
     0
  0
ENDTAB
  0
TABLE
  2
APPID
  5
9
330
0
100
AcDbSymbolTable
 70
     1
  0
APPID
  5
12
330
9
100
AcDbSymbolTableRecord
100
AcDbRegAppTableRecord
  2
ACAD
 70
     0
  0
ENDTAB
  0
TABLE
  2
DIMSTYLE
  5
A
330
0
100
AcDbSymbolTable
 70
     1
100
AcDbDimStyleTable
  0
DIMSTYLE
105
27
330
A
100
AcDbSymbolTableRecord
100
AcDbDimStyleTableRecord
  2
Standard
 70
     0
340
11
  0
ENDTAB
  0
TABLE
  2
BLOCK_RECORD
  5
1
330
0
100
AcDbSymbolTable
 70
     1
  0
BLOCK_RECORD
  5
1F
330
1
100
AcDbSymbolTableRecord
100
AcDbBlockTableRecord
  2
*Model_Space
340
22
  0
BLOCK_RECORD
  5
1B
330
1
100
AcDbSymbolTableRecord
100
AcDbBlockTableRecord
  2
*Paper_Space
340
1E
  0
BLOCK_RECORD
  5
23
330
1
100
AcDbSymbolTableRecord
100
AcDbBlockTableRecord
  2
*Paper_Space0
340
26
  0
ENDTAB
  0
ENDSEC
  0
SECTION
  2
BLOCKS
  0
BLOCK
  5
20
330
1F
100
AcDbEntity
  8
0
100
AcDbBlockBegin
  2
*Model_Space
 70
     0
 10
0.0
 20
0.0
 30
0.0
  3
*Model_Space
  1

  0
ENDBLK
  5
21
330
1F
100
AcDbEntity
  8
0
100
AcDbBlockEnd
  0
BLOCK
  5
1C
330
1B
100
AcDbEntity
 67
     1
  8
0
100
AcDbBlockBegin
  2
*Paper_Space
 70
     0
 10
0.0
 20
0.0
 30
0.0
  3
*Paper_Space
  1

  0
ENDBLK
  5
1D
330
1B
100
AcDbEntity
 67
     1
  8
0
100
AcDbBlockEnd
  0
BLOCK
  5
24
330
23
100
AcDbEntity
  8
0
100
AcDbBlockBegin
  2
*Paper_Space0
 70
     0
 10
0.0
 20
0.0
 30
0.0
  3
*Paper_Space0
  1

  0
ENDBLK
  5
25
330
23
100
AcDbEntity
  8
0
100
AcDbBlockEnd
  0
ENDSEC
  0
SECTION
  2
ENTITIES
  0
LINE
  5
3C
330
1F
100
AcDbEntity
  8
Predefinito
100
AcDbLine
 10
492.7188207108335
 20
197.0762679353808
 30
0.0
 11
492.7188207108335
 21
198.4086644478523
 31
0.0
  0
LINE
  5
3D
330
1F
100
AcDbEntity
  8
Predefinito
100
AcDbLine
 10
492.7188207108335
 20
198.4086644478523
 30
0.0
 11
489.9098845775414
 21
198.4086644478523
 31
0.0
  0
LINE
  5
3F
330
1F
100
AcDbEntity
  8
Linee visibili 2D
100
AcDbLine
 10
406.8196072307283
 20
329.4035770119837
 30
0.0
 11
406.8395420981809
 21
329.3444961868923
 31
0.0
  0
LINE
  5
40
330
1F
100
AcDbEntity
  8
Linee visibili 2D
100
AcDbLine
 10
406.8395420981809
 20
329.3444961868923
 30
0.0
 11
406.861518101303
 21
329.2861438251527
 31
0.0
  0
LINE
  5
41
330
1F
100
AcDbEntity
  8
Linee visibili 2D
100
AcDbLine
 10
406.861518101303
 20
329.2861438251527
 30
0.0
 11
406.8855086916207
 21
329.228590420301
 31
0.0
  0
LINE
  5
42
330
1F
100
AcDbEntity
  8
Linee visibili 2D
100
AcDbLine
 10
406.8855086916207
 20
329.228590420301
 30
0.0
 11
406.9114848869039
 21
329.1719055006801
 31
0.0
  0
LINE
  5
43
330
1F
100
AcDbEntity
  8
Linee visibili 2D
100
AcDbLine
 10
406.9114848869039
 20
329.1719055006801
 30
0.0
 11
406.9394153061805
 21
329.1161575454454
 31
0.0
  0
LINE
  5
44
330
1F
100
AcDbEntity
  8
Linee visibili 2D
100
AcDbLine
 10
406.9394153061805
 20
329.1161575454454
 30
0.0
 11
406.969266207645
 21
329.0614139018366
 31
0.0
  0
LINE
  5
45
330
1F
100
AcDbEntity
  8
Linee visibili 2D
100
AcDbLine
 10
406.969266207645
 20
329.0614139018366
 30
0.0
 11
407.0010015294221
 21
329.0077407038182
 31
0.0
  0
LINE
  5
46
330
1F
100
AcDbEntity
  8
Linee visibili 2D
100
AcDbLine
 10
407.0010015294221
 20
329.0077407038182
 30
0.0
 11
407.034582933131
 21
328.9552027921852
 31
0.0
  0
LINE
  5
47
330
1F
100
AcDbEntity
  8
Linee visibili 2D
100
AcDbLine
 10
407.034582933131
 20
328.9552027921852
 30
0.0
 11
407.0699698502016
 21
328.9038636362313
 31
0.0
  0
LINE
  5
48
330
1F
100
AcDbEntity
  8
Linee visibili 2D
100
AcDbLine
 10
407.0699698502016
 20
328.9038636362313
 30
0.0
 11
407.1071195308829
 21
328.8537852570733
 31
0.0
  0
LINE
  5
49
330
1F
100
AcDbEntity
  8
Linee visibili 2D
100
AcDbLine
 10
407.1071195308829
 20
328.8537852570733
 30
0.0
 11
407.1459870958884
 21
328.8050281527257
 31
0.0
  0
LINE
  5
4A
330
1F
100
AcDbEntity
  8
Linee visibili 2D
100
AcDbLine
 10
407.1459870958884
 20
328.8050281527257
 30
0.0
 11
407.1865255906131
 21
328.7576512250154
 31
0.0
  0
LINE
  5
4B
330
1F
100
AcDbEntity
  8
Linee visibili 2D
100
AcDbLine
 10
407.1865255906131
 20
328.7576512250154
 30
0.0
 11
407.2286860418577
 21
328.7117117084237
 31
0.0
  0
LINE
  5
4C
330
1F
100
AcDbEntity
  8
Linee visibili 2D
100
AcDbLine
 10
407.2286860418577
 20
328.7117117084237
 30
0.0
 11
407.2724175169913
 21
328.6672651009441
 31
0.0
  0
LINE
  5
4D
330
1F
100
AcDbEntity
  8
Linee visibili 2D
100
AcDbLine
 10
407.2724175169913
 20
328.6672651009441
 30
0.0
 11
407.3176671854818
 21
328.6243650970359
 31
0.0
  0
LINE
  5
4E
330
1F
100
AcDbEntity
  8
Linee visibili 2D
100
AcDbLine
 10
407.3176671854818
 20
328.6243650970359
 30
0.0
 11
407.3643803827184
 21
328.5830635227589
 31
0.0
  0
LINE
  5
4F
330
1F
100
AcDbEntity
  8
Linee visibili 2D
100
AcDbLine
 10
407.3643803827184
 20
328.5830635227589
 30
0.0
 11
407.4125006760501
 21
328.5434102731634
 31
0.0
  0
LINE
  5
50
330
1F
100
AcDbEntity
  8
Linee visibili 2D
100
AcDbLine
 10
407.4125006760501
 20
328.5434102731634
 30
0.0
 11
407.4619699329604
 21
328.5054532520136
 31
0.0
  0
LINE
  5
51
330
1F
100
AcDbEntity
  8
Linee visibili 2D
100
AcDbLine
 10
407.4619699329604
 20
328.5054532520136
 30
0.0
 11
407.5127283912948
 21
328.4692383139172
 31
0.0
  0
LINE
  5
52
330
1F
100
AcDbEntity
  8
Linee visibili 2D
100
AcDbLine
 10
407.5127283912948
 20
328.4692383139172
 30
0.0
 11
407.5647147314577
 21
328.4348092089292
 31
0.0
  0
LINE
  5
53
330
1F
100
AcDbEntity
  8
Linee visibili 2D
100
AcDbLine
 10
407.5647147314577
 20
328.4348092089292
 30
0.0
 11
407.6178661504908
 21
328.4022075296996
 31
0.0
  0
LINE
  5
54
330
1F
100
AcDbEntity
  8
Linee visibili 2D
100
AcDbLine
 10
407.6178661504908
 20
328.4022075296996
 30
0.0
 11
407.6721184379428
 21
328.3714726612267
 31
0.0
  0
LINE
  5
55
330
1F
100
AcDbEntity
  8
Linee visibili 2D
100
AcDbLine
 10
407.6721184379428
 20
328.3714726612267
 30
0.0
 11
407.7274060534401
 21
328.3426417332768
 31
0.0
  0
LINE
  5
56
330
1F
100
AcDbEntity
  8
Linee visibili 2D
100
AcDbLine
 10
407.7274060534401
 20
328.3426417332768
 30
0.0
 11
407.7836622058637
 21
328.3157495755295
 31
0.0
  0
LINE
  5
57
330
1F
100
AcDbEntity
  8
Linee visibili 2D
100
AcDbLine
 10
407.7836622058637
 20
328.3157495755295
 30
0.0
 11
407.8408189340379
 21
328.290828675501
 31
0.0
  0
LINE
  5
58
330
1F
100
AcDbEntity
  8
Linee visibili 2D
100
AcDbLine
 10
407.8408189340379
 20
328.290828675501
 30
0.0
 11
407.8988071888315
 21
328.2679091392968
 31
0.0
  0
LINE
  5
59
330
1F
100
AcDbEntity
  8
Linee visibili 2D
100
AcDbLine
 10
407.8988071888315
 20
328.2679091392968
 30
0.0
 11
407.9575569165737
 21
328.2470186552422
 31
0.0
  0
LINE
  5
5A
330
1F
100
AcDbEntity
  8
Linee visibili 2D
100
AcDbLine
 10
407.9575569165737
 20
328.2470186552422
 30
0.0
 11
408.0169971436836
 21
328.2281824604319
 31
0.0
  0
LINE
  5
5B
330
1F
100
AcDbEntity
  8
Linee visibili 2D
100
AcDbLine
 10
408.0169971436836
 20
328.2281824604319
 30
0.0
 11
408.0770560624114
 21
328.2114233102427
 31
0.0
  0
LINE
  5
5C
330
1F
100
AcDbEntity
  8
Linee visibili 2D
100
AcDbLine
 10
408.0770560624114
 20
328.2114233102427
 30
0.0
 11
408.1376611175866
 21
328.1967614508434
 31
0.0
  0
LINE
  5
5D
330
1F
100
AcDbEntity
  8
Linee visibili 2D
100
AcDbLine
 10
408.1376611175866
 20
328.1967614508434
 30
0.0
 11
408.1987390942691
 21
328.184214594736
 31
0.0
  0
LINE
  5
5E
330
1F
100
AcDbEntity
  8
Linee visibili 2D
100
AcDbLine
 10
408.1987390942691
 20
328.184214594736
 30
0.0
 11
408.2602162061987
 21
328.1737978993575
 31
0.0
  0
LINE
  5
5F
330
1F
100
AcDbEntity
  8
Linee visibili 2D
100
AcDbLine
 10
408.2602162061987
 20
328.1737978993575
 30
0.0
 11
408.3220181849331
 21
328.1655239487691
 31
0.0
  0
LINE
  5
60
330
1F
100
AcDbEntity
  8
Linee visibili 2D
100
AcDbLine
 10
408.3220181849331
 20
328.1655239487691
 30
0.0
 11
408.384070369569
 21
328.1594027384537
 31
0.0
  0
LINE
  5
61
330
1F
100
AcDbEntity
  8
Linee visibili 2D
100
AcDbLine
 10
408.384070369569
 20
328.1594027384537
 30
0.0
 11
408.446297796938
 21
328.1554416632408
 31
0.0
  0
LINE
  5
62
330
1F
100
AcDbEntity
  8
Linee visibili 2D
100
AcDbLine
 10
408.446297796938
 20
328.1554416632408
 30
0.0
 11
408.508625292167
 21
328.1536455083728
 31
0.0
  0
LINE
  5
63
330
1F
100
AcDbEntity
  8
Linee visibili 2D
100
AcDbLine
 10
408.508625292167
 20
328.1536455083728
 30
0.0
 11
408.5709775594937
 21
328.1540164437243
 31
0.0
  0
LINE
  5
64
330
1F
100
AcDbEntity
  8
Linee visibili 2D
100
AcDbLine
 10
408.5709775594937
 20
328.1540164437243
 30
0.0
 11
408.6332792732299
 21
328.1565540211809
 31
0.0
  0
LINE
  5
65
330
1F
100
AcDbEntity
  8
Linee visibili 2D
100
AcDbLine
 10
408.6332792732299
 20
328.1565540211809
 30
0.0
 11
408.6954551687594
 21
328.1612551751799
 31
0.0
  0
LINE
  5
66
330
1F
100
AcDbEntity
  8
Linee visibili 2D
100
AcDbLine
 10
408.6954551687594
 20
328.1612551751799
 30
0.0
 11
408.7574301334627
 21
328.1681142264144
 31
0.0
  0
LINE
  5
67
330
1F
100
AcDbEntity
  8
Linee visibili 2D
100
AcDbLine
 10
408.7574301334627
 20
328.1681142264144
 30
0.0
 11
408.8191292974582
 21
328.1771228886944
 31
0.0
  0
LINE
  5
68
330
1F
100
AcDbEntity
  8
Linee visibili 2D
100
AcDbLine
 10
408.8191292974582
 20
328.1771228886944
 30
0.0
 11
408.8804781240498
 21
328.188270278956
 31
0.0
  0
LINE
  5
69
330
1F
100
AcDbEntity
  8
Linee visibili 2D
100
AcDbLine
 10
408.8804781240498
 20
328.188270278956
 30
0.0
 11
408.9414024997725
 21
328.2015429304101
 31
0.0
  0
LINE
  5
6A
330
1F
100
AcDbEntity
  8
Linee visibili 2D
100
AcDbLine
 10
408.9414024997725
 20
328.2015429304101
 30
0.0
 11
409.001828823926
 21
328.2169248088105
 31
0.0
  0
LINE
  5
6B
330
1F
100
AcDbEntity
  8
Linee visibili 2D
100
AcDbLine
 10
409.001828823926
 20
328.2169248088105
 30
0.0
 11
409.0616840974893
 21
328.2343973318245
 31
0.0
  0
LINE
  5
6C
330
1F
100
AcDbEntity
  8
Linee visibili 2D
100
AcDbLine
 10
409.0616840974893
 20
328.2343973318245
 30
0.0
 11
409.1208960113089
 21
328.2539393914813
 31
0.0
  0
LINE
  5
6D
330
1F
100
AcDbEntity
  8
Linee visibili 2D
100
AcDbLine
 10
409.1208960113089
 20
328.2539393914813
 30
0.0
 11
409.1793930334526
 21
328.2755273796726
 31
0.0
  0
LINE
  5
6E
330
1F
100
AcDbEntity
  8
Linee visibili 2D
100
AcDbLine
 10
409.1793930334526
 20
328.2755273796726
 30
0.0
 11
409.2371044956245
 21
328.299135216672
 31
0.0
  0
LINE
  5
6F
330
1F
100
AcDbEntity
  8
Linee visibili 2D
100
AcDbLine
 10
409.2371044956245
 20
328.299135216672
 30
0.0
 11
409.293960678538
 21
328.3247343826412
 31
0.0
  0
LINE
  5
70
330
1F
100
AcDbEntity
  8
Linee visibili 2D
100
AcDbLine
 10
409.293960678538
 20
328.3247343826412
 30
0.0
 11
409.3498928961405
 21
328.3522939520844
 31
0.0
  0
LINE
  5
71
330
1F
100
AcDbEntity
  8
Linee visibili 2D
100
AcDbLine
 10
409.3498928961405
 20
328.3522939520844
 30
0.0
 11
409.4048335785909
 21
328.3817806312075
 31
0.0
  0
LINE
  5
72
330
1F
100
AcDbEntity
  8
Linee visibili 2D
100
AcDbLine
 10
409.4048335785909
 20
328.3817806312075
 30
0.0
 11
409.4587163538885
 21
328.4131587981399
 31
0.0
  0
LINE
  5
73
330
1F
100
AcDbEntity
  8
Linee visibili 2D
100
AcDbLine
 10
409.4587163538885
 20
328.4131587981399
 30
0.0
 11
409.5114761280552
 21
328.4463905459679
 31
0.0
  0
LINE
  5
74
330
1F
100
AcDbEntity
  8
Linee visibili 2D
100
AcDbLine
 10
409.5114761280552
 20
328.4463905459679
 30
0.0
 11
409.5630491637726
 21
328.4814357285284
 31
0.0
  0
LINE
  5
75
330
1F
100
AcDbEntity
  8
Linee visibili 2D
100
AcDbLine
 10
409.5630491637726
 20
328.4814357285284
 30
0.0
 11
409.6133731573817
 21
328.5182520089089
 31
0.0
  0
LINE
  5
76
330
1F
100
AcDbEntity
  8
Linee visibili 2D
100
AcDbLine
 10
409.6133731573817
 20
328.5182520089089
 30
0.0
 11
409.662387314149
 21
328.5567949105927
 31
0.0
  0
LINE
  5
77
330
1F
100
AcDbEntity
  8
Linee visibili 2D
100
AcDbLine
 10
409.662387314149
 20
328.5567949105927
 30
0.0
 11
409.7100324217116
 21
328.5970178711894
 31
0.0
  0
LINE
  5
78
330
1F
100
AcDbEntity
  8
Linee visibili 2D
100
AcDbLine
 10
409.7100324217116
 20
328.5970178711894
 30
0.0
 11
409.7562509216088
 21
328.6388722986861
 31
0.0
  0
LINE
  5
79
330
1F
100
AcDbEntity
  8
Linee visibili 2D
100
AcDbLine
 10
409.7562509216088
 20
328.6388722986861
 30
0.0
 11
409.800986978817
 21
328.6823076301489
 31
0.0
  0
LINE
  5
7A
330
1F
100
AcDbEntity
  8
Linee visibili 2D
100
AcDbLine
 10
409.800986978817
 20
328.6823076301489
 30
0.0
 11
409.8441865492019
 21
328.7272713928069
 31
0.0
  0
LINE
  5
7B
330
1F
100
AcDbEntity
  8
Linee visibili 2D
100
AcDbLine
 10
406.8196072307283
 20
329.4035770119837
 30
0.0
 11
406.7996849878932
 21
329.455531862277
 31
0.0
  0
LINE
  5
7C
330
1F
100
AcDbEntity
  8
Linee visibili 2D
100
AcDbLine
 10
406.7996849878932
 20
329.455531862277
 30
0.0
 11
406.7815813638789
 21
329.5081480292425
 31
0.0
  0
LINE
  5
7D
330
1F
100
AcDbEntity
  8
Linee visibili 2D
100
AcDbLine
 10
406.7815813638789
 20
329.5081480292425
 30
0.0
 11
406.7653182541859
 21
329.5613618760468
 31
0.0
  0
LINE
  5
7E
330
1F
100
AcDbEntity
  8
Linee visibili 2D
100
AcDbLine
 10
406.7653182541859
 20
329.5613618760468
 30
0.0
 11
406.7509153282971
 21
329.61510904299
 31
0.0
  0
LINE
  5
7F
330
1F
100
AcDbEntity
  8
Linee visibili 2D
100
AcDbLine
 10
406.7509153282971
 20
329.61510904299
 30
0.0
 11
406.7383900058889
 21
329.6693245253466
 31
0.0
  0
LINE
  5
80
330
1F
100
AcDbEntity
  8
Linee visibili 2D
100
AcDbLine
 10
406.7383900058889
 20
329.6693245253466
 30
0.0
 11
406.7277574357623
 21
329.7239427519847
 31
0.0
  0
LINE
  5
81
330
1F
100
AcDbEntity
  8
Linee visibili 2D
100
AcDbLine
 10
406.7277574357623
 20
329.7239427519847
 30
0.0
 11
406.719030477522
 21
329.7788976646719
 31
0.0
  0
LINE
  5
82
330
1F
100
AcDbEntity
  8
Linee visibili 2D
100
AcDbLine
 10
406.719030477522
 20
329.7788976646719
 30
0.0
 11
406.7122196860223
 21
329.8341227979695
 31
0.0
  0
LINE
  5
83
330
1F
100
AcDbEntity
  8
Linee visibili 2D
100
AcDbLine
 10
406.7122196860223
 20
329.8341227979695
 30
0.0
 11
406.7073332986023
 21
329.8895513596194
 31
0.0
  0
LINE
  5
84
330
1F
100
AcDbEntity
  8
Linee visibili 2D
100
AcDbLine
 10
406.7073332986023
 20
329.8895513596194
 30
0.0
 11
406.7043772251228
 21
329.9451163113261
 31
0.0
  0
LINE
  5
85
330
1F
100
AcDbEntity
  8
Linee visibili 2D
100
AcDbLine
 10
406.7043772251228
 20
329.9451163113261
 30
0.0
 11
406.7033550408185
 21
330.0007504498369
 31
0.0
  0
LINE
  5
86
330
1F
100
AcDbEntity
  8
Linee visibili 2D
100
AcDbLine
 10
406.7033550408185
 20
330.0007504498369
 30
0.0
 11
406.7042679819746
 21
330.0563864882206
 31
0.0
  0
LINE
  5
87
330
1F
100
AcDbEntity
  8
Linee visibili 2D
100
AcDbLine
 10
406.7042679819746
 20
330.0563864882206
 30
0.0
 11
406.7071149444304
 21
330.1119571372483
 31
0.0
  0
LINE
  5
88
330
1F
100
AcDbEntity
  8
Linee visibili 2D
100
AcDbLine
 10
406.7071149444304
 20
330.1119571372483
 30
0.0
 11
406.7118924849161
 21
330.1673951867766
 31
0.0
  0
LINE
  5
89
330
1F
100
AcDbEntity
  8
Linee visibili 2D
100
AcDbLine
 10
406.7118924849161
 20
330.1673951867766
 30
0.0
 11
406.7185948252162
 21
330.2226335870348
 31
0.0
  0
LINE
  5
8A
330
1F
100
AcDbEntity
  8
Linee visibili 2D
100
AcDbLine
 10
406.7185948252162
 20
330.2226335870348
 30
0.0
 11
406.7272138591583
 21
330.2776055297192
 31
0.0
  0
LINE
  5
8B
330
1F
100
AcDbEntity
  8
Linee visibili 2D
100
AcDbLine
 10
406.7272138591583
 20
330.2776055297192
 30
0.0
 11
406.7377391624175
 21
330.332244528794
 31
0.0
  0
LINE
  5
8C
330
1F
100
AcDbEntity
  8
Linee visibili 2D
100
AcDbLine
 10
406.7377391624175
 20
330.332244528794
 30
0.0
 11
406.7501580051237
 21
330.3864845009034
 31
0.0
  0
LINE
  5
8D
330
1F
100
AcDbEntity
  8
Linee visibili 2D
100
AcDbLine
 10
406.7501580051237
 20
330.3864845009034
 30
0.0
 11
406.7644553672579
 21
330.4402598452964
 31
0.0
  0
LINE
  5
8E
330
1F
100
AcDbEntity
  8
Linee visibili 2D
100
AcDbLine
 10
406.7644553672579
 20
330.4402598452964
 30
0.0
 11
406.7806139568184
 21
330.4935055231679
 31
0.0
  0
LINE
  5
8F
330
1F
100
AcDbEntity
  8
Linee visibili 2D
100
AcDbLine
 10
406.7806139568184
 20
330.4935055231679
 30
0.0
 11
406.7986142307345
 21
330.5461571363202
 31
0.0
  0
LINE
  5
90
330
1F
100
AcDbEntity
  8
Linee visibili 2D
100
AcDbLine
 10
406.7986142307345
 20
330.5461571363202
 30
0.0
 11
406.818434418503
 21
330.5981510050493
 31
0.0
  0
LINE
  5
91
330
1F
100
AcDbEntity
  8
Linee visibili 2D
100
AcDbLine
 10
406.818434418503
 20
330.5981510050493
 30
0.0
 11
406.8400505485185
 21
330.6494242451628
 31
0.0
  0
LINE
  5
92
330
1F
100
AcDbEntity
  8
Linee visibili 2D
100
AcDbLine
 10
409.8862917756983
 20
331.22463226332
 30
0.0
 11
409.8446220830162
 21
331.2710570764281
 31
0.0
  0
LINE
  5
93
330
1F
100
AcDbEntity
  8
Linee visibili 2D
100
AcDbLine
 10
409.8446220830162
 20
331.2710570764281
 30
0.0
 11
409.8013633503543
 21
331.3160049196335
 31
0.0
  0
LINE
  5
94
330
1F
100
AcDbEntity
  8
Linee visibili 2D
100
AcDbLine
 10
409.8013633503543
 20
331.3160049196335
 30
0.0
 11
409.7565678943233
 21
331.3594214335344
 31
0.0
  0
LINE
  5
95
330
1F
100
AcDbEntity
  8
Linee visibili 2D
100
AcDbLine
 10
409.7565678943233
 20
331.3594214335344
 30
0.0
 11
409.7102898900297
 21
331.4012541107012
 31
0.0
  0
LINE
  5
96
330
1F
100
AcDbEntity
  8
Linee visibili 2D
100
AcDbLine
 10
409.7102898900297
 20
331.4012541107012
 30
0.0
 11
409.6625853055567
 21
331.4414523591779
 31
0.0
  0
LINE
  5
97
330
1F
100
AcDbEntity
  8
Linee visibili 2D
100
AcDbLine
 10
409.6625853055567
 20
331.4414523591779
 30
0.0
 11
409.613511834277
 21
331.4799675636677
 31
0.0
  0
LINE
  5
98
330
1F
100
AcDbEntity
  8
Linee visibili 2D
100
AcDbLine
 10
409.613511834277
 20
331.4799675636677
 30
0.0
 11
409.5631288250792
 21
331.5167531443278
 31
0.0
  0
LINE
  5
99
330
1F
100
AcDbEntity
  8
Linee visibili 2D
100
AcDbLine
 10
409.5631288250792
 20
331.5167531443278
 30
0.0
 11
409.5114972105916
 21
331.5517646131024
 31
0.0
  0
LINE
  5
9A
330
1F
100
AcDbEntity
  8
Linee visibili 2D
100
AcDbLine
 10
409.5114972105916
 20
331.5517646131024
 30
0.0
 11
409.4586794334921
 21
331.5849596275261
 31
0.0
  0
LINE
  5
9B
330
1F
100
AcDbEntity
  8
Linee visibili 2D
100
AcDbLine
 10
409.4586794334921
 20
331.5849596275261
 30
0.0
 11
409.404739370989
 21
331.6162980419325
 31
0.0
  0
LINE
  5
9C
330
1F
100
AcDbEntity
  8
Linee visibili 2D
100
AcDbLine
 10
409.404739370989
 20
331.6162980419325
 30
0.0
 11
409.3497422575702
 21
331.6457419560055
 31
0.0
  0
LINE
  5
9D
330
1F
100
AcDbEntity
  8
Linee visibili 2D
100
AcDbLine
 10
409.3497422575702
 20
331.6457419560055
 30
0.0
 11
409.2937546061086
 21
331.673255760616
 31
0.0
  0
LINE
  5
9E
330
1F
100
AcDbEntity
  8
Linee visibili 2D
100
AcDbLine
 10
409.2937546061086
 20
331.673255760616
 30
0.0
 11
409.2368441274223
 21
331.698806180887
 31
0.0
  0
LINE
  5
9F
330
1F
100
AcDbEntity
  8
Linee visibili 2D
100
AcDbLine
 10
409.2368441274223
 20
331.698806180887
 30
0.0
 11
409.1790796483859
 21
331.7223623164357
 31
0.0
  0
LINE
  5
A0
330
1F
100
AcDbEntity
  8
Linee visibili 2D
100
AcDbLine
 10
409.1790796483859
 20
331.7223623164357
 30
0.0
 11
409.1205310286923
 21
331.7438956787443
 31
0.0
  0
LINE
  5
A1
330
1F
100
AcDbEntity
  8
Linee visibili 2D
100
AcDbLine
 10
409.1205310286923
 20
331.7438956787443
 30
0.0
 11
409.061269076365
 21
331.7633802256134
 31
0.0
  0
LINE
  5
A2
330
1F
100
AcDbEntity
  8
Linee visibili 2D
100
AcDbLine
 10
409.061269076365
 20
331.7633802256134
 30
0.0
 11
409.0013654621237
 21
331.7807923926574
 31
0.0
  0
LINE
  5
A3
330
1F
100
AcDbEntity
  8
Linee visibili 2D
100
AcDbLine
 10
409.0013654621237
 20
331.7807923926574
 30
0.0
 11
408.9408926327067
 21
331.7961111218029
 31
0.0
  0
LINE
  5
A4
330
1F
100
AcDbEntity
  8
Linee visibili 2D
100
AcDbLine
 10
408.9408926327067
 20
331.7961111218029
 30
0.0
 11
408.8799237232543
 21
331.8093178867559
 31
0.0
  0
LINE
  5
A5
330
1F
100
AcDbEntity
  8
Linee visibili 2D
100
AcDbLine
 10
408.8799237232543
 20
331.8093178867559
 30
0.0
 11
408.8185324688606
 21
331.8203967154078
 31
0.0
  0
LINE
  5
A6
330
1F
100
AcDbEntity
  8
Linee visibili 2D
100
AcDbLine
 10
408.8185324688606
 20
331.8203967154078
 30
0.0
 11
408.7567931153984
 21
331.8293342091513
 31
0.0
  0
LINE
  5
A7
330
1F
100
AcDbEntity
  8
Linee visibili 2D
100
AcDbLine
 10
408.7567931153984
 20
331.8293342091513
 30
0.0
 11
408.6947803297279
 21
331.8361195590848
 31
0.0
  0
LINE
  5
A8
330
1F
100
AcDbEntity
  8
Linee visibili 2D
100
AcDbLine
 10
408.6947803297279
 20
331.8361195590848
 30
0.0
 11
408.6325691093948
 21
331.8407445590846
 31
0.0
  0
LINE
  5
A9
330
1F
100
AcDbEntity
  8
Linee visibili 2D
100
AcDbLine
 10
408.6325691093948
 20
331.8407445590846
 30
0.0
 11
408.5702346919293
 21
331.8432036157292
 31
0.0
  0
LINE
  5
AA
330
1F
100
AcDbEntity
  8
Linee visibili 2D
100
AcDbLine
 10
408.5702346919293
 20
331.8432036157292
 30
0.0
 11
408.5078524638552
 21
331.8434937550639
 31
0.0
  0
LINE
  5
AB
330
1F
100
AcDbEntity
  8
Linee visibili 2D
100
AcDbLine
 10
408.5078524638552
 20
331.8434937550639
 30
0.0
 11
408.4454978695173
 21
331.8416146261976
 31
0.0
  0
LINE
  5
AC
330
1F
100
AcDbEntity
  8
Linee visibili 2D
100
AcDbLine
 10
408.4454978695173
 20
331.8416146261976
 30
0.0
 11
408.3832463198409
 21
331.8375685017269
 31
0.0
  0
LINE
  5
AD
330
1F
100
AcDbEntity
  8
Linee visibili 2D
100
AcDbLine
 10
408.3832463198409
 20
331.8375685017269
 30
0.0
 11
408.3211731011303
 21
331.8313602749881
 31
0.0
  0
LINE
  5
AE
330
1F
100
AcDbEntity
  8
Linee visibili 2D
100
AcDbLine
 10
408.3211731011303
 20
331.8313602749881
 30
0.0
 11
408.2593532840182
 21
331.8229974541387
 31
0.0
  0
LINE
  5
AF
330
1F
100
AcDbEntity
  8
Linee visibili 2D
100
AcDbLine
 10
408.2593532840182
 20
331.8229974541387
 30
0.0
 11
408.1978616326763
 21
331.8124901530776
 31
0.0
  0
LINE
  5
B0
330
1F
100
AcDbEntity
  8
Linee visibili 2D
100
AcDbLine
 10
408.1978616326763
 20
331.8124901530776
 30
0.0
 11
408.1367725143967
 21
331.7998510792131
 31
0.0
  0
LINE
  5
B1
330
1F
100
AcDbEntity
  8
Linee visibili 2D
100
AcDbLine
 10
408.1367725143967
 20
331.7998510792131
 30
0.0
 11
408.0761598096524
 21
331.785095518095
 31
0.0
  0
LINE
  5
B2
330
1F
100
AcDbEntity
  8
Linee visibili 2D
100
AcDbLine
 10
408.0761598096524
 20
331.785095518095
 30
0.0
 11
408.0160968227474
 21
331.7682413149282
 31
0.0
  0
LINE
  5
B3
330
1F
100
AcDbEntity
  8
Linee visibili 2D
100
AcDbLine
 10
408.0160968227474
 20
331.7682413149282
 30
0.0
 11
407.9566561931634
 21
331.7493088529911
 31
0.0
  0
LINE
  5
B4
330
1F
100
AcDbEntity
  8
Linee visibili 2D
100
AcDbLine
 10
407.9566561931634
 20
331.7493088529911
 30
0.0
 11
407.8979098077104
 21
331.7283210289842
 31
0.0
  0
LINE
  5
B5
330
1F
100
AcDbEntity
  8
Linee visibili 2D
100
AcDbLine
 10
407.8979098077104
 20
331.7283210289842
 30
0.0
 11
407.8399287135875
 21
331.7053032253391
 31
0.0
  0
LINE
  5
B6
330
1F
100
AcDbEntity
  8
Linee visibili 2D
100
AcDbLine
 10
407.8399287135875
 20
331.7053032253391
 30
0.0
 11
407.7827830324593
 21
331.6802832795213
 31
0.0
  0
LINE
  5
B7
330
1F
100
AcDbEntity
  8
Linee visibili 2D
100
AcDbLine
 10
407.7827830324593
 20
331.6802832795213
 30
0.0
 11
407.7265418756515
 21
331.6532914503638
 31
0.0
  0
LINE
  5
B8
330
1F
100
AcDbEntity
  8
Linee visibili 2D
100
AcDbLine
 10
407.7265418756515
 20
331.6532914503638
 30
0.0
 11
407.6712732605689
 21
331.6243603814729
 31
0.0
  0
LINE
  5
B9
330
1F
100
AcDbEntity
  8
Linee visibili 2D
100
AcDbLine
 10
407.6712732605689
 20
331.6243603814729
 30
0.0
 11
407.6170440284351
 21
331.5935250617483
 31
0.0
  0
LINE
  5
BA
330
1F
100
AcDbEntity
  8
Linee visibili 2D
100
AcDbLine
 10
407.6170440284351
 20
331.5935250617483
 30
0.0
 11
407.5639197634563
 21
331.5608227830693
 31
0.0
  0
LINE
  5
BB
330
1F
100
AcDbEntity
  8
Linee visibili 2D
100
AcDbLine
 10
407.5639197634563
 20
331.5608227830693
 30
0.0
 11
407.5119647135041
 21
331.5262930951934
 31
0.0
  0
LINE
  5
BC
330
1F
100
AcDbEntity
  8
Linee visibili 2D
100
AcDbLine
 10
407.5119647135041
 20
331.5262930951934
 30
0.0
 11
407.4612417124151
 21
331.4899777579258
 31
0.0
  0
LINE
  5
BD
330
1F
100
AcDbEntity
  8
Linee visibili 2D
100
AcDbLine
 10
407.4612417124151
 20
331.4899777579258
 30
0.0
 11
407.4118121040001
 21
331.4519206906153
 31
0.0
  0
LINE
  5
BE
330
1F
100
AcDbEntity
  8
Linee visibili 2D
100
AcDbLine
 10
407.4118121040001
 20
331.4519206906153
 30
0.0
 11
407.3637356678558
 21
331.412167919039
 31
0.0
  0
LINE
  5
BF
330
1F
100
AcDbEntity
  8
Linee visibili 2D
100
AcDbLine
 10
407.3637356678558
 20
331.412167919039
 30
0.0
 11
407.3170705470682
 21
331.3707675197389
 31
0.0
  0
LINE
  5
C0
330
1F
100
AcDbEntity
  8
Linee visibili 2D
100
AcDbLine
 10
407.3170705470682
 20
331.3707675197389
 30
0.0
 11
407.2718731778942
 21
331.3277695618793
 31
0.0
  0
LINE
  5
C1
330
1F
100
AcDbEntity
  8
Linee visibili 2D
100
AcDbLine
 10
407.2718731778942
 20
331.3277695618793
 30
0.0
 11
407.2281982215098
 21
331.2832260466931
 31
0.0
  0
LINE
  5
C2
330
1F
100
AcDbEntity
  8
Linee visibili 2D
100
AcDbLine
 10
407.2281982215098
 20
331.2832260466931
 30
0.0
 11
407.1860984979018
 21
331.2371908445922
 31
0.0
  0
LINE
  5
C3
330
1F
100
AcDbEntity
  8
Linee visibili 2D
100
AcDbLine
 10
407.1860984979018
 20
331.2371908445922
 30
0.0
 11
407.1456249219892
 21
331.1897196300177
 31
0.0
  0
LINE
  5
C4
330
1F
100
AcDbEntity
  8
Linee visibili 2D
100
AcDbLine
 10
407.1456249219892
 20
331.1897196300177
 30
0.0
 11
407.1068264420464
 21
331.1408698141075
 31
0.0
  0
LINE
  5
C5
330
1F
100
AcDbEntity
  8
Linee visibili 2D
100
AcDbLine
 10
407.1068264420464
 20
331.1408698141075
 30
0.0
 11
407.0697499805065
 21
331.0907004752637
 31
0.0
  0
LINE
  5
C6
330
1F
100
AcDbEntity
  8
Linee visibili 2D
100
AcDbLine
 10
407.0697499805065
 20
331.0907004752637
 30
0.0
 11
407.0344403772131
 21
331.0392722877048
 31
0.0
  0
LINE
  5
C7
330
1F
100
AcDbEntity
  8
Linee visibili 2D
100
AcDbLine
 10
407.0344403772131
 20
331.0392722877048
 30
0.0
 11
407.000940335192
 21
330.9866474480858
 31
0.0
  0
LINE
  5
C8
330
1F
100
AcDbEntity
  8
Linee visibili 2D
100
AcDbLine
 10
407.000940335192
 20
330.9866474480858
 30
0.0
 11
406.9692903690068
 21
330.9328896002791
 31
0.0
  0
LINE
  5
C9
330
1F
100
AcDbEntity
  8
Linee visibili 2D
100
AcDbLine
 10
406.9692903690068
 20
330.9328896002791
 30
0.0
 11
406.9395287557604
 21
330.8780637584041
 31
0.0
  0
LINE
  5
CA
330
1F
100
AcDbEntity
  8
Linee visibili 2D
100
AcDbLine
 10
406.9395287557604
 20
330.8780637584041
 30
0.0
 11
406.9116914888035
 21
330.8222362281998
 31
0.0
  0
LINE
  5
CB
330
1F
100
AcDbEntity
  8
Linee visibili 2D
100
AcDbLine
 10
406.9116914888035
 20
330.8222362281998
 30
0.0
 11
406.885812234205
 21
330.7654745268356
 31
0.0
  0
LINE
  5
CC
330
1F
100
AcDbEntity
  8
Linee visibili 2D
100
AcDbLine
 10
406.885812234205
 20
330.7654745268356
 30
0.0
 11
406.8619222900359
 21
330.7078473012565
 31
0.0
  0
LINE
  5
CD
330
1F
100
AcDbEntity
  8
Linee visibili 2D
100
AcDbLine
 10
406.8619222900359
 20
330.7078473012565
 30
0.0
 11
406.8400505485186
 21
330.6494242451628
 31
0.0
  0
LINE
  5
CE
330
1F
100
AcDbEntity
  8
Linee visibili 2D
100
AcDbLine
 10
409.8445985678018
 20
328.7277366580435
 30
0.0
 11
409.8877256055896
 21
328.7817609917291
 31
0.0
  0
LINE
  5
CF
330
1F
100
AcDbEntity
  8
Linee visibili 2D
100
AcDbLine
 10
409.8877256055896
 20
328.7817609917291
 30
0.0
 11
409.9289598860365
 21
328.8372434586403
 31
0.0
  0
LINE
  5
D0
330
1F
100
AcDbEntity
  8
Linee visibili 2D
100
AcDbLine
 10
409.9289598860365
 20
328.8372434586403
 30
0.0
 11
409.9682521489183
 21
328.894117777064
 31
0.0
  0
LINE
  5
D1
330
1F
100
AcDbEntity
  8
Linee visibili 2D
100
AcDbLine
 10
409.9682521489183
 20
328.894117777064
 30
0.0
 11
410.0055554540277
 21
328.9523160025218
 31
0.0
  0
LINE
  5
D2
330
1F
100
AcDbEntity
  8
Linee visibili 2D
100
AcDbLine
 10
410.0055554540277
 20
328.9523160025218
 30
0.0
 11
410.0408252372509
 21
329.01176860894
 31
0.0
  0
LINE
  5
D3
330
1F
100
AcDbEntity
  8
Linee visibili 2D
100
AcDbLine
 10
410.0408252372509
 20
329.01176860894
 30
0.0
 11
410.0740193638057
 21
329.0724045717079
 31
0.0
  0
LINE
  5
D4
330
1F
100
AcDbEntity
  8
Linee visibili 2D
100
AcDbLine
 10
410.0740193638057
 20
329.0724045717079
 30
0.0
 11
410.1050981785777
 21
329.1341514525271
 31
0.0
  0
LINE
  5
D5
330
1F
100
AcDbEntity
  8
Linee visibili 2D
100
AcDbLine
 10
410.1050981785777
 20
329.1341514525271
 30
0.0
 11
410.1340245534936
 21
329.1969354859493
 31
0.0
  0
LINE
  5
D6
330
1F
100
AcDbEntity
  8
Linee visibili 2D
100
AcDbLine
 10
410.1340245534936
 20
329.1969354859493
 30
0.0
 11
410.1607639318765
 21
329.2606816674995
 31
0.0
  0
LINE
  5
D7
330
1F
100
AcDbEntity
  8
Linee visibili 2D
100
AcDbLine
 10
410.1607639318765
 20
329.2606816674995
 30
0.0
 11
410.1852843697285
 21
329.3253138432796
 31
0.0
  0
LINE
  5
D8
330
1F
100
AcDbEntity
  8
Linee visibili 2D
100
AcDbLine
 10
410.1852843697285
 20
329.3253138432796
 30
0.0
 11
410.2075565738923
 21
329.3907548009454
 31
0.0
  0
LINE
  5
D9
330
1F
100
AcDbEntity
  8
Linee visibili 2D
100
AcDbLine
 10
410.2075565738923
 20
329.3907548009454
 30
0.0
 11
410.227553937046
 21
329.4569263619472
 31
0.0
  0
LINE
  5
DA
330
1F
100
AcDbEntity
  8
Linee visibili 2D
100
AcDbLine
 10
410.227553937046
 20
329.4569263619472
 30
0.0
 11
410.2452525694898
 21
329.5237494749258
 31
0.0
  0
LINE
  5
DB
330
1F
100
AcDbEntity
  8
Linee visibili 2D
100
AcDbLine
 10
410.2452525694898
 20
329.5237494749258
 30
0.0
 11
410.2606313276849
 21
329.5911443101501
 31
0.0
  0
LINE
  5
DC
330
1F
100
AcDbEntity
  8
Linee visibili 2D
100
AcDbLine
 10
410.2606313276849
 20
329.5911443101501
 30
0.0
 11
410.2736718395133
 21
329.6590303548853
 31
0.0
  0
LINE
  5
DD
330
1F
100
AcDbEntity
  8
Linee visibili 2D
100
AcDbLine
 10
410.2736718395133
 20
329.6590303548853
 30
0.0
 11
410.2843585262251
 21
329.7273265095768
 31
0.0
  0
LINE
  5
DE
330
1F
100
AcDbEntity
  8
Linee visibili 2D
100
AcDbLine
 10
410.2843585262251
 20
329.7273265095768
 30
0.0
 11
410.2926786210502
 21
329.7959511847355
 31
0.0
  0
LINE
  5
DF
330
1F
100
AcDbEntity
  8
Linee visibili 2D
100
AcDbLine
 10
410.2926786210502
 20
329.7959511847355
 30
0.0
 11
410.2986221844496
 21
329.8648223984074
 31
0.0
  0
LINE
  5
E0
330
1F
100
AcDbEntity
  8
Linee visibili 2D
100
AcDbLine
 10
410.2986221844496
 20
329.8648223984074
 30
0.0
 11
410.30218211599
 21
329.9338578741134
 31
0.0
  0
LINE
  5
E1
330
1F
100
AcDbEntity
  8
Linee visibili 2D
100
AcDbLine
 10
410.30218211599
 20
329.9338578741134
 30
0.0
 11
410.3033541628258
 21
330.0029751391399
 31
0.0
  0
LINE
  5
E2
330
1F
100
AcDbEntity
  8
Linee visibili 2D
100
AcDbLine
 10
410.3033541628258
 20
330.0029751391399
 30
0.0
 11
410.30213692478
 21
330.0720916230643
 31
0.0
  0
LINE
  5
E3
330
1F
100
AcDbEntity
  8
Linee visibili 2D
100
AcDbLine
 10
410.30213692478
 20
330.0720916230643
 30
0.0
 11
410.298531856017
 21
330.1411247563971
 31
0.0
  0
LINE
  5
E4
330
1F
100
AcDbEntity
  8
Linee visibili 2D
100
AcDbLine
 10
410.298531856017
 20
330.1411247563971
 30
0.0
 11
410.292543263305
 21
330.209992069223
 31
0.0
  0
LINE
  5
E5
330
1F
100
AcDbEntity
  8
Linee visibili 2D
100
AcDbLine
 10
410.292543263305
 20
330.209992069223
 30
0.0
 11
410.2841783008715
 21
330.2786112897229
 31
0.0
  0
LINE
  5
E6
330
1F
100
AcDbEntity
  8
Linee visibili 2D
100
AcDbLine
 10
410.2841783008715
 20
330.2786112897229
 30
0.0
 11
410.2734469618562
 21
330.3469004424594
 31
0.0
  0
LINE
  5
E7
330
1F
100
AcDbEntity
  8
Linee visibili 2D
100
AcDbLine
 10
410.2734469618562
 20
330.3469004424594
 30
0.0
 11
410.2603620663727
 21
330.414777946308
 31
0.0
  0
LINE
  5
E8
330
1F
100
AcDbEntity
  8
Linee visibili 2D
100
AcDbLine
 10
410.2603620663727
 20
330.414777946308
 30
0.0
 11
410.2449392461935
 21
330.4821627119175
 31
0.0
  0
LINE
  5
E9
330
1F
100
AcDbEntity
  8
Linee visibili 2D
100
AcDbLine
 10
410.2449392461935
 20
330.4821627119175
 30
0.0
 11
410.227196926075
 21
330.5489742385827
 31
0.0
  0
LINE
  5
EA
330
1F
100
AcDbEntity
  8
Linee visibili 2D
100
AcDbLine
 10
410.227196926075
 20
330.5489742385827
 30
0.0
 11
410.207156301747
 21
330.6151327104142
 31
0.0
  0
LINE
  5
EB
330
1F
100
AcDbEntity
  8
Linee visibili 2D
100
AcDbLine
 10
410.207156301747
 20
330.6151327104142
 30
0.0
 11
410.184841314591
 21
330.6805590916893
 31
0.0
  0
LINE
  5
EC
330
1F
100
AcDbEntity
  8
Linee visibili 2D
100
AcDbLine
 10
410.184841314591
 20
330.6805590916893
 30
0.0
 11
410.1602786230394
 21
330.7451752212722
 31
0.0
  0
LINE
  5
ED
330
1F
100
AcDbEntity
  8
Linee visibili 2D
100
AcDbLine
 10
410.1602786230394
 20
330.7451752212722
 30
0.0
 11
410.1334975707273
 21
330.8089039059878
 31
0.0
  0
LINE
  5
EE
330
1F
100
AcDbEntity
  8
Linee visibili 2D
100
AcDbLine
 10
410.1334975707273
 20
330.8089039059878
 30
0.0
 11
410.1045301514383
 21
330.8716690128408
 31
0.0
  0
LINE
  5
EF
330
1F
100
AcDbEntity
  8
Linee visibili 2D
100
AcDbLine
 10
410.1045301514383
 20
330.8716690128408
 30
0.0
 11
410.0734109708827
 21
330.9333955599666
 31
0.0
  0
LINE
  5
F0
330
1F
100
AcDbEntity
  8
Linee visibili 2D
100
AcDbLine
 10
410.0734109708827
 20
330.9333955599666
 30
0.0
 11
410.0401772053562
 21
330.9940098062084
 31
0.0
  0
LINE
  5
F1
330
1F
100
AcDbEntity
  8
Linee visibili 2D
100
AcDbLine
 10
410.0401772053562
 20
330.9940098062084
 30
0.0
 11
410.0048685573277
 21
331.0534393392112
 31
0.0
  0
LINE
  5
F2
330
1F
100
AcDbEntity
  8
Linee visibili 2D
100
AcDbLine
 10
410.0048685573277
 20
331.0534393392112
 30
0.0
 11
409.967527208009
 21
331.1116131619289
 31
0.0
  0
LINE
  5
F3
330
1F
100
AcDbEntity
  8
Linee visibili 2D
100
AcDbLine
 10
409.967527208009
 20
331.1116131619289
 30
0.0
 11
409.9281977669632
 21
331.1684617774402
 31
0.0
  0
LINE
  5
F4
330
1F
100
AcDbEntity
  8
Linee visibili 2D
100
AcDbLine
 10
409.9281977669632
 20
331.1684617774402
 30
0.0
 11
409.8869272188122
 21
331.2239172719727
 31
0.0
  0
LINE
  5
F5
330
1F
100
AcDbEntity
  8
Predefinito
100
AcDbLine
 10
324.3423601631595
 20
198.4221190808849
 30
0.0
 11
324.3423601631595
 21
197.0762679353808
 31
0.0
  0
LINE
  5
F6
330
1F
100
AcDbEntity
  8
Predefinito
100
AcDbLine
 10
326.7379152630464
 20
198.4221190808849
 30
0.0
 11
324.3423601631595
 21
198.4221190808849
 31
0.0
  0
LINE
  5
F7
330
1F
100
AcDbEntity
  8
Predefinito
100
AcDbLine
 10
323.5478739669402
 20
198.665512671722
 30
0.0
 11
323.5427771682845
 21
198.7047026365078
 31
0.0
  0
LINE
  5
F8
330
1F
100
AcDbEntity
  8
Predefinito
100
AcDbLine
 10
323.5427771682845
 20
198.7047026365078
 30
0.0
 11
323.5390358311446
 21
198.7440451465047
 31
0.0
  0
LINE
  5
F9
330
1F
100
AcDbEntity
  8
Predefinito
100
AcDbLine
 10
323.5390358311446
 20
198.7440451465047
 30
0.0
 11
323.5366544124245
 21
198.7834933345661
 31
0.0
  0
LINE
  5
FA
330
1F
100
AcDbEntity
  8
Predefinito
100
AcDbLine
 10
323.5366544124245
 20
198.7834933345661
 30
0.0
 11
323.5356357490123
 21
198.8230002076555
 31
0.0
  0
LINE
  5
FB
330
1F
100
AcDbEntity
  8
Predefinito
100
AcDbLine
 10
323.5356357490123
 20
198.8230002076555
 30
0.0
 11
323.5359810544008
 21
198.8625187028272
 31
0.0
  0
LINE
  5
FC
330
1F
100
AcDbEntity
  8
Predefinito
100
AcDbLine
 10
323.5359810544008
 20
198.8625187028272
 30
0.0
 11
323.5376899172416
 21
198.9020017432907
 31
0.0
  0
LINE
  5
FD
330
1F
100
AcDbEntity
  8
Predefinito
100
AcDbLine
 10
323.5376899172416
 20
198.9020017432907
 30
0.0
 11
323.5407603018351
 21
198.9414022944911
 31
0.0
  0
LINE
  5
FE
330
1F
100
AcDbEntity
  8
Predefinito
100
AcDbLine
 10
323.5407603018351
 20
198.9414022944911
 30
0.0
 11
323.5451885505561
 21
198.9806734201398
 31
0.0
  0
LINE
  5
FF
330
1F
100
AcDbEntity
  8
Predefinito
100
AcDbLine
 10
323.5451885505561
 20
198.9806734201398
 30
0.0
 11
323.5509693882101
 21
199.0197683381276
 31
0.0
  0
LINE
  5
100
330
1F
100
AcDbEntity
  8
Predefinito
100
AcDbLine
 10
323.5509693882101
 20
199.0197683381276
 30
0.0
 11
323.5580959283185
 21
199.0586404762541
 31
0.0
  0
LINE
  5
101
330
1F
100
AcDbEntity
  8
Predefinito
100
AcDbLine
 10
323.5580959283185
 20
199.0586404762541
 30
0.0
 11
323.5665596813211
 21
199.0972435277081
 31
0.0
  0
LINE
  5
102
330
1F
100
AcDbEntity
  8
Predefinito
100
AcDbLine
 10
323.5665596813211
 20
199.0972435277081
 30
0.0
 11
323.5763505646902
 21
199.1355315062302
 31
0.0
  0
LINE
  5
103
330
1F
100
AcDbEntity
  8
Predefinito
100
AcDbLine
 10
323.5763505646902
 20
199.1355315062302
 30
0.0
 11
323.5874569149408
 21
199.1734588008946
 31
0.0
  0
LINE
  5
104
330
1F
100
AcDbEntity
  8
Predefinito
100
AcDbLine
 10
323.5874569149408
 20
199.1734588008946
 30
0.0
 11
323.5998655015258
 21
199.2109802304438
 31
0.0
  0
LINE
  5
105
330
1F
100
AcDbEntity
  8
Predefinito
100
AcDbLine
 10
323.5998655015258
 20
199.2109802304438
 30
0.0
 11
323.6135615425958
 21
199.248051097111
 31
0.0
  0
LINE
  5
106
330
1F
100
AcDbEntity
  8
Predefinito
100
AcDbLine
 10
323.6135615425958
 20
199.248051097111
 30
0.0
 11
323.6285287226093
 21
199.2846272398668
 31
0.0
  0
LINE
  5
107
330
1F
100
AcDbEntity
  8
Predefinito
100
AcDbLine
 10
323.6285287226093
 20
199.2846272398668
 30
0.0
 11
323.6447492117678
 21
199.3206650870265
 31
0.0
  0
LINE
  5
108
330
1F
100
AcDbEntity
  8
Predefinito
100
AcDbLine
 10
323.6447492117678
 20
199.3206650870265
 30
0.0
 11
323.6622036872564
 21
199.3561217081553
 31
0.0
  0
LINE
  5
109
330
1F
100
AcDbEntity
  8
Predefinito
100
AcDbLine
 10
323.6622036872564
 20
199.3561217081553
 30
0.0
 11
323.6808713562619
 21
199.3909548652093
 31
0.0
  0
LINE
  5
10A
330
1F
100
AcDbEntity
  8
Predefinito
100
AcDbLine
 10
323.6808713562619
 20
199.3909548652093
 30
0.0
 11
323.7007299807426
 21
199.4251230628525
 31
0.0
  0
LINE
  5
10B
330
1F
100
AcDbEntity
  8
Predefinito
100
AcDbLine
 10
323.7007299807426
 20
199.4251230628525
 30
0.0
 11
323.7217559039195
 21
199.4585855978881
 31
0.0
  0
LINE
  5
10C
330
1F
100
AcDbEntity
  8
Predefinito
100
AcDbLine
 10
323.7217559039195
 20
199.4585855978881
 30
0.0
 11
323.7439240784577
 21
199.4913026077468
 31
0.0
  0
LINE
  5
10D
330
1F
100
AcDbEntity
  8
Predefinito
100
AcDbLine
 10
323.7439240784577
 20
199.4913026077468
 30
0.0
 11
323.7672080963044
 21
199.5232351179733
 31
0.0
  0
LINE
  5
10E
330
1F
100
AcDbEntity
  8
Predefinito
100
AcDbLine
 10
323.7672080963044
 20
199.5232351179733
 30
0.0
 11
323.7915802201475
 21
199.5543450886551
 31
0.0
  0
LINE
  5
10F
330
1F
100
AcDbEntity
  8
Predefinito
100
AcDbLine
 10
323.7915802201475
 20
199.5543450886551
 30
0.0
 11
323.8170114164582
 21
199.5845954597381
 31
0.0
  0
LINE
  5
110
330
1F
100
AcDbEntity
  8
Predefinito
100
AcDbLine
 10
323.8170114164582
 20
199.5845954597381
 30
0.0
 11
323.8434713900771
 21
199.6139501951744
 31
0.0
  0
LINE
  5
111
330
1F
100
AcDbEntity
  8
Predefinito
100
AcDbLine
 10
323.8434713900771
 20
199.6139501951744
 30
0.0
 11
323.8709286203043
 21
199.6423743258506
 31
0.0
  0
LINE
  5
112
330
1F
100
AcDbEntity
  8
Predefinito
100
AcDbLine
 10
323.8709286203043
 20
199.6423743258506
 30
0.0
 11
323.899350398448
 21
199.6698339912456
 31
0.0
  0
LINE
  5
113
330
1F
100
AcDbEntity
  8
Predefinito
100
AcDbLine
 10
323.899350398448
 20
199.6698339912456
 30
0.0
 11
323.9287028667892
 21
199.6962964797666
 31
0.0
  0
LINE
  5
114
330
1F
100
AcDbEntity
  8
Predefinito
100
AcDbLine
 10
323.9287028667892
 20
199.6962964797666
 30
0.0
 11
323.9589510589156
 21
199.7217302677176
 31
0.0
  0
LINE
  5
115
330
1F
100
AcDbEntity
  8
Predefinito
100
AcDbLine
 10
323.9589510589156
 20
199.7217302677176
 30
0.0
 11
323.9900589413749
 21
199.7461050568521
 31
0.0
  0
LINE
  5
116
330
1F
100
AcDbEntity
  8
Predefinito
100
AcDbLine
 10
323.9900589413749
 20
199.7461050568521
 30
0.0
 11
324.0219894566004
 21
199.7693918104661
 31
0.0
  0
LINE
  5
117
330
1F
100
AcDbEntity
  8
Predefinito
100
AcDbLine
 10
324.0219894566004
 20
199.7693918104661
 30
0.0
 11
324.0547045670564
 21
199.7915627879887
 31
0.0
  0
LINE
  5
118
330
1F
100
AcDbEntity
  8
Predefinito
100
AcDbLine
 10
324.0547045670564
 20
199.7915627879887
 30
0.0
 11
324.0881653005501
 21
199.8125915780277
 31
0.0
  0
LINE
  5
119
330
1F
100
AcDbEntity
  8
Predefinito
100
AcDbLine
 10
324.0881653005501
 20
199.8125915780277
 30
0.0
 11
324.1223317966585
 21
199.8324531298333
 31
0.0
  0
LINE
  5
11A
330
1F
100
AcDbEntity
  8
Predefinito
100
AcDbLine
 10
324.1223317966585
 20
199.8324531298333
 30
0.0
 11
324.1571633542117
 21
199.8511237831392
 31
0.0
  0
LINE
  5
11B
330
1F
100
AcDbEntity
  8
Predefinito
100
AcDbLine
 10
324.1571633542117
 20
199.8511237831392
 30
0.0
 11
324.192618479779
 21
199.8685812963486
 31
0.0
  0
LINE
  5
11C
330
1F
100
AcDbEntity
  8
Predefinito
100
AcDbLine
 10
324.192618479779
 20
199.8685812963486
 30
0.0
 11
324.2286549370983
 21
199.8848048730297
 31
0.0
  0
LINE
  5
11D
330
1F
100
AcDbEntity
  8
Predefinito
100
AcDbLine
 10
324.2286549370983
 20
199.8848048730297
 30
0.0
 11
324.2652297973903
 21
199.8997751866893
 31
0.0
  0
LINE
  5
11E
330
1F
100
AcDbEntity
  8
Predefinito
100
AcDbLine
 10
324.2652297973903
 20
199.8997751866893
 30
0.0
 11
324.3022994904981
 21
199.9134744037962
 31
0.0
  0
LINE
  5
11F
330
1F
100
AcDbEntity
  8
Predefinito
100
AcDbLine
 10
324.3022994904981
 20
199.9134744037962
 30
0.0
 11
324.3398198567904
 21
199.9258862050252
 31
0.0
  0
LINE
  5
120
330
1F
100
AcDbEntity
  8
Predefinito
100
AcDbLine
 10
324.3398198567904
 20
199.9258862050252
 30
0.0
 11
324.3777461997668
 21
199.9369958046977
 31
0.0
  0
LINE
  5
121
330
1F
100
AcDbEntity
  8
Predefinito
100
AcDbLine
 10
324.3777461997668
 20
199.9369958046977
 30
0.0
 11
324.4160333393036
 21
199.9467899683953
 31
0.0
  0
LINE
  5
122
330
1F
100
AcDbEntity
  8
Predefinito
100
AcDbLine
 10
324.4160333393036
 20
199.9467899683953
 30
0.0
 11
324.4546356654747
 21
199.9552570287256
 31
0.0
  0
LINE
  5
123
330
1F
100
AcDbEntity
  8
Predefinito
100
AcDbLine
 10
324.4546356654747
 20
199.9552570287256
 30
0.0
 11
324.4935071928845
 21
199.9623868992208
 31
0.0
  0
LINE
  5
124
330
1F
100
AcDbEntity
  8
Predefinito
100
AcDbLine
 10
324.4935071928845
 20
199.9623868992208
 30
0.0
 11
324.5326016154491
 21
199.9681710863536
 31
0.0
  0
LINE
  5
125
330
1F
100
AcDbEntity
  8
Predefinito
100
AcDbLine
 10
324.5326016154491
 20
199.9681710863536
 30
0.0
 11
324.5718723615586
 21
199.9726026996551
 31
0.0
  0
LINE
  5
126
330
1F
100
AcDbEntity
  8
Predefinito
100
AcDbLine
 10
324.5718723615586
 20
199.9726026996551
 30
0.0
 11
324.6112726495558
 21
199.9756764599228
 31
0.0
  0
LINE
  5
127
330
1F
100
AcDbEntity
  8
Predefinito
100
AcDbLine
 10
324.6112726495558
 20
199.9756764599228
 30
0.0
 11
324.6507555434657
 21
199.97738870551
 31
0.0
  0
LINE
  5
128
330
1F
100
AcDbEntity
  8
Predefinito
100
AcDbLine
 10
324.6507555434657
 20
199.97738870551
 30
0.0
 11
324.690274008908
 21
199.9777373966876
 31
0.0
  0
LINE
  5
129
330
1F
100
AcDbEntity
  8
Predefinito
100
AcDbLine
 10
324.690274008908
 20
199.9777373966876
 30
0.0
 11
324.7297809691275
 21
199.9767221180738
 31
0.0
  0
LINE
  5
12A
330
1F
100
AcDbEntity
  8
Predefinito
100
AcDbLine
 10
324.7297809691275
 20
199.9767221180738
 30
0.0
 11
324.7692293610748
 21
199.9743440791292
 31
0.0
  0
LINE
  5
12B
330
1F
100
AcDbEntity
  8
Predefinito
100
AcDbLine
 10
324.7692293610748
 20
199.9743440791292
 30
0.0
 11
324.8085721914704
 21
199.9706061127156
 31
0.0
  0
LINE
  5
12C
330
1F
100
AcDbEntity
  8
Predefinito
100
AcDbLine
 10
324.8085721914704
 20
199.9706061127156
 30
0.0
 11
324.8477625927863
 21
199.9655126717219
 31
0.0
  0
LINE
  5
12D
330
1F
100
AcDbEntity
  8
Predefinito
100
AcDbLine
 10
492.2134182812068
 20
199.9655126717219
 30
0.0
 11
492.2526086825226
 21
199.9706061127156
 31
0.0
  0
LINE
  5
12E
330
1F
100
AcDbEntity
  8
Predefinito
100
AcDbLine
 10
492.2526086825226
 20
199.9706061127156
 30
0.0
 11
492.2919515129182
 21
199.9743440791292
 31
0.0
  0
LINE
  5
12F
330
1F
100
AcDbEntity
  8
Predefinito
100
AcDbLine
 10
492.2919515129182
 20
199.9743440791292
 30
0.0
 11
492.3313999048655
 21
199.9767221180738
 31
0.0
  0
LINE
  5
130
330
1F
100
AcDbEntity
  8
Predefinito
100
AcDbLine
 10
492.3313999048655
 20
199.9767221180738
 30
0.0
 11
492.370906865085
 21
199.9777373966876
 31
0.0
  0
LINE
  5
131
330
1F
100
AcDbEntity
  8
Predefinito
100
AcDbLine
 10
492.370906865085
 20
199.9777373966876
 30
0.0
 11
492.4104253305273
 21
199.97738870551
 31
0.0
  0
LINE
  5
132
330
1F
100
AcDbEntity
  8
Predefinito
100
AcDbLine
 10
492.4104253305273
 20
199.97738870551
 30
0.0
 11
492.4499082244372
 21
199.9756764599227
 31
0.0
  0
LINE
  5
133
330
1F
100
AcDbEntity
  8
Predefinito
100
AcDbLine
 10
492.4499082244372
 20
199.9756764599227
 30
0.0
 11
492.4893085124344
 21
199.9726026996551
 31
0.0
  0
LINE
  5
134
330
1F
100
AcDbEntity
  8
Predefinito
100
AcDbLine
 10
492.4893085124344
 20
199.9726026996551
 30
0.0
 11
492.528579258544
 21
199.9681710863536
 31
0.0
  0
LINE
  5
135
330
1F
100
AcDbEntity
  8
Predefinito
100
AcDbLine
 10
492.528579258544
 20
199.9681710863536
 30
0.0
 11
492.5676736811086
 21
199.9623868992208
 31
0.0
  0
LINE
  5
136
330
1F
100
AcDbEntity
  8
Predefinito
100
AcDbLine
 10
492.5676736811086
 20
199.9623868992208
 30
0.0
 11
492.6065452085184
 21
199.9552570287256
 31
0.0
  0
LINE
  5
137
330
1F
100
AcDbEntity
  8
Predefinito
100
AcDbLine
 10
492.6065452085184
 20
199.9552570287256
 30
0.0
 11
492.6451475346894
 21
199.9467899683953
 31
0.0
  0
LINE
  5
138
330
1F
100
AcDbEntity
  8
Predefinito
100
AcDbLine
 10
492.6451475346894
 20
199.9467899683953
 30
0.0
 11
492.6834346742262
 21
199.9369958046976
 31
0.0
  0
LINE
  5
139
330
1F
100
AcDbEntity
  8
Predefinito
100
AcDbLine
 10
492.6834346742262
 20
199.9369958046976
 30
0.0
 11
492.7213610172027
 21
199.9258862050252
 31
0.0
  0
LINE
  5
13A
330
1F
100
AcDbEntity
  8
Predefinito
100
AcDbLine
 10
492.7213610172027
 20
199.9258862050252
 30
0.0
 11
492.7588813834949
 21
199.9134744037962
 31
0.0
  0
LINE
  5
13B
330
1F
100
AcDbEntity
  8
Predefinito
100
AcDbLine
 10
492.7588813834949
 20
199.9134744037962
 30
0.0
 11
492.7959510766027
 21
199.8997751866893
 31
0.0
  0
LINE
  5
13C
330
1F
100
AcDbEntity
  8
Predefinito
100
AcDbLine
 10
492.7959510766027
 20
199.8997751866893
 30
0.0
 11
492.8325259368948
 21
199.8848048730297
 31
0.0
  0
LINE
  5
13D
330
1F
100
AcDbEntity
  8
Predefinito
100
AcDbLine
 10
492.8325259368948
 20
199.8848048730297
 30
0.0
 11
492.8685623942141
 21
199.8685812963486
 31
0.0
  0
LINE
  5
13E
330
1F
100
AcDbEntity
  8
Predefinito
100
AcDbLine
 10
492.8685623942141
 20
199.8685812963486
 30
0.0
 11
492.9040175197813
 21
199.8511237831392
 31
0.0
  0
LINE
  5
13F
330
1F
100
AcDbEntity
  8
Predefinito
100
AcDbLine
 10
492.9040175197813
 20
199.8511237831392
 30
0.0
 11
492.9388490773346
 21
199.8324531298333
 31
0.0
  0
LINE
  5
140
330
1F
100
AcDbEntity
  8
Predefinito
100
AcDbLine
 10
492.9388490773346
 20
199.8324531298333
 30
0.0
 11
492.973015573443
 21
199.8125915780277
 31
0.0
  0
LINE
  5
141
330
1F
100
AcDbEntity
  8
Predefinito
100
AcDbLine
 10
492.973015573443
 20
199.8125915780277
 30
0.0
 11
493.0064763069367
 21
199.7915627879887
 31
0.0
  0
LINE
  5
142
330
1F
100
AcDbEntity
  8
Predefinito
100
AcDbLine
 10
493.0064763069367
 20
199.7915627879887
 30
0.0
 11
493.0391914173927
 21
199.7693918104661
 31
0.0
  0
LINE
  5
143
330
1F
100
AcDbEntity
  8
Predefinito
100
AcDbLine
 10
493.0391914173927
 20
199.7693918104661
 30
0.0
 11
493.0711219326183
 21
199.7461050568521
 31
0.0
  0
LINE
  5
144
330
1F
100
AcDbEntity
  8
Predefinito
100
AcDbLine
 10
493.0711219326183
 20
199.7461050568521
 30
0.0
 11
493.1022298150775
 21
199.7217302677176
 31
0.0
  0
LINE
  5
145
330
1F
100
AcDbEntity
  8
Predefinito
100
AcDbLine
 10
493.1022298150775
 20
199.7217302677176
 30
0.0
 11
493.1324780072039
 21
199.6962964797666
 31
0.0
  0
LINE
  5
146
330
1F
100
AcDbEntity
  8
Predefinito
100
AcDbLine
 10
493.1324780072039
 20
199.6962964797666
 30
0.0
 11
493.1618304755451
 21
199.6698339912456
 31
0.0
  0
LINE
  5
147
330
1F
100
AcDbEntity
  8
Predefinito
100
AcDbLine
 10
493.1618304755451
 20
199.6698339912456
 30
0.0
 11
493.1902522536888
 21
199.6423743258506
 31
0.0
  0
LINE
  5
148
330
1F
100
AcDbEntity
  8
Predefinito
100
AcDbLine
 10
493.1902522536888
 20
199.6423743258506
 30
0.0
 11
493.217709483916
 21
199.6139501951744
 31
0.0
  0
LINE
  5
149
330
1F
100
AcDbEntity
  8
Predefinito
100
AcDbLine
 10
493.217709483916
 20
199.6139501951744
 30
0.0
 11
493.244169457535
 21
199.5845954597381
 31
0.0
  0
LINE
  5
14A
330
1F
100
AcDbEntity
  8
Predefinito
100
AcDbLine
 10
493.244169457535
 20
199.5845954597381
 30
0.0
 11
493.2696006538456
 21
199.5543450886551
 31
0.0
  0
LINE
  5
14B
330
1F
100
AcDbEntity
  8
Predefinito
100
AcDbLine
 10
493.2696006538456
 20
199.5543450886551
 30
0.0
 11
493.2939727776887
 21
199.5232351179733
 31
0.0
  0
LINE
  5
14C
330
1F
100
AcDbEntity
  8
Predefinito
100
AcDbLine
 10
493.2939727776887
 20
199.5232351179733
 30
0.0
 11
493.3172567955354
 21
199.4913026077467
 31
0.0
  0
LINE
  5
14D
330
1F
100
AcDbEntity
  8
Predefinito
100
AcDbLine
 10
493.3172567955354
 20
199.4913026077467
 30
0.0
 11
493.3394249700736
 21
199.4585855978881
 31
0.0
  0
LINE
  5
14E
330
1F
100
AcDbEntity
  8
Predefinito
100
AcDbLine
 10
493.3394249700736
 20
199.4585855978881
 30
0.0
 11
493.3604508932506
 21
199.4251230628525
 31
0.0
  0
LINE
  5
14F
330
1F
100
AcDbEntity
  8
Predefinito
100
AcDbLine
 10
493.3604508932506
 20
199.4251230628525
 30
0.0
 11
493.3803095177312
 21
199.3909548652093
 31
0.0
  0
LINE
  5
150
330
1F
100
AcDbEntity
  8
Predefinito
100
AcDbLine
 10
493.3803095177312
 20
199.3909548652093
 30
0.0
 11
493.3989771867367
 21
199.3561217081552
 31
0.0
  0
LINE
  5
151
330
1F
100
AcDbEntity
  8
Predefinito
100
AcDbLine
 10
493.3989771867367
 20
199.3561217081552
 30
0.0
 11
493.4164316622253
 21
199.3206650870265
 31
0.0
  0
LINE
  5
152
330
1F
100
AcDbEntity
  8
Predefinito
100
AcDbLine
 10
493.4164316622253
 20
199.3206650870265
 30
0.0
 11
493.4326521513838
 21
199.2846272398668
 31
0.0
  0
LINE
  5
153
330
1F
100
AcDbEntity
  8
Predefinito
100
AcDbLine
 10
493.4326521513838
 20
199.2846272398668
 30
0.0
 11
493.4476193313973
 21
199.2480510971109
 31
0.0
  0
LINE
  5
154
330
1F
100
AcDbEntity
  8
Predefinito
100
AcDbLine
 10
493.4476193313973
 20
199.2480510971109
 30
0.0
 11
493.4613153724674
 21
199.2109802304437
 31
0.0
  0
LINE
  5
155
330
1F
100
AcDbEntity
  8
Predefinito
100
AcDbLine
 10
493.4613153724674
 20
199.2109802304437
 30
0.0
 11
493.4737239590523
 21
199.1734588008945
 31
0.0
  0
LINE
  5
156
330
1F
100
AcDbEntity
  8
Predefinito
100
AcDbLine
 10
493.4737239590523
 20
199.1734588008945
 30
0.0
 11
493.4848303093029
 21
199.1355315062302
 31
0.0
  0
LINE
  5
157
330
1F
100
AcDbEntity
  8
Predefinito
100
AcDbLine
 10
493.4848303093029
 20
199.1355315062302
 30
0.0
 11
493.494621192672
 21
199.0972435277081
 31
0.0
  0
LINE
  5
158
330
1F
100
AcDbEntity
  8
Predefinito
100
AcDbLine
 10
493.494621192672
 20
199.0972435277081
 30
0.0
 11
493.5030849456746
 21
199.0586404762541
 31
0.0
  0
LINE
  5
159
330
1F
100
AcDbEntity
  8
Predefinito
100
AcDbLine
 10
493.5030849456746
 20
199.0586404762541
 30
0.0
 11
493.510211485783
 21
199.0197683381275
 31
0.0
  0
LINE
  5
15A
330
1F
100
AcDbEntity
  8
Predefinito
100
AcDbLine
 10
493.510211485783
 20
199.0197683381275
 30
0.0
 11
493.5159923234371
 21
198.9806734201398
 31
0.0
  0
LINE
  5
15B
330
1F
100
AcDbEntity
  8
Predefinito
100
AcDbLine
 10
493.5159923234371
 20
198.9806734201398
 30
0.0
 11
493.520420572158
 21
198.9414022944911
 31
0.0
  0
LINE
  5
15C
330
1F
100
AcDbEntity
  8
Predefinito
100
AcDbLine
 10
493.520420572158
 20
198.9414022944911
 30
0.0
 11
493.5234909567516
 21
198.9020017432907
 31
0.0
  0
LINE
  5
15D
330
1F
100
AcDbEntity
  8
Predefinito
100
AcDbLine
 10
493.5234909567516
 20
198.9020017432907
 30
0.0
 11
493.5251998195923
 21
198.8625187028271
 31
0.0
  0
LINE
  5
15E
330
1F
100
AcDbEntity
  8
Predefinito
100
AcDbLine
 10
493.5251998195923
 20
198.8625187028271
 30
0.0
 11
493.5255451249808
 21
198.8230002076554
 31
0.0
  0
LINE
  5
15F
330
1F
100
AcDbEntity
  8
Predefinito
100
AcDbLine
 10
493.5255451249808
 20
198.8230002076554
 30
0.0
 11
493.5245264615687
 21
198.783493334566
 31
0.0
  0
LINE
  5
160
330
1F
100
AcDbEntity
  8
Predefinito
100
AcDbLine
 10
493.5245264615687
 20
198.783493334566
 30
0.0
 11
493.5221450428485
 21
198.7440451465046
 31
0.0
  0
LINE
  5
161
330
1F
100
AcDbEntity
  8
Predefinito
100
AcDbLine
 10
493.5221450428485
 20
198.7440451465046
 30
0.0
 11
493.5184037057086
 21
198.7047026365077
 31
0.0
  0
LINE
  5
162
330
1F
100
AcDbEntity
  8
Predefinito
100
AcDbLine
 10
493.5184037057086
 20
198.7047026365077
 30
0.0
 11
493.5133069070529
 21
198.6655126717219
 31
0.0
  0
LINE
  5
163
330
1F
100
AcDbEntity
  8
Linee visibili 2D
100
AcDbLine
 10
63.96928792037357
 20
49.71351408410341
 30
0.0
 11
1.410089651976406
 21
92.23032346670468
 31
0.0
  0
LINE
  5
164
330
1F
100
AcDbEntity
  8
Linee visibili 2D
100
AcDbLine
 10
3.315434331031714
 20
337.571126132276
 30
0.0
 11
3.066023536047369
 21
337.8033419853865
 31
0.0
  0
LINE
  5
165
330
1F
100
AcDbEntity
  8
Linee visibili 2D
100
AcDbLine
 10
3.066023536047369
 20
337.8033419853865
 30
0.0
 11
2.824631081677445
 21
338.0438822732049
 31
0.0
  0
LINE
  5
166
330
1F
100
AcDbEntity
  8
Linee visibili 2D
100
AcDbLine
 10
2.824631081677445
 20
338.0438822732049
 30
0.0
 11
2.591534653554689
 21
338.2924702903878
 31
0.0
  0
LINE
  5
167
330
1F
100
AcDbEntity
  8
Linee visibili 2D
100
AcDbLine
 10
2.591534653554689
 20
338.2924702903878
 30
0.0
 11
2.367002393984138
 21
338.548820073892
 31
0.0
  0
LINE
  5
168
330
1F
100
AcDbEntity
  8
Linee visibili 2D
100
AcDbLine
 10
2.367002393984138
 20
338.548820073892
 30
0.0
 11
2.151292593485826
 21
338.8126367319322
 31
0.0
  0
LINE
  5
169
330
1F
100
AcDbEntity
  8
Linee visibili 2D
100
AcDbLine
 10
2.151292593485826
 20
338.8126367319322
 30
0.0
 11
1.944653393670465
 21
339.0836167832094
 31
0.0
  0
LINE
  5
16A
330
1F
100
AcDbEntity
  8
Linee visibili 2D
100
AcDbLine
 10
1.944653393670465
 20
339.0836167832094
 30
0.0
 11
1.747322501789926
 21
339.3614485060203
 31
0.0
  0
LINE
  5
16B
330
1F
100
AcDbEntity
  8
Linee visibili 2D
100
AcDbLine
 10
1.747322501789926
 20
339.3614485060203
 30
0.0
 11
1.559526917290877
 21
339.6458122968468
 31
0.0
  0
LINE
  5
16C
330
1F
100
AcDbEntity
  8
Linee visibili 2D
100
AcDbLine
 10
1.559526917290877
 20
339.6458122968468
 30
0.0
 11
1.381482670686141
 21
339.9363810380106
 31
0.0
  0
LINE
  5
16D
330
1F
100
AcDbEntity
  8
Linee visibili 2D
100
AcDbLine
 10
1.381482670686141
 20
339.9363810380106
 30
0.0
 11
1.213394575044146
 21
340.2328204739733
 31
0.0
  0
LINE
  5
16E
330
1F
100
AcDbEntity
  8
Linee visibili 2D
100
AcDbLine
 10
1.213394575044146
 20
340.2328204739733
 30
0.0
 11
1.055455990382369
 21
340.5347895958477
 31
0.0
  0
LINE
  5
16F
330
1F
100
AcDbEntity
  8
Linee visibili 2D
100
AcDbLine
 10
1.055455990382369
 20
340.5347895958477
 30
0.0
 11
0.9078486012357763
 21
340.8419410336757
 31
0.0
  0
LINE
  5
170
330
1F
100
AcDbEntity
  8
Linee visibili 2D
100
AcDbLine
 10
0.9078486012357763
 20
340.8419410336757
 30
0.0
 11
0.7707422076561574
 21
341.1539214560264
 31
0.0
  0
LINE
  5
171
330
1F
100
AcDbEntity
  8
Linee visibili 2D
100
AcDbLine
 10
0.7707422076561574
 20
341.1539214560264
 30
0.0
 11
0.6442945298827527
 21
341.4703719764497
 31
0.0
  0
LINE
  5
172
330
1F
100
AcDbEntity
  8
Linee visibili 2D
100
AcDbLine
 10
0.6442945298827527
 20
341.4703719764497
 30
0.0
 11
0.5286510269089013
 21
341.7909285663219
 31
0.0
  0
LINE
  5
173
330
1F
100
AcDbEntity
  8
Linee visibili 2D
100
AcDbLine
 10
0.5286510269089013
 20
341.7909285663219
 30
0.0
 11
0.4239447291533871
 21
342.1152224736048
 31
0.0
  0
LINE
  5
174
330
1F
100
AcDbEntity
  8
Linee visibili 2D
100
AcDbLine
 10
0.4239447291533871
 20
342.1152224736048
 30
0.0
 11
0.3302960854289969
 21
342.4428806470403
 31
0.0
  0
LINE
  5
175
330
1F
100
AcDbEntity
  8
Linee visibili 2D
100
AcDbLine
 10
0.0618936149085574
 20
343.8545512859087
 30
0.0
 11
0.0326399075651172
 21
344.1544205401639
 31
0.0
  0
LINE
  5
176
330
1F
100
AcDbEntity
  8
Linee visibili 2D
100
AcDbLine
 10
0.0326399075651172
 20
344.1544205401639
 30
0.0
 11
0.0126433847667676
 21
344.4550490286956
 31
0.0
  0
LINE
  5
177
330
1F
100
AcDbEntity
  8
Linee visibili 2D
100
AcDbLine
 10
0.0126433847667676
 20
344.4550490286956
 30
0.0
 11
0.0019230505721338
 21
344.7561510437596
 31
0.0
  0
LINE
  5
178
330
1F
100
AcDbEntity
  8
Linee visibili 2D
100
AcDbLine
 10
0.0019230505721338
 20
344.7561510437596
 30
0.0
 11
0.0004890932455218
 21
345.0574404275874
 31
0.0
  0
LINE
  5
179
330
1F
100
AcDbEntity
  8
Linee visibili 2D
100
AcDbLine
 10
0.0004890932455218
 20
345.0574404275874
 30
0.0
 11
0.008342875574327
 21
345.3586308443407
 31
0.0
  0
LINE
  5
17A
330
1F
100
AcDbEntity
  8
Linee visibili 2D
100
AcDbLine
 10
0.008342875574327
 20
345.3586308443407
 30
0.0
 11
0.0254769335738635
 21
345.6594360522367
 31
0.0
  0
LINE
  5
17B
330
1F
100
AcDbEntity
  8
Linee visibili 2D
100
AcDbLine
 10
8.127311743032816
 20
335.2182852150628
 30
0.0
 11
7.789792840841035
 21
335.2875211132585
 31
0.0
  0
LINE
  5
17C
330
1F
100
AcDbEntity
  8
Linee visibili 2D
100
AcDbLine
 10
7.789792840841035
 20
335.2875211132585
 30
0.0
 11
7.454839421990854
 21
335.3682603610645
 31
0.0
  0
LINE
  5
17D
330
1F
100
AcDbEntity
  8
Linee visibili 2D
100
AcDbLine
 10
7.454839421990854
 20
335.3682603610645
 30
0.0
 11
7.122843424285466
 21
335.4604084833641
 31
0.0
  0
LINE
  5
17E
330
1F
100
AcDbEntity
  8
Linee visibili 2D
100
AcDbLine
 10
7.122843424285466
 20
335.4604084833641
 30
0.0
 11
6.794193324971809
 21
335.5638576552159
 31
0.0
  0
LINE
  5
17F
330
1F
100
AcDbEntity
  8
Linee visibili 2D
100
AcDbLine
 10
6.794193324971809
 20
335.5638576552159
 30
0.0
 11
6.469273686173138
 21
335.6784868280239
 31
0.0
  0
LINE
  5
180
330
1F
100
AcDbEntity
  8
Linee visibili 2D
100
AcDbLine
 10
6.469273686173138
 20
335.6784868280239
 30
0.0
 11
6.148464704902759
 21
335.8041618711788
 31
0.0
  0
LINE
  5
181
330
1F
100
AcDbEntity
  8
Linee visibili 2D
100
AcDbLine
 10
6.148464704902759
 20
335.8041618711788
 30
0.0
 11
5.832141768185513
 21
335.9407357290077
 31
0.0
  0
LINE
  5
182
330
1F
100
AcDbEntity
  8
Linee visibili 2D
100
AcDbLine
 10
5.832141768185513
 20
335.9407357290077
 30
0.0
 11
5.520675013807552
 21
336.0880485928485
 31
0.0
  0
LINE
  5
183
330
1F
100
AcDbEntity
  8
Linee visibili 2D
100
AcDbLine
 10
5.520675013807552
 20
336.0880485928485
 30
0.0
 11
5.214428897208373
 21
336.2459280880454
 31
0.0
  0
LINE
  5
184
330
1F
100
AcDbEntity
  8
Linee visibili 2D
100
AcDbLine
 10
5.214428897208373
 20
336.2459280880454
 30
0.0
 11
4.913761765021922
 21
336.4141894756496
 31
0.0
  0
LINE
  5
185
330
1F
100
AcDbEntity
  8
Linee visibili 2D
100
AcDbLine
 10
4.913761765021922
 20
336.4141894756496
 30
0.0
 11
4.619025435765789
 21
336.5926358685869
 31
0.0
  0
LINE
  5
186
330
1F
100
AcDbEntity
  8
Linee visibili 2D
100
AcDbLine
 10
4.619025435765789
 20
336.5926358685869
 30
0.0
 11
4.330564788169103
 21
336.7810584620406
 31
0.0
  0
LINE
  5
187
330
1F
100
AcDbEntity
  8
Linee visibili 2D
100
AcDbLine
 10
4.330564788169103
 20
336.7810584620406
 30
0.0
 11
4.048717357620854
 21
336.9792367777794
 31
0.0
  0
LINE
  5
188
330
1F
100
AcDbEntity
  8
Linee visibili 2D
100
AcDbLine
 10
4.048717357620854
 20
336.9792367777794
 30
0.0
 11
3.773812941210864
 21
337.1869389221448
 31
0.0
  0
LINE
  5
189
330
1F
100
AcDbEntity
  8
Linee visibili 2D
100
AcDbLine
 10
8.871886704601309
 20
335.1077607151087
 30
0.0
 11
8.189100660962447
 21
335.2069050823507
 31
0.0
  0
LINE
  5
18A
330
1F
100
AcDbEntity
  8
Linee visibili 2D
100
AcDbLine
 10
9.926780001371782
 20
335.0498035393257
 30
0.0
 11
9.022664389475809
 21
335.0924034348519
 31
0.0
  0
LINE
  5
18B
330
1F
100
AcDbEntity
  8
Linee visibili 2D
100
AcDbLine
 10
180.423488609847
 20
335.0498035393256
 30
0.0
 11
180.4071368705977
 21
335.0202914474219
 31
0.0
  0
LINE
  5
18C
330
1F
100
AcDbEntity
  8
Linee visibili 2D
100
AcDbLine
 10
180.4071368705977
 20
335.0202914474219
 30
0.0
 11
180.3917866322737
 21
334.9902462626429
 31
0.0
  0
LINE
  5
18D
330
1F
100
AcDbEntity
  8
Linee visibili 2D
100
AcDbLine
 10
180.3917866322737
 20
334.9902462626429
 30
0.0
 11
180.377455252303
 21
334.9597019588671
 31
0.0
  0
LINE
  5
18E
330
1F
100
AcDbEntity
  8
Linee visibili 2D
100
AcDbLine
 10
180.377455252303
 20
334.9597019588671
 30
0.0
 11
180.36415893603
 21
334.9286930743567
 31
0.0
  0
LINE
  5
18F
330
1F
100
AcDbEntity
  8
Linee visibili 2D
100
AcDbLine
 10
180.36415893603
 20
334.9286930743567
 30
0.0
 11
180.3519127183908
 21
334.8972546727028
 31
0.0
  0
LINE
  5
190
330
1F
100
AcDbEntity
  8
Linee visibili 2D
100
AcDbLine
 10
180.3519127183908
 20
334.8972546727028
 30
0.0
 11
180.3407304469124
 21
334.8654223031775
 31
0.0
  0
LINE
  5
191
330
1F
100
AcDbEntity
  8
Linee visibili 2D
100
AcDbLine
 10
180.3407304469124
 20
334.8654223031775
 30
0.0
 11
180.3306247660549
 21
334.8332319605354
 31
0.0
  0
LINE
  5
192
330
1F
100
AcDbEntity
  8
Linee visibili 2D
100
AcDbLine
 10
180.3306247660549
 20
334.8332319605354
 30
0.0
 11
180.3216071029129
 21
334.8007200443128
 31
0.0
  0
LINE
  5
193
330
1F
100
AcDbEntity
  8
Linee visibili 2D
100
AcDbLine
 10
180.3216071029129
 20
334.8007200443128
 30
0.0
 11
180.3136876542949
 21
334.7679233176682
 31
0.0
  0
LINE
  5
194
330
1F
100
AcDbEntity
  8
Linee visibili 2D
100
AcDbLine
 10
180.3136876542949
 20
334.7679233176682
 30
0.0
 11
180.3068753751927
 21
334.7348788658125
 31
0.0
  0
LINE
  5
195
330
1F
100
AcDbEntity
  8
Linee visibili 2D
100
AcDbLine
 10
180.3068753751927
 20
334.7348788658125
 30
0.0
 11
180.3011779686559
 21
334.7016240540739
 31
0.0
  0
LINE
  5
196
330
1F
100
AcDbEntity
  8
Linee visibili 2D
100
AcDbLine
 10
180.3011779686559
 20
334.7016240540739
 30
0.0
 11
180.2966018770809
 21
334.6681964856475
 31
0.0
  0
LINE
  5
197
330
1F
100
AcDbEntity
  8
Linee visibili 2D
100
AcDbLine
 10
180.2966018770809
 20
334.6681964856475
 30
0.0
 11
180.2931522749271
 21
334.6346339590741
 31
0.0
  0
LINE
  5
198
330
1F
100
AcDbEntity
  8
Linee visibili 2D
100
AcDbLine
 10
180.2931522749271
 20
334.6346339590741
 30
0.0
 11
180.2908330628646
 21
334.6009744255
 31
0.0
  0
LINE
  5
199
330
1F
100
AcDbEntity
  8
Linee visibili 2D
100
AcDbLine
 10
180.2908330628646
 20
334.6009744255
 30
0.0
 11
180.2896468633648
 21
334.5672559457632
 31
0.0
  0
LINE
  5
19A
330
1F
100
AcDbEntity
  8
Linee visibili 2D
100
AcDbLine
 10
176.7908843732162
 20
324.0498035393259
 30
0.0
 11
176.7908843732162
 21
323.5498035393257
 31
0.0
  0
LINE
  5
19B
330
1F
100
AcDbEntity
  8
Linee visibili 2D
100
AcDbLine
 10
155.4984056533479
 20
324.0498035393259
 30
0.0
 11
155.4984056533479
 21
323.5498035393257
 31
0.0
  0
LINE
  5
19C
330
1F
100
AcDbEntity
  8
Linee visibili 2D
100
AcDbLine
 10
198.6635830993365
 20
335.0498035393258
 30
0.0
 11
198.708705971859
 21
335.0505868805751
 31
0.0
  0
LINE
  5
19D
330
1F
100
AcDbEntity
  8
Linee visibili 2D
100
AcDbLine
 10
198.708705971859
 20
335.0505868805751
 30
0.0
 11
198.7537744649855
 21
335.0529359602868
 31
0.0
  0
LINE
  5
19E
330
1F
100
AcDbEntity
  8
Linee visibili 2D
100
AcDbLine
 10
198.7537744649855
 20
335.0529359602868
 30
0.0
 11
198.7987342648551
 21
335.0568479474902
 31
0.0
  0
LINE
  5
19F
330
1F
100
AcDbEntity
  8
Linee visibili 2D
100
AcDbLine
 10
198.7987342648551
 20
335.0568479474902
 30
0.0
 11
198.8435311885972
 21
335.0623181276914
 31
0.0
  0
LINE
  5
1A0
330
1F
100
AcDbEntity
  8
Linee visibili 2D
100
AcDbLine
 10
198.8435311885972
 20
335.0623181276914
 30
0.0
 11
198.88811124963
 21
335.0693399085553
 31
0.0
  0
LINE
  5
1A1
330
1F
100
AcDbEntity
  8
Linee visibili 2D
100
AcDbLine
 10
198.88811124963
 20
335.0693399085553
 30
0.0
 11
198.9324207227217
 21
335.0779048278504
 31
0.0
  0
LINE
  5
1A2
330
1F
100
AcDbEntity
  8
Linee visibili 2D
100
AcDbLine
 10
198.9324207227217
 20
335.0779048278504
 30
0.0
 11
198.9764062087367
 21
335.0880025636464
 31
0.0
  0
LINE
  5
1A3
330
1F
100
AcDbEntity
  8
Linee visibili 2D
100
AcDbLine
 10
198.9764062087367
 20
335.0880025636464
 30
0.0
 11
199.0200146989898
 21
335.0996209467543
 31
0.0
  0
LINE
  5
1A4
330
1F
100
AcDbEntity
  8
Linee visibili 2D
100
AcDbLine
 10
199.0200146989898
 20
335.0996209467543
 30
0.0
 11
199.0631936391281
 21
335.1127459753912
 31
0.0
  0
LINE
  5
1A5
330
1F
100
AcDbEntity
  8
Linee visibili 2D
100
AcDbLine
 10
199.0631936391281
 20
335.1127459753912
 30
0.0
 11
199.1058909924672
 21
335.1273618320553
 31
0.0
  0
LINE
  5
1A6
330
1F
100
AcDbEntity
  8
Linee visibili 2D
100
AcDbLine
 10
199.1058909924672
 20
335.1273618320553
 30
0.0
 11
199.1480553027024
 21
335.1434509025872
 31
0.0
  0
LINE
  5
1A7
330
1F
100
AcDbEntity
  8
Linee visibili 2D
100
AcDbLine
 10
199.1480553027024
 20
335.1434509025872
 30
0.0
 11
199.1896357559206
 21
335.1609937973986
 31
0.0
  0
LINE
  5
1A8
330
1F
100
AcDbEntity
  8
Linee visibili 2D
100
AcDbLine
 10
199.1896357559206
 20
335.1609937973986
 30
0.0
 11
199.2305822418385
 21
335.1799693748382
 31
0.0
  0
LINE
  5
1A9
330
1F
100
AcDbEntity
  8
Linee visibili 2D
100
AcDbLine
 10
199.2305822418385
 20
335.1799693748382
 30
0.0
 11
199.2708454141923
 21
335.2003547666715
 31
0.0
  0
LINE
  5
1AA
330
1F
100
AcDbEntity
  8
Linee visibili 2D
100
AcDbLine
 10
199.2708454141923
 20
335.2003547666715
 30
0.0
 11
199.310376750207
 21
335.2221254056396
 31
0.0
  0
LINE
  5
1AB
330
1F
100
AcDbEntity
  8
Linee visibili 2D
100
AcDbLine
 10
199.310376750207
 20
335.2221254056396
 30
0.0
 11
199.3491286090733
 21
335.2452550550663
 31
0.0
  0
LINE
  5
1AC
330
1F
100
AcDbEntity
  8
Linee visibili 2D
100
AcDbLine
 10
199.3491286090733
 20
335.2452550550663
 30
0.0
 11
199.387054289361
 21
335.2697158404769
 31
0.0
  0
LINE
  5
1AD
330
1F
100
AcDbEntity
  8
Linee visibili 2D
100
AcDbLine
 10
199.387054289361
 20
335.2697158404769
 30
0.0
 11
199.4241080853013
 21
335.2954782831911
 31
0.0
  0
LINE
  5
1AE
330
1F
100
AcDbEntity
  8
Linee visibili 2D
100
AcDbLine
 10
199.4241080853013
 20
335.2954782831911
 30
0.0
 11
199.4602453418684
 21
335.3225113358489
 31
0.0
  0
LINE
  5
1AF
330
1F
100
AcDbEntity
  8
Linee visibili 2D
100
AcDbLine
 10
199.4602453418684
 20
335.3225113358489
 30
0.0
 11
199.4954225085949
 21
335.3507824198268
 31
0.0
  0
LINE
  5
1B0
330
1F
100
AcDbEntity
  8
Linee visibili 2D
100
AcDbLine
 10
199.4954225085949
 20
335.3507824198268
 30
0.0
 11
199.5295971920567
 21
335.3802574644998
 31
0.0
  0
LINE
  5
1B1
330
1F
100
AcDbEntity
  8
Linee visibili 2D
100
AcDbLine
 10
199.5295971920567
 20
335.3802574644998
 30
0.0
 11
199.5627282069626
 21
335.4109009483013
 31
0.0
  0
LINE
  5
1B2
330
1F
100
AcDbEntity
  8
Linee visibili 2D
100
AcDbLine
 10
199.5627282069626
 20
335.4109009483013
 30
0.0
 11
199.5947756257886
 21
335.4426759415315
 31
0.0
  0
LINE
  5
1B3
330
1F
100
AcDbEntity
  8
Linee visibili 2D
100
AcDbLine
 10
199.5947756257886
 20
335.4426759415315
 30
0.0
 11
199.6257008268962
 21
335.4755441508628
 31
0.0
  0
LINE
  5
1B4
330
1F
100
AcDbEntity
  8
Linee visibili 2D
100
AcDbLine
 10
199.6257008268962
 20
335.4755441508628
 30
0.0
 11
199.6554665410766
 21
335.5094659654888
 31
0.0
  0
LINE
  5
1B5
330
1F
100
AcDbEntity
  8
Linee visibili 2D
100
AcDbLine
 10
199.6554665410766
 20
335.5094659654888
 30
0.0
 11
199.6840368964656
 21
335.5444005048609
 31
0.0
  0
LINE
  5
1B6
330
1F
100
AcDbEntity
  8
Linee visibili 2D
100
AcDbLine
 10
199.6840368964656
 20
335.5444005048609
 30
0.0
 11
199.711377461774
 21
335.5803056679548
 31
0.0
  0
LINE
  5
1B7
330
1F
100
AcDbEntity
  8
Linee visibili 2D
100
AcDbLine
 10
199.711377461774
 20
335.5803056679548
 30
0.0
 11
199.7374552877827
 21
335.6171381840086
 31
0.0
  0
LINE
  5
1B8
330
1F
100
AcDbEntity
  8
Linee visibili 2D
100
AcDbLine
 10
199.7374552877827
 20
335.6171381840086
 30
0.0
 11
199.7622389470503
 21
335.6548536646697
 31
0.0
  0
LINE
  5
1B9
330
1F
100
AcDbEntity
  8
Linee visibili 2D
100
AcDbLine
 10
199.7622389470503
 20
335.6548536646697
 30
0.0
 11
199.7856985717882
 21
335.6934066574893
 31
0.0
  0
LINE
  5
1BA
330
1F
100
AcDbEntity
  8
Linee visibili 2D
100
AcDbLine
 10
199.7856985717882
 20
335.6934066574893
 30
0.0
 11
199.8078058898553
 21
335.7327507006988
 31
0.0
  0
LINE
  5
1BB
330
1F
100
AcDbEntity
  8
Linee visibili 2D
100
AcDbLine
 10
199.8078058898553
 20
335.7327507006988
 30
0.0
 11
199.8285342588298
 21
335.7728383792029
 31
0.0
  0
LINE
  5
1BC
330
1F
100
AcDbEntity
  8
Linee visibili 2D
100
AcDbLine
 10
199.8285342588298
 20
335.7728383792029
 30
0.0
 11
199.847858698117
 21
335.8136213817214
 31
0.0
  0
LINE
  5
1BD
330
1F
100
AcDbEntity
  8
Linee visibili 2D
100
AcDbLine
 10
199.847858698117
 20
335.8136213817214
 30
0.0
 11
199.8657559190549
 21
335.855050559011
 31
0.0
  0
LINE
  5
1BE
330
1F
100
AcDbEntity
  8
Linee visibili 2D
100
AcDbLine
 10
199.8657559190549
 20
335.855050559011
 30
0.0
 11
199.8822043529799
 21
335.897075983097
 31
0.0
  0
LINE
  5
1BF
330
1F
100
AcDbEntity
  8
Linee visibili 2D
100
AcDbLine
 10
199.8822043529799
 20
335.897075983097
 30
0.0
 11
199.8971841772197
 21
335.9396470074437
 31
0.0
  0
LINE
  5
1C0
330
1F
100
AcDbEntity
  8
Linee visibili 2D
100
AcDbLine
 10
199.8971841772197
 20
335.9396470074437
 30
0.0
 11
199.9106773389835
 21
335.9827123279907
 31
0.0
  0
LINE
  5
1C1
330
1F
100
AcDbEntity
  8
Linee visibili 2D
100
AcDbLine
 10
199.9106773389835
 20
335.9827123279907
 30
0.0
 11
199.9226675771169
 21
336.0262200449808
 31
0.0
  0
LINE
  5
1C2
330
1F
100
AcDbEntity
  8
Linee visibili 2D
100
AcDbLine
 10
199.9226675771169
 20
336.0262200449808
 30
0.0
 11
199.9331404416999
 21
336.0701177255074
 31
0.0
  0
LINE
  5
1C3
330
1F
100
AcDbEntity
  8
Linee visibili 2D
100
AcDbLine
 10
199.9331404416999
 20
336.0701177255074
 30
0.0
 11
199.9420833114604
 21
336.1143524667029
 31
0.0
  0
LINE
  5
1C4
330
1F
100
AcDbEntity
  8
Linee visibili 2D
100
AcDbLine
 10
199.9420833114604
 20
336.1143524667029
 30
0.0
 11
199.9494854089849
 21
336.1588709594944
 31
0.0
  0
LINE
  5
1C5
330
1F
100
AcDbEntity
  8
Linee visibili 2D
100
AcDbLine
 10
199.9494854089849
 20
336.1588709594944
 30
0.0
 11
199.9553378137067
 21
336.2036195528485
 31
0.0
  0
LINE
  5
1C6
330
1F
100
AcDbEntity
  8
Linee visibili 2D
100
AcDbLine
 10
199.9553378137067
 20
336.2036195528485
 30
0.0
 11
199.9596334726566
 21
336.248544318428
 31
0.0
  0
LINE
  5
1C7
330
1F
100
AcDbEntity
  8
Linee visibili 2D
100
AcDbLine
 10
199.9596334726566
 20
336.248544318428
 30
0.0
 11
199.9623672089625
 21
336.2935911155839
 31
0.0
  0
LINE
  5
1C8
330
1F
100
AcDbEntity
  8
Linee visibili 2D
100
AcDbLine
 10
199.9623672089625
 20
336.2935911155839
 30
0.0
 11
199.9635357280885
 21
336.3387056566016
 31
0.0
  0
LINE
  5
1C9
330
1F
100
AcDbEntity
  8
Linee visibili 2D
100
AcDbLine
 10
199.9635357280885
 20
336.3387056566016
 30
0.0
 11
199.9631376218047
 21
336.383833572126
 31
0.0
  0
LINE
  5
1CA
330
1F
100
AcDbEntity
  8
Linee visibili 2D
100
AcDbLine
 10
198.3738928854636
 20
397.0746414989001
 30
0.0
 11
198.3719595529309
 21
397.1192196554339
 31
0.0
  0
LINE
  5
1CB
330
1F
100
AcDbEntity
  8
Linee visibili 2D
100
AcDbLine
 10
198.3719595529309
 20
397.1192196554339
 30
0.0
 11
198.3684975229618
 21
397.1637052054824
 31
0.0
  0
LINE
  5
1CC
330
1F
100
AcDbEntity
  8
Linee visibili 2D
100
AcDbLine
 10
198.3684975229618
 20
397.1637052054824
 30
0.0
 11
198.3635108740934
 21
397.2080457416507
 31
0.0
  0
LINE
  5
1CD
330
1F
100
AcDbEntity
  8
Linee visibili 2D
100
AcDbLine
 10
198.3635108740934
 20
397.2080457416507
 30
0.0
 11
198.3570054809813
 21
397.2521890273812
 31
0.0
  0
LINE
  5
1CE
330
1F
100
AcDbEntity
  8
Linee visibili 2D
100
AcDbLine
 10
198.3570054809813
 20
397.2521890273812
 30
0.0
 11
198.3489890074782
 21
397.2960830584926
 31
0.0
  0
LINE
  5
1CF
330
1F
100
AcDbEntity
  8
Linee visibili 2D
100
AcDbLine
 10
198.3489890074782
 20
397.2960830584926
 30
0.0
 11
198.3394708976056
 21
397.3396761244444
 31
0.0
  0
LINE
  5
1D0
330
1F
100
AcDbEntity
  8
Linee visibili 2D
100
AcDbLine
 10
198.3394708976056
 20
397.3396761244444
 30
0.0
 11
198.3284623644282
 21
397.3829168692566
 31
0.0
  0
LINE
  5
1D1
330
1F
100
AcDbEntity
  8
Linee visibili 2D
100
AcDbLine
 10
198.3284623644282
 20
397.3829168692566
 30
0.0
 11
198.3159763768435
 21
397.4257543520101
 31
0.0
  0
LINE
  5
1D2
330
1F
100
AcDbEntity
  8
Linee visibili 2D
100
AcDbLine
 10
198.3159763768435
 20
397.4257543520101
 30
0.0
 11
198.3020276443041
 21
397.46813810686
 31
0.0
  0
LINE
  5
1D3
330
1F
100
AcDbEntity
  8
Linee visibili 2D
100
AcDbLine
 10
198.3020276443041
 20
397.46813810686
 30
0.0
 11
198.2866325994884
 21
397.5100182024873
 31
0.0
  0
LINE
  5
1D4
330
1F
100
AcDbEntity
  8
Linee visibili 2D
100
AcDbLine
 10
198.2866325994884
 20
397.5100182024873
 30
0.0
 11
198.2698093789416
 21
397.5513453009224
 31
0.0
  0
LINE
  5
1D5
330
1F
100
AcDbEntity
  8
Linee visibili 2D
100
AcDbLine
 10
198.2698093789416
 20
397.5513453009224
 30
0.0
 11
198.2515778017099
 21
397.5920707156689
 31
0.0
  0
LINE
  5
1D6
330
1F
100
AcDbEntity
  8
Linee visibili 2D
100
AcDbLine
 10
198.2515778017099
 20
397.5920707156689
 30
0.0
 11
198.2319593459916
 21
397.6321464690599
 31
0.0
  0
LINE
  5
1D7
330
1F
100
AcDbEntity
  8
Linee visibili 2D
100
AcDbLine
 10
198.2319593459916
 20
397.6321464690599
 30
0.0
 11
198.2109771238345
 21
397.6715253487796
 31
0.0
  0
LINE
  5
1D8
330
1F
100
AcDbEntity
  8
Linee visibili 2D
100
AcDbLine
 10
198.2109771238345
 20
397.6715253487796
 30
0.0
 11
198.1886558539081
 21
397.7101609634829
 31
0.0
  0
LINE
  5
1D9
330
1F
100
AcDbEntity
  8
Linee visibili 2D
100
AcDbLine
 10
198.1886558539081
 20
397.7101609634829
 30
0.0
 11
198.1650218323829
 21
397.7480077974479
 31
0.0
  0
LINE
  5
1DA
330
1F
100
AcDbEntity
  8
Linee visibili 2D
100
AcDbLine
 10
198.1650218323829
 20
397.7480077974479
 30
0.0
 11
198.1401029019517
 21
397.7850212641971
 31
0.0
  0
LINE
  5
1DB
330
1F
100
AcDbEntity
  8
Linee visibili 2D
100
AcDbLine
 10
198.1401029019517
 20
397.7850212641971
 30
0.0
 11
198.1139284190286
 21
397.8211577590234
 31
0.0
  0
LINE
  5
1DC
330
1F
100
AcDbEntity
  8
Linee visibili 2D
100
AcDbLine
 10
198.1139284190286
 20
397.8211577590234
 30
0.0
 11
198.086529219165
 21
397.8563747103604
 31
0.0
  0
LINE
  5
1DD
330
1F
100
AcDbEntity
  8
Linee visibili 2D
100
AcDbLine
 10
198.086529219165
 20
397.8563747103604
 30
0.0
 11
198.0579375807231
 21
397.890630629934
 31
0.0
  0
LINE
  5
1DE
330
1F
100
AcDbEntity
  8
Linee visibili 2D
100
AcDbLine
 10
198.0579375807231
 20
397.890630629934
 30
0.0
 11
198.0281871868491
 21
397.9238851616398
 31
0.0
  0
LINE
  5
1DF
330
1F
100
AcDbEntity
  8
Linee visibili 2D
100
AcDbLine
 10
198.0281871868491
 20
397.9238851616398
 30
0.0
 11
197.9973130857922
 21
397.956099129085
 31
0.0
  0
LINE
  5
1E0
330
1F
100
AcDbEntity
  8
Linee visibili 2D
100
AcDbLine
 10
197.9973130857922
 20
397.956099129085
 30
0.0
 11
197.9653516496151
 21
397.9872345817415
 31
0.0
  0
LINE
  5
1E1
330
1F
100
AcDbEntity
  8
Linee visibili 2D
100
AcDbLine
 10
197.9653516496151
 20
397.9872345817415
 30
0.0
 11
197.9323405313446
 21
398.0172548396544
 31
0.0
  0
LINE
  5
1E2
330
1F
100
AcDbEntity
  8
Linee visibili 2D
100
AcDbLine
 10
197.9323405313446
 20
398.0172548396544
 30
0.0
 11
197.8983186206137
 21
398.046124536654
 31
0.0
  0
LINE
  5
1E3
330
1F
100
AcDbEntity
  8
Linee visibili 2D
100
AcDbLine
 10
197.8983186206137
 20
398.046124536654
 30
0.0
 11
197.8633259978466
 21
398.0738096620196
 31
0.0
  0
LINE
  5
1E4
330
1F
100
AcDbEntity
  8
Linee visibili 2D
100
AcDbLine
 10
197.8633259978466
 20
398.0738096620196
 30
0.0
 11
197.8274038870409
 21
398.1002776005469
 31
0.0
  0
LINE
  5
1E5
330
1F
100
AcDbEntity
  8
Linee visibili 2D
100
AcDbLine
 10
197.8274038870409
 20
398.1002776005469
 30
0.0
 11
197.7905946072023
 21
398.1254971709714
 31
0.0
  0
LINE
  5
1E6
330
1F
100
AcDbEntity
  8
Linee visibili 2D
100
AcDbLine
 10
197.7905946072023
 20
398.1254971709714
 30
0.0
 11
197.7529415224899
 21
398.1494386627017
 31
0.0
  0
LINE
  5
1E7
330
1F
100
AcDbEntity
  8
Linee visibili 2D
100
AcDbLine
 10
197.7529415224899
 20
398.1494386627017
 30
0.0
 11
197.7144889911299
 21
398.1720738708216
 31
0.0
  0
LINE
  5
1E8
330
1F
100
AcDbEntity
  8
Linee visibili 2D
100
AcDbLine
 10
197.7144889911299
 20
398.1720738708216
 30
0.0
 11
197.6752823131578
 21
398.1933761293174
 31
0.0
  0
LINE
  5
1E9
330
1F
100
AcDbEntity
  8
Linee visibili 2D
100
AcDbLine
 10
197.6752823131578
 20
398.1933761293174
 30
0.0
 11
197.6353676770518
 21
398.2133203424921
 31
0.0
  0
LINE
  5
1EA
330
1F
100
AcDbEntity
  8
Linee visibili 2D
100
AcDbLine
 10
197.6353676770518
 20
398.2133203424921
 30
0.0
 11
197.5947921053194
 21
398.2318830145308
 31
0.0
  0
LINE
  5
1EB
330
1F
100
AcDbEntity
  8
Linee visibili 2D
100
AcDbLine
 10
197.5947921053194
 20
398.2318830145308
 30
0.0
 11
197.5536033991006
 21
398.2490422771796
 31
0.0
  0
LINE
  5
1EC
330
1F
100
AcDbEntity
  8
Linee visibili 2D
100
AcDbLine
 10
197.5536033991006
 20
398.2490422771796
 30
0.0
 11
197.5118500818554
 21
398.2647779155095
 31
0.0
  0
LINE
  5
1ED
330
1F
100
AcDbEntity
  8
Linee visibili 2D
100
AcDbLine
 10
197.5118500818554
 20
398.2647779155095
 30
0.0
 11
197.4695813421986
 21
398.2790713917295
 31
0.0
  0
LINE
  5
1EE
330
1F
100
AcDbEntity
  8
Linee visibili 2D
100
AcDbLine
 10
197.4695813421986
 20
398.2790713917295
 30
0.0
 11
197.4268469759523
 21
398.2919058670268
 31
0.0
  0
LINE
  5
1EF
330
1F
100
AcDbEntity
  8
Linee visibili 2D
100
AcDbLine
 10
197.4268469759523
 20
398.2919058670268
 30
0.0
 11
197.3836973274825
 21
398.3032662214036
 31
0.0
  0
LINE
  5
1F0
330
1F
100
AcDbEntity
  8
Linee visibili 2D
100
AcDbLine
 10
197.3836973274825
 20
398.3032662214036
 30
0.0
 11
197.3401832303898
 21
398.31313907149
 31
0.0
  0
LINE
  5
1F1
330
1F
100
AcDbEntity
  8
Linee visibili 2D
100
AcDbLine
 10
197.3401832303898
 20
398.31313907149
 30
0.0
 11
197.2963559476227
 21
398.32151278631
 31
0.0
  0
LINE
  5
1F2
330
1F
100
AcDbEntity
  8
Linee visibili 2D
100
AcDbLine
 10
197.2963559476227
 20
398.32151278631
 30
0.0
 11
197.2522671110871
 21
398.3283775009845
 31
0.0
  0
LINE
  5
1F3
330
1F
100
AcDbEntity
  8
Linee visibili 2D
100
AcDbLine
 10
197.2522671110871
 20
398.3283775009845
 30
0.0
 11
197.2079686608188
 21
398.3337251283522
 31
0.0
  0
LINE
  5
1F4
330
1F
100
AcDbEntity
  8
Linee visibili 2D
100
AcDbLine
 10
197.2079686608188
 20
398.3337251283522
 30
0.0
 11
197.1635127837952
 21
398.3375493684972
 31
0.0
  0
LINE
  5
1F5
330
1F
100
AcDbEntity
  8
Linee visibili 2D
100
AcDbLine
 10
197.1635127837952
 20
398.3375493684972
 30
0.0
 11
197.1189518524541
 21
398.3398457161711
 31
0.0
  0
LINE
  5
1F6
330
1F
100
AcDbEntity
  8
Linee visibili 2D
100
AcDbLine
 10
197.1189518524541
 20
398.3398457161711
 30
0.0
 11
197.0743383629954
 21
398.3406114660998
 31
0.0
  0
LINE
  5
1F7
330
1F
100
AcDbEntity
  8
Linee visibili 2D
100
AcDbLine
 10
197.0743383629954
 20
398.3406114660999
 30
0.0
 11
196.7819019923484
 21
398.3072925503207
 31
0.0
  0
LINE
  5
1F8
330
1F
100
AcDbEntity
  8
Linee visibili 2D
100
AcDbLine
 10
8.871869415733148
 20
335.1075982205953
 30
0.0
 11
9.02265248048245
 21
335.0922770592837
 31
0.0
  0
LINE
  5
1F9
330
1F
100
AcDbEntity
  8
Linee visibili 2D
100
AcDbLine
 10
8.33085964743841
 20
335.1820079822735
 30
0.0
 11
8.401811602812735
 21
335.1705102529131
 31
0.0
  0
LINE
  5
1FA
330
1F
100
AcDbEntity
  8
Linee visibili 2D
100
AcDbLine
 10
8.127246822815609
 20
335.2179388449977
 30
0.0
 11
8.189040243748279
 21
335.2065730725272
 31
0.0
  0
LINE
  5
1FB
330
1F
100
AcDbEntity
  8
Linee visibili 2D
100
AcDbLine
 10
3.315434329159828
 20
337.5711261107356
 30
0.0
 11
3.773812958911779
 21
337.1869389082169
 31
0.0
  0
LINE
  5
1FC
330
1F
100
AcDbEntity
  8
Linee visibili 2D
100
AcDbLine
 10
0.0618936056998649
 20
343.8545512807652
 30
0.0
 11
0.0988199195770323
 21
343.5692877497899
 31
0.0
  0
LINE
  5
1FD
330
1F
100
AcDbEntity
  8
Linee visibili 2D
100
AcDbLine
 10
0.0988199195770323
 20
343.5692877497899
 30
0.0
 11
0.1441666580668492
 21
343.2852410844876
 31
0.0
  0
LINE
  5
1FE
330
1F
100
AcDbEntity
  8
Linee visibili 2D
100
AcDbLine
 10
0.1441666580668492
 20
343.2852410844876
 30
0.0
 11
0.1978941494418932
 21
343.002659783918
 31
0.0
  0
LINE
  5
1FF
330
1F
100
AcDbEntity
  8
Linee visibili 2D
100
AcDbLine
 10
0.1978941494418932
 20
343.002659783918
 30
0.0
 11
0.2599553900484554
 21
342.7217910651624
 31
0.0
  0
LINE
  5
200
330
1F
100
AcDbEntity
  8
Linee visibili 2D
100
AcDbLine
 10
0.2599553900484554
 20
342.7217910651624
 30
0.0
 11
0.3302960854278162
 21
342.4428806470447
 31
0.0
  0
LINE
  5
201
330
1F
100
AcDbEntity
  8
Linee visibili 2D
100
AcDbLine
 10
7.693306314480907
 20
354.6527505036979
 30
0.0
 11
7.36132004657092
 21
354.5700404827278
 31
0.0
  0
LINE
  5
202
330
1F
100
AcDbEntity
  8
Linee visibili 2D
100
AcDbLine
 10
7.36132004657092
 20
354.5700404827278
 30
0.0
 11
7.032382276512932
 21
354.4759353655506
 31
0.0
  0
LINE
  5
203
330
1F
100
AcDbEntity
  8
Linee visibili 2D
100
AcDbLine
 10
7.032382276512932
 20
354.4759353655506
 30
0.0
 11
6.706884005024537
 21
354.3705470127419
 31
0.0
  0
LINE
  5
204
330
1F
100
AcDbEntity
  8
Linee visibili 2D
100
AcDbLine
 10
6.706884005024537
 20
354.3705470127419
 30
0.0
 11
6.38521214437095
 21
354.2540006969987
 31
0.0
  0
LINE
  5
205
330
1F
100
AcDbEntity
  8
Linee visibili 2D
100
AcDbLine
 10
6.38521214437095
 20
354.2540006969987
 30
0.0
 11
6.067749058451346
 21
354.1264349542301
 31
0.0
  0
LINE
  5
206
330
1F
100
AcDbEntity
  8
Linee visibili 2D
100
AcDbLine
 10
6.067749058451346
 20
354.1264349542301
 30
0.0
 11
5.75487210829174
 21
353.9880014188838
 31
0.0
  0
LINE
  5
207
330
1F
100
AcDbEntity
  8
Linee visibili 2D
100
AcDbLine
 10
5.75487210829174
 20
353.9880014188838
 30
0.0
 11
5.446953203484666
 21
353.8388646437005
 31
0.0
  0
LINE
  5
208
330
1F
100
AcDbEntity
  8
Linee visibili 2D
100
AcDbLine
 10
5.446953203484666
 20
353.8388646437005
 30
0.0
 11
5.144358360108846
 21
353.6792019041148
 31
0.0
  0
LINE
  5
209
330
1F
100
AcDbEntity
  8
Linee visibili 2D
100
AcDbLine
 10
5.144358360108846
 20
353.6792019041148
 30
0.0
 11
4.847447265654347
 21
353.5092029875314
 31
0.0
  0
LINE
  5
20A
330
1F
100
AcDbEntity
  8
Linee visibili 2D
100
AcDbLine
 10
4.847447265654347
 20
353.5092029875314
 30
0.0
 11
4.55657285147038
 21
353.3290699677299
 31
0.0
  0
LINE
  5
20B
330
1F
100
AcDbEntity
  8
Linee visibili 2D
100
AcDbLine
 10
4.55657285147038
 20
353.3290699677299
 30
0.0
 11
4.272080873243976
 21
353.1390169646638
 31
0.0
  0
LINE
  5
20C
330
1F
100
AcDbEntity
  8
Linee visibili 2D
100
AcDbLine
 10
4.272080873243976
 20
353.1390169646638
 30
0.0
 11
3.994309500008185
 21
352.9392698899408
 31
0.0
  0
LINE
  5
20D
330
1F
100
AcDbEntity
  8
Linee visibili 2D
100
AcDbLine
 10
3.994309500008185
 20
352.9392698899408
 30
0.0
 11
3.723588912168393
 21
352.7300661782879
 31
0.0
  0
LINE
  5
20E
330
1F
100
AcDbEntity
  8
Linee visibili 2D
100
AcDbLine
 10
3.723588912168393
 20
352.7300661782879
 30
0.0
 11
3.460240909024489
 21
352.5116545053173
 31
0.0
  0
LINE
  5
20F
330
1F
100
AcDbEntity
  8
Linee visibili 2D
100
AcDbLine
 10
3.460240909024489
 20
352.5116545053173
 30
0.0
 11
3.204578526255497
 21
352.2842944919321
 31
0.0
  0
LINE
  5
210
330
1F
100
AcDbEntity
  8
Linee visibili 2D
100
AcDbLine
 10
3.204578526255497
 20
352.2842944919321
 30
0.0
 11
2.956905663821299
 21
352.0482563957202
 31
0.0
  0
LINE
  5
211
330
1F
100
AcDbEntity
  8
Linee visibili 2D
100
AcDbLine
 10
2.956905663821299
 20
352.0482563957202
 30
0.0
 11
2.717516724723787
 21
351.8038207897063
 31
0.0
  0
LINE
  5
212
330
1F
100
AcDbEntity
  8
Linee visibili 2D
100
AcDbLine
 10
2.717516724723787
 20
351.8038207897063
 30
0.0
 11
2.486696265056822
 21
351.5512782288401
 31
0.0
  0
LINE
  5
213
330
1F
100
AcDbEntity
  8
Linee visibili 2D
100
AcDbLine
 10
2.486696265056822
 20
351.5512782288401
 30
0.0
 11
2.264718655760988
 21
351.2909289046218
 31
0.0
  0
LINE
  5
214
330
1F
100
AcDbEntity
  8
Linee visibili 2D
100
AcDbLine
 10
2.264718655760988
 20
351.2909289046218
 30
0.0
 11
2.051847756485212
 21
351.0230822882698
 31
0.0
  0
LINE
  5
215
330
1F
100
AcDbEntity
  8
Linee visibili 2D
100
AcDbLine
 10
2.051847756485212
 20
351.0230822882698
 30
0.0
 11
1.848336601942885
 21
350.7480567628608
 31
0.0
  0
LINE
  5
216
330
1F
100
AcDbEntity
  8
Linee visibili 2D
100
AcDbLine
 10
1.848336601942885
 20
350.7480567628608
 30
0.0
 11
1.654427101135368
 21
350.4661792448742
 31
0.0
  0
LINE
  5
217
330
1F
100
AcDbEntity
  8
Linee visibili 2D
100
AcDbLine
 10
1.654427101135368
 20
350.4661792448742
 30
0.0
 11
1.470349749800355
 21
350.1777847955948
 31
0.0
  0
LINE
  5
218
330
1F
100
AcDbEntity
  8
Linee visibili 2D
100
AcDbLine
 10
1.470349749800355
 20
350.1777847955948
 30
0.0
 11
1.296323356426916
 21
349.8832162228328
 31
0.0
  0
LINE
  5
219
330
1F
100
AcDbEntity
  8
Linee visibili 2D
100
AcDbLine
 10
1.296323356426916
 20
349.8832162228328
 30
0.0
 11
1.132554782162911
 21
349.5828236734358
 31
0.0
  0
LINE
  5
21A
330
1F
100
AcDbEntity
  8
Linee visibili 2D
100
AcDbLine
 10
1.132554782162911
 20
349.5828236734358
 30
0.0
 11
0.979238694923934
 21
349.2769642170782
 31
0.0
  0
LINE
  5
21B
330
1F
100
AcDbEntity
  8
Linee visibili 2D
100
AcDbLine
 10
0.979238694923934
 20
349.2769642170782
 30
0.0
 11
0.8365573379960587
 21
348.9660014218198
 31
0.0
  0
LINE
  5
21C
330
1F
100
AcDbEntity
  8
Linee visibili 2D
100
AcDbLine
 10
0.8365573379960587
 20
348.9660014218198
 30
0.0
 11
0.7046803134074642
 21
348.6503049219417
 31
0.0
  0
LINE
  5
21D
330
1F
100
AcDbEntity
  8
Linee visibili 2D
100
AcDbLine
 10
0.7046803134074642
 20
348.6503049219417
 30
0.0
 11
0.583764380326425
 21
348.3302499785697
 31
0.0
  0
LINE
  5
21E
330
1F
100
AcDbEntity
  8
Linee visibili 2D
100
AcDbLine
 10
0.583764380326425
 20
348.3302499785697
 30
0.0
 11
0.4739532687253067
 21
348.006217033611
 31
0.0
  0
LINE
  5
21F
330
1F
100
AcDbEntity
  8
Linee visibili 2D
100
AcDbLine
 10
0.4739532687253067
 20
348.006217033611
 30
0.0
 11
0.3753775085321021
 21
347.678591257531
 31
0.0
  0
LINE
  5
220
330
1F
100
AcDbEntity
  8
Linee visibili 2D
100
AcDbLine
 10
0.3753775085321021
 20
347.678591257531
 30
0.0
 11
0.2881542744724861
 21
347.3477620915105
 31
0.0
  0
LINE
  5
221
330
1F
100
AcDbEntity
  8
Linee visibili 2D
100
AcDbLine
 10
0.2881542744724861
 20
347.3477620915105
 30
0.0
 11
0.2123872467869603
 21
347.0141227845256
 31
0.0
  0
LINE
  5
222
330
1F
100
AcDbEntity
  8
Linee visibili 2D
100
AcDbLine
 10
0.2123872467869603
 20
347.0141227845256
 30
0.0
 11
0.1481664879885294
 21
346.6780699259022
 31
0.0
  0
LINE
  5
223
330
1F
100
AcDbEntity
  8
Linee visibili 2D
100
AcDbLine
 10
0.1481664879885294
 20
346.6780699259022
 30
0.0
 11
0.0955683358074904
 21
346.3400029738988
 31
0.0
  0
LINE
  5
224
330
1F
100
AcDbEntity
  8
Linee visibili 2D
100
AcDbLine
 10
0.0955683358074904
 20
346.3400029738988
 30
0.0
 11
0.0546553124505316
 21
346.0003237808806
 31
0.0
  0
LINE
  5
225
330
1F
100
AcDbEntity
  8
Linee visibili 2D
100
AcDbLine
 10
0.0546553124505316
 20
346.0003237808806
 30
0.0
 11
0.0254760502820304
 21
345.6594361156463
 31
0.0
  0
LINE
  5
226
330
1F
100
AcDbEntity
  8
Linee visibili 2D
100
AcDbLine
 10
9.92678000137181
 20
335.0498035393258
 30
0.0
 11
198.6635830993365
 21
335.0498035393258
 31
0.0
  0
LINE
  5
227
330
1F
100
AcDbEntity
  8
Linee visibili 2D
100
AcDbLine
 10
7.693306314480907
 20
354.6527505036979
 30
0.0
 11
196.7819019923484
 21
398.3072925503207
 31
0.0
  0
LINE
  5
228
330
1F
100
AcDbEntity
  8
Linee visibili 2D
100
AcDbLine
 10
198.3738928854636
 20
397.0746414989001
 30
0.0
 11
199.9631376218047
 21
336.383833572126
 31
0.0
  0
LINE
  5
229
330
1F
100
AcDbEntity
  8
Linee visibili 2D
100
AcDbLine
 10
180.2896468633648
 20
334.5672559457632
 30
0.0
 11
180.1146392647513
 21
324.5410773361073
 31
0.0
  0
LINE
  5
22A
330
1F
100
AcDbEntity
  8
Linee visibili 2D
100
AcDbLine
 10
19.37349268187481
 20
324.5410773361073
 30
0.0
 11
19.19848508326155
 21
334.5672559457632
 31
0.0
  0
LINE
  5
22B
330
1F
100
AcDbEntity
  8
Linee visibili 2D
100
AcDbLine
 10
19.06466279188958
 20
335.0498035393256
 30
0.0
 11
19.08103812842812
 21
335.020302140256
 31
0.0
  0
LINE
  5
22C
330
1F
100
AcDbEntity
  8
Linee visibili 2D
100
AcDbLine
 10
19.08103812842812
 20
335.020302140256
 30
0.0
 11
19.0964088656712
 21
334.990265085966
 31
0.0
  0
LINE
  5
22D
330
1F
100
AcDbEntity
  8
Linee visibili 2D
100
AcDbLine
 10
19.0964088656712
 20
334.990265085966
 30
0.0
 11
19.1107575042774
 21
334.9597265731672
 31
0.0
  0
LINE
  5
22E
330
1F
100
AcDbEntity
  8
Linee visibili 2D
100
AcDbLine
 10
19.1107575042774
 20
334.9597265731672
 30
0.0
 11
19.12406770854849
 21
334.9287213694738
 31
0.0
  0
LINE
  5
22F
330
1F
100
AcDbEntity
  8
Linee visibili 2D
100
AcDbLine
 10
19.12406770854849
 20
334.9287213694738
 30
0.0
 11
19.13632432502727
 21
334.8972847738199
 31
0.0
  0
LINE
  5
230
330
1F
100
AcDbEntity
  8
Linee visibili 2D
100
AcDbLine
 10
19.13632432502727
 20
334.8972847738199
 30
0.0
 11
19.14751339974962
 21
334.8654525762729
 31
0.0
  0
LINE
  5
231
330
1F
100
AcDbEntity
  8
Linee visibili 2D
100
AcDbLine
 10
19.14751339974962
 20
334.8654525762729
 30
0.0
 11
19.15762219413082
 21
334.8332610172865
 31
0.0
  0
LINE
  5
232
330
1F
100
AcDbEntity
  8
Linee visibili 2D
100
AcDbLine
 10
19.15762219413082
 20
334.8332610172865
 30
0.0
 11
19.16663919946826
 21
334.8007467464418
 31
0.0
  0
LINE
  5
233
330
1F
100
AcDbEntity
  8
Linee visibili 2D
100
AcDbLine
 10
19.16663919946826
 20
334.8007467464418
 30
0.0
 11
19.17455415004387
 21
334.7679467807224
 31
0.0
  0
LINE
  5
234
330
1F
100
AcDbEntity
  8
Linee visibili 2D
100
AcDbLine
 10
19.17455415004387
 20
334.7679467807224
 30
0.0
 11
19.18135803481154
 21
334.7348984623706
 31
0.0
  0
LINE
  5
235
330
1F
100
AcDbEntity
  8
Linee visibili 2D
100
AcDbLine
 10
19.18135803481154
 20
334.7348984623706
 30
0.0
 11
19.18704310765599
 21
334.7016394163745
 31
0.0
  0
LINE
  5
236
330
1F
100
AcDbEntity
  8
Linee visibili 2D
100
AcDbLine
 10
19.18704310765599
 20
334.7016394163745
 30
0.0
 11
19.19160289621167
 21
334.6682075076324
 31
0.0
  0
LINE
  5
237
330
1F
100
AcDbEntity
  8
Linee visibili 2D
100
AcDbLine
 10
19.19160289621167
 20
334.6682075076324
 30
0.0
 11
19.19503220923135
 21
334.6346407978439
 31
0.0
  0
LINE
  5
238
330
1F
100
AcDbEntity
  8
Linee visibili 2D
100
AcDbLine
 10
19.19503220923135
 20
334.6346407978439
 30
0.0
 11
19.19732714249639
 21
334.6009775021774
 31
0.0
  0
LINE
  5
239
330
1F
100
AcDbEntity
  8
Linee visibili 2D
100
AcDbLine
 10
19.19732714249639
 20
334.6009775021774
 30
0.0
 11
19.19848508326153
 21
334.5672559457632
 31
0.0
  0
LINE
  5
23A
330
1F
100
AcDbEntity
  8
Linee visibili 2D
100
AcDbLine
 10
19.37349268187481
 20
324.5410773361073
 30
0.0
 11
19.37409165035647
 21
324.5238292228722
 31
0.0
  0
LINE
  5
23B
330
1F
100
AcDbEntity
  8
Linee visibili 2D
100
AcDbLine
 10
19.37409165035647
 20
324.5238292228722
 30
0.0
 11
19.37528552682925
 21
324.506612056079
 31
0.0
  0
LINE
  5
23C
330
1F
100
AcDbEntity
  8
Linee visibili 2D
100
AcDbLine
 10
19.37528552682925
 20
324.506612056079
 30
0.0
 11
19.37707288887923
 21
324.4894463486856
 31
0.0
  0
LINE
  5
23D
330
1F
100
AcDbEntity
  8
Linee visibili 2D
100
AcDbLine
 10
19.37707288887923
 20
324.4894463486856
 30
0.0
 11
19.37945160699913
 21
324.4723525523395
 31
0.0
  0
LINE
  5
23E
330
1F
100
AcDbEntity
  8
Linee visibili 2D
100
AcDbLine
 10
19.37945160699913
 20
324.4723525523395
 30
0.0
 11
19.38241884712545
 21
324.4553510330119
 31
0.0
  0
LINE
  5
23F
330
1F
100
AcDbEntity
  8
Linee visibili 2D
100
AcDbLine
 10
19.38241884712545
 20
324.4553510330119
 30
0.0
 11
19.38597107401501
 21
324.4384620467327
 31
0.0
  0
LINE
  5
240
330
1F
100
AcDbEntity
  8
Linee visibili 2D
100
AcDbLine
 10
19.38597107401501
 20
324.4384620467327
 30
0.0
 11
19.39010405545701
 21
324.4217057154571
 31
0.0
  0
LINE
  5
241
330
1F
100
AcDbEntity
  8
Linee visibili 2D
100
AcDbLine
 10
19.39010405545701
 20
324.4217057154571
 30
0.0
 11
19.39481286731527
 21
324.4051020030922
 31
0.0
  0
LINE
  5
242
330
1F
100
AcDbEntity
  8
Linee visibili 2D
100
AcDbLine
 10
19.39481286731527
 20
324.4051020030922
 30
0.0
 11
19.40009189939508
 21
324.3886706917107
 31
0.0
  0
LINE
  5
243
330
1F
100
AcDbEntity
  8
Linee visibili 2D
100
AcDbLine
 10
19.40009189939508
 20
324.3886706917107
 30
0.0
 11
19.40593486212726
 21
324.3724313579828
 31
0.0
  0
LINE
  5
244
330
1F
100
AcDbEntity
  8
Linee visibili 2D
100
AcDbLine
 10
19.40593486212726
 20
324.3724313579828
 30
0.0
 11
19.41233479406173
 21
324.3564033498518
 31
0.0
  0
LINE
  5
245
330
1F
100
AcDbEntity
  8
Linee visibili 2D
100
AcDbLine
 10
19.41233479406173
 20
324.3564033498518
 30
0.0
 11
19.41928407016153
 21
324.3406057634822
 31
0.0
  0
LINE
  5
246
330
1F
100
AcDbEntity
  8
Linee visibili 2D
100
AcDbLine
 10
19.41928407016153
 20
324.3406057634822
 30
0.0
 11
19.42677441088753
 21
324.3250574205087
 31
0.0
  0
LINE
  5
247
330
1F
100
AcDbEntity
  8
Linee visibili 2D
100
AcDbLine
 10
19.42677441088753
 20
324.3250574205087
 30
0.0
 11
19.43479689206281
 21
324.3097768456109
 31
0.0
  0
LINE
  5
248
330
1F
100
AcDbEntity
  8
Linee visibili 2D
100
AcDbLine
 10
19.43479689206281
 20
324.3097768456109
 30
0.0
 11
19.44334195550521
 21
324.2947822444431
 31
0.0
  0
LINE
  5
249
330
1F
100
AcDbEntity
  8
Linee visibili 2D
100
AcDbLine
 10
19.44334195550521
 20
324.2947822444431
 30
0.0
 11
19.45239942041512
 21
324.2800914819435
 31
0.0
  0
LINE
  5
24A
330
1F
100
AcDbEntity
  8
Linee visibili 2D
100
AcDbLine
 10
19.45239942041512
 20
324.2800914819435
 30
0.0
 11
19.4619584955052
 21
324.2657220610492
 31
0.0
  0
LINE
  5
24B
330
1F
100
AcDbEntity
  8
Linee visibili 2D
100
AcDbLine
 10
19.4619584955052
 20
324.2657220610492
 30
0.0
 11
19.47200779185732
 21
324.2516911018432
 31
0.0
  0
LINE
  5
24C
330
1F
100
AcDbEntity
  8
Linee visibili 2D
100
AcDbLine
 10
19.47200779185732
 20
324.2516911018432
 30
0.0
 11
19.48253533649167
 21
324.2380153211566
 31
0.0
  0
LINE
  5
24D
330
1F
100
AcDbEntity
  8
Linee visibili 2D
100
AcDbLine
 10
19.48253533649167
 20
324.2380153211566
 30
0.0
 11
19.4935285866316
 21
324.2247110126523
 31
0.0
  0
LINE
  5
24E
330
1F
100
AcDbEntity
  8
Linee visibili 2D
100
AcDbLine
 10
19.4935285866316
 20
324.2247110126523
 30
0.0
 11
19.50497444464742
 21
324.2117940274121
 31
0.0
  0
LINE
  5
24F
330
1F
100
AcDbEntity
  8
Linee visibili 2D
100
AcDbLine
 10
19.50497444464742
 20
324.2117940274121
 30
0.0
 11
19.51685927366128
 21
324.1992797550511
 31
0.0
  0
LINE
  5
250
330
1F
100
AcDbEntity
  8
Linee visibili 2D
100
AcDbLine
 10
19.51685927366128
 20
324.1992797550511
 30
0.0
 11
19.52916891379438
 21
324.1871831053824
 31
0.0
  0
LINE
  5
251
330
1F
100
AcDbEntity
  8
Linee visibili 2D
100
AcDbLine
 10
19.52916891379438
 20
324.1871831053824
 30
0.0
 11
19.54188869903751
 21
324.1755184906531
 31
0.0
  0
LINE
  5
252
330
1F
100
AcDbEntity
  8
Linee visibili 2D
100
AcDbLine
 10
19.54188869903751
 20
324.1755184906531
 30
0.0
 11
19.55500347472444
 21
324.1642998083732
 31
0.0
  0
LINE
  5
253
330
1F
100
AcDbEntity
  8
Linee visibili 2D
100
AcDbLine
 10
19.55500347472444
 20
324.1642998083732
 30
0.0
 11
19.56849761558755
 21
324.1535404247579
 31
0.0
  0
LINE
  5
254
330
1F
100
AcDbEntity
  8
Linee visibili 2D
100
AcDbLine
 10
19.56849761558755
 20
324.1535404247579
 30
0.0
 11
19.5823550443742
 21
324.1432531588025
 31
0.0
  0
LINE
  5
255
330
1F
100
AcDbEntity
  8
Linee visibili 2D
100
AcDbLine
 10
19.5823550443742
 20
324.1432531588025
 30
0.0
 11
19.59655925100155
 21
324.1334502670096
 31
0.0
  0
LINE
  5
256
330
1F
100
AcDbEntity
  8
Linee visibili 2D
100
AcDbLine
 10
19.59655925100155
 20
324.1334502670096
 30
0.0
 11
19.61109331222707
 21
324.1241434287867
 31
0.0
  0
LINE
  5
257
330
1F
100
AcDbEntity
  8
Linee visibili 2D
100
AcDbLine
 10
19.61109331222707
 20
324.1241434287867
 30
0.0
 11
19.62593991181132
 21
324.1153437325305
 31
0.0
  0
LINE
  5
258
330
1F
100
AcDbEntity
  8
Linee visibili 2D
100
AcDbLine
 10
19.62593991181132
 20
324.1153437325305
 30
0.0
 11
19.64108136114892
 21
324.1070616624166
 31
0.0
  0
LINE
  5
259
330
1F
100
AcDbEntity
  8
Linee visibili 2D
100
AcDbLine
 10
19.64108136114892
 20
324.1070616624166
 30
0.0
 11
19.65649962034324
 21
324.0993070859078
 31
0.0
  0
LINE
  5
25A
330
1F
100
AcDbEntity
  8
Linee visibili 2D
100
AcDbLine
 10
19.65649962034324
 20
324.0993070859078
 30
0.0
 11
19.67217631969955
 21
324.0920892419979
 31
0.0
  0
LINE
  5
25B
330
1F
100
AcDbEntity
  8
Linee visibili 2D
100
AcDbLine
 10
19.67217631969955
 20
324.0920892419979
 30
0.0
 11
19.68809278161112
 21
324.0854167302046
 31
0.0
  0
LINE
  5
25C
330
1F
100
AcDbEntity
  8
Linee visibili 2D
100
AcDbLine
 10
19.68809278161112
 20
324.0854167302046
 30
0.0
 11
19.70423004281219
 21
324.0792975003231
 31
0.0
  0
LINE
  5
25D
330
1F
100
AcDbEntity
  8
Linee visibili 2D
100
AcDbLine
 10
19.70423004281219
 20
324.0792975003231
 30
0.0
 11
19.72056887697127
 21
324.0737388429549
 31
0.0
  0
LINE
  5
25E
330
1F
100
AcDbEntity
  8
Linee visibili 2D
100
AcDbLine
 10
19.72056887697127
 20
324.0737388429549
 30
0.0
 11
19.73708981759789
 21
324.0687473808218
 31
0.0
  0
LINE
  5
25F
330
1F
100
AcDbEntity
  8
Linee visibili 2D
100
AcDbLine
 10
19.73708981759789
 20
324.0687473808218
 30
0.0
 11
19.75377318123542
 21
324.0643290608749
 31
0.0
  0
LINE
  5
260
330
1F
100
AcDbEntity
  8
Linee visibili 2D
100
AcDbLine
 10
19.75377318123542
 20
324.0643290608749
 30
0.0
 11
19.77059909091246
 21
324.0604891472098
 31
0.0
  0
LINE
  5
261
330
1F
100
AcDbEntity
  8
Linee visibili 2D
100
AcDbLine
 10
19.77059909091246
 20
324.0604891472098
 30
0.0
 11
19.7875474998247
 21
324.0572322147945
 31
0.0
  0
LINE
  5
262
330
1F
100
AcDbEntity
  8
Linee visibili 2D
100
AcDbLine
 10
19.7875474998247
 20
324.0572322147945
 30
0.0
 11
19.80459821521926
 21
324.0545621440185
 31
0.0
  0
LINE
  5
263
330
1F
100
AcDbEntity
  8
Linee visibili 2D
100
AcDbLine
 10
19.80459821521926
 20
324.0545621440185
 30
0.0
 11
19.82173092245278
 21
324.0524821160703
 31
0.0
  0
LINE
  5
264
330
1F
100
AcDbEntity
  8
Linee visibili 2D
100
AcDbLine
 10
19.82173092245278
 20
324.0524821160703
 30
0.0
 11
19.83892520919478
 21
324.0509946091464
 31
0.0
  0
LINE
  5
265
330
1F
100
AcDbEntity
  8
Linee visibili 2D
100
AcDbLine
 10
19.83892520919478
 20
324.0509946091464
 30
0.0
 11
19.85616058974746
 21
324.0501013954994
 31
0.0
  0
LINE
  5
266
330
1F
100
AcDbEntity
  8
Linee visibili 2D
100
AcDbLine
 10
19.85616058974746
 20
324.0501013954994
 30
0.0
 11
19.87341652945281
 21
324.049803539326
 31
0.0
  0
LINE
  5
267
330
1F
100
AcDbEntity
  8
Linee visibili 2D
100
AcDbLine
 10
179.6147154171731
 20
324.049803539326
 30
0.0
 11
179.6319713568785
 21
324.0501013954994
 31
0.0
  0
LINE
  5
268
330
1F
100
AcDbEntity
  8
Linee visibili 2D
100
AcDbLine
 10
179.6319713568785
 20
324.0501013954994
 30
0.0
 11
179.6492067374311
 21
324.0509946091464
 31
0.0
  0
LINE
  5
269
330
1F
100
AcDbEntity
  8
Linee visibili 2D
100
AcDbLine
 10
179.6492067374311
 20
324.0509946091464
 30
0.0
 11
179.6664010241731
 21
324.0524821160703
 31
0.0
  0
LINE
  5
26A
330
1F
100
AcDbEntity
  8
Linee visibili 2D
100
AcDbLine
 10
179.6664010241731
 20
324.0524821160703
 30
0.0
 11
179.6835337314067
 21
324.0545621440186
 31
0.0
  0
LINE
  5
26B
330
1F
100
AcDbEntity
  8
Linee visibili 2D
100
AcDbLine
 10
179.6835337314067
 20
324.0545621440186
 30
0.0
 11
179.7005844468012
 21
324.0572322147945
 31
0.0
  0
LINE
  5
26C
330
1F
100
AcDbEntity
  8
Linee visibili 2D
100
AcDbLine
 10
179.7005844468012
 20
324.0572322147945
 30
0.0
 11
179.7175328557135
 21
324.0604891472098
 31
0.0
  0
LINE
  5
26D
330
1F
100
AcDbEntity
  8
Linee visibili 2D
100
AcDbLine
 10
179.7175328557135
 20
324.0604891472098
 30
0.0
 11
179.7343587653905
 21
324.0643290608749
 31
0.0
  0
LINE
  5
26E
330
1F
100
AcDbEntity
  8
Linee visibili 2D
100
AcDbLine
 10
179.7343587653905
 20
324.0643290608749
 30
0.0
 11
179.751042129028
 21
324.0687473808218
 31
0.0
  0
LINE
  5
26F
330
1F
100
AcDbEntity
  8
Linee visibili 2D
100
AcDbLine
 10
179.751042129028
 20
324.0687473808218
 30
0.0
 11
179.7675630696546
 21
324.0737388429549
 31
0.0
  0
LINE
  5
270
330
1F
100
AcDbEntity
  8
Linee visibili 2D
100
AcDbLine
 10
179.7675630696546
 20
324.0737388429549
 30
0.0
 11
179.7839019038137
 21
324.0792975003231
 31
0.0
  0
LINE
  5
271
330
1F
100
AcDbEntity
  8
Linee visibili 2D
100
AcDbLine
 10
179.7839019038137
 20
324.0792975003231
 30
0.0
 11
179.8000391650148
 21
324.0854167302047
 31
0.0
  0
LINE
  5
272
330
1F
100
AcDbEntity
  8
Linee visibili 2D
100
AcDbLine
 10
179.8000391650148
 20
324.0854167302047
 30
0.0
 11
179.8159556269264
 21
324.092089241998
 31
0.0
  0
LINE
  5
273
330
1F
100
AcDbEntity
  8
Linee visibili 2D
100
AcDbLine
 10
179.8159556269264
 20
324.092089241998
 30
0.0
 11
179.8316323262827
 21
324.0993070859078
 31
0.0
  0
LINE
  5
274
330
1F
100
AcDbEntity
  8
Linee visibili 2D
100
AcDbLine
 10
179.8316323262827
 20
324.0993070859078
 30
0.0
 11
179.847050585477
 21
324.1070616624166
 31
0.0
  0
LINE
  5
275
330
1F
100
AcDbEntity
  8
Linee visibili 2D
100
AcDbLine
 10
179.847050585477
 20
324.1070616624166
 30
0.0
 11
179.8621920348146
 21
324.1153437325306
 31
0.0
  0
LINE
  5
276
330
1F
100
AcDbEntity
  8
Linee visibili 2D
100
AcDbLine
 10
179.8621920348146
 20
324.1153437325306
 30
0.0
 11
179.8770386343988
 21
324.1241434287866
 31
0.0
  0
LINE
  5
277
330
1F
100
AcDbEntity
  8
Linee visibili 2D
100
AcDbLine
 10
179.8770386343988
 20
324.1241434287866
 30
0.0
 11
179.8915726956244
 21
324.1334502670096
 31
0.0
  0
LINE
  5
278
330
1F
100
AcDbEntity
  8
Linee visibili 2D
100
AcDbLine
 10
179.8915726956244
 20
324.1334502670096
 30
0.0
 11
179.9057769022517
 21
324.1432531588024
 31
0.0
  0
LINE
  5
279
330
1F
100
AcDbEntity
  8
Linee visibili 2D
100
AcDbLine
 10
179.9057769022517
 20
324.1432531588024
 30
0.0
 11
179.9196343310384
 21
324.1535404247578
 31
0.0
  0
LINE
  5
27A
330
1F
100
AcDbEntity
  8
Linee visibili 2D
100
AcDbLine
 10
179.9196343310384
 20
324.1535404247578
 30
0.0
 11
179.9331284719015
 21
324.1642998083731
 31
0.0
  0
LINE
  5
27B
330
1F
100
AcDbEntity
  8
Linee visibili 2D
100
AcDbLine
 10
179.9331284719015
 20
324.1642998083731
 30
0.0
 11
179.9462432475885
 21
324.175518490653
 31
0.0
  0
LINE
  5
27C
330
1F
100
AcDbEntity
  8
Linee visibili 2D
100
AcDbLine
 10
179.9462432475885
 20
324.175518490653
 30
0.0
 11
179.9589630328316
 21
324.1871831053823
 31
0.0
  0
LINE
  5
27D
330
1F
100
AcDbEntity
  8
Linee visibili 2D
100
AcDbLine
 10
179.9589630328316
 20
324.1871831053823
 30
0.0
 11
179.9712726729647
 21
324.1992797550511
 31
0.0
  0
LINE
  5
27E
330
1F
100
AcDbEntity
  8
Linee visibili 2D
100
AcDbLine
 10
179.9712726729647
 20
324.1992797550511
 30
0.0
 11
179.9831575019786
 21
324.2117940274121
 31
0.0
  0
LINE
  5
27F
330
1F
100
AcDbEntity
  8
Linee visibili 2D
100
AcDbLine
 10
179.9831575019786
 20
324.2117940274121
 30
0.0
 11
179.9946033599944
 21
324.2247110126523
 31
0.0
  0
LINE
  5
280
330
1F
100
AcDbEntity
  8
Linee visibili 2D
100
AcDbLine
 10
179.9946033599944
 20
324.2247110126523
 30
0.0
 11
180.0055966101343
 21
324.2380153211566
 31
0.0
  0
LINE
  5
281
330
1F
100
AcDbEntity
  8
Linee visibili 2D
100
AcDbLine
 10
180.0055966101343
 20
324.2380153211566
 30
0.0
 11
180.0161241547686
 21
324.2516911018431
 31
0.0
  0
LINE
  5
282
330
1F
100
AcDbEntity
  8
Linee visibili 2D
100
AcDbLine
 10
180.0161241547686
 20
324.2516911018431
 30
0.0
 11
180.0261734511208
 21
324.2657220610492
 31
0.0
  0
LINE
  5
283
330
1F
100
AcDbEntity
  8
Linee visibili 2D
100
AcDbLine
 10
180.0261734511208
 20
324.2657220610492
 30
0.0
 11
180.0357325262109
 21
324.2800914819434
 31
0.0
  0
LINE
  5
284
330
1F
100
AcDbEntity
  8
Linee visibili 2D
100
AcDbLine
 10
180.0357325262109
 20
324.2800914819434
 30
0.0
 11
180.0447899911208
 21
324.2947822444431
 31
0.0
  0
LINE
  5
285
330
1F
100
AcDbEntity
  8
Linee visibili 2D
100
AcDbLine
 10
180.0447899911208
 20
324.2947822444431
 30
0.0
 11
180.0533350545632
 21
324.3097768456108
 31
0.0
  0
LINE
  5
286
330
1F
100
AcDbEntity
  8
Linee visibili 2D
100
AcDbLine
 10
180.0533350545632
 20
324.3097768456108
 30
0.0
 11
180.0613575357385
 21
324.3250574205086
 31
0.0
  0
LINE
  5
287
330
1F
100
AcDbEntity
  8
Linee visibili 2D
100
AcDbLine
 10
180.0613575357385
 20
324.3250574205086
 30
0.0
 11
180.0688478764645
 21
324.3406057634822
 31
0.0
  0
LINE
  5
288
330
1F
100
AcDbEntity
  8
Linee visibili 2D
100
AcDbLine
 10
180.0688478764645
 20
324.3406057634822
 30
0.0
 11
180.0757971525643
 21
324.3564033498517
 31
0.0
  0
LINE
  5
289
330
1F
100
AcDbEntity
  8
Linee visibili 2D
100
AcDbLine
 10
180.0757971525643
 20
324.3564033498517
 30
0.0
 11
180.0821970844987
 21
324.3724313579828
 31
0.0
  0
LINE
  5
28A
330
1F
100
AcDbEntity
  8
Linee visibili 2D
100
AcDbLine
 10
180.0821970844987
 20
324.3724313579828
 30
0.0
 11
180.0880400472309
 21
324.3886706917107
 31
0.0
  0
LINE
  5
28B
330
1F
100
AcDbEntity
  8
Linee visibili 2D
100
AcDbLine
 10
180.0880400472309
 20
324.3886706917107
 30
0.0
 11
180.0933190793108
 21
324.4051020030921
 31
0.0
  0
LINE
  5
28C
330
1F
100
AcDbEntity
  8
Linee visibili 2D
100
AcDbLine
 10
180.0933190793108
 20
324.4051020030921
 30
0.0
 11
180.098027891169
 21
324.4217057154571
 31
0.0
  0
LINE
  5
28D
330
1F
100
AcDbEntity
  8
Linee visibili 2D
100
AcDbLine
 10
180.098027891169
 20
324.4217057154571
 30
0.0
 11
180.1021608726111
 21
324.4384620467326
 31
0.0
  0
LINE
  5
28E
330
1F
100
AcDbEntity
  8
Linee visibili 2D
100
AcDbLine
 10
180.1021608726111
 20
324.4384620467326
 30
0.0
 11
180.1057130995006
 21
324.4553510330118
 31
0.0
  0
LINE
  5
28F
330
1F
100
AcDbEntity
  8
Linee visibili 2D
100
AcDbLine
 10
180.1057130995006
 20
324.4553510330118
 30
0.0
 11
180.1086803396269
 21
324.4723525523395
 31
0.0
  0
LINE
  5
290
330
1F
100
AcDbEntity
  8
Linee visibili 2D
100
AcDbLine
 10
180.1086803396269
 20
324.4723525523395
 30
0.0
 11
180.1110590577468
 21
324.4894463486855
 31
0.0
  0
LINE
  5
291
330
1F
100
AcDbEntity
  8
Linee visibili 2D
100
AcDbLine
 10
180.1110590577468
 20
324.4894463486855
 30
0.0
 11
180.1128464197969
 21
324.5066120560789
 31
0.0
  0
LINE
  5
292
330
1F
100
AcDbEntity
  8
Linee visibili 2D
100
AcDbLine
 10
180.1128464197969
 20
324.5066120560789
 30
0.0
 11
180.1140402962696
 21
324.5238292228721
 31
0.0
  0
LINE
  5
293
330
1F
100
AcDbEntity
  8
Linee visibili 2D
100
AcDbLine
 10
180.1140402962696
 20
324.5238292228721
 30
0.0
 11
180.1146392647513
 21
324.5410773361073
 31
0.0
  0
LINE
  5
294
330
1F
100
AcDbEntity
  8
Linee visibili 2D
100
AcDbLine
 10
24.17924727702729
 20
324.0498035393259
 30
0.0
 11
19.87341652945281
 21
324.049803539326
 31
0.0
  0
LINE
  5
295
330
1F
100
AcDbEntity
  8
Linee visibili 2D
100
AcDbLine
 10
175.3069876800846
 20
324.0498035393259
 30
0.0
 11
24.1795241541779
 21
324.0498035393259
 31
0.0
  0
LINE
  5
296
330
1F
100
AcDbEntity
  8
Linee visibili 2D
100
AcDbLine
 10
175.3069876800846
 20
324.0498035393259
 30
0.0
 11
179.6147154171731
 21
324.049803539326
 31
0.0
  0
LINE
  5
297
330
1F
100
AcDbEntity
  8
Linee visibili 2D
100
AcDbLine
 10
22.51833245476084
 20
323.5498035393257
 30
0.0
 11
22.51833245476084
 21
324.0498035393259
 31
0.0
  0
LINE
  5
298
330
1F
100
AcDbEntity
  8
Linee visibili 2D
100
AcDbLine
 10
22.56781486342982
 20
324.0498035393259
 30
0.0
 11
22.56781486342982
 21
323.5498035393257
 31
0.0
  0
LINE
  5
299
330
1F
100
AcDbEntity
  8
Linee visibili 2D
100
AcDbLine
 10
171.127113415377
 20
323.5498035393257
 30
0.0
 11
170.9982034703896
 21
323.5682272785323
 31
0.0
  0
LINE
  5
29A
330
1F
100
AcDbEntity
  8
Linee visibili 2D
100
AcDbLine
 10
28.99854674059426
 20
323.5498035393257
 30
0.0
 11
28.99854674059426
 21
324.0498035393259
 31
0.0
  0
LINE
  5
29B
330
1F
100
AcDbEntity
  8
Linee visibili 2D
100
AcDbLine
 10
156.4962465009587
 20
324.0498035393272
 30
0.0
 11
156.4931552706928
 21
323.5498035393257
 31
0.0
  0
LINE
  5
29C
330
1F
100
AcDbEntity
  8
Linee visibili 2D
100
AcDbLine
 10
170.9962302000418
 20
324.0498035393304
 30
0.0
 11
170.9938887032405
 21
323.5776675843261
 31
0.0
  0
LINE
  5
29D
330
1F
100
AcDbEntity
  8
Linee visibili 2D
100
AcDbLine
 10
25.03100051364607
 20
324.0498035393278
 30
0.0
 11
25.16813138701988
 21
323.9820522156447
 31
0.0
  0
LINE
  5
29E
330
1F
100
AcDbEntity
  8
Linee visibili 2D
100
AcDbLine
 10
25.16813138701988
 20
323.9820522156447
 30
0.0
 11
25.30748557942177
 21
323.9190004325367
 31
0.0
  0
LINE
  5
29F
330
1F
100
AcDbEntity
  8
Linee visibili 2D
100
AcDbLine
 10
25.30748557942177
 20
323.9190004325367
 30
0.0
 11
25.44890209227902
 21
323.8607210349388
 31
0.0
  0
LINE
  5
2A0
330
1F
100
AcDbEntity
  8
Linee visibili 2D
100
AcDbLine
 10
25.44890209227902
 20
323.8607210349388
 30
0.0
 11
25.59221754438055
 21
323.8072813541575
 31
0.0
  0
LINE
  5
2A1
330
1F
100
AcDbEntity
  8
Linee visibili 2D
100
AcDbLine
 10
25.59221754438055
 20
323.8072813541575
 30
0.0
 11
25.73726636063432
 21
323.7587431300814
 31
0.0
  0
LINE
  5
2A2
330
1F
100
AcDbEntity
  8
Linee visibili 2D
100
AcDbLine
 10
25.73726636063432
 20
323.7587431300814
 30
0.0
 11
25.88388096335939
 21
323.7151624398523
 31
0.0
  0
LINE
  5
2A3
330
1F
100
AcDbEntity
  8
Linee visibili 2D
100
AcDbLine
 10
25.88388096335939
 20
323.7151624398523
 30
0.0
 11
26.03189196589172
 21
323.6765896330779
 31
0.0
  0
LINE
  5
2A4
330
1F
100
AcDbEntity
  8
Linee visibili 2D
100
AcDbLine
 10
26.03189196589172
 20
323.6765896330779
 30
0.0
 11
26.18112836827973
 21
323.6430692736621
 31
0.0
  0
LINE
  5
2A5
330
1F
100
AcDbEntity
  8
Linee visibili 2D
100
AcDbLine
 10
26.18112836827973
 20
323.6430692736621
 30
0.0
 11
26.33141775484388
 21
323.6146400883194
 31
0.0
  0
LINE
  5
2A6
330
1F
100
AcDbEntity
  8
Linee visibili 2D
100
AcDbLine
 10
26.33141775484388
 20
323.6146400883194
 30
0.0
 11
26.48258649337182
 21
323.5913349218332
 31
0.0
  0
LINE
  5
2A7
330
1F
100
AcDbEntity
  8
Linee visibili 2D
100
AcDbLine
 10
26.48258649337182
 20
323.5913349218332
 30
0.0
 11
26.63445993571899
 21
323.5731806991095
 31
0.0
  0
LINE
  5
2A8
330
1F
100
AcDbEntity
  8
Linee visibili 2D
100
AcDbLine
 10
26.63445993571899
 20
323.5731806991095
 30
0.0
 11
26.78686261958298
 21
323.5601983940703
 31
0.0
  0
LINE
  5
2A9
330
1F
100
AcDbEntity
  8
Linee visibili 2D
100
AcDbLine
 10
26.78686261958298
 20
323.5601983940703
 30
0.0
 11
26.9396184712185
 21
323.5524030054216
 31
0.0
  0
LINE
  5
2AA
330
1F
100
AcDbEntity
  8
Linee visibili 2D
100
AcDbLine
 10
26.9396184712185
 20
323.5524030054216
 30
0.0
 11
27.09255100885878
 21
323.5498035393257
 31
0.0
  0
LINE
  5
2AB
330
1F
100
AcDbEntity
  8
Linee visibili 2D
100
AcDbLine
 10
156.4916558037634
 20
323.5498035393257
 30
0.0
 11
155.4916569279683
 21
323.5498035393257
 31
0.0
  0
LINE
  5
2AC
330
1F
100
AcDbEntity
  8
Linee visibili 2D
100
AcDbLine
 10
170.9938887032405
 20
323.5498035393257
 30
0.0
 11
156.4931552706928
 21
323.5498035393257
 31
0.0
  0
LINE
  5
2AD
330
1F
100
AcDbEntity
  8
Linee visibili 2D
100
AcDbLine
 10
171.99238811211
 20
323.5498035393257
 30
0.0
 11
171.1559374084676
 21
323.5498035393257
 31
0.0
  0
LINE
  5
2AE
330
1F
100
AcDbEntity
  8
Linee visibili 2D
100
AcDbLine
 10
175.7923838401455
 20
323.5498035393257
 30
0.0
 11
171.99238811211
 21
323.5498035393257
 31
0.0
  0
LINE
  5
2AF
330
1F
100
AcDbEntity
  8
Linee visibili 2D
100
AcDbLine
 10
176.7414008392603
 20
323.5498035393257
 30
0.0
 11
175.7923838401455
 21
323.5498035393257
 31
0.0
  0
LINE
  5
2B0
330
1F
100
AcDbEntity
  8
Linee visibili 2D
100
AcDbLine
 10
22.56781486339698
 20
323.5498035393258
 30
0.0
 11
22.47784684766796
 21
323.5498035393257
 31
0.0
  0
LINE
  5
2B1
330
1F
100
AcDbEntity
  8
Linee visibili 2D
100
AcDbLine
 10
23.56931320615783
 20
323.5498035393257
 30
0.0
 11
22.56781486342982
 21
323.5498035393257
 31
0.0
  0
LINE
  5
2B2
330
1F
100
AcDbEntity
  8
Linee visibili 2D
100
AcDbLine
 10
26.92536044623583
 20
323.5498035393257
 30
0.0
 11
23.56931320615783
 21
323.5498035393257
 31
0.0
  0
LINE
  5
2B3
330
1F
100
AcDbEntity
  8
Linee visibili 2D
100
AcDbLine
 10
27.99254999707782
 20
323.5498035393257
 30
0.0
 11
27.09255100885878
 21
323.5498035393257
 31
0.0
  0
LINE
  5
2B4
330
1F
100
AcDbEntity
  8
Linee visibili 2D
100
AcDbLine
 10
28.99404833980643
 20
323.5498035393257
 30
0.0
 11
27.99254999707782
 21
323.5498035393257
 31
0.0
  0
LINE
  5
2B5
330
1F
100
AcDbEntity
  8
Linee visibili 2D
100
AcDbLine
 10
30.00004508332279
 20
323.5498035393257
 30
0.0
 11
28.99854674059426
 21
323.5498035393257
 31
0.0
  0
LINE
  5
2B6
330
1F
100
AcDbEntity
  8
Linee visibili 2D
100
AcDbLine
 10
154.4999051202772
 20
323.5498035393257
 30
0.0
 11
30.00004508332279
 21
323.5498035393257
 31
0.0
  0
LINE
  5
2B7
330
1F
100
AcDbEntity
  8
Linee visibili 2D
100
AcDbLine
 10
155.4984045291467
 20
323.5498035393257
 30
0.0
 11
154.4999051202772
 21
323.5498035393257
 31
0.0
  0
LINE
  5
2B8
330
1F
100
AcDbEntity
  8
Linee visibili 2D
100
AcDbLine
 10
324.3424736182972
 20
397.0576279126456
 30
0.0
 11
324.3438428704171
 21
397.1026046870656
 31
0.0
  0
LINE
  5
2B9
330
1F
100
AcDbEntity
  8
Linee visibili 2D
100
AcDbLine
 10
324.3438428704171
 20
397.1026046870656
 30
0.0
 11
324.3467678162517
 21
397.1475071344428
 31
0.0
  0
LINE
  5
2BA
330
1F
100
AcDbEntity
  8
Linee visibili 2D
100
AcDbLine
 10
324.3467678162517
 20
397.1475071344428
 30
0.0
 11
324.3512449516945
 21
397.1922814613145
 31
0.0
  0
LINE
  5
2BB
330
1F
100
AcDbEntity
  8
Linee visibili 2D
100
AcDbLine
 10
324.3512449516945
 20
397.1922814613145
 30
0.0
 11
324.3572689131041
 21
397.2368740277076
 31
0.0
  0
LINE
  5
2BC
330
1F
100
AcDbEntity
  8
Linee visibili 2D
100
AcDbLine
 10
324.3572689131041
 20
397.2368740277076
 30
0.0
 11
324.3648324837304
 21
397.2812314113993
 31
0.0
  0
LINE
  5
2BD
330
1F
100
AcDbEntity
  8
Linee visibili 2D
100
AcDbLine
 10
324.3648324837304
 20
397.2812314113993
 30
0.0
 11
324.3739266023602
 21
397.3253004719174
 31
0.0
  0
LINE
  5
2BE
330
1F
100
AcDbEntity
  8
Linee visibili 2D
100
AcDbLine
 10
324.3739266023602
 20
397.3253004719174
 30
0.0
 11
324.3845403741723
 21
397.3690284142027
 31
0.0
  0
LINE
  5
2BF
330
1F
100
AcDbEntity
  8
Linee visibili 2D
100
AcDbLine
 10
324.3845403741723
 20
397.3690284142027
 30
0.0
 11
324.3966610837901
 21
397.4123628518586
 31
0.0
  0
LINE
  5
2C0
330
1F
100
AcDbEntity
  8
Linee visibili 2D
100
AcDbLine
 10
324.3966610837901
 20
397.4123628518586
 30
0.0
 11
324.4102742105141
 21
397.4552518699098
 31
0.0
  0
LINE
  5
2C1
330
1F
100
AcDbEntity
  8
Linee visibili 2D
100
AcDbLine
 10
324.4102742105141
 20
397.4552518699098
 30
0.0
 11
324.4253634457184
 21
397.4976440869967
 31
0.0
  0
LINE
  5
2C2
330
1F
100
AcDbEntity
  8
Linee visibili 2D
100
AcDbLine
 10
324.4253634457184
 20
397.4976440869967
 30
0.0
 11
324.4419107123879
 21
397.5394887169313
 31
0.0
  0
LINE
  5
2C3
330
1F
100
AcDbEntity
  8
Linee visibili 2D
100
AcDbLine
 10
324.4419107123879
 20
397.5394887169313
 30
0.0
 11
324.4598961867755
 21
397.5807356295387
 31
0.0
  0
LINE
  5
2C4
330
1F
100
AcDbEntity
  8
Linee visibili 2D
100
AcDbLine
 10
324.4598961867755
 20
397.5807356295387
 30
0.0
 11
324.4792983221504
 21
397.6213354107141
 31
0.0
  0
LINE
  5
2C5
330
1F
100
AcDbEntity
  8
Linee visibili 2D
100
AcDbLine
 10
324.4792983221504
 20
397.6213354107141
 30
0.0
 11
324.5000938746115
 21
397.6612394216206
 31
0.0
  0
LINE
  5
2C6
330
1F
100
AcDbEntity
  8
Linee visibili 2D
100
AcDbLine
 10
324.5000938746115
 20
397.6612394216206
 30
0.0
 11
324.5222579309341
 21
397.7003998569594
 31
0.0
  0
LINE
  5
2C7
330
1F
100
AcDbEntity
  8
Linee visibili 2D
100
AcDbLine
 10
324.5222579309341
 20
397.7003998569594
 30
0.0
 11
324.5457639384152
 21
397.7387698022407
 31
0.0
  0
LINE
  5
2C8
330
1F
100
AcDbEntity
  8
Linee visibili 2D
100
AcDbLine
 10
324.5457639384152
 20
397.7387698022407
 30
0.0
 11
324.5705837366851
 21
397.7763032899875
 31
0.0
  0
LINE
  5
2C9
330
1F
100
AcDbEntity
  8
Linee visibili 2D
100
AcDbLine
 10
324.5705837366851
 20
397.7763032899875
 30
0.0
 11
324.5966875914425
 21
397.8129553548051
 31
0.0
  0
LINE
  5
2CA
330
1F
100
AcDbEntity
  8
Linee visibili 2D
100
AcDbLine
 10
324.5966875914425
 20
397.8129553548051
 30
0.0
 11
324.6240442300773
 21
397.8486820872501
 31
0.0
  0
LINE
  5
2CB
330
1F
100
AcDbEntity
  8
Linee visibili 2D
100
AcDbLine
 10
324.6240442300773
 20
397.8486820872501
 30
0.0
 11
324.652620879135
 21
397.8834406864339
 31
0.0
  0
LINE
  5
2CC
330
1F
100
AcDbEntity
  8
Linee visibili 2D
100
AcDbLine
 10
324.652620879135
 20
397.8834406864339
 30
0.0
 11
324.6823833035797
 21
397.9171895112989
 31
0.0
  0
LINE
  5
2CD
330
1F
100
AcDbEntity
  8
Linee visibili 2D
100
AcDbLine
 10
324.6823833035797
 20
397.9171895112989
 30
0.0
 11
324.7132958478077
 21
397.9498881305044
 31
0.0
  0
LINE
  5
2CE
330
1F
100
AcDbEntity
  8
Linee visibili 2D
100
AcDbLine
 10
324.7132958478077
 20
397.9498881305044
 30
0.0
 11
324.7453214783635
 21
397.9814973708637
 31
0.0
  0
LINE
  5
2CF
330
1F
100
AcDbEntity
  8
Linee visibili 2D
100
AcDbLine
 10
324.7453214783635
 20
397.9814973708637
 30
0.0
 11
324.7784218283059
 21
398.0119793642744
 31
0.0
  0
LINE
  5
2D0
330
1F
100
AcDbEntity
  8
Linee visibili 2D
100
AcDbLine
 10
324.7784218283059
 20
398.0119793642744
 30
0.0
 11
324.8125572431719
 21
398.0412975930837
 31
0.0
  0
LINE
  5
2D1
330
1F
100
AcDbEntity
  8
Linee visibili 2D
100
AcDbLine
 10
324.8125572431719
 20
398.0412975930837
 30
0.0
 11
324.8476868284832
 21
398.0694169338378
 31
0.0
  0
LINE
  5
2D2
330
1F
100
AcDbEntity
  8
Linee visibili 2D
100
AcDbLine
 10
324.8476868284832
 20
398.0694169338378
 30
0.0
 11
324.8837684987381
 21
398.0963036993595
 31
0.0
  0
LINE
  5
2D3
330
1F
100
AcDbEntity
  8
Linee visibili 2D
100
AcDbLine
 10
324.8837684987381
 20
398.0963036993595
 30
0.0
 11
324.9207590278298
 21
398.1219256791056
 31
0.0
  0
LINE
  5
2D4
330
1F
100
AcDbEntity
  8
Linee visibili 2D
100
AcDbLine
 10
324.9207590278298
 20
398.1219256791056
 30
0.0
 11
324.9586141008322
 21
398.1462521777557
 31
0.0
  0
LINE
  5
2D5
330
1F
100
AcDbEntity
  8
Linee visibili 2D
100
AcDbLine
 10
324.9586141008322
 20
398.1462521777557
 30
0.0
 11
324.9972883670891
 21
398.1692540519855
 31
0.0
  0
LINE
  5
2D6
330
1F
100
AcDbEntity
  8
Linee visibili 2D
100
AcDbLine
 10
324.9972883670891
 20
398.1692540519855
 30
0.0
 11
325.0367354945448
 21
398.1909037453802
 31
0.0
  0
LINE
  5
2D7
330
1F
100
AcDbEntity
  8
Linee visibili 2D
100
AcDbLine
 10
325.0367354945448
 20
398.1909037453802
 30
0.0
 11
325.0769082252502
 21
398.2111753214478
 31
0.0
  0
LINE
  5
2D8
330
1F
100
AcDbEntity
  8
Linee visibili 2D
100
AcDbLine
 10
325.0769082252502
 20
398.2111753214478
 30
0.0
 11
325.1177584319781
 21
398.2300444946909
 31
0.0
  0
LINE
  5
2D9
330
1F
100
AcDbEntity
  8
Linee visibili 2D
100
AcDbLine
 10
325.1177584319781
 20
398.2300444946909
 30
0.0
 11
325.1592371758802
 21
398.247488659701
 31
0.0
  0
LINE
  5
2DA
330
1F
100
AcDbEntity
  8
Linee visibili 2D
100
AcDbLine
 10
325.1592371758802
 20
398.247488659701
 30
0.0
 11
325.2012947651158
 21
398.2634869182399
 31
0.0
  0
LINE
  5
2DB
330
1F
100
AcDbEntity
  8
Linee visibili 2D
100
AcDbLine
 10
325.2012947651158
 20
398.2634869182399
 30
0.0
 11
325.2438808143834
 21
398.2780201042763
 31
0.0
  0
LINE
  5
2DC
330
1F
100
AcDbEntity
  8
Linee visibili 2D
100
AcDbLine
 10
325.2438808143834
 20
398.2780201042763
 30
0.0
 11
325.2869443052825
 21
398.2910708069462
 31
0.0
  0
LINE
  5
2DD
330
1F
100
AcDbEntity
  8
Linee visibili 2D
100
AcDbLine
 10
325.2869443052825
 20
398.2910708069462
 30
0.0
 11
325.3304336474339
 21
398.3026233914116
 31
0.0
  0
LINE
  5
2DE
330
1F
100
AcDbEntity
  8
Linee visibili 2D
100
AcDbLine
 10
325.3304336474339
 20
398.3026233914116
 30
0.0
 11
325.3742967402855
 21
398.3126640175915
 31
0.0
  0
LINE
  5
2DF
330
1F
100
AcDbEntity
  8
Linee visibili 2D
100
AcDbLine
 10
325.3742967402855
 20
398.3126640175915
 30
0.0
 11
325.4184810355292
 21
398.3211806567417
 31
0.0
  0
LINE
  5
2E0
330
1F
100
AcDbEntity
  8
Linee visibili 2D
100
AcDbLine
 10
325.4184810355292
 20
398.3211806567417
 30
0.0
 11
325.4629336000539
 21
398.3281631058658
 31
0.0
  0
LINE
  5
2E1
330
1F
100
AcDbEntity
  8
Linee visibili 2D
100
AcDbLine
 10
325.4629336000539
 20
398.3281631058658
 30
0.0
 11
325.5076011793601
 21
398.3336029999384
 31
0.0
  0
LINE
  5
2E2
330
1F
100
AcDbEntity
  8
Linee visibili 2D
100
AcDbLine
 10
325.5076011793601
 20
398.3336029999384
 30
0.0
 11
325.5524302613588
 21
398.3374938219262
 31
0.0
  0
LINE
  5
2E3
330
1F
100
AcDbEntity
  8
Linee visibili 2D
100
AcDbLine
 10
325.5524302613588
 20
398.3374938219262
 30
0.0
 11
325.5973671404799
 21
398.3398309105959
 31
0.0
  0
LINE
  5
2E4
330
1F
100
AcDbEntity
  8
Linee visibili 2D
100
AcDbLine
 10
325.5973671404799
 20
398.3398309105959
 30
0.0
 11
325.6423579820113
 21
398.340611466098
 31
0.0
  0
LINE
  5
2E5
330
1F
100
AcDbEntity
  8
Linee visibili 2D
100
AcDbLine
 10
325.6423601631593
 20
398.3406114660999
 30
0.0
 11
491.4190434591408
 21
398.3406114660999
 31
0.0
  0
LINE
  5
2E6
330
1F
100
AcDbEntity
  8
Linee visibili 2D
100
AcDbLine
 10
491.9727450642096
 20
335.0982986774918
 30
0.0
 11
491.7829138984837
 21
335.1317026191128
 31
0.0
  0
LINE
  5
2E7
330
1F
100
AcDbEntity
  8
Linee visibili 2D
100
AcDbLine
 10
491.7829138984837
 20
335.1317026191128
 30
0.0
 11
491.5920936397056
 21
335.1588931254814
 31
0.0
  0
LINE
  5
2E8
330
1F
100
AcDbEntity
  8
Linee visibili 2D
100
AcDbLine
 10
491.5920936397056
 20
335.1588931254814
 30
0.0
 11
491.4004876066141
 21
335.1798412251481
 31
0.0
  0
LINE
  5
2E9
330
1F
100
AcDbEntity
  8
Linee visibili 2D
100
AcDbLine
 10
491.4004876066141
 20
335.1798412251481
 30
0.0
 11
491.2082999551894
 21
335.1945245979399
 31
0.0
  0
LINE
  5
2EA
330
1F
100
AcDbEntity
  8
Linee visibili 2D
100
AcDbLine
 10
491.2082999551894
 20
335.1945245979399
 30
0.0
 11
491.0157354611252
 21
335.2029275987422
 31
0.0
  0
LINE
  5
2EB
330
1F
100
AcDbEntity
  8
Linee visibili 2D
100
AcDbLine
 10
491.0157354611252
 20
335.2029275987422
 30
0.0
 11
490.8229993016406
 21
335.2050412741683
 31
0.0
  0
LINE
  5
2EC
330
1F
100
AcDbEntity
  8
Linee visibili 2D
100
AcDbLine
 10
490.8229993016405
 20
335.2050412741683
 30
0.0
 11
326.2384043206596
 21
335.2050412741683
 31
0.0
  0
LINE
  5
2ED
330
1F
100
AcDbEntity
  8
Linee visibili 2D
100
AcDbLine
 10
481.1644460436512
 20
335.0637951293258
 30
0.0
 11
481.1006052194437
 21
334.937529503553
 31
0.0
  0
LINE
  5
2EE
330
1F
100
AcDbEntity
  8
Linee visibili 2D
100
AcDbLine
 10
396.0548584054292
 20
324.0498035393259
 30
0.0
 11
396.0548584054292
 21
323.5498035393257
 31
0.0
  0
LINE
  5
2EF
330
1F
100
AcDbEntity
  8
Linee visibili 2D
100
AcDbLine
 10
456.054790953359
 20
324.0498035393259
 30
0.0
 11
456.054790953359
 21
323.5498035393257
 31
0.0
  0
LINE
  5
2F0
330
1F
100
AcDbEntity
  8
Linee visibili 2D
100
AcDbLine
 10
476.5451713188871
 20
324.0498035393259
 30
0.0
 11
476.5451713188871
 21
323.5498035393257
 31
0.0
  0
LINE
  5
2F1
330
1F
100
AcDbEntity
  8
Linee visibili 2D
100
AcDbLine
 10
324.8478739669398
 20
335.0498035393257
 30
0.0
 11
324.8031208072457
 21
335.0505740928085
 31
0.0
  0
LINE
  5
2F2
330
1F
100
AcDbEntity
  8
Linee visibili 2D
100
AcDbLine
 10
324.8031208072457
 20
335.0505740928085
 30
0.0
 11
324.758420700941
 21
335.0528848397913
 31
0.0
  0
LINE
  5
2F3
330
1F
100
AcDbEntity
  8
Linee visibili 2D
100
AcDbLine
 10
324.758420700941
 20
335.0528848397913
 30
0.0
 11
324.7138266385218
 21
335.0567330409599
 31
0.0
  0
LINE
  5
2F4
330
1F
100
AcDbEntity
  8
Linee visibili 2D
100
AcDbLine
 10
324.7138266385218
 20
335.0567330409599
 30
0.0
 11
324.6693914847731
 21
335.0621141343993
 31
0.0
  0
LINE
  5
2F5
330
1F
100
AcDbEntity
  8
Linee visibili 2D
100
AcDbLine
 10
324.6693914847731
 20
335.0621141343993
 30
0.0
 11
324.6251679160987
 21
335.0690217410014
 31
0.0
  0
LINE
  5
2F6
330
1F
100
AcDbEntity
  8
Linee visibili 2D
100
AcDbLine
 10
324.6251679160987
 20
335.0690217410014
 30
0.0
 11
324.5812083580752
 21
335.0774476720272
 31
0.0
  0
LINE
  5
2F7
330
1F
100
AcDbEntity
  8
Linee visibili 2D
100
AcDbLine
 10
324.5812083580752
 20
335.0774476720272
 30
0.0
 11
324.5375649233034
 21
335.0873819388144
 31
0.0
  0
LINE
  5
2F8
330
1F
100
AcDbEntity
  8
Linee visibili 2D
100
AcDbLine
 10
324.5375649233034
 20
335.0873819388144
 30
0.0
 11
324.4942893496306
 21
335.0988127646186
 31
0.0
  0
LINE
  5
2F9
330
1F
100
AcDbEntity
  8
Linee visibili 2D
100
AcDbLine
 10
324.4942893496306
 20
335.0988127646186
 30
0.0
 11
324.4514329388168
 21
335.1117265985741
 31
0.0
  0
LINE
  5
2FA
330
1F
100
AcDbEntity
  8
Linee visibili 2D
100
AcDbLine
 10
324.4514329388168
 20
335.1117265985741
 30
0.0
 11
324.4090464957183
 21
335.1261081317584
 31
0.0
  0
LINE
  5
2FB
330
1F
100
AcDbEntity
  8
Linee visibili 2D
100
AcDbLine
 10
324.4090464957183
 20
335.1261081317584
 30
0.0
 11
324.3671802680602
 21
335.1419403153399
 31
0.0
  0
LINE
  5
2FC
330
1F
100
AcDbEntity
  8
Linee visibili 2D
100
AcDbLine
 10
324.3671802680602
 20
335.1419403153399
 30
0.0
 11
324.3258838868696
 21
335.159204380789
 31
0.0
  0
LINE
  5
2FD
330
1F
100
AcDbEntity
  8
Linee visibili 2D
100
AcDbLine
 10
324.3258838868696
 20
335.159204380789
 30
0.0
 11
324.2852063076392
 21
335.1778798621277
 31
0.0
  0
LINE
  5
2FE
330
1F
100
AcDbEntity
  8
Linee visibili 2D
100
AcDbLine
 10
324.2852063076392
 20
335.1778798621277
 30
0.0
 11
324.2451957522928
 21
335.1979446201912
 31
0.0
  0
LINE
  5
2FF
330
1F
100
AcDbEntity
  8
Linee visibili 2D
100
AcDbLine
 10
324.2451957522928
 20
335.1979446201912
 30
0.0
 11
324.2058996520191
 21
335.2193748688727
 31
0.0
  0
LINE
  5
300
330
1F
100
AcDbEntity
  8
Linee visibili 2D
100
AcDbLine
 10
324.2058996520191
 20
335.2193748688727
 30
0.0
 11
324.1673645910442
 21
335.2421452033222
 31
0.0
  0
LINE
  5
301
330
1F
100
AcDbEntity
  8
Linee visibili 2D
100
AcDbLine
 10
324.1673645910442
 20
335.2421452033222
 30
0.0
 11
324.1296362514073
 21
335.2662286300617
 31
0.0
  0
LINE
  5
302
330
1F
100
AcDbEntity
  8
Linee visibili 2D
100
AcDbLine
 10
324.1296362514073
 20
335.2662286300617
 30
0.0
 11
324.092759358806
 21
335.2915965989861
 31
0.0
  0
LINE
  5
303
330
1F
100
AcDbEntity
  8
Linee visibili 2D
100
AcDbLine
 10
324.092759358806
 20
335.2915965989861
 30
0.0
 11
324.0567776295759
 21
335.3182190372081
 31
0.0
  0
LINE
  5
304
330
1F
100
AcDbEntity
  8
Linee visibili 2D
100
AcDbLine
 10
324.0567776295759
 20
335.3182190372081
 30
0.0
 11
324.0217337188657
 21
335.3460643847084
 31
0.0
  0
LINE
  5
305
330
1F
100
AcDbEntity
  8
Linee visibili 2D
100
AcDbLine
 10
324.0217337188657
 20
335.3460643847084
 30
0.0
 11
323.9876691700716
 21
335.3750996317493
 31
0.0
  0
LINE
  5
306
330
1F
100
AcDbEntity
  8
Linee visibili 2D
100
AcDbLine
 10
323.9876691700716
 20
335.3750996317493
 30
0.0
 11
323.9546243655884
 21
335.4052903580066
 31
0.0
  0
LINE
  5
307
330
1F
100
AcDbEntity
  8
Linee visibili 2D
100
AcDbLine
 10
323.9546243655884
 20
335.4052903580066
 30
0.0
 11
323.9226384789381
 21
335.4366007733738
 31
0.0
  0
LINE
  5
308
330
1F
100
AcDbEntity
  8
Linee visibili 2D
100
AcDbLine
 10
323.9226384789381
 20
335.4366007733738
 30
0.0
 11
323.8917494283304
 21
335.4689937603899
 31
0.0
  0
LINE
  5
309
330
1F
100
AcDbEntity
  8
Linee visibili 2D
100
AcDbLine
 10
323.8917494283304
 20
335.4689937603899
 30
0.0
 11
323.8619938317122
 21
335.5024309182413
 31
0.0
  0
LINE
  5
30A
330
1F
100
AcDbEntity
  8
Linee visibili 2D
100
AcDbLine
 10
323.8619938317122
 20
335.5024309182413
 30
0.0
 11
323.8334069633584
 21
335.5368726082839
 31
0.0
  0
LINE
  5
30B
330
1F
100
AcDbEntity
  8
Linee visibili 2D
100
AcDbLine
 10
323.8334069633584
 20
335.5368726082839
 30
0.0
 11
323.806022712055
 21
335.5722780010346
 31
0.0
  0
LINE
  5
30C
330
1F
100
AcDbEntity
  8
Linee visibili 2D
100
AcDbLine
 10
323.806022712055
 20
335.5722780010346
 30
0.0
 11
323.7798735409255
 21
335.6086051245721
 31
0.0
  0
LINE
  5
30D
330
1F
100
AcDbEntity
  8
Linee visibili 2D
100
AcDbLine
 10
323.7798735409255
 20
335.6086051245721
 30
0.0
 11
323.7549904489466
 21
335.6458109142942
 31
0.0
  0
LINE
  5
30E
330
1F
100
AcDbEntity
  8
Linee visibili 2D
100
AcDbLine
 10
323.7549904489466
 20
335.6458109142942
 30
0.0
 11
323.7314029342001
 21
335.6838512639687
 31
0.0
  0
LINE
  5
30F
330
1F
100
AcDbEntity
  8
Linee visibili 2D
100
AcDbLine
 10
323.7314029342001
 20
335.6838512639687
 30
0.0
 11
323.709138958904
 21
335.7226810780204
 31
0.0
  0
LINE
  5
310
330
1F
100
AcDbEntity
  8
Linee visibili 2D
100
AcDbLine
 10
323.709138958904
 20
335.7226810780204
 30
0.0
 11
323.6882249162639
 21
335.7622543249901
 31
0.0
  0
LINE
  5
311
330
1F
100
AcDbEntity
  8
Linee visibili 2D
100
AcDbLine
 10
323.6882249162639
 20
335.7622543249901
 30
0.0
 11
323.6686855991851
 21
335.8025240921035
 31
0.0
  0
LINE
  5
312
330
1F
100
AcDbEntity
  8
Linee visibili 2D
100
AcDbLine
 10
323.6686855991851
 20
335.8025240921035
 30
0.0
 11
323.6505441708811
 21
335.8434426408848
 31
0.0
  0
LINE
  5
313
330
1F
100
AcDbEntity
  8
Linee visibili 2D
100
AcDbLine
 10
323.6505441708811
 20
335.8434426408848
 30
0.0
 11
323.6338221374147
 21
335.8849614637489
 31
0.0
  0
LINE
  5
314
330
1F
100
AcDbEntity
  8
Linee visibili 2D
100
AcDbLine
 10
323.6338221374147
 20
335.8849614637489
 30
0.0
 11
323.6185393222029
 21
335.9270313415058
 31
0.0
  0
LINE
  5
315
330
1F
100
AcDbEntity
  8
Linee visibili 2D
100
AcDbLine
 10
323.6185393222029
 20
335.9270313415058
 30
0.0
 11
323.6047138425174
 21
335.969602401708
 31
0.0
  0
LINE
  5
316
330
1F
100
AcDbEntity
  8
Linee visibili 2D
100
AcDbLine
 10
323.6047138425174
 20
335.969602401708
 30
0.0
 11
323.5923620880065
 21
336.0126241777729
 31
0.0
  0
LINE
  5
317
330
1F
100
AcDbEntity
  8
Linee visibili 2D
100
AcDbLine
 10
323.5923620880065
 20
336.0126241777729
 30
0.0
 11
323.5814987012664
 21
336.0560456688091
 31
0.0
  0
LINE
  5
318
330
1F
100
AcDbEntity
  8
Linee visibili 2D
100
AcDbLine
 10
323.5814987012664
 20
336.0560456688091
 30
0.0
 11
323.5721365604824
 21
336.0998154000764
 31
0.0
  0
LINE
  5
319
330
1F
100
AcDbEntity
  8
Linee visibili 2D
100
AcDbLine
 10
323.5721365604824
 20
336.0998154000764
 30
0.0
 11
323.5642867641626
 21
336.1438814840074
 31
0.0
  0
LINE
  5
31A
330
1F
100
AcDbEntity
  8
Linee visibili 2D
100
AcDbLine
 10
323.5642867641626
 20
336.1438814840074
 30
0.0
 11
323.5579586179806
 21
336.1881916817183
 31
0.0
  0
LINE
  5
31B
330
1F
100
AcDbEntity
  8
Linee visibili 2D
100
AcDbLine
 10
323.5579586179806
 20
336.1881916817183
 30
0.0
 11
323.5531596237442
 21
336.2326934649364
 31
0.0
  0
LINE
  5
31C
330
1F
100
AcDbEntity
  8
Linee visibili 2D
100
AcDbLine
 10
323.5531596237442
 20
336.2326934649364
 30
0.0
 11
323.5498954705022
 21
336.2773340782709
 31
0.0
  0
LINE
  5
31D
330
1F
100
AcDbEntity
  8
Linee visibili 2D
100
AcDbLine
 10
323.5498954705022
 20
336.2773340782709
 30
0.0
 11
323.5481700278003
 21
336.3220606017526
 31
0.0
  0
LINE
  5
31E
330
1F
100
AcDbEntity
  8
Linee visibili 2D
100
AcDbLine
 10
323.5481700278003
 20
336.3220606017526
 30
0.0
 11
323.5479853410936
 21
336.3668200135684
 31
0.0
  0
LINE
  5
31F
330
1F
100
AcDbEntity
  8
Linee visibili 2D
100
AcDbLine
 10
492.2135296553603
 20
335.0498035393258
 30
0.0
 11
492.2582828150544
 21
335.0505740928086
 31
0.0
  0
LINE
  5
320
330
1F
100
AcDbEntity
  8
Linee visibili 2D
100
AcDbLine
 10
492.2582828150544
 20
335.0505740928086
 30
0.0
 11
492.3029829213592
 21
335.0528848397913
 31
0.0
  0
LINE
  5
321
330
1F
100
AcDbEntity
  8
Linee visibili 2D
100
AcDbLine
 10
492.3029829213592
 20
335.0528848397913
 30
0.0
 11
492.3475769837783
 21
335.05673304096
 31
0.0
  0
LINE
  5
322
330
1F
100
AcDbEntity
  8
Linee visibili 2D
100
AcDbLine
 10
492.3475769837783
 20
335.05673304096
 30
0.0
 11
492.392012137527
 21
335.0621141343994
 31
0.0
  0
LINE
  5
323
330
1F
100
AcDbEntity
  8
Linee visibili 2D
100
AcDbLine
 10
492.392012137527
 20
335.0621141343994
 30
0.0
 11
492.4362357062014
 21
335.0690217410015
 31
0.0
  0
LINE
  5
324
330
1F
100
AcDbEntity
  8
Linee visibili 2D
100
AcDbLine
 10
492.4362357062014
 20
335.0690217410015
 30
0.0
 11
492.480195264225
 21
335.0774476720273
 31
0.0
  0
LINE
  5
325
330
1F
100
AcDbEntity
  8
Linee visibili 2D
100
AcDbLine
 10
492.480195264225
 20
335.0774476720273
 30
0.0
 11
492.5238386989967
 21
335.0873819388145
 31
0.0
  0
LINE
  5
326
330
1F
100
AcDbEntity
  8
Linee visibili 2D
100
AcDbLine
 10
492.5238386989967
 20
335.0873819388145
 30
0.0
 11
492.5671142726695
 21
335.0988127646187
 31
0.0
  0
LINE
  5
327
330
1F
100
AcDbEntity
  8
Linee visibili 2D
100
AcDbLine
 10
492.5671142726695
 20
335.0988127646187
 30
0.0
 11
492.6099706834833
 21
335.1117265985743
 31
0.0
  0
LINE
  5
328
330
1F
100
AcDbEntity
  8
Linee visibili 2D
100
AcDbLine
 10
492.6099706834833
 20
335.1117265985743
 30
0.0
 11
492.6523571265819
 21
335.1261081317585
 31
0.0
  0
LINE
  5
329
330
1F
100
AcDbEntity
  8
Linee visibili 2D
100
AcDbLine
 10
492.6523571265819
 20
335.1261081317585
 30
0.0
 11
492.6942233542399
 21
335.14194031534
 31
0.0
  0
LINE
  5
32A
330
1F
100
AcDbEntity
  8
Linee visibili 2D
100
AcDbLine
 10
492.6942233542399
 20
335.14194031534
 30
0.0
 11
492.7355197354306
 21
335.1592043807891
 31
0.0
  0
LINE
  5
32B
330
1F
100
AcDbEntity
  8
Linee visibili 2D
100
AcDbLine
 10
492.7355197354306
 20
335.1592043807891
 30
0.0
 11
492.7761973146609
 21
335.1778798621278
 31
0.0
  0
LINE
  5
32C
330
1F
100
AcDbEntity
  8
Linee visibili 2D
100
AcDbLine
 10
492.7761973146609
 20
335.1778798621278
 30
0.0
 11
492.8162078700074
 21
335.1979446201912
 31
0.0
  0
LINE
  5
32D
330
1F
100
AcDbEntity
  8
Linee visibili 2D
100
AcDbLine
 10
492.8162078700074
 20
335.1979446201912
 30
0.0
 11
492.8555039702811
 21
335.2193748688728
 31
0.0
  0
LINE
  5
32E
330
1F
100
AcDbEntity
  8
Linee visibili 2D
100
AcDbLine
 10
492.8555039702811
 20
335.2193748688728
 30
0.0
 11
492.8940390312559
 21
335.2421452033223
 31
0.0
  0
LINE
  5
32F
330
1F
100
AcDbEntity
  8
Linee visibili 2D
100
AcDbLine
 10
492.8940390312559
 20
335.2421452033223
 30
0.0
 11
492.9317673708928
 21
335.2662286300617
 31
0.0
  0
LINE
  5
330
330
1F
100
AcDbEntity
  8
Linee visibili 2D
100
AcDbLine
 10
492.9317673708928
 20
335.2662286300617
 30
0.0
 11
492.9686442634941
 21
335.2915965989861
 31
0.0
  0
LINE
  5
331
330
1F
100
AcDbEntity
  8
Linee visibili 2D
100
AcDbLine
 10
492.9686442634941
 20
335.2915965989861
 30
0.0
 11
493.0046259927242
 21
335.3182190372081
 31
0.0
  0
LINE
  5
332
330
1F
100
AcDbEntity
  8
Linee visibili 2D
100
AcDbLine
 10
493.0046259927242
 20
335.3182190372081
 30
0.0
 11
493.0396699034344
 21
335.3460643847084
 31
0.0
  0
LINE
  5
333
330
1F
100
AcDbEntity
  8
Linee visibili 2D
100
AcDbLine
 10
493.0396699034344
 20
335.3460643847084
 30
0.0
 11
493.0737344522285
 21
335.3750996317493
 31
0.0
  0
LINE
  5
334
330
1F
100
AcDbEntity
  8
Linee visibili 2D
100
AcDbLine
 10
493.0737344522285
 20
335.3750996317493
 30
0.0
 11
493.1067792567117
 21
335.4052903580066
 31
0.0
  0
LINE
  5
335
330
1F
100
AcDbEntity
  8
Linee visibili 2D
100
AcDbLine
 10
493.1067792567117
 20
335.4052903580066
 30
0.0
 11
493.138765143362
 21
335.4366007733738
 31
0.0
  0
LINE
  5
336
330
1F
100
AcDbEntity
  8
Linee visibili 2D
100
AcDbLine
 10
493.138765143362
 20
335.4366007733738
 30
0.0
 11
493.1696541939697
 21
335.46899376039
 31
0.0
  0
LINE
  5
337
330
1F
100
AcDbEntity
  8
Linee visibili 2D
100
AcDbLine
 10
493.1696541939697
 20
335.46899376039
 30
0.0
 11
493.1994097905879
 21
335.5024309182413
 31
0.0
  0
LINE
  5
338
330
1F
100
AcDbEntity
  8
Linee visibili 2D
100
AcDbLine
 10
493.1994097905879
 20
335.5024309182413
 30
0.0
 11
493.2279966589417
 21
335.536872608284
 31
0.0
  0
LINE
  5
339
330
1F
100
AcDbEntity
  8
Linee visibili 2D
100
AcDbLine
 10
493.2279966589417
 20
335.536872608284
 30
0.0
 11
493.255380910245
 21
335.5722780010346
 31
0.0
  0
LINE
  5
33A
330
1F
100
AcDbEntity
  8
Linee visibili 2D
100
AcDbLine
 10
493.255380910245
 20
335.5722780010346
 30
0.0
 11
493.2815300813746
 21
335.6086051245722
 31
0.0
  0
LINE
  5
33B
330
1F
100
AcDbEntity
  8
Linee visibili 2D
100
AcDbLine
 10
493.2815300813746
 20
335.6086051245722
 30
0.0
 11
493.3064131733535
 21
335.6458109142943
 31
0.0
  0
LINE
  5
33C
330
1F
100
AcDbEntity
  8
Linee visibili 2D
100
AcDbLine
 10
493.3064131733535
 20
335.6458109142943
 30
0.0
 11
493.3300006881
 21
335.6838512639688
 31
0.0
  0
LINE
  5
33D
330
1F
100
AcDbEntity
  8
Linee visibili 2D
100
AcDbLine
 10
493.3300006881
 20
335.6838512639688
 30
0.0
 11
493.3522646633961
 21
335.7226810780205
 31
0.0
  0
LINE
  5
33E
330
1F
100
AcDbEntity
  8
Linee visibili 2D
100
AcDbLine
 10
493.3522646633961
 20
335.7226810780205
 30
0.0
 11
493.3731787060362
 21
335.7622543249901
 31
0.0
  0
LINE
  5
33F
330
1F
100
AcDbEntity
  8
Linee visibili 2D
100
AcDbLine
 10
493.3731787060362
 20
335.7622543249901
 30
0.0
 11
493.392718023115
 21
335.8025240921035
 31
0.0
  0
LINE
  5
340
330
1F
100
AcDbEntity
  8
Linee visibili 2D
100
AcDbLine
 10
493.392718023115
 20
335.8025240921035
 30
0.0
 11
493.410859451419
 21
335.8434426408848
 31
0.0
  0
LINE
  5
341
330
1F
100
AcDbEntity
  8
Linee visibili 2D
100
AcDbLine
 10
493.410859451419
 20
335.8434426408848
 30
0.0
 11
493.4275814848855
 21
335.8849614637489
 31
0.0
  0
LINE
  5
342
330
1F
100
AcDbEntity
  8
Linee visibili 2D
100
AcDbLine
 10
493.4275814848855
 20
335.8849614637489
 30
0.0
 11
493.4428643000972
 21
335.9270313415058
 31
0.0
  0
LINE
  5
343
330
1F
100
AcDbEntity
  8
Linee visibili 2D
100
AcDbLine
 10
493.4428643000972
 20
335.9270313415058
 30
0.0
 11
493.4566897797828
 21
335.969602401708
 31
0.0
  0
LINE
  5
344
330
1F
100
AcDbEntity
  8
Linee visibili 2D
100
AcDbLine
 10
493.4566897797828
 20
335.969602401708
 30
0.0
 11
493.4690415342936
 21
336.0126241777729
 31
0.0
  0
LINE
  5
345
330
1F
100
AcDbEntity
  8
Linee visibili 2D
100
AcDbLine
 10
493.4690415342936
 20
336.0126241777729
 30
0.0
 11
493.4799049210337
 21
336.0560456688091
 31
0.0
  0
LINE
  5
346
330
1F
100
AcDbEntity
  8
Linee visibili 2D
100
AcDbLine
 10
493.4799049210337
 20
336.0560456688091
 30
0.0
 11
493.4892670618177
 21
336.0998154000765
 31
0.0
  0
LINE
  5
347
330
1F
100
AcDbEntity
  8
Linee visibili 2D
100
AcDbLine
 10
493.4892670618177
 20
336.0998154000765
 30
0.0
 11
493.4971168581375
 21
336.1438814840074
 31
0.0
  0
LINE
  5
348
330
1F
100
AcDbEntity
  8
Linee visibili 2D
100
AcDbLine
 10
493.4971168581375
 20
336.1438814840074
 30
0.0
 11
493.5034450043195
 21
336.1881916817183
 31
0.0
  0
LINE
  5
349
330
1F
100
AcDbEntity
  8
Linee visibili 2D
100
AcDbLine
 10
493.5034450043195
 20
336.1881916817183
 30
0.0
 11
493.5082439985559
 21
336.2326934649364
 31
0.0
  0
LINE
  5
34A
330
1F
100
AcDbEntity
  8
Linee visibili 2D
100
AcDbLine
 10
493.5082439985559
 20
336.2326934649364
 30
0.0
 11
493.5115081517979
 21
336.277334078271
 31
0.0
  0
LINE
  5
34B
330
1F
100
AcDbEntity
  8
Linee visibili 2D
100
AcDbLine
 10
493.5115081517979
 20
336.277334078271
 30
0.0
 11
493.5132335944998
 21
336.3220606017526
 31
0.0
  0
LINE
  5
34C
330
1F
100
AcDbEntity
  8
Linee visibili 2D
100
AcDbLine
 10
493.5132335944998
 20
336.3220606017526
 30
0.0
 11
493.5134182812065
 21
336.3668200135684
 31
0.0
  0
LINE
  5
34D
330
1F
100
AcDbEntity
  8
Linee visibili 2D
100
AcDbLine
 10
491.4190434591408
 20
398.3072925503207
 30
0.0
 11
491.4633984920574
 21
398.3068609375662
 31
0.0
  0
LINE
  5
34E
330
1F
100
AcDbEntity
  8
Linee visibili 2D
100
AcDbLine
 10
491.4633984920574
 20
398.3068609375662
 30
0.0
 11
491.5077125127312
 21
398.3049057377532
 31
0.0
  0
LINE
  5
34F
330
1F
100
AcDbEntity
  8
Linee visibili 2D
100
AcDbLine
 10
491.5077125127312
 20
398.3049057377532
 30
0.0
 11
491.5519332016914
 21
398.3014292592939
 31
0.0
  0
LINE
  5
350
330
1F
100
AcDbEntity
  8
Linee visibili 2D
100
AcDbLine
 10
491.5519332016914
 20
398.3014292592939
 30
0.0
 11
491.5960083496593
 21
398.2964356067019
 31
0.0
  0
LINE
  5
351
330
1F
100
AcDbEntity
  8
Linee visibili 2D
100
AcDbLine
 10
491.5960083496593
 20
398.2964356067019
 30
0.0
 11
491.6398859191893
 21
398.2899306757471
 31
0.0
  0
LINE
  5
352
330
1F
100
AcDbEntity
  8
Linee visibili 2D
100
AcDbLine
 10
491.6398859191893
 20
398.2899306757471
 30
0.0
 11
491.6835141061079
 21
398.2819221464943
 31
0.0
  0
LINE
  5
353
330
1F
100
AcDbEntity
  8
Linee visibili 2D
100
AcDbLine
 10
491.6835141061079
 20
398.2819221464943
 30
0.0
 11
491.7268414006754
 21
398.2724194742355
 31
0.0
  0
LINE
  5
354
330
1F
100
AcDbEntity
  8
Linee visibili 2D
100
AcDbLine
 10
491.7268414006754
 20
398.2724194742355
 30
0.0
 11
491.7698166484017
 21
398.2614338783272
 31
0.0
  0
LINE
  5
355
330
1F
100
AcDbEntity
  8
Linee visibili 2D
100
AcDbLine
 10
491.7698166484017
 20
398.2614338783272
 30
0.0
 11
491.8123891104416
 21
398.2489783289435
 31
0.0
  0
LINE
  5
356
330
1F
100
AcDbEntity
  8
Linee visibili 2D
100
AcDbLine
 10
491.8123891104416
 20
398.2489783289435
 30
0.0
 11
491.8545085235003
 21
398.2350675317632
 31
0.0
  0
LINE
  5
357
330
1F
100
AcDbEntity
  8
Linee visibili 2D
100
AcDbLine
 10
491.8545085235003
 20
398.2350675317632
 30
0.0
 11
491.8961251591761
 21
398.2197179106075
 31
0.0
  0
LINE
  5
358
330
1F
100
AcDbEntity
  8
Linee visibili 2D
100
AcDbLine
 10
491.8961251591761
 20
398.2197179106075
 30
0.0
 11
491.937189882673
 21
398.202947588049
 31
0.0
  0
LINE
  5
359
330
1F
100
AcDbEntity
  8
Linee visibili 2D
100
AcDbLine
 10
491.937189882673
 20
398.202947588049
 30
0.0
 11
491.9776542108117
 21
398.1847763640155
 31
0.0
  0
LINE
  5
35A
330
1F
100
AcDbEntity
  8
Linee visibili 2D
100
AcDbLine
 10
491.9776542108117
 20
398.1847763640155
 30
0.0
 11
492.0174703692713
 21
398.1652256924128
 31
0.0
  0
LINE
  5
35B
330
1F
100
AcDbEntity
  8
Linee visibili 2D
100
AcDbLine
 10
492.0174703692713
 20
398.1652256924128
 30
0.0
 11
492.0565913489942
 21
398.1443186557956
 31
0.0
  0
LINE
  5
35C
330
1F
100
AcDbEntity
  8
Linee visibili 2D
100
AcDbLine
 10
492.0565913489942
 20
398.1443186557956
 30
0.0
 11
492.0949709616875
 21
398.1220799381142
 31
0.0
  0
LINE
  5
35D
330
1F
100
AcDbEntity
  8
Linee visibili 2D
100
AcDbLine
 10
492.0949709616875
 20
398.1220799381142
 30
0.0
 11
492.1325638943553
 21
398.0985357955724
 31
0.0
  0
LINE
  5
35E
330
1F
100
AcDbEntity
  8
Linee visibili 2D
100
AcDbLine
 10
492.1325638943553
 20
398.0985357955724
 30
0.0
 11
492.1693257627977
 21
398.0737140256271
 31
0.0
  0
LINE
  5
35F
330
1F
100
AcDbEntity
  8
Linee visibili 2D
100
AcDbLine
 10
492.1693257627977
 20
398.0737140256271
 30
0.0
 11
492.205213164013
 21
398.0476439341696
 31
0.0
  0
LINE
  5
360
330
1F
100
AcDbEntity
  8
Linee visibili 2D
100
AcDbLine
 10
492.205213164013
 20
398.0476439341696
 30
0.0
 11
492.2401837274418
 21
398.0203563009254
 31
0.0
  0
LINE
  5
361
330
1F
100
AcDbEntity
  8
Linee visibili 2D
100
AcDbLine
 10
492.2401837274418
 20
398.0203563009254
 30
0.0
 11
492.2741961649916
 21
397.9918833431144
 31
0.0
  0
LINE
  5
362
330
1F
100
AcDbEntity
  8
Linee visibili 2D
100
AcDbLine
 10
492.2741961649916
 20
397.9918833431144
 30
0.0
 11
492.3072103197841
 21
397.9622586774126
 31
0.0
  0
LINE
  5
363
330
1F
100
AcDbEntity
  8
Linee visibili 2D
100
AcDbLine
 10
492.3072103197841
 20
397.9622586774126
 30
0.0
 11
492.339187213566
 21
397.931517280264
 31
0.0
  0
LINE
  5
364
330
1F
100
AcDbEntity
  8
Linee visibili 2D
100
AcDbLine
 10
492.339187213566
 20
397.931517280264
 30
0.0
 11
492.3700890927292
 21
397.8996954465837
 31
0.0
  0
LINE
  5
365
330
1F
100
AcDbEntity
  8
Linee visibili 2D
100
AcDbLine
 10
492.3700890927292
 20
397.8996954465837
 30
0.0
 11
492.3998794728848
 21
397.8668307469079
 31
0.0
  0
LINE
  5
366
330
1F
100
AcDbEntity
  8
Linee visibili 2D
100
AcDbLine
 10
492.3998794728848
 20
397.8668307469079
 30
0.0
 11
492.4285231819379
 21
397.8329619830349
 31
0.0
  0
LINE
  5
367
330
1F
100
AcDbEntity
  8
Linee visibili 2D
100
AcDbLine
 10
492.4285231819379
 20
397.8329619830349
 30
0.0
 11
492.4559864016142
 21
397.7981291422147
 31
0.0
  0
LINE
  5
368
330
1F
100
AcDbEntity
  8
Linee visibili 2D
100
AcDbLine
 10
492.4559864016142
 20
397.7981291422147
 30
0.0
 11
492.4822367073875
 21
397.7623733499371
 31
0.0
  0
LINE
  5
369
330
1F
100
AcDbEntity
  8
Linee visibili 2D
100
AcDbLine
 10
492.4822367073875
 20
397.7623733499371
 30
0.0
 11
492.5072431067617
 21
397.725736821377
 31
0.0
  0
LINE
  5
36A
330
1F
100
AcDbEntity
  8
Linee visibili 2D
100
AcDbLine
 10
492.5072431067617
 20
397.725736821377
 30
0.0
 11
492.5309760758623
 21
397.6882628115533
 31
0.0
  0
LINE
  5
36B
330
1F
100
AcDbEntity
  8
Linee visibili 2D
100
AcDbLine
 10
492.5309760758623
 20
397.6882628115533
 30
0.0
 11
492.5534075942935
 21
397.6499955642593
 31
0.0
  0
LINE
  5
36C
330
1F
100
AcDbEntity
  8
Linee visibili 2D
100
AcDbLine
 10
492.5534075942935
 20
397.6499955642593
 30
0.0
 11
492.5745111782211
 21
397.6109802598262
 31
0.0
  0
LINE
  5
36D
330
1F
100
AcDbEntity
  8
Linee visibili 2D
100
AcDbLine
 10
492.5745111782211
 20
397.6109802598262
 30
0.0
 11
492.5942619116406
 21
397.5712629617813
 31
0.0
  0
LINE
  5
36E
330
1F
100
AcDbEntity
  8
Linee visibili 2D
100
AcDbLine
 10
492.5942619116406
 20
397.5712629617813
 30
0.0
 11
492.6126364757936
 21
397.5308905624622
 31
0.0
  0
LINE
  5
36F
330
1F
100
AcDbEntity
  8
Linee visibili 2D
100
AcDbLine
 10
492.6126364757936
 20
397.5308905624622
 30
0.0
 11
492.6296131767004
 21
397.4899107276539
 31
0.0
  0
LINE
  5
370
330
1F
100
AcDbEntity
  8
Linee visibili 2D
100
AcDbLine
 10
492.6296131767004
 20
397.4899107276539
 30
0.0
 11
492.645171970772
 21
397.4483718403116
 31
0.0
  0
LINE
  5
371
330
1F
100
AcDbEntity
  8
Linee visibili 2D
100
AcDbLine
 10
492.645171970772
 20
397.4483718403116
 30
0.0
 11
492.6592944884752
 21
397.4063229434377
 31
0.0
  0
LINE
  5
372
330
1F
100
AcDbEntity
  8
Linee visibili 2D
100
AcDbLine
 10
492.6592944884752
 20
397.4063229434377
 30
0.0
 11
492.6719640560203
 21
397.3638136821784
 31
0.0
  0
LINE
  5
373
330
1F
100
AcDbEntity
  8
Linee visibili 2D
100
AcDbLine
 10
492.6719640560203
 20
397.3638136821784
 30
0.0
 11
492.6831657150476
 21
397.3208942452105
 31
0.0
  0
LINE
  5
374
330
1F
100
AcDbEntity
  8
Linee visibili 2D
100
AcDbLine
 10
492.6831657150476
 20
397.3208942452105
 30
0.0
 11
492.6928862402871
 21
397.2776153054862
 31
0.0
  0
LINE
  5
375
330
1F
100
AcDbEntity
  8
Linee visibili 2D
100
AcDbLine
 10
492.6928862402871
 20
397.2776153054862
 30
0.0
 11
492.7011141551739
 21
397.2340279604052
 31
0.0
  0
LINE
  5
376
330
1F
100
AcDbEntity
  8
Linee visibili 2D
100
AcDbLine
 10
492.7011141551739
 20
397.2340279604052
 30
0.0
 11
492.7078397453976
 21
397.1901836714871
 31
0.0
  0
LINE
  5
377
330
1F
100
AcDbEntity
  8
Linee visibili 2D
100
AcDbLine
 10
492.7078397453976
 20
397.1901836714871
 30
0.0
 11
492.7130550703715
 21
397.1461342036127
 31
0.0
  0
LINE
  5
378
330
1F
100
AcDbEntity
  8
Linee visibili 2D
100
AcDbLine
 10
492.7130550703715
 20
397.1461342036127
 30
0.0
 11
492.7167539726076
 21
397.1019315639083
 31
0.0
  0
LINE
  5
379
330
1F
100
AcDbEntity
  8
Linee visibili 2D
100
AcDbLine
 10
492.7167539726076
 20
397.1019315639083
 30
0.0
 11
492.718932084987
 21
397.0576279403425
 31
0.0
  0
LINE
  5
37A
330
1F
100
AcDbEntity
  8
Linee visibili 2D
100
AcDbLine
 10
492.1255109900848
 20
335.0498035393257
 30
0.0
 11
491.9616726632326
 21
335.0984929692052
 31
0.0
  0
LINE
  5
37B
330
1F
100
AcDbEntity
  8
Linee visibili 2D
100
AcDbLine
 10
323.5479853410936
 20
336.3668200135685
 30
0.0
 11
323.7710022779133
 21
353.4030858937206
 31
0.0
  0
LINE
  5
37C
330
1F
100
AcDbEntity
  8
Linee visibili 2D
100
AcDbLine
 10
323.7710022779133
 20
353.4030858937206
 30
0.0
 11
324.3424715373131
 21
397.0576279403426
 31
0.0
  0
LINE
  5
37D
330
1F
100
AcDbEntity
  8
Linee visibili 2D
100
AcDbLine
 10
493.2904013443869
 20
353.4030858937205
 30
0.0
 11
493.5129613638807
 21
336.4017239323472
 31
0.0
  0
LINE
  5
37E
330
1F
100
AcDbEntity
  8
Linee visibili 2D
100
AcDbLine
 10
492.718932084987
 20
397.0576279403425
 30
0.0
 11
493.2904013443869
 21
353.4030858937205
 31
0.0
  0
LINE
  5
37F
330
1F
100
AcDbEntity
  8
Linee visibili 2D
100
AcDbLine
 10
324.9360562558708
 20
335.0594695961016
 30
0.0
 11
325.0958976801758
 21
335.0978683099155
 31
0.0
  0
LINE
  5
380
330
1F
100
AcDbEntity
  8
Linee visibili 2D
100
AcDbLine
 10
325.0958976801758
 20
335.0978683099155
 30
0.0
 11
325.2569687790096
 21
335.1307292786615
 31
0.0
  0
LINE
  5
381
330
1F
100
AcDbEntity
  8
Linee visibili 2D
100
AcDbLine
 10
325.2569687790096
 20
335.1307292786615
 30
0.0
 11
325.4190777557754
 21
335.1580133728991
 31
0.0
  0
LINE
  5
382
330
1F
100
AcDbEntity
  8
Linee visibili 2D
100
AcDbLine
 10
325.4190777557754
 20
335.1580133728991
 30
0.0
 11
325.582031578016
 21
335.1796881038922
 31
0.0
  0
LINE
  5
383
330
1F
100
AcDbEntity
  8
Linee visibili 2D
100
AcDbLine
 10
325.582031578016
 20
335.1796881038922
 30
0.0
 11
325.745636207268
 21
335.1957276622954
 31
0.0
  0
LINE
  5
384
330
1F
100
AcDbEntity
  8
Linee visibili 2D
100
AcDbLine
 10
325.745636207268
 20
335.1957276622954
 30
0.0
 11
325.9096968301147
 21
335.2061129488864
 31
0.0
  0
LINE
  5
385
330
1F
100
AcDbEntity
  8
Linee visibili 2D
100
AcDbLine
 10
325.9096968301147
 20
335.2061129488864
 30
0.0
 11
326.0740180901619
 21
335.2108315973088
 31
0.0
  0
LINE
  5
386
330
1F
100
AcDbEntity
  8
Linee visibili 2D
100
AcDbLine
 10
326.0740180901619
 20
335.2108315973088
 30
0.0
 11
326.2384043206596
 21
335.2098779887972
 31
0.0
  0
LINE
  5
387
330
1F
100
AcDbEntity
  8
Linee visibili 2D
100
AcDbLine
 10
492.1255109900849
 20
335.0498035393258
 30
0.0
 11
492.2135296553603
 21
335.0498035393258
 31
0.0
  0
LINE
  5
388
330
1F
100
AcDbEntity
  8
Linee visibili 2D
100
AcDbLine
 10
325.0348264294626
 20
335.0498035393257
 30
0.0
 11
326.2356946359187
 21
335.0498035393257
 31
0.0
  0
LINE
  5
389
330
1F
100
AcDbEntity
  8
Linee visibili 2D
100
AcDbLine
 10
324.8478739669398
 20
335.0498035393258
 30
0.0
 11
324.9358926322154
 21
335.0498035393258
 31
0.0
  0
LINE
  5
38A
330
1F
100
AcDbEntity
  8
Linee visibili 2D
100
AcDbLine
 10
490.8257089863815
 20
335.0498035393257
 30
0.0
 11
492.0265771928378
 21
335.0498035393257
 31
0.0
  0
LINE
  5
38B
330
1F
100
AcDbEntity
  8
Linee visibili 2D
100
AcDbLine
 10
481.1878111338056
 20
335.0498035393258
 30
0.0
 11
490.8257089863814
 21
335.0498035393258
 31
0.0
  0
LINE
  5
38C
330
1F
100
AcDbEntity
  8
Linee visibili 2D
100
AcDbLine
 10
326.2356946359187
 20
335.0498035393257
 30
0.0
 11
335.8836458096667
 21
335.0498035393257
 31
0.0
  0
LINE
  5
38D
330
1F
100
AcDbEntity
  8
Linee visibili 2D
100
AcDbLine
 10
408.5307018111501
 20
334.149803539326
 30
0.0
 11
408.6722179809259
 21
334.1473605155854
 31
0.0
  0
LINE
  5
38E
330
1F
100
AcDbEntity
  8
Linee visibili 2D
100
AcDbLine
 10
408.6722179809259
 20
334.1473605155854
 30
0.0
 11
408.8135655032078
 21
334.1400343557611
 31
0.0
  0
LINE
  5
38F
330
1F
100
AcDbEntity
  8
Linee visibili 2D
100
AcDbLine
 10
408.8135655032078
 20
334.1400343557611
 30
0.0
 11
408.9545759314824
 21
334.1278337905763
 31
0.0
  0
LINE
  5
390
330
1F
100
AcDbEntity
  8
Linee visibili 2D
100
AcDbLine
 10
408.9545759314824
 20
334.1278337905763
 30
0.0
 11
409.0950812209575
 21
334.110773359675
 31
0.0
  0
LINE
  5
391
330
1F
100
AcDbEntity
  8
Linee visibili 2D
100
AcDbLine
 10
409.0950812209575
 20
334.110773359675
 30
0.0
 11
409.2349139288243
 21
334.0888733942952
 31
0.0
  0
LINE
  5
392
330
1F
100
AcDbEntity
  8
Linee visibili 2D
100
AcDbLine
 10
409.2349139288243
 20
334.0888733942952
 30
0.0
 11
409.3739074138024
 21
334.0621599930394
 31
0.0
  0
LINE
  5
393
330
1F
100
AcDbEntity
  8
Linee visibili 2D
100
AcDbLine
 10
409.3739074138024
 20
334.0621599930394
 30
0.0
 11
409.5118960347291
 21
334.0306649907728
 31
0.0
  0
LINE
  5
394
330
1F
100
AcDbEntity
  8
Linee visibili 2D
100
AcDbLine
 10
409.5118960347291
 20
334.0306649907728
 30
0.0
 11
409.648715347957
 21
333.9944259206848
 31
0.0
  0
LINE
  5
395
330
1F
100
AcDbEntity
  8
Linee visibili 2D
100
AcDbLine
 10
409.648715347957
 20
333.9944259206848
 30
0.0
 11
409.7842023033251
 21
333.9534859695599
 31
0.0
  0
LINE
  5
396
330
1F
100
AcDbEntity
  8
Linee visibili 2D
100
AcDbLine
 10
409.7842023033251
 20
333.9534859695599
 30
0.0
 11
409.9181954384682
 21
333.9078939263117
 31
0.0
  0
LINE
  5
397
330
1F
100
AcDbEntity
  8
Linee visibili 2D
100
AcDbLine
 10
409.9181954384682
 20
333.9078939263117
 30
0.0
 11
410.0505350712349
 21
333.8577041238397
 31
0.0
  0
LINE
  5
398
330
1F
100
AcDbEntity
  8
Linee visibili 2D
100
AcDbLine
 10
410.0505350712349
 20
333.8577041238397
 30
0.0
 11
410.181063489984
 21
333.80297637428
 31
0.0
  0
LINE
  5
399
330
1F
100
AcDbEntity
  8
Linee visibili 2D
100
AcDbLine
 10
410.181063489984
 20
333.80297637428
 30
0.0
 11
410.3096251415321
 21
333.7437758977259
 31
0.0
  0
LINE
  5
39A
330
1F
100
AcDbEntity
  8
Linee visibili 2D
100
AcDbLine
 10
410.3096251415321
 20
333.7437758977259
 30
0.0
 11
410.4360668165296
 21
333.6801732445041
 31
0.0
  0
LINE
  5
39B
330
1F
100
AcDbEntity
  8
Linee visibili 2D
100
AcDbLine
 10
410.4360668165296
 20
333.6801732445041
 30
0.0
 11
410.5602378320428
 21
333.6122442110985
 31
0.0
  0
LINE
  5
39C
330
1F
100
AcDbEntity
  8
Linee visibili 2D
100
AcDbLine
 10
410.5602378320428
 20
333.6122442110985
 30
0.0
 11
410.681990211126
 21
333.5400697498218
 31
0.0
  0
LINE
  5
39D
330
1F
100
AcDbEntity
  8
Linee visibili 2D
100
AcDbLine
 10
410.681990211126
 20
333.5400697498218
 30
0.0
 11
410.8011788591683
 21
333.4637358723435
 31
0.0
  0
LINE
  5
39E
330
1F
100
AcDbEntity
  8
Linee visibili 2D
100
AcDbLine
 10
410.8011788591683
 20
333.4637358723435
 30
0.0
 11
410.9176617368053
 21
333.383333547188
 31
0.0
  0
LINE
  5
39F
330
1F
100
AcDbEntity
  8
Linee visibili 2D
100
AcDbLine
 10
410.9176617368053
 20
333.383333547188
 30
0.0
 11
411.0313000291904
 21
333.2989585913255
 31
0.0
  0
LINE
  5
3A0
330
1F
100
AcDbEntity
  8
Linee visibili 2D
100
AcDbLine
 10
411.0313000291904
 20
333.2989585913255
 30
0.0
 11
411.1419583114232
 21
333.2107115559854
 31
0.0
  0
LINE
  5
3A1
330
1F
100
AcDbEntity
  8
Linee visibili 2D
100
AcDbLine
 10
411.1419583114232
 20
333.2107115559854
 30
0.0
 11
411.2495047099374
 21
333.1186976068275
 31
0.0
  0
LINE
  5
3A2
330
1F
100
AcDbEntity
  8
Linee visibili 2D
100
AcDbLine
 10
411.2495047099374
 20
333.1186976068275
 30
0.0
 11
411.3538110596576
 21
333.0230263986138
 31
0.0
  0
LINE
  5
3A3
330
1F
100
AcDbEntity
  8
Linee visibili 2D
100
AcDbLine
 10
411.3538110596576
 20
333.0230263986138
 30
0.0
 11
411.4547530567356
 21
332.9238119445312
 31
0.0
  0
LINE
  5
3A4
330
1F
100
AcDbEntity
  8
Linee visibili 2D
100
AcDbLine
 10
411.4547530567356
 20
332.9238119445312
 30
0.0
 11
411.552210406686
 21
332.8211724803195
 31
0.0
  0
LINE
  5
3A5
330
1F
100
AcDbEntity
  8
Linee visibili 2D
100
AcDbLine
 10
411.552210406686
 20
332.8211724803195
 30
0.0
 11
411.6460669677429
 21
332.7152303233678
 31
0.0
  0
LINE
  5
3A6
330
1F
100
AcDbEntity
  8
Linee visibili 2D
100
AcDbLine
 10
411.6460669677429
 20
332.7152303233678
 30
0.0
 11
411.7362108892691
 21
332.6061117269468
 31
0.0
  0
LINE
  5
3A7
330
1F
100
AcDbEntity
  8
Linee visibili 2D
100
AcDbLine
 10
411.7362108892691
 20
332.6061117269468
 30
0.0
 11
411.8225347450496
 21
332.4939467297498
 31
0.0
  0
LINE
  5
3A8
330
1F
100
AcDbEntity
  8
Linee visibili 2D
100
AcDbLine
 10
411.8225347450496
 20
332.4939467297498
 30
0.0
 11
411.9049356613141
 21
332.3788690009237
 31
0.0
  0
LINE
  5
3A9
330
1F
100
AcDbEntity
  8
Linee visibili 2D
100
AcDbLine
 10
411.9049356613141
 20
332.3788690009237
 30
0.0
 11
411.9833154393337
 21
332.2610156807727
 31
0.0
  0
LINE
  5
3AA
330
1F
100
AcDbEntity
  8
Linee visibili 2D
100
AcDbLine
 10
411.9833154393337
 20
332.2610156807727
 30
0.0
 11
412.0575806724455
 21
332.1405272173255
 31
0.0
  0
LINE
  5
3AB
330
1F
100
AcDbEntity
  8
Linee visibili 2D
100
AcDbLine
 10
412.0575806724455
 20
332.1405272173255
 30
0.0
 11
412.1276428573679
 21
332.0175471989611
 31
0.0
  0
LINE
  5
3AC
330
1F
100
AcDbEntity
  8
Linee visibili 2D
100
AcDbLine
 10
412.1276428573679
 20
332.0175471989611
 30
0.0
 11
412.193418499671
 21
331.8922221832913
 31
0.0
  0
LINE
  5
3AD
330
1F
100
AcDbEntity
  8
Linee visibili 2D
100
AcDbLine
 10
412.193418499671
 20
331.8922221832913
 30
0.0
 11
412.2548292132789
 21
331.7647015225058
 31
0.0
  0
LINE
  5
3AE
330
1F
100
AcDbEntity
  8
Linee visibili 2D
100
AcDbLine
 10
412.2548292132789
 20
331.7647015225058
 30
0.0
 11
412.3118018138836
 21
331.6351371853858
 31
0.0
  0
LINE
  5
3AF
330
1F
100
AcDbEntity
  8
Linee visibili 2D
100
AcDbLine
 10
412.3118018138836
 20
331.6351371853858
 30
0.0
 11
412.3642684061604
 21
331.5036835762003
 31
0.0
  0
LINE
  5
3B0
330
1F
100
AcDbEntity
  8
Linee visibili 2D
100
AcDbLine
 10
412.3642684061604
 20
331.5036835762003
 30
0.0
 11
412.4121664646797
 21
331.3704973506997
 31
0.0
  0
LINE
  5
3B1
330
1F
100
AcDbEntity
  8
Linee visibili 2D
100
AcDbLine
 10
412.4121664646797
 20
331.3704973506997
 30
0.0
 11
412.45543890842
 21
331.2357372294259
 31
0.0
  0
LINE
  5
3B2
330
1F
100
AcDbEntity
  8
Linee visibili 2D
100
AcDbLine
 10
412.45543890842
 20
331.2357372294259
 30
0.0
 11
412.4940341687924
 21
331.0995638085619
 31
0.0
  0
LINE
  5
3B3
330
1F
100
AcDbEntity
  8
Linee visibili 2D
100
AcDbLine
 10
412.4940341687924
 20
331.0995638085619
 30
0.0
 11
412.5279062510957
 21
330.9621393685468
 31
0.0
  0
LINE
  5
3B4
330
1F
100
AcDbEntity
  8
Linee visibili 2D
100
AcDbLine
 10
412.5279062510957
 20
330.9621393685468
 30
0.0
 11
412.5570147893292
 21
330.8236276806829
 31
0.0
  0
LINE
  5
3B5
330
1F
100
AcDbEntity
  8
Linee visibili 2D
100
AcDbLine
 10
412.5570147893292
 20
330.8236276806829
 30
0.0
 11
412.5813250942981
 21
330.6841938119661
 31
0.0
  0
LINE
  5
3B6
330
1F
100
AcDbEntity
  8
Linee visibili 2D
100
AcDbLine
 10
412.5813250942981
 20
330.6841938119661
 30
0.0
 11
412.6008081949522
 21
330.5440039283728
 31
0.0
  0
LINE
  5
3B7
330
1F
100
AcDbEntity
  8
Linee visibili 2D
100
AcDbLine
 10
412.6008081949522
 20
330.5440039283728
 30
0.0
 11
412.6154408729125
 21
330.4032250968365
 31
0.0
  0
LINE
  5
3B8
330
1F
100
AcDbEntity
  8
Linee visibili 2D
100
AcDbLine
 10
412.6154408729125
 20
330.4032250968365
 30
0.0
 11
412.62520569014
 21
330.2620250861512
 31
0.0
  0
LINE
  5
3B9
330
1F
100
AcDbEntity
  8
Linee visibili 2D
100
AcDbLine
 10
412.62520569014
 20
330.2620250861512
 30
0.0
 11
412.6300910097177
 21
330.120572167038
 31
0.0
  0
LINE
  5
3BA
330
1F
100
AcDbEntity
  8
Linee visibili 2D
100
AcDbLine
 10
412.6300910097177
 20
330.120572167038
 30
0.0
 11
412.6300910097177
 21
329.9790349116138
 31
0.0
  0
LINE
  5
3BB
330
1F
100
AcDbEntity
  8
Linee visibili 2D
100
AcDbLine
 10
412.6300910097177
 20
329.9790349116138
 30
0.0
 11
412.62520569014
 21
329.8375819925006
 31
0.0
  0
LINE
  5
3BC
330
1F
100
AcDbEntity
  8
Linee visibili 2D
100
AcDbLine
 10
412.62520569014
 20
329.8375819925006
 30
0.0
 11
412.6154408729125
 21
329.6963819818154
 31
0.0
  0
LINE
  5
3BD
330
1F
100
AcDbEntity
  8
Linee visibili 2D
100
AcDbLine
 10
412.6154408729125
 20
329.6963819818154
 30
0.0
 11
412.6008081949522
 21
329.5556031502791
 31
0.0
  0
LINE
  5
3BE
330
1F
100
AcDbEntity
  8
Linee visibili 2D
100
AcDbLine
 10
412.6008081949522
 20
329.5556031502791
 30
0.0
 11
412.5813250942981
 21
329.4154132666857
 31
0.0
  0
LINE
  5
3BF
330
1F
100
AcDbEntity
  8
Linee visibili 2D
100
AcDbLine
 10
412.5813250942981
 20
329.4154132666857
 30
0.0
 11
412.5570147893292
 21
329.275979397969
 31
0.0
  0
LINE
  5
3C0
330
1F
100
AcDbEntity
  8
Linee visibili 2D
100
AcDbLine
 10
412.5570147893292
 20
329.275979397969
 30
0.0
 11
412.5279062510957
 21
329.137467710105
 31
0.0
  0
LINE
  5
3C1
330
1F
100
AcDbEntity
  8
Linee visibili 2D
100
AcDbLine
 10
412.5279062510957
 20
329.137467710105
 30
0.0
 11
412.4940341687924
 21
329.00004327009
 31
0.0
  0
LINE
  5
3C2
330
1F
100
AcDbEntity
  8
Linee visibili 2D
100
AcDbLine
 10
412.4940341687924
 20
329.00004327009
 30
0.0
 11
412.45543890842
 21
328.863869849226
 31
0.0
  0
LINE
  5
3C3
330
1F
100
AcDbEntity
  8
Linee visibili 2D
100
AcDbLine
 10
412.45543890842
 20
328.863869849226
 30
0.0
 11
412.4121664646797
 21
328.7291097279521
 31
0.0
  0
LINE
  5
3C4
330
1F
100
AcDbEntity
  8
Linee visibili 2D
100
AcDbLine
 10
412.4121664646797
 20
328.7291097279521
 30
0.0
 11
412.3642684061604
 21
328.5959235024515
 31
0.0
  0
LINE
  5
3C5
330
1F
100
AcDbEntity
  8
Linee visibili 2D
100
AcDbLine
 10
412.3642684061604
 20
328.5959235024515
 30
0.0
 11
412.3118018138836
 21
328.4644698932661
 31
0.0
  0
LINE
  5
3C6
330
1F
100
AcDbEntity
  8
Linee visibili 2D
100
AcDbLine
 10
412.3118018138836
 20
328.4644698932661
 30
0.0
 11
412.2548292132789
 21
328.3349055561461
 31
0.0
  0
LINE
  5
3C7
330
1F
100
AcDbEntity
  8
Linee visibili 2D
100
AcDbLine
 10
412.2548292132789
 20
328.3349055561461
 30
0.0
 11
412.193418499671
 21
328.2073848953605
 31
0.0
  0
LINE
  5
3C8
330
1F
100
AcDbEntity
  8
Linee visibili 2D
100
AcDbLine
 10
412.193418499671
 20
328.2073848953605
 30
0.0
 11
412.1276428573679
 21
328.0820598796907
 31
0.0
  0
LINE
  5
3C9
330
1F
100
AcDbEntity
  8
Linee visibili 2D
100
AcDbLine
 10
412.1276428573679
 20
328.0820598796907
 30
0.0
 11
412.0575806724455
 21
327.9590798613263
 31
0.0
  0
LINE
  5
3CA
330
1F
100
AcDbEntity
  8
Linee visibili 2D
100
AcDbLine
 10
412.0575806724455
 20
327.9590798613263
 30
0.0
 11
411.9833154393337
 21
327.8385913978792
 31
0.0
  0
LINE
  5
3CB
330
1F
100
AcDbEntity
  8
Linee visibili 2D
100
AcDbLine
 10
411.9833154393337
 20
327.8385913978792
 30
0.0
 11
411.9049356613141
 21
327.7207380777281
 31
0.0
  0
LINE
  5
3CC
330
1F
100
AcDbEntity
  8
Linee visibili 2D
100
AcDbLine
 10
411.9049356613141
 20
327.7207380777281
 30
0.0
 11
411.8225347450496
 21
327.6056603489021
 31
0.0
  0
LINE
  5
3CD
330
1F
100
AcDbEntity
  8
Linee visibili 2D
100
AcDbLine
 10
411.8225347450496
 20
327.6056603489021
 30
0.0
 11
411.7362108892691
 21
327.4934953517051
 31
0.0
  0
LINE
  5
3CE
330
1F
100
AcDbEntity
  8
Linee visibili 2D
100
AcDbLine
 10
411.7362108892691
 20
327.4934953517051
 30
0.0
 11
411.6460669677429
 21
327.384376755284
 31
0.0
  0
LINE
  5
3CF
330
1F
100
AcDbEntity
  8
Linee visibili 2D
100
AcDbLine
 10
411.6460669677429
 20
327.384376755284
 30
0.0
 11
411.552210406686
 21
327.2784345983324
 31
0.0
  0
LINE
  5
3D0
330
1F
100
AcDbEntity
  8
Linee visibili 2D
100
AcDbLine
 10
411.552210406686
 20
327.2784345983324
 30
0.0
 11
411.4547530567356
 21
327.1757951341207
 31
0.0
  0
LINE
  5
3D1
330
1F
100
AcDbEntity
  8
Linee visibili 2D
100
AcDbLine
 10
411.4547530567356
 20
327.1757951341207
 30
0.0
 11
411.3538110596576
 21
327.076580680038
 31
0.0
  0
LINE
  5
3D2
330
1F
100
AcDbEntity
  8
Linee visibili 2D
100
AcDbLine
 10
411.3538110596576
 20
327.076580680038
 30
0.0
 11
411.2495047099374
 21
326.9809094718244
 31
0.0
  0
LINE
  5
3D3
330
1F
100
AcDbEntity
  8
Linee visibili 2D
100
AcDbLine
 10
411.2495047099374
 20
326.9809094718244
 30
0.0
 11
411.1419583114232
 21
326.8888955226664
 31
0.0
  0
LINE
  5
3D4
330
1F
100
AcDbEntity
  8
Linee visibili 2D
100
AcDbLine
 10
411.1419583114232
 20
326.8888955226664
 30
0.0
 11
411.0313000291904
 21
326.8006484873264
 31
0.0
  0
LINE
  5
3D5
330
1F
100
AcDbEntity
  8
Linee visibili 2D
100
AcDbLine
 10
411.0313000291904
 20
326.8006484873264
 30
0.0
 11
410.9176617368053
 21
326.7162735314639
 31
0.0
  0
LINE
  5
3D6
330
1F
100
AcDbEntity
  8
Linee visibili 2D
100
AcDbLine
 10
410.9176617368053
 20
326.7162735314639
 30
0.0
 11
410.8011788591683
 21
326.6358712063083
 31
0.0
  0
LINE
  5
3D7
330
1F
100
AcDbEntity
  8
Linee visibili 2D
100
AcDbLine
 10
410.8011788591683
 20
326.6358712063083
 30
0.0
 11
410.681990211126
 21
326.55953732883
 31
0.0
  0
LINE
  5
3D8
330
1F
100
AcDbEntity
  8
Linee visibili 2D
100
AcDbLine
 10
410.681990211126
 20
326.55953732883
 30
0.0
 11
410.5602378320428
 21
326.4873628675533
 31
0.0
  0
LINE
  5
3D9
330
1F
100
AcDbEntity
  8
Linee visibili 2D
100
AcDbLine
 10
410.5602378320428
 20
326.4873628675533
 30
0.0
 11
410.4360668165296
 21
326.4194338341477
 31
0.0
  0
LINE
  5
3DA
330
1F
100
AcDbEntity
  8
Linee visibili 2D
100
AcDbLine
 10
410.4360668165296
 20
326.4194338341477
 30
0.0
 11
410.3096251415321
 21
326.3558311809259
 31
0.0
  0
LINE
  5
3DB
330
1F
100
AcDbEntity
  8
Linee visibili 2D
100
AcDbLine
 10
410.3096251415321
 20
326.3558311809259
 30
0.0
 11
410.181063489984
 21
326.2966307043719
 31
0.0
  0
LINE
  5
3DC
330
1F
100
AcDbEntity
  8
Linee visibili 2D
100
AcDbLine
 10
410.181063489984
 20
326.2966307043719
 30
0.0
 11
410.0505350712349
 21
326.2419029548121
 31
0.0
  0
LINE
  5
3DD
330
1F
100
AcDbEntity
  8
Linee visibili 2D
100
AcDbLine
 10
410.0505350712349
 20
326.2419029548121
 30
0.0
 11
409.9181954384682
 21
326.1917131523401
 31
0.0
  0
LINE
  5
3DE
330
1F
100
AcDbEntity
  8
Linee visibili 2D
100
AcDbLine
 10
409.9181954384682
 20
326.1917131523401
 30
0.0
 11
409.7842023033251
 21
326.1461211090919
 31
0.0
  0
LINE
  5
3DF
330
1F
100
AcDbEntity
  8
Linee visibili 2D
100
AcDbLine
 10
409.7842023033251
 20
326.1461211090919
 30
0.0
 11
409.648715347957
 21
326.1051811579671
 31
0.0
  0
LINE
  5
3E0
330
1F
100
AcDbEntity
  8
Linee visibili 2D
100
AcDbLine
 10
409.648715347957
 20
326.1051811579671
 30
0.0
 11
409.5118960347291
 21
326.068942087879
 31
0.0
  0
LINE
  5
3E1
330
1F
100
AcDbEntity
  8
Linee visibili 2D
100
AcDbLine
 10
409.5118960347291
 20
326.068942087879
 30
0.0
 11
409.3739074138024
 21
326.0374470856124
 31
0.0
  0
LINE
  5
3E2
330
1F
100
AcDbEntity
  8
Linee visibili 2D
100
AcDbLine
 10
409.3739074138024
 20
326.0374470856124
 30
0.0
 11
409.2349139288243
 21
326.0107336843566
 31
0.0
  0
LINE
  5
3E3
330
1F
100
AcDbEntity
  8
Linee visibili 2D
100
AcDbLine
 10
409.2349139288243
 20
326.0107336843566
 30
0.0
 11
409.0950812209575
 21
325.9888337189768
 31
0.0
  0
LINE
  5
3E4
330
1F
100
AcDbEntity
  8
Linee visibili 2D
100
AcDbLine
 10
409.0950812209575
 20
325.9888337189768
 30
0.0
 11
408.9545759314824
 21
325.9717732880756
 31
0.0
  0
LINE
  5
3E5
330
1F
100
AcDbEntity
  8
Linee visibili 2D
100
AcDbLine
 10
408.9545759314824
 20
325.9717732880756
 30
0.0
 11
408.8135655032078
 21
325.9595727228907
 31
0.0
  0
LINE
  5
3E6
330
1F
100
AcDbEntity
  8
Linee visibili 2D
100
AcDbLine
 10
408.8135655032078
 20
325.9595727228907
 30
0.0
 11
408.6722179809259
 21
325.9522465630665
 31
0.0
  0
LINE
  5
3E7
330
1F
100
AcDbEntity
  8
Linee visibili 2D
100
AcDbLine
 10
408.6722179809259
 20
325.9522465630665
 30
0.0
 11
408.5307018111501
 21
325.9498035393258
 31
0.0
  0
LINE
  5
3E8
330
1F
100
AcDbEntity
  8
Linee visibili 2D
100
AcDbLine
 10
408.5307018111501
 20
325.949803539326
 30
0.0
 11
408.3891856413743
 21
325.9522465630666
 31
0.0
  0
LINE
  5
3E9
330
1F
100
AcDbEntity
  8
Linee visibili 2D
100
AcDbLine
 10
408.3891856413743
 20
325.9522465630666
 30
0.0
 11
408.2478381190924
 21
325.9595727228908
 31
0.0
  0
LINE
  5
3EA
330
1F
100
AcDbEntity
  8
Linee visibili 2D
100
AcDbLine
 10
408.2478381190924
 20
325.9595727228908
 30
0.0
 11
408.1068276908178
 21
325.9717732880757
 31
0.0
  0
LINE
  5
3EB
330
1F
100
AcDbEntity
  8
Linee visibili 2D
100
AcDbLine
 10
408.1068276908178
 20
325.9717732880757
 30
0.0
 11
407.9663224013427
 21
325.9888337189769
 31
0.0
  0
LINE
  5
3EC
330
1F
100
AcDbEntity
  8
Linee visibili 2D
100
AcDbLine
 10
407.9663224013427
 20
325.9888337189769
 30
0.0
 11
407.8264896934759
 21
326.0107336843568
 31
0.0
  0
LINE
  5
3ED
330
1F
100
AcDbEntity
  8
Linee visibili 2D
100
AcDbLine
 10
407.8264896934759
 20
326.0107336843568
 30
0.0
 11
407.6874962084977
 21
326.0374470856125
 31
0.0
  0
LINE
  5
3EE
330
1F
100
AcDbEntity
  8
Linee visibili 2D
100
AcDbLine
 10
407.6874962084977
 20
326.0374470856125
 30
0.0
 11
407.5495075875711
 21
326.0689420878791
 31
0.0
  0
LINE
  5
3EF
330
1F
100
AcDbEntity
  8
Linee visibili 2D
100
AcDbLine
 10
407.5495075875711
 20
326.0689420878791
 30
0.0
 11
407.4126882743432
 21
326.1051811579672
 31
0.0
  0
LINE
  5
3F0
330
1F
100
AcDbEntity
  8
Linee visibili 2D
100
AcDbLine
 10
407.4126882743432
 20
326.1051811579672
 30
0.0
 11
407.2772013189751
 21
326.146121109092
 31
0.0
  0
LINE
  5
3F1
330
1F
100
AcDbEntity
  8
Linee visibili 2D
100
AcDbLine
 10
407.2772013189751
 20
326.146121109092
 30
0.0
 11
407.143208183832
 21
326.1917131523402
 31
0.0
  0
LINE
  5
3F2
330
1F
100
AcDbEntity
  8
Linee visibili 2D
100
AcDbLine
 10
407.143208183832
 20
326.1917131523402
 30
0.0
 11
407.0108685510653
 21
326.2419029548122
 31
0.0
  0
LINE
  5
3F3
330
1F
100
AcDbEntity
  8
Linee visibili 2D
100
AcDbLine
 10
407.0108685510653
 20
326.2419029548122
 30
0.0
 11
406.8803401323162
 21
326.296630704372
 31
0.0
  0
LINE
  5
3F4
330
1F
100
AcDbEntity
  8
Linee visibili 2D
100
AcDbLine
 10
406.8803401323162
 20
326.296630704372
 30
0.0
 11
406.7517784807681
 21
326.355831180926
 31
0.0
  0
LINE
  5
3F5
330
1F
100
AcDbEntity
  8
Linee visibili 2D
100
AcDbLine
 10
406.7517784807681
 20
326.355831180926
 30
0.0
 11
406.6253368057706
 21
326.4194338341478
 31
0.0
  0
LINE
  5
3F6
330
1F
100
AcDbEntity
  8
Linee visibili 2D
100
AcDbLine
 10
406.6253368057706
 20
326.4194338341478
 30
0.0
 11
406.5011657902574
 21
326.4873628675534
 31
0.0
  0
LINE
  5
3F7
330
1F
100
AcDbEntity
  8
Linee visibili 2D
100
AcDbLine
 10
406.5011657902574
 20
326.4873628675534
 30
0.0
 11
406.3794134111741
 21
326.5595373288302
 31
0.0
  0
LINE
  5
3F8
330
1F
100
AcDbEntity
  8
Linee visibili 2D
100
AcDbLine
 10
406.3794134111741
 20
326.5595373288302
 30
0.0
 11
406.2602247631319
 21
326.6358712063085
 31
0.0
  0
LINE
  5
3F9
330
1F
100
AcDbEntity
  8
Linee visibili 2D
100
AcDbLine
 10
406.2602247631319
 20
326.6358712063085
 30
0.0
 11
406.1437418854949
 21
326.716273531464
 31
0.0
  0
LINE
  5
3FA
330
1F
100
AcDbEntity
  8
Linee visibili 2D
100
AcDbLine
 10
406.1437418854949
 20
326.716273531464
 30
0.0
 11
406.0301035931097
 21
326.8006484873266
 31
0.0
  0
LINE
  5
3FB
330
1F
100
AcDbEntity
  8
Linee visibili 2D
100
AcDbLine
 10
406.0301035931097
 20
326.8006484873266
 30
0.0
 11
405.919445310877
 21
326.8888955226666
 31
0.0
  0
LINE
  5
3FC
330
1F
100
AcDbEntity
  8
Linee visibili 2D
100
AcDbLine
 10
405.919445310877
 20
326.8888955226666
 30
0.0
 11
405.8118989123628
 21
326.9809094718245
 31
0.0
  0
LINE
  5
3FD
330
1F
100
AcDbEntity
  8
Linee visibili 2D
100
AcDbLine
 10
405.8118989123628
 20
326.9809094718245
 30
0.0
 11
405.7075925626426
 21
327.0765806800381
 31
0.0
  0
LINE
  5
3FE
330
1F
100
AcDbEntity
  8
Linee visibili 2D
100
AcDbLine
 10
405.7075925626426
 20
327.0765806800381
 30
0.0
 11
405.6066505655646
 21
327.1757951341208
 31
0.0
  0
LINE
  5
3FF
330
1F
100
AcDbEntity
  8
Linee visibili 2D
100
AcDbLine
 10
405.6066505655646
 20
327.1757951341208
 30
0.0
 11
405.5091932156143
 21
327.2784345983325
 31
0.0
  0
LINE
  5
400
330
1F
100
AcDbEntity
  8
Linee visibili 2D
100
AcDbLine
 10
405.5091932156143
 20
327.2784345983325
 30
0.0
 11
405.4153366545573
 21
327.3843767552842
 31
0.0
  0
LINE
  5
401
330
1F
100
AcDbEntity
  8
Linee visibili 2D
100
AcDbLine
 10
405.4153366545573
 20
327.3843767552842
 30
0.0
 11
405.3251927330311
 21
327.4934953517052
 31
0.0
  0
LINE
  5
402
330
1F
100
AcDbEntity
  8
Linee visibili 2D
100
AcDbLine
 10
405.3251927330311
 20
327.4934953517052
 30
0.0
 11
405.2388688772506
 21
327.6056603489022
 31
0.0
  0
LINE
  5
403
330
1F
100
AcDbEntity
  8
Linee visibili 2D
100
AcDbLine
 10
405.2388688772506
 20
327.6056603489022
 30
0.0
 11
405.156467960986
 21
327.7207380777283
 31
0.0
  0
LINE
  5
404
330
1F
100
AcDbEntity
  8
Linee visibili 2D
100
AcDbLine
 10
405.156467960986
 20
327.7207380777283
 30
0.0
 11
405.0780881829665
 21
327.8385913978793
 31
0.0
  0
LINE
  5
405
330
1F
100
AcDbEntity
  8
Linee visibili 2D
100
AcDbLine
 10
405.0780881829665
 20
327.8385913978793
 30
0.0
 11
405.0038229498547
 21
327.9590798613265
 31
0.0
  0
LINE
  5
406
330
1F
100
AcDbEntity
  8
Linee visibili 2D
100
AcDbLine
 10
405.0038229498547
 20
327.9590798613265
 30
0.0
 11
404.9337607649324
 21
328.0820598796909
 31
0.0
  0
LINE
  5
407
330
1F
100
AcDbEntity
  8
Linee visibili 2D
100
AcDbLine
 10
404.9337607649324
 20
328.0820598796909
 30
0.0
 11
404.8679851226293
 21
328.2073848953606
 31
0.0
  0
LINE
  5
408
330
1F
100
AcDbEntity
  8
Linee visibili 2D
100
AcDbLine
 10
404.8679851226293
 20
328.2073848953606
 30
0.0
 11
404.8065744090214
 21
328.3349055561462
 31
0.0
  0
LINE
  5
409
330
1F
100
AcDbEntity
  8
Linee visibili 2D
100
AcDbLine
 10
404.8065744090214
 20
328.3349055561462
 30
0.0
 11
404.7496018084167
 21
328.4644698932662
 31
0.0
  0
LINE
  5
40A
330
1F
100
AcDbEntity
  8
Linee visibili 2D
100
AcDbLine
 10
404.7496018084167
 20
328.4644698932662
 30
0.0
 11
404.6971352161399
 21
328.5959235024516
 31
0.0
  0
LINE
  5
40B
330
1F
100
AcDbEntity
  8
Linee visibili 2D
100
AcDbLine
 10
404.6971352161399
 20
328.5959235024516
 30
0.0
 11
404.6492371576206
 21
328.7291097279522
 31
0.0
  0
LINE
  5
40C
330
1F
100
AcDbEntity
  8
Linee visibili 2D
100
AcDbLine
 10
404.6492371576206
 20
328.7291097279522
 30
0.0
 11
404.6059647138803
 21
328.8638698492261
 31
0.0
  0
LINE
  5
40D
330
1F
100
AcDbEntity
  8
Linee visibili 2D
100
AcDbLine
 10
404.6059647138803
 20
328.8638698492261
 30
0.0
 11
404.5673694535079
 21
329.0000432700901
 31
0.0
  0
LINE
  5
40E
330
1F
100
AcDbEntity
  8
Linee visibili 2D
100
AcDbLine
 10
404.5673694535079
 20
329.0000432700901
 30
0.0
 11
404.5334973712046
 21
329.1374677101051
 31
0.0
  0
LINE
  5
40F
330
1F
100
AcDbEntity
  8
Linee visibili 2D
100
AcDbLine
 10
404.5334973712046
 20
329.1374677101051
 30
0.0
 11
404.504388832971
 21
329.2759793979691
 31
0.0
  0
LINE
  5
410
330
1F
100
AcDbEntity
  8
Linee visibili 2D
100
AcDbLine
 10
404.504388832971
 20
329.2759793979691
 30
0.0
 11
404.4800785280022
 21
329.4154132666859
 31
0.0
  0
LINE
  5
411
330
1F
100
AcDbEntity
  8
Linee visibili 2D
100
AcDbLine
 10
404.4800785280022
 20
329.4154132666859
 30
0.0
 11
404.460595427348
 21
329.5556031502792
 31
0.0
  0
LINE
  5
412
330
1F
100
AcDbEntity
  8
Linee visibili 2D
100
AcDbLine
 10
404.460595427348
 20
329.5556031502792
 30
0.0
 11
404.4459627493878
 21
329.6963819818155
 31
0.0
  0
LINE
  5
413
330
1F
100
AcDbEntity
  8
Linee visibili 2D
100
AcDbLine
 10
404.4459627493878
 20
329.6963819818155
 30
0.0
 11
404.4361979321602
 21
329.8375819925008
 31
0.0
  0
LINE
  5
414
330
1F
100
AcDbEntity
  8
Linee visibili 2D
100
AcDbLine
 10
404.4361979321602
 20
329.8375819925008
 30
0.0
 11
404.4313126125826
 21
329.979034911614
 31
0.0
  0
LINE
  5
415
330
1F
100
AcDbEntity
  8
Linee visibili 2D
100
AcDbLine
 10
404.4313126125826
 20
329.979034911614
 30
0.0
 11
404.4313126125826
 21
330.1205721670381
 31
0.0
  0
LINE
  5
416
330
1F
100
AcDbEntity
  8
Linee visibili 2D
100
AcDbLine
 10
404.4313126125826
 20
330.1205721670381
 30
0.0
 11
404.4361979321602
 21
330.2620250861513
 31
0.0
  0
LINE
  5
417
330
1F
100
AcDbEntity
  8
Linee visibili 2D
100
AcDbLine
 10
404.4361979321602
 20
330.2620250861513
 30
0.0
 11
404.4459627493878
 21
330.4032250968366
 31
0.0
  0
LINE
  5
418
330
1F
100
AcDbEntity
  8
Linee visibili 2D
100
AcDbLine
 10
404.4459627493878
 20
330.4032250968366
 30
0.0
 11
404.460595427348
 21
330.5440039283729
 31
0.0
  0
LINE
  5
419
330
1F
100
AcDbEntity
  8
Linee visibili 2D
100
AcDbLine
 10
404.460595427348
 20
330.5440039283729
 30
0.0
 11
404.4800785280022
 21
330.6841938119662
 31
0.0
  0
LINE
  5
41A
330
1F
100
AcDbEntity
  8
Linee visibili 2D
100
AcDbLine
 10
404.4800785280022
 20
330.6841938119662
 30
0.0
 11
404.504388832971
 21
330.823627680683
 31
0.0
  0
LINE
  5
41B
330
1F
100
AcDbEntity
  8
Linee visibili 2D
100
AcDbLine
 10
404.504388832971
 20
330.823627680683
 30
0.0
 11
404.5334973712046
 21
330.962139368547
 31
0.0
  0
LINE
  5
41C
330
1F
100
AcDbEntity
  8
Linee visibili 2D
100
AcDbLine
 10
404.5334973712046
 20
330.962139368547
 30
0.0
 11
404.5673694535079
 21
331.099563808562
 31
0.0
  0
LINE
  5
41D
330
1F
100
AcDbEntity
  8
Linee visibili 2D
100
AcDbLine
 10
404.5673694535079
 20
331.099563808562
 30
0.0
 11
404.6059647138802
 21
331.235737229426
 31
0.0
  0
LINE
  5
41E
330
1F
100
AcDbEntity
  8
Linee visibili 2D
100
AcDbLine
 10
404.6059647138802
 20
331.235737229426
 30
0.0
 11
404.6492371576206
 21
331.3704973506998
 31
0.0
  0
LINE
  5
41F
330
1F
100
AcDbEntity
  8
Linee visibili 2D
100
AcDbLine
 10
404.6492371576206
 20
331.3704973506998
 30
0.0
 11
404.6971352161398
 21
331.5036835762004
 31
0.0
  0
LINE
  5
420
330
1F
100
AcDbEntity
  8
Linee visibili 2D
100
AcDbLine
 10
404.6971352161398
 20
331.5036835762004
 30
0.0
 11
404.7496018084166
 21
331.6351371853859
 31
0.0
  0
LINE
  5
421
330
1F
100
AcDbEntity
  8
Linee visibili 2D
100
AcDbLine
 10
404.7496018084166
 20
331.6351371853859
 30
0.0
 11
404.8065744090214
 21
331.7647015225059
 31
0.0
  0
LINE
  5
422
330
1F
100
AcDbEntity
  8
Linee visibili 2D
100
AcDbLine
 10
404.8065744090214
 20
331.7647015225059
 30
0.0
 11
404.8679851226292
 21
331.8922221832914
 31
0.0
  0
LINE
  5
423
330
1F
100
AcDbEntity
  8
Linee visibili 2D
100
AcDbLine
 10
404.8679851226292
 20
331.8922221832914
 30
0.0
 11
404.9337607649323
 21
332.0175471989612
 31
0.0
  0
LINE
  5
424
330
1F
100
AcDbEntity
  8
Linee visibili 2D
100
AcDbLine
 10
404.9337607649323
 20
332.0175471989612
 30
0.0
 11
405.0038229498547
 21
332.1405272173256
 31
0.0
  0
LINE
  5
425
330
1F
100
AcDbEntity
  8
Linee visibili 2D
100
AcDbLine
 10
405.0038229498547
 20
332.1405272173256
 30
0.0
 11
405.0780881829666
 21
332.2610156807728
 31
0.0
  0
LINE
  5
426
330
1F
100
AcDbEntity
  8
Linee visibili 2D
100
AcDbLine
 10
405.0780881829666
 20
332.2610156807728
 30
0.0
 11
405.1564679609861
 21
332.3788690009238
 31
0.0
  0
LINE
  5
427
330
1F
100
AcDbEntity
  8
Linee visibili 2D
100
AcDbLine
 10
405.1564679609861
 20
332.3788690009238
 30
0.0
 11
405.2388688772507
 21
332.4939467297499
 31
0.0
  0
LINE
  5
428
330
1F
100
AcDbEntity
  8
Linee visibili 2D
100
AcDbLine
 10
405.2388688772507
 20
332.4939467297499
 30
0.0
 11
405.3251927330312
 21
332.6061117269469
 31
0.0
  0
LINE
  5
429
330
1F
100
AcDbEntity
  8
Linee visibili 2D
100
AcDbLine
 10
405.3251927330312
 20
332.6061117269469
 30
0.0
 11
405.4153366545573
 21
332.715230323368
 31
0.0
  0
LINE
  5
42A
330
1F
100
AcDbEntity
  8
Linee visibili 2D
100
AcDbLine
 10
405.4153366545573
 20
332.715230323368
 30
0.0
 11
405.5091932156143
 21
332.8211724803196
 31
0.0
  0
LINE
  5
42B
330
1F
100
AcDbEntity
  8
Linee visibili 2D
100
AcDbLine
 10
405.5091932156143
 20
332.8211724803196
 30
0.0
 11
405.6066505655646
 21
332.9238119445313
 31
0.0
  0
LINE
  5
42C
330
1F
100
AcDbEntity
  8
Linee visibili 2D
100
AcDbLine
 10
405.6066505655646
 20
332.9238119445313
 30
0.0
 11
405.7075925626427
 21
333.0230263986139
 31
0.0
  0
LINE
  5
42D
330
1F
100
AcDbEntity
  8
Linee visibili 2D
100
AcDbLine
 10
405.7075925626427
 20
333.0230263986139
 30
0.0
 11
405.8118989123628
 21
333.1186976068276
 31
0.0
  0
LINE
  5
42E
330
1F
100
AcDbEntity
  8
Linee visibili 2D
100
AcDbLine
 10
405.8118989123628
 20
333.1186976068276
 30
0.0
 11
405.9194453108771
 21
333.2107115559855
 31
0.0
  0
LINE
  5
42F
330
1F
100
AcDbEntity
  8
Linee visibili 2D
100
AcDbLine
 10
405.9194453108771
 20
333.2107115559855
 30
0.0
 11
406.0301035931098
 21
333.2989585913256
 31
0.0
  0
LINE
  5
430
330
1F
100
AcDbEntity
  8
Linee visibili 2D
100
AcDbLine
 10
406.0301035931098
 20
333.2989585913256
 30
0.0
 11
406.1437418854949
 21
333.3833335471881
 31
0.0
  0
LINE
  5
431
330
1F
100
AcDbEntity
  8
Linee visibili 2D
100
AcDbLine
 10
406.1437418854949
 20
333.3833335471881
 30
0.0
 11
406.2602247631319
 21
333.4637358723436
 31
0.0
  0
LINE
  5
432
330
1F
100
AcDbEntity
  8
Linee visibili 2D
100
AcDbLine
 10
406.2602247631319
 20
333.4637358723436
 30
0.0
 11
406.3794134111741
 21
333.540069749822
 31
0.0
  0
LINE
  5
433
330
1F
100
AcDbEntity
  8
Linee visibili 2D
100
AcDbLine
 10
406.3794134111741
 20
333.540069749822
 30
0.0
 11
406.5011657902574
 21
333.6122442110986
 31
0.0
  0
LINE
  5
434
330
1F
100
AcDbEntity
  8
Linee visibili 2D
100
AcDbLine
 10
406.5011657902574
 20
333.6122442110986
 30
0.0
 11
406.6253368057706
 21
333.6801732445042
 31
0.0
  0
LINE
  5
435
330
1F
100
AcDbEntity
  8
Linee visibili 2D
100
AcDbLine
 10
406.6253368057706
 20
333.6801732445042
 30
0.0
 11
406.7517784807681
 21
333.743775897726
 31
0.0
  0
LINE
  5
436
330
1F
100
AcDbEntity
  8
Linee visibili 2D
100
AcDbLine
 10
406.7517784807681
 20
333.743775897726
 30
0.0
 11
406.8803401323162
 21
333.8029763742801
 31
0.0
  0
LINE
  5
437
330
1F
100
AcDbEntity
  8
Linee visibili 2D
100
AcDbLine
 10
406.8803401323162
 20
333.8029763742801
 30
0.0
 11
407.0108685510653
 21
333.8577041238398
 31
0.0
  0
LINE
  5
438
330
1F
100
AcDbEntity
  8
Linee visibili 2D
100
AcDbLine
 10
407.0108685510653
 20
333.8577041238398
 30
0.0
 11
407.143208183832
 21
333.9078939263118
 31
0.0
  0
LINE
  5
439
330
1F
100
AcDbEntity
  8
Linee visibili 2D
100
AcDbLine
 10
407.143208183832
 20
333.9078939263118
 30
0.0
 11
407.2772013189751
 21
333.95348596956
 31
0.0
  0
LINE
  5
43A
330
1F
100
AcDbEntity
  8
Linee visibili 2D
100
AcDbLine
 10
407.2772013189751
 20
333.95348596956
 30
0.0
 11
407.4126882743432
 21
333.9944259206848
 31
0.0
  0
LINE
  5
43B
330
1F
100
AcDbEntity
  8
Linee visibili 2D
100
AcDbLine
 10
407.4126882743432
 20
333.9944259206848
 30
0.0
 11
407.5495075875711
 21
334.0306649907729
 31
0.0
  0
LINE
  5
43C
330
1F
100
AcDbEntity
  8
Linee visibili 2D
100
AcDbLine
 10
407.5495075875711
 20
334.0306649907729
 30
0.0
 11
407.6874962084977
 21
334.0621599930395
 31
0.0
  0
LINE
  5
43D
330
1F
100
AcDbEntity
  8
Linee visibili 2D
100
AcDbLine
 10
407.6874962084977
 20
334.0621599930395
 30
0.0
 11
407.8264896934759
 21
334.0888733942953
 31
0.0
  0
LINE
  5
43E
330
1F
100
AcDbEntity
  8
Linee visibili 2D
100
AcDbLine
 10
407.8264896934759
 20
334.0888733942953
 30
0.0
 11
407.9663224013427
 21
334.1107733596751
 31
0.0
  0
LINE
  5
43F
330
1F
100
AcDbEntity
  8
Linee visibili 2D
100
AcDbLine
 10
407.9663224013427
 20
334.1107733596751
 30
0.0
 11
408.1068276908178
 21
334.1278337905764
 31
0.0
  0
LINE
  5
440
330
1F
100
AcDbEntity
  8
Linee visibili 2D
100
AcDbLine
 10
408.1068276908178
 20
334.1278337905764
 30
0.0
 11
408.2478381190924
 21
334.1400343557612
 31
0.0
  0
LINE
  5
441
330
1F
100
AcDbEntity
  8
Linee visibili 2D
100
AcDbLine
 10
408.2478381190924
 20
334.1400343557612
 30
0.0
 11
408.3891856413743
 21
334.1473605155855
 31
0.0
  0
LINE
  5
442
330
1F
100
AcDbEntity
  8
Linee visibili 2D
100
AcDbLine
 10
408.3891856413743
 20
334.1473605155855
 30
0.0
 11
408.5307018111501
 21
334.1498035393261
 31
0.0
  0
LINE
  5
443
330
1F
100
AcDbEntity
  8
Linee visibili 2D
100
AcDbLine
 10
336.2141767521594
 20
324.5410781004899
 30
0.0
 11
336.0392292569423
 21
334.5607683244197
 31
0.0
  0
LINE
  5
444
330
1F
100
AcDbEntity
  8
Linee visibili 2D
100
AcDbLine
 10
481.0221740087213
 20
334.5607683243805
 30
0.0
 11
480.8472702807335
 21
324.5410773345041
 31
0.0
  0
LINE
  5
445
330
1F
100
AcDbEntity
  8
Linee visibili 2D
100
AcDbLine
 10
335.7952913161963
 20
335.2050412741683
 30
0.0
 11
335.8167960157458
 21
335.1793663072169
 31
0.0
  0
LINE
  5
446
330
1F
100
AcDbEntity
  8
Linee visibili 2D
100
AcDbLine
 10
335.8167960157458
 20
335.1793663072169
 30
0.0
 11
335.8374279313797
 21
335.1529848726852
 31
0.0
  0
LINE
  5
447
330
1F
100
AcDbEntity
  8
Linee visibili 2D
100
AcDbLine
 10
335.8374279313797
 20
335.1529848726852
 30
0.0
 11
335.8571638708597
 21
335.1259266258183
 31
0.0
  0
LINE
  5
448
330
1F
100
AcDbEntity
  8
Linee visibili 2D
100
AcDbLine
 10
335.8571638708597
 20
335.1259266258183
 30
0.0
 11
335.8759816491103
 21
335.0982219826626
 31
0.0
  0
LINE
  5
449
330
1F
100
AcDbEntity
  8
Linee visibili 2D
100
AcDbLine
 10
335.8759816491103
 20
335.0982219826626
 30
0.0
 11
335.8938601131563
 21
335.0699020858756
 31
0.0
  0
LINE
  5
44A
330
1F
100
AcDbEntity
  8
Linee visibili 2D
100
AcDbLine
 10
335.8938601131563
 20
335.0699020858756
 30
0.0
 11
335.9107791659017
 21
335.0409987697186
 31
0.0
  0
LINE
  5
44B
330
1F
100
AcDbEntity
  8
Linee visibili 2D
100
AcDbLine
 10
335.9107791659017
 20
335.0409987697186
 30
0.0
 11
335.9267197887195
 21
335.0115445242716
 31
0.0
  0
LINE
  5
44C
330
1F
100
AcDbEntity
  8
Linee visibili 2D
100
AcDbLine
 10
335.9267197887195
 20
335.0115445242716
 30
0.0
 11
335.9416640628317
 21
334.9815724589119
 31
0.0
  0
LINE
  5
44D
330
1F
100
AcDbEntity
  8
Linee visibili 2D
100
AcDbLine
 10
335.9416640628317
 20
334.9815724589119
 30
0.0
 11
335.9555951894508
 21
334.9511162650953
 31
0.0
  0
LINE
  5
44E
330
1F
100
AcDbEntity
  8
Linee visibili 2D
100
AcDbLine
 10
335.9555951894508
 20
334.9511162650953
 30
0.0
 11
335.9684975086637
 21
334.9202101784844
 31
0.0
  0
LINE
  5
44F
330
1F
100
AcDbEntity
  8
Linee visibili 2D
100
AcDbLine
 10
335.9684975086637
 20
334.9202101784844
 30
0.0
 11
335.9803565170347
 21
334.888888940464
 31
0.0
  0
LINE
  5
450
330
1F
100
AcDbEntity
  8
Linee visibili 2D
100
AcDbLine
 10
335.9803565170347
 20
334.888888940464
 30
0.0
 11
335.9911588839091
 21
334.8571877590888
 31
0.0
  0
LINE
  5
451
330
1F
100
AcDbEntity
  8
Linee visibili 2D
100
AcDbLine
 10
335.9911588839091
 20
334.8571877590888
 30
0.0
 11
336.0008924663975
 21
334.8251422695059
 31
0.0
  0
LINE
  5
452
330
1F
100
AcDbEntity
  8
Linee visibili 2D
100
AcDbLine
 10
336.0008924663975
 20
334.8251422695059
 30
0.0
 11
336.0095463230263
 21
334.7927884938975
 31
0.0
  0
LINE
  5
453
330
1F
100
AcDbEntity
  8
Linee visibili 2D
100
AcDbLine
 10
336.0095463230263
 20
334.7927884938975
 30
0.0
 11
336.0171107260364
 21
334.7601628009888
 31
0.0
  0
LINE
  5
454
330
1F
100
AcDbEntity
  8
Linee visibili 2D
100
AcDbLine
 10
336.0171107260364
 20
334.7601628009888
 30
0.0
 11
336.0235771723185
 21
334.7273018651659
 31
0.0
  0
LINE
  5
455
330
1F
100
AcDbEntity
  8
Linee visibili 2D
100
AcDbLine
 10
336.0235771723185
 20
334.7273018651659
 30
0.0
 11
336.0289383929709
 21
334.6942426252505
 31
0.0
  0
LINE
  5
456
330
1F
100
AcDbEntity
  8
Linee visibili 2D
100
AcDbLine
 10
336.0289383929709
 20
334.6942426252505
 30
0.0
 11
336.0331883614711
 21
334.6610222429767
 31
0.0
  0
LINE
  5
457
330
1F
100
AcDbEntity
  8
Linee visibili 2D
100
AcDbLine
 10
336.0331883614711
 20
334.6610222429767
 30
0.0
 11
336.0363223004498
 21
334.6276780612181
 31
0.0
  0
LINE
  5
458
330
1F
100
AcDbEntity
  8
Linee visibili 2D
100
AcDbLine
 10
336.0363223004498
 20
334.6276780612181
 30
0.0
 11
336.038336687061
 21
334.5942475620108
 31
0.0
  0
LINE
  5
459
330
1F
100
AcDbEntity
  8
Linee visibili 2D
100
AcDbLine
 10
336.038336687061
 20
334.5942475620108
 30
0.0
 11
336.0392292569423
 21
334.5607683244197
 31
0.0
  0
LINE
  5
45A
330
1F
100
AcDbEntity
  8
Linee visibili 2D
100
AcDbLine
 10
481.0221740087213
 20
334.5607683243805
 30
0.0
 11
481.0236644563396
 21
334.5946012711849
 31
0.0
  0
LINE
  5
45B
330
1F
100
AcDbEntity
  8
Linee visibili 2D
100
AcDbLine
 10
481.0236644563396
 20
334.5946012711849
 30
0.0
 11
481.026316158509
 21
334.6283630572629
 31
0.0
  0
LINE
  5
45C
330
1F
100
AcDbEntity
  8
Linee visibili 2D
100
AcDbLine
 10
481.026316158509
 20
334.6283630572629
 30
0.0
 11
481.0301259856518
 21
334.6620138364621
 31
0.0
  0
LINE
  5
45D
330
1F
100
AcDbEntity
  8
Linee visibili 2D
100
AcDbLine
 10
481.0301259856518
 20
334.6620138364621
 30
0.0
 11
481.0350894413543
 21
334.6955138936419
 31
0.0
  0
LINE
  5
45E
330
1F
100
AcDbEntity
  8
Linee visibili 2D
100
AcDbLine
 10
481.0350894413543
 20
334.6955138936419
 30
0.0
 11
481.041200667674
 21
334.7288236915464
 31
0.0
  0
LINE
  5
45F
330
1F
100
AcDbEntity
  8
Linee visibili 2D
100
AcDbLine
 10
481.041200667674
 20
334.7288236915464
 30
0.0
 11
481.0484524520522
 21
334.7619039174662
 31
0.0
  0
LINE
  5
460
330
1F
100
AcDbEntity
  8
Linee visibili 2D
100
AcDbLine
 10
481.0484524520522
 20
334.7619039174662
 30
0.0
 11
481.0568362358273
 21
334.7947155296359
 31
0.0
  0
LINE
  5
461
330
1F
100
AcDbEntity
  8
Linee visibili 2D
100
AcDbLine
 10
481.0568362358273
 20
334.7947155296359
 30
0.0
 11
481.0663421243354
 21
334.8272198033125
 31
0.0
  0
LINE
  5
462
330
1F
100
AcDbEntity
  8
Linee visibili 2D
100
AcDbLine
 10
481.0663421243354
 20
334.8272198033125
 30
0.0
 11
481.0769588985882
 21
334.8593783764779
 31
0.0
  0
LINE
  5
463
330
1F
100
AcDbEntity
  8
Linee visibili 2D
100
AcDbLine
 10
481.0769588985882
 20
334.8593783764779
 30
0.0
 11
481.0886740285139
 21
334.891153295115
 31
0.0
  0
LINE
  5
464
330
1F
100
AcDbEntity
  8
Linee visibili 2D
100
AcDbLine
 10
481.0886740285139
 20
334.891153295115
 30
0.0
 11
481.1014736877452
 21
334.9225070580013
 31
0.0
  0
LINE
  5
465
330
1F
100
AcDbEntity
  8
Linee visibili 2D
100
AcDbLine
 10
481.1014736877452
 20
334.9225070580013
 30
0.0
 11
481.1153427699376
 21
334.9534026609685
 31
0.0
  0
LINE
  5
466
330
1F
100
AcDbEntity
  8
Linee visibili 2D
100
AcDbLine
 10
481.1153427699376
 20
334.9534026609685
 30
0.0
 11
481.130264906598
 21
334.9838036405754
 31
0.0
  0
LINE
  5
467
330
1F
100
AcDbEntity
  8
Linee visibili 2D
100
AcDbLine
 10
481.130264906598
 20
334.9838036405754
 30
0.0
 11
481.1462224864031
 21
335.0136741171423
 31
0.0
  0
LINE
  5
468
330
1F
100
AcDbEntity
  8
Linee visibili 2D
100
AcDbLine
 10
481.1462224864031
 20
335.0136741171423
 30
0.0
 11
481.1631966759844
 21
335.0429788370971
 31
0.0
  0
LINE
  5
469
330
1F
100
AcDbEntity
  8
Linee visibili 2D
100
AcDbLine
 10
481.1631966759844
 20
335.0429788370971
 30
0.0
 11
481.1811674421556
 21
335.0716832145818
 31
0.0
  0
LINE
  5
46A
330
1F
100
AcDbEntity
  8
Linee visibili 2D
100
AcDbLine
 10
481.1811674421556
 20
335.0716832145818
 30
0.0
 11
481.2001135755566
 21
335.0997533722714
 31
0.0
  0
LINE
  5
46B
330
1F
100
AcDbEntity
  8
Linee visibili 2D
100
AcDbLine
 10
481.2001135755566
 20
335.0997533722714
 30
0.0
 11
481.2200127156842
 21
335.1271561813564
 31
0.0
  0
LINE
  5
46C
330
1F
100
AcDbEntity
  8
Linee visibili 2D
100
AcDbLine
 10
481.2200127156842
 20
335.1271561813564
 30
0.0
 11
481.2408413772831
 21
335.1538593006418
 31
0.0
  0
LINE
  5
46D
330
1F
100
AcDbEntity
  8
Linee visibili 2D
100
AcDbLine
 10
481.2408413772831
 20
335.1538593006418
 30
0.0
 11
481.262574978063
 21
335.1798312147166
 31
0.0
  0
LINE
  5
46E
330
1F
100
AcDbEntity
  8
Linee visibili 2D
100
AcDbLine
 10
481.262574978063
 20
335.1798312147166
 30
0.0
 11
481.2851878677112
 21
335.2050412711491
 31
0.0
  0
LINE
  5
46F
330
1F
100
AcDbEntity
  8
Linee visibili 2D
100
AcDbLine
 10
336.7140576426403
 20
324.0498035522791
 30
0.0
 11
336.69680246651
 21
324.0501021229547
 31
0.0
  0
LINE
  5
470
330
1F
100
AcDbEntity
  8
Linee visibili 2D
100
AcDbLine
 10
336.69680246651
 20
324.0501021229547
 30
0.0
 11
336.6795678737685
 21
324.0509960249507
 31
0.0
  0
LINE
  5
471
330
1F
100
AcDbEntity
  8
Linee visibili 2D
100
AcDbLine
 10
336.6795678737685
 20
324.0509960249507
 30
0.0
 11
336.6623743981786
 21
324.052484193248
 31
0.0
  0
LINE
  5
472
330
1F
100
AcDbEntity
  8
Linee visibili 2D
100
AcDbLine
 10
336.6623743981786
 20
324.052484193248
 30
0.0
 11
336.6452425245147
 21
324.0545648548023
 31
0.0
  0
LINE
  5
473
330
1F
100
AcDbEntity
  8
Linee visibili 2D
100
AcDbLine
 10
336.6452425245147
 20
324.0545648548023
 30
0.0
 11
336.6281926641569
 21
324.0572355306568
 31
0.0
  0
LINE
  5
474
330
1F
100
AcDbEntity
  8
Linee visibili 2D
100
AcDbLine
 10
336.6281926641569
 20
324.0572355306568
 30
0.0
 11
336.6112451307725
 21
324.0604930388959
 31
0.0
  0
LINE
  5
475
330
1F
100
AcDbEntity
  8
Linee visibili 2D
100
AcDbLine
 10
336.6112451307725
 20
324.0604930388959
 30
0.0
 11
336.5944201161138
 21
324.0643334984354
 31
0.0
  0
LINE
  5
476
330
1F
100
AcDbEntity
  8
Linee visibili 2D
100
AcDbLine
 10
336.5944201161138
 20
324.0643334984354
 30
0.0
 11
336.5777376659608
 21
324.0687523336475
 31
0.0
  0
LINE
  5
477
330
1F
100
AcDbEntity
  8
Linee visibili 2D
100
AcDbLine
 10
336.5777376659608
 20
324.0687523336475
 30
0.0
 11
336.5612176562382
 21
324.0737442798118
 31
0.0
  0
LINE
  5
478
330
1F
100
AcDbEntity
  8
Linee visibili 2D
100
AcDbLine
 10
336.5612176562382
 20
324.0737442798118
 30
0.0
 11
336.544879769335
 21
324.0793033893879
 31
0.0
  0
LINE
  5
479
330
1F
100
AcDbEntity
  8
Linee visibili 2D
100
AcDbLine
 10
336.544879769335
 20
324.0793033893879
 30
0.0
 11
336.5287434706539
 21
324.0854230391012
 31
0.0
  0
LINE
  5
47A
330
1F
100
AcDbEntity
  8
Linee visibili 2D
100
AcDbLine
 10
336.5287434706539
 20
324.0854230391012
 30
0.0
 11
336.51282798542
 21
324.0920959378349
 31
0.0
  0
LINE
  5
47B
330
1F
100
AcDbEntity
  8
Linee visibili 2D
100
AcDbLine
 10
336.51282798542
 20
324.0920959378349
 30
0.0
 11
336.4971522757753
 21
324.0993141353159
 31
0.0
  0
LINE
  5
47C
330
1F
100
AcDbEntity
  8
Linee visibili 2D
100
AcDbLine
 10
336.4971522757753
 20
324.0993141353159
 30
0.0
 11
336.4817350181865
 21
324.1070690315873
 31
0.0
  0
LINE
  5
47D
330
1F
100
AcDbEntity
  8
Linee visibili 2D
100
AcDbLine
 10
336.4817350181865
 20
324.1070690315873
 30
0.0
 11
336.4665945811935
 21
324.115351387255
 31
0.0
  0
LINE
  5
47E
330
1F
100
AcDbEntity
  8
Linee visibili 2D
100
AcDbLine
 10
336.4665945811935
 20
324.115351387255
 30
0.0
 11
336.4517490035249
 21
324.1241513344949
 31
0.0
  0
LINE
  5
47F
330
1F
100
AcDbEntity
  8
Linee visibili 2D
100
AcDbLine
 10
336.4517490035249
 20
324.1241513344949
 30
0.0
 11
336.4372159726057
 21
324.1334583888108
 31
0.0
  0
LINE
  5
480
330
1F
100
AcDbEntity
  8
Linee visibili 2D
100
AcDbLine
 10
336.4372159726057
 20
324.1334583888108
 30
0.0
 11
336.4230128034839
 21
324.143261461525
 31
0.0
  0
LINE
  5
481
330
1F
100
AcDbEntity
  8
Linee visibili 2D
100
AcDbLine
 10
336.4230128034839
 20
324.143261461525
 30
0.0
 11
336.4091564182017
 21
324.15354887299
 31
0.0
  0
LINE
  5
482
330
1F
100
AcDbEntity
  8
Linee visibili 2D
100
AcDbLine
 10
336.4091564182017
 20
324.15354887299
 30
0.0
 11
336.3956633256332
 21
324.1643083665041
 31
0.0
  0
LINE
  5
483
330
1F
100
AcDbEntity
  8
Linee visibili 2D
100
AcDbLine
 10
336.3956633256332
 20
324.1643083665041
 30
0.0
 11
336.3825496018159
 21
324.175527122914
 31
0.0
  0
LINE
  5
484
330
1F
100
AcDbEntity
  8
Linee visibili 2D
100
AcDbLine
 10
336.3825496018159
 20
324.175527122914
 30
0.0
 11
336.3698308707972
 21
324.1871917758884
 31
0.0
  0
LINE
  5
485
330
1F
100
AcDbEntity
  8
Linee visibili 2D
100
AcDbLine
 10
336.3698308707972
 20
324.1871917758884
 30
0.0
 11
336.3575222860188
 21
324.1992884278422
 31
0.0
  0
LINE
  5
486
330
1F
100
AcDbEntity
  8
Linee visibili 2D
100
AcDbLine
 10
336.3575222860188
 20
324.1992884278422
 30
0.0
 11
336.3456385122635
 21
324.2118026664956
 31
0.0
  0
LINE
  5
487
330
1F
100
AcDbEntity
  8
Linee visibili 2D
100
AcDbLine
 10
336.3456385122635
 20
324.2118026664956
 30
0.0
 11
336.3341937081825
 21
324.2247195820443
 31
0.0
  0
LINE
  5
488
330
1F
100
AcDbEntity
  8
Linee visibili 2D
100
AcDbLine
 10
336.3341937081825
 20
324.2247195820443
 30
0.0
 11
336.3232015094268
 21
324.2380237849236
 31
0.0
  0
LINE
  5
489
330
1F
100
AcDbEntity
  8
Linee visibili 2D
100
AcDbLine
 10
336.3232015094268
 20
324.2380237849236
 30
0.0
 11
336.3126750124007
 21
324.2516994241445
 31
0.0
  0
LINE
  5
48A
330
1F
100
AcDbEntity
  8
Linee visibili 2D
100
AcDbLine
 10
336.3126750124007
 20
324.2516994241445
 30
0.0
 11
336.3026267586592
 21
324.2657302061785
 31
0.0
  0
LINE
  5
48B
330
1F
100
AcDbEntity
  8
Linee visibili 2D
100
AcDbLine
 10
336.3026267586592
 20
324.2657302061785
 30
0.0
 11
336.293068719965
 21
324.2800994143704
 31
0.0
  0
LINE
  5
48C
330
1F
100
AcDbEntity
  8
Linee visibili 2D
100
AcDbLine
 10
336.293068719965
 20
324.2800994143704
 30
0.0
 11
336.2840122840254
 21
324.2947899288547
 31
0.0
  0
LINE
  5
48D
330
1F
100
AcDbEntity
  8
Linee visibili 2D
100
AcDbLine
 10
336.2840122840254
 20
324.2947899288547
 30
0.0
 11
336.2754682409245
 21
324.3097842469529
 31
0.0
  0
LINE
  5
48E
330
1F
100
AcDbEntity
  8
Linee visibili 2D
100
AcDbLine
 10
336.2754682409245
 20
324.3097842469529
 30
0.0
 11
336.2674467702674
 21
324.3250645040266
 31
0.0
  0
LINE
  5
48F
330
1F
100
AcDbEntity
  8
Linee visibili 2D
100
AcDbLine
 10
336.2674467702674
 20
324.3250645040266
 30
0.0
 11
336.2599574290527
 21
324.340612494762
 31
0.0
  0
LINE
  5
490
330
1F
100
AcDbEntity
  8
Linee visibili 2D
100
AcDbLine
 10
336.2599574290527
 20
324.340612494762
 30
0.0
 11
336.253009140285
 21
324.3564096948602
 31
0.0
  0
LINE
  5
491
330
1F
100
AcDbEntity
  8
Linee visibili 2D
100
AcDbLine
 10
336.253009140285
 20
324.3564096948602
 30
0.0
 11
336.2466101823445
 21
324.3724372831073
 31
0.0
  0
LINE
  5
492
330
1F
100
AcDbEntity
  8
Linee visibili 2D
100
AcDbLine
 10
336.2466101823445
 20
324.3724372831073
 30
0.0
 11
336.2407681791239
 21
324.3886761637987
 31
0.0
  0
LINE
  5
493
330
1F
100
AcDbEntity
  8
Linee visibili 2D
100
AcDbLine
 10
336.2407681791239
 20
324.3886761637987
 30
0.0
 11
336.2354900909445
 21
324.4051069894904
 31
0.0
  0
LINE
  5
494
330
1F
100
AcDbEntity
  8
Linee visibili 2D
100
AcDbLine
 10
336.2354900909445
 20
324.4051069894904
 30
0.0
 11
336.2307822062642
 21
324.4217101840497
 31
0.0
  0
LINE
  5
495
330
1F
100
AcDbEntity
  8
Linee visibili 2D
100
AcDbLine
 10
336.2307822062642
 20
324.4217101840497
 30
0.0
 11
336.2266501341848
 21
324.4384659659793
 31
0.0
  0
LINE
  5
496
330
1F
100
AcDbEntity
  8
Linee visibili 2D
100
AcDbLine
 10
336.2266501341848
 20
324.4384659659793
 30
0.0
 11
336.2230987977694
 21
324.4553543719848
 31
0.0
  0
LINE
  5
497
330
1F
100
AcDbEntity
  8
Linee visibili 2D
100
AcDbLine
 10
336.2230987977694
 20
324.4553543719848
 30
0.0
 11
336.2201324281767
 21
324.4723552807599
 31
0.0
  0
LINE
  5
498
330
1F
100
AcDbEntity
  8
Linee visibili 2D
100
AcDbLine
 10
336.2201324281767
 20
324.4723552807599
 30
0.0
 11
336.2177545596203
 21
324.4894484369597
 31
0.0
  0
LINE
  5
499
330
1F
100
AcDbEntity
  8
Linee visibili 2D
100
AcDbLine
 10
336.2177545596203
 20
324.4894484369597
 30
0.0
 11
336.2159680251572
 21
324.5066134753329
 31
0.0
  0
LINE
  5
49A
330
1F
100
AcDbEntity
  8
Linee visibili 2D
100
AcDbLine
 10
336.2159680251572
 20
324.5066134753329
 30
0.0
 11
336.2147749533135
 21
324.5238299449859
 31
0.0
  0
LINE
  5
49B
330
1F
100
AcDbEntity
  8
Linee visibili 2D
100
AcDbLine
 10
336.2147749533135
 20
324.5238299449859
 30
0.0
 11
336.2141767655471
 21
324.5410773337488
 31
0.0
  0
LINE
  5
49C
330
1F
100
AcDbEntity
  8
Linee visibili 2D
100
AcDbLine
 10
480.8472702807335
 20
324.5410773345041
 30
0.0
 11
480.8460094041866
 21
324.5232302066748
 31
0.0
  0
LINE
  5
49D
330
1F
100
AcDbEntity
  8
Linee visibili 2D
100
AcDbLine
 10
480.8460094041866
 20
324.5232302066748
 30
0.0
 11
480.8441344427257
 21
324.5054371096725
 31
0.0
  0
LINE
  5
49E
330
1F
100
AcDbEntity
  8
Linee visibili 2D
100
AcDbLine
 10
480.8441344427257
 20
324.5054371096725
 30
0.0
 11
480.8416476222188
 21
324.4877191666433
 31
0.0
  0
LINE
  5
49F
330
1F
100
AcDbEntity
  8
Linee visibili 2D
100
AcDbLine
 10
480.8416476222188
 20
324.4877191666433
 30
0.0
 11
480.8385518949048
 21
324.4700974115147
 31
0.0
  0
LINE
  5
4A0
330
1F
100
AcDbEntity
  8
Linee visibili 2D
100
AcDbLine
 10
480.8385518949048
 20
324.4700974115147
 30
0.0
 11
480.8348509358887
 21
324.4525927640239
 31
0.0
  0
LINE
  5
4A1
330
1F
100
AcDbEntity
  8
Linee visibili 2D
100
AcDbLine
 10
480.8348509358887
 20
324.4525927640239
 30
0.0
 11
480.830549138779
 21
324.4352260048834
 31
0.0
  0
LINE
  5
4A2
330
1F
100
AcDbEntity
  8
Linee visibili 2D
100
AcDbLine
 10
480.830549138779
 20
324.4352260048834
 30
0.0
 11
480.8256516104714
 21
324.4180177511111
 31
0.0
  0
LINE
  5
4A3
330
1F
100
AcDbEntity
  8
Linee visibili 2D
100
AcDbLine
 10
480.8256516104714
 20
324.4180177511111
 30
0.0
 11
480.8201641650863
 21
324.4009884315544
 31
0.0
  0
LINE
  5
4A4
330
1F
100
AcDbEntity
  8
Linee visibili 2D
100
AcDbLine
 10
480.8201641650863
 20
324.4009884315544
 30
0.0
 11
480.8140933170664
 21
324.3841582626386
 31
0.0
  0
LINE
  5
4A5
330
1F
100
AcDbEntity
  8
Linee visibili 2D
100
AcDbLine
 10
480.8140933170664
 20
324.3841582626386
 30
0.0
 11
480.8074462734434
 21
324.367547224366
 31
0.0
  0
LINE
  5
4A6
330
1F
100
AcDbEntity
  8
Linee visibili 2D
100
AcDbLine
 10
480.8074462734434
 20
324.367547224366
 30
0.0
 11
480.8002309252818
 21
324.3511750365976
 31
0.0
  0
LINE
  5
4A7
330
1F
100
AcDbEntity
  8
Linee visibili 2D
100
AcDbLine
 10
480.8002309252818
 20
324.3511750365976
 30
0.0
 11
480.7924558383111
 21
324.3350611356418
 31
0.0
  0
LINE
  5
4A8
330
1F
100
AcDbEntity
  8
Linee visibili 2D
100
AcDbLine
 10
480.7924558383111
 20
324.3350611356418
 30
0.0
 11
480.784130242757
 21
324.3192246511807
 31
0.0
  0
LINE
  5
4A9
330
1F
100
AcDbEntity
  8
Linee visibili 2D
100
AcDbLine
 10
480.784130242757
 20
324.3192246511807
 30
0.0
 11
480.7752640223838
 21
324.3036843835604
 31
0.0
  0
LINE
  5
4AA
330
1F
100
AcDbEntity
  8
Linee visibili 2D
100
AcDbLine
 10
480.7752640223838
 20
324.3036843835604
 30
0.0
 11
480.7658677027604
 21
324.288458781472
 31
0.0
  0
LINE
  5
4AB
330
1F
100
AcDbEntity
  8
Linee visibili 2D
100
AcDbLine
 10
480.7658677027604
 20
324.288458781472
 30
0.0
 11
480.7559524387656
 21
324.2735659200502
 31
0.0
  0
LINE
  5
4AC
330
1F
100
AcDbEntity
  8
Linee visibili 2D
100
AcDbLine
 10
480.7559524387656
 20
324.2735659200502
 30
0.0
 11
480.7455300013446
 21
324.2590234794152
 31
0.0
  0
LINE
  5
4AD
330
1F
100
AcDbEntity
  8
Linee visibili 2D
100
AcDbLine
 10
480.7455300013446
 20
324.2590234794152
 30
0.0
 11
480.734612763536
 21
324.2448487236837
 31
0.0
  0
LINE
  5
4AE
330
1F
100
AcDbEntity
  8
Linee visibili 2D
100
AcDbLine
 10
480.734612763536
 20
324.2448487236837
 30
0.0
 11
480.7232136857825
 21
324.231058480474
 31
0.0
  0
LINE
  5
4AF
330
1F
100
AcDbEntity
  8
Linee visibili 2D
100
AcDbLine
 10
480.7232136857825
 20
324.231058480474
 30
0.0
 11
480.7113463005448
 21
324.2176691209285
 31
0.0
  0
LINE
  5
4B0
330
1F
100
AcDbEntity
  8
Linee visibili 2D
100
AcDbLine
 10
480.7113463005448
 20
324.2176691209285
 30
0.0
 11
480.6990246962371
 21
324.2046965402792
 31
0.0
  0
LINE
  5
4B1
330
1F
100
AcDbEntity
  8
Linee visibili 2D
100
AcDbLine
 10
480.6990246962371
 20
324.2046965402792
 30
0.0
 11
480.6862635005014
 21
324.1921561389773
 31
0.0
  0
LINE
  5
4B2
330
1F
100
AcDbEntity
  8
Linee visibili 2D
100
AcDbLine
 10
480.6862635005014
 20
324.1921561389773
 30
0.0
 11
480.6730778628423
 21
324.1800628044107
 31
0.0
  0
LINE
  5
4B3
330
1F
100
AcDbEntity
  8
Linee visibili 2D
100
AcDbLine
 10
480.6730778628423
 20
324.1800628044107
 30
0.0
 11
480.6594834366427
 21
324.1684308932298
 31
0.0
  0
LINE
  5
4B4
330
1F
100
AcDbEntity
  8
Linee visibili 2D
100
AcDbLine
 10
480.6594834366427
 20
324.1684308932298
 30
0.0
 11
480.6454963605801
 21
324.1572742143048
 31
0.0
  0
LINE
  5
4B5
330
1F
100
AcDbEntity
  8
Linee visibili 2D
100
AcDbLine
 10
480.6454963605801
 20
324.1572742143048
 30
0.0
 11
480.631133239468
 21
324.1466060123318
 31
0.0
  0
LINE
  5
4B6
330
1F
100
AcDbEntity
  8
Linee visibili 2D
100
AcDbLine
 10
480.631133239468
 20
324.1466060123318
 30
0.0
 11
480.6164111245433
 21
324.1364389521097
 31
0.0
  0
LINE
  5
4B7
330
1F
100
AcDbEntity
  8
Linee visibili 2D
100
AcDbLine
 10
480.6164111245433
 20
324.1364389521097
 30
0.0
 11
480.6013474932238
 21
324.1267851035048
 31
0.0
  0
LINE
  5
4B8
330
1F
100
AcDbEntity
  8
Linee visibili 2D
100
AcDbLine
 10
480.6013474932238
 20
324.1267851035048
 30
0.0
 11
480.5859602283599
 21
324.1176559271221
 31
0.0
  0
LINE
  5
4B9
330
1F
100
AcDbEntity
  8
Linee visibili 2D
100
AcDbLine
 10
480.5859602283599
 20
324.1176559271221
 30
0.0
 11
480.5702675970048
 21
324.1090622607002
 31
0.0
  0
LINE
  5
4BA
330
1F
100
AcDbEntity
  8
Linee visibili 2D
100
AcDbLine
 10
480.5702675970048
 20
324.1090622607002
 30
0.0
 11
480.5542882287289
 21
324.1010143062446
 31
0.0
  0
LINE
  5
4BB
330
1F
100
AcDbEntity
  8
Linee visibili 2D
100
AcDbLine
 10
480.5542882287289
 20
324.1010143062446
 30
0.0
 11
480.5380410935034
 21
324.0935216179166
 31
0.0
  0
LINE
  5
4BC
330
1F
100
AcDbEntity
  8
Linee visibili 2D
100
AcDbLine
 10
480.5380410935034
 20
324.0935216179166
 30
0.0
 11
480.52154547918
 21
324.0865930906915
 31
0.0
  0
LINE
  5
4BD
330
1F
100
AcDbEntity
  8
Linee visibili 2D
100
AcDbLine
 10
480.52154547918
 20
324.0865930906915
 30
0.0
 11
480.5048209685934
 21
324.0802369497979
 31
0.0
  0
LINE
  5
4BE
330
1F
100
AcDbEntity
  8
Linee visibili 2D
100
AcDbLine
 10
480.5048209685934
 20
324.0802369497979
 30
0.0
 11
480.4878874163137
 21
324.0744607409542
 31
0.0
  0
LINE
  5
4BF
330
1F
100
AcDbEntity
  8
Linee visibili 2D
100
AcDbLine
 10
480.4878874163137
 20
324.0744607409542
 30
0.0
 11
480.4707649250753
 21
324.0692713214098
 31
0.0
  0
LINE
  5
4C0
330
1F
100
AcDbEntity
  8
Linee visibili 2D
100
AcDbLine
 10
480.4707649250753
 20
324.0692713214098
 30
0.0
 11
480.4534738219124
 21
324.0646748518051
 31
0.0
  0
LINE
  5
4C1
330
1F
100
AcDbEntity
  8
Linee visibili 2D
100
AcDbLine
 10
480.4534738219124
 20
324.0646748518051
 30
0.0
 11
480.4360346340276
 21
324.0606767888572
 31
0.0
  0
LINE
  5
4C2
330
1F
100
AcDbEntity
  8
Linee visibili 2D
100
AcDbLine
 10
480.4360346340276
 20
324.0606767888572
 30
0.0
 11
480.4184680644227
 21
324.0572818788828
 31
0.0
  0
LINE
  5
4C3
330
1F
100
AcDbEntity
  8
Linee visibili 2D
100
AcDbLine
 10
480.4184680644227
 20
324.0572818788828
 30
0.0
 11
480.4007949673214
 21
324.0544941521628
 31
0.0
  0
LINE
  5
4C4
330
1F
100
AcDbEntity
  8
Linee visibili 2D
100
AcDbLine
 10
480.4007949673214
 20
324.0544941521628
 30
0.0
 11
480.3830363234119
 21
324.0523169181581
 31
0.0
  0
LINE
  5
4C5
330
1F
100
AcDbEntity
  8
Linee visibili 2D
100
AcDbLine
 10
480.3830363234119
 20
324.0523169181581
 30
0.0
 11
480.3652132149396
 21
324.0507527615808
 31
0.0
  0
LINE
  5
4C6
330
1F
100
AcDbEntity
  8
Linee visibili 2D
100
AcDbLine
 10
480.3652132149396
 20
324.0507527615808
 30
0.0
 11
480.347346800679
 21
324.0498035393259
 31
0.0
  0
LINE
  5
4C7
330
1F
100
AcDbEntity
  8
Linee visibili 2D
100
AcDbLine
 10
341.0217845468037
 20
324.0498035393272
 30
0.0
 11
336.7140576426403
 21
324.0498035522791
 31
0.0
  0
LINE
  5
4C8
330
1F
100
AcDbEntity
  8
Linee visibili 2D
100
AcDbLine
 10
476.0388575104051
 20
324.049803539326
 30
0.0
 11
341.0225461118928
 21
324.049803539326
 31
0.0
  0
LINE
  5
4C9
330
1F
100
AcDbEntity
  8
Linee visibili 2D
100
AcDbLine
 10
480.3473465812492
 20
324.0498035393259
 30
0.0
 11
476.0396190759341
 21
324.049803539326
 31
0.0
  0
LINE
  5
4CA
330
1F
100
AcDbEntity
  8
Linee visibili 2D
100
AcDbLine
 10
421.0548291761987
 20
324.049803539326
 30
0.0
 11
421.0548291761987
 21
323.5498035393257
 31
0.0
  0
LINE
  5
4CB
330
1F
100
AcDbEntity
  8
Linee visibili 2D
100
AcDbLine
 10
361.0548966282688
 20
324.049803539326
 30
0.0
 11
361.0548966282688
 21
323.5498035393257
 31
0.0
  0
LINE
  5
4CC
330
1F
100
AcDbEntity
  8
Linee visibili 2D
100
AcDbLine
 10
420.0430768080651
 20
324.0498035393272
 30
0.0
 11
420.0401748576244
 21
323.5515743731924
 31
0.0
  0
LINE
  5
4CD
330
1F
100
AcDbEntity
  8
Linee visibili 2D
100
AcDbLine
 10
397.0431026646921
 20
324.0498035393273
 30
0.0
 11
397.0400114344261
 21
323.5498035393258
 31
0.0
  0
LINE
  5
4CE
330
1F
100
AcDbEntity
  8
Linee visibili 2D
100
AcDbLine
 10
340.5453230860448
 20
324.0498035400849
 30
0.0
 11
340.5453230860448
 21
323.5498035393257
 31
0.0
  0
LINE
  5
4CF
330
1F
100
AcDbEntity
  8
Linee visibili 2D
100
AcDbLine
 10
340.3586394533394
 20
323.5498035393257
 30
0.0
 11
340.3586394533394
 21
324.0498035404042
 31
0.0
  0
LINE
  5
4D0
330
1F
100
AcDbEntity
  8
Linee visibili 2D
100
AcDbLine
 10
360.0527408484832
 20
324.0498035393273
 30
0.0
 11
360.049838898043
 21
323.551574373203
 31
0.0
  0
LINE
  5
4D1
330
1F
100
AcDbEntity
  8
Linee visibili 2D
100
AcDbLine
 10
345.5496659191341
 20
323.5498035393258
 30
0.0
 11
345.5527571494
 21
324.0498035393272
 31
0.0
  0
LINE
  5
4D2
330
1F
100
AcDbEntity
  8
Linee visibili 2D
100
AcDbLine
 10
457.0495405707039
 20
323.5498035393258
 30
0.0
 11
457.0526318009698
 21
324.0498035393272
 31
0.0
  0
LINE
  5
4D3
330
1F
100
AcDbEntity
  8
Linee visibili 2D
100
AcDbLine
 10
471.552615500053
 20
324.0498035393272
 30
0.0
 11
471.5495242697871
 21
323.5498035393257
 31
0.0
  0
LINE
  5
4D4
330
1F
100
AcDbEntity
  8
Linee visibili 2D
100
AcDbLine
 10
340.5453230860448
 20
323.5498035393257
 30
0.0
 11
340.3586394533394
 21
323.5498035393257
 31
0.0
  0
LINE
  5
4D5
330
1F
100
AcDbEntity
  8
Linee visibili 2D
100
AcDbLine
 10
341.546821428773
 20
323.5498035393257
 30
0.0
 11
340.5453230860448
 21
323.5498035393257
 31
0.0
  0
LINE
  5
4D6
330
1F
100
AcDbEntity
  8
Linee visibili 2D
100
AcDbLine
 10
344.5468180561695
 20
323.5498035393257
 30
0.0
 11
341.546821428773
 21
323.5498035393257
 31
0.0
  0
LINE
  5
4D7
330
1F
100
AcDbEntity
  8
Linee visibili 2D
100
AcDbLine
 10
345.5483163988977
 20
323.5498035393257
 30
0.0
 11
344.5468180561695
 21
323.5498035393257
 31
0.0
  0
LINE
  5
4D8
330
1F
100
AcDbEntity
  8
Linee visibili 2D
100
AcDbLine
 10
360.0496496182172
 20
323.5498035393257
 30
0.0
 11
345.5496659191341
 21
323.5498035393258
 31
0.0
  0
LINE
  5
4D9
330
1F
100
AcDbEntity
  8
Linee visibili 2D
100
AcDbLine
 10
361.0481490270904
 20
323.5498035393257
 30
0.0
 11
360.0829799886678
 21
323.5498035393258
 31
0.0
  0
LINE
  5
4DA
330
1F
100
AcDbEntity
  8
Linee visibili 2D
100
AcDbLine
 10
362.056394970997
 20
323.5498035393257
 30
0.0
 11
361.0548966282688
 21
323.5498035393257
 31
0.0
  0
LINE
  5
4DB
330
1F
100
AcDbEntity
  8
Linee visibili 2D
100
AcDbLine
 10
395.0563578723584
 20
323.5498035393257
 30
0.0
 11
362.056394970997
 21
323.5498035393257
 31
0.0
  0
LINE
  5
4DC
330
1F
100
AcDbEntity
  8
Linee visibili 2D
100
AcDbLine
 10
396.0548584054291
 20
323.5498035393257
 30
0.0
 11
395.0563578723584
 21
323.5498035393257
 31
0.0
  0
LINE
  5
4DD
330
1F
100
AcDbEntity
  8
Linee visibili 2D
100
AcDbLine
 10
397.0385119674967
 20
323.5498035393257
 30
0.0
 11
396.073342928779
 21
323.5498035393257
 31
0.0
  0
LINE
  5
4DE
330
1F
100
AcDbEntity
  8
Linee visibili 2D
100
AcDbLine
 10
420.0399855777992
 20
323.5498035393257
 30
0.0
 11
397.0400114344261
 21
323.5498035393258
 31
0.0
  0
LINE
  5
4DF
330
1F
100
AcDbEntity
  8
Linee visibili 2D
100
AcDbLine
 10
421.0384849866687
 20
323.5498035393257
 30
0.0
 11
420.0733159479508
 21
323.5498035393257
 31
0.0
  0
LINE
  5
4E0
330
1F
100
AcDbEntity
  8
Linee visibili 2D
100
AcDbLine
 10
422.0563275189269
 20
323.5498035393257
 30
0.0
 11
421.0548291761987
 21
323.5498035393257
 31
0.0
  0
LINE
  5
4E1
330
1F
100
AcDbEntity
  8
Linee visibili 2D
100
AcDbLine
 10
455.0562904202884
 20
323.5498035393257
 30
0.0
 11
422.0563275189269
 21
323.5498035393257
 31
0.0
  0
LINE
  5
4E2
330
1F
100
AcDbEntity
  8
Linee visibili 2D
100
AcDbLine
 10
456.054790953359
 20
323.5498035393257
 30
0.0
 11
455.0562904202884
 21
323.5498035393257
 31
0.0
  0
LINE
  5
4E3
330
1F
100
AcDbEntity
  8
Linee visibili 2D
100
AcDbLine
 10
457.0480411037746
 20
323.5498035393257
 30
0.0
 11
456.0828720650568
 21
323.5498035393257
 31
0.0
  0
LINE
  5
4E4
330
1F
100
AcDbEntity
  8
Linee visibili 2D
100
AcDbLine
 10
471.5481747495506
 20
323.5498035393257
 30
0.0
 11
457.0495405707039
 21
323.5498035393258
 31
0.0
  0
LINE
  5
4E5
330
1F
100
AcDbEntity
  8
Linee visibili 2D
100
AcDbLine
 10
472.54667415842
 20
323.5498035393257
 30
0.0
 11
471.5481747495506
 21
323.5498035393257
 31
0.0
  0
LINE
  5
4E6
330
1F
100
AcDbEntity
  8
Linee visibili 2D
100
AcDbLine
 10
475.5466707858166
 20
323.5498035393257
 30
0.0
 11
472.54667415842
 21
323.5498035393257
 31
0.0
  0
LINE
  5
4E7
330
1F
100
AcDbEntity
  8
Linee visibili 2D
100
AcDbLine
 10
476.545170194686
 20
323.5498035393257
 30
0.0
 11
475.5466707858166
 21
323.5498035393257
 31
0.0
  0
LINE
  5
4E8
330
1F
100
AcDbEntity
  8
Linee visibili 2D
100
AcDbLine
 10
324.8477625927862
 20
199.9655126717219
 30
0.0
 11
492.2134182812068
 21
199.9655126717219
 31
0.0
  0
LINE
  5
4E9
330
1F
100
AcDbEntity
  8
Linee visibili 2D
100
AcDbLine
 10
323.5486538596865
 20
8.861032167496859
 30
0.0
 11
323.5482331259659
 21
9.153381606801897
 31
0.0
  0
LINE
  5
4EA
330
1F
100
AcDbEntity
  8
Linee visibili 2D
100
AcDbLine
 10
323.5521865924343
 20
7.554449071834823
 30
0.0
 11
323.5496894823352
 21
8.35860306872266
 31
0.0
  0
LINE
  5
4EB
330
1F
100
AcDbEntity
  8
Linee visibili 2D
100
AcDbLine
 10
323.5582639569359
 20
6.3047192747979
 30
0.0
 11
323.5557600549096
 21
6.75252699806107
 31
0.0
  0
LINE
  5
4EC
330
1F
100
AcDbEntity
  8
Linee visibili 2D
100
AcDbLine
 10
323.5661665795309
 20
5.206994520655677
 30
0.0
 11
323.560423299443
 21
5.965589453509751
 31
0.0
  0
LINE
  5
4ED
330
1F
100
AcDbEntity
  8
Linee visibili 2D
100
AcDbLine
 10
324.9603980152529
 20
0.0019165306960929
 30
0.0
 11
324.9142969608941
 21
0.0033517948236191
 31
0.0
  0
LINE
  5
4EE
330
1F
100
AcDbEntity
  8
Linee visibili 2D
100
AcDbLine
 10
324.9142969608941
 20
0.0033517948236191
 30
0.0
 11
324.868273080262
 21
0.0063799308281724
 31
0.0
  0
LINE
  5
4EF
330
1F
100
AcDbEntity
  8
Linee visibili 2D
100
AcDbLine
 10
324.868273080262
 20
0.0063799308281724
 30
0.0
 11
324.8223813933723
 21
0.0109973186740541
 31
0.0
  0
LINE
  5
4F0
330
1F
100
AcDbEntity
  8
Linee visibili 2D
100
AcDbLine
 10
324.8223813933723
 20
0.0109973186740541
 30
0.0
 11
324.7766767622075
 21
0.0171984384279429
 31
0.0
  0
LINE
  5
4F1
330
1F
100
AcDbEntity
  8
Linee visibili 2D
100
AcDbLine
 10
324.7766767622075
 20
0.0171984384279429
 30
0.0
 11
324.7312138251316
 21
0.0249758768577893
 31
0.0
  0
LINE
  5
4F2
330
1F
100
AcDbEntity
  8
Linee visibili 2D
100
AcDbLine
 10
324.7312138251316
 20
0.0249758768577893
 30
0.0
 11
324.6860469315708
 21
0.0343203362950886
 31
0.0
  0
LINE
  5
4F3
330
1F
100
AcDbEntity
  8
Linee visibili 2D
100
AcDbLine
 10
324.6860469315708
 20
0.0343203362950886
 30
0.0
 11
324.6412300770415
 21
0.0452206457499339
 31
0.0
  0
LINE
  5
4F4
330
1F
100
AcDbEntity
  8
Linee visibili 2D
100
AcDbLine
 10
324.6412300770415
 20
0.0452206457499339
 30
0.0
 11
324.5968168386002
 21
0.0576637742655615
 31
0.0
  0
LINE
  5
4F5
330
1F
100
AcDbEntity
  8
Linee visibili 2D
100
AcDbLine
 10
324.5968168386002
 20
0.0576637742655615
 30
0.0
 11
324.5528603107935
 21
0.0716348464964268
 31
0.0
  0
LINE
  5
4F6
330
1F
100
AcDbEntity
  8
Linee visibili 2D
100
AcDbLine
 10
324.5528603107935
 20
0.0716348464964268
 30
0.0
 11
324.5094130421857
 21
0.0871171604911832
 31
0.0
  0
LINE
  5
4F7
330
1F
100
AcDbEntity
  8
Linee visibili 2D
100
AcDbLine
 10
324.5094130421857
 20
0.0871171604911832
 30
0.0
 11
324.466526972539
 21
0.1040922076593091
 31
0.0
  0
LINE
  5
4F8
330
1F
100
AcDbEntity
  8
Linee visibili 2D
100
AcDbLine
 10
324.466526972539
 20
0.1040922076593091
 30
0.0
 11
324.4242533707206
 21
0.1225396948975097
 31
0.0
  0
LINE
  5
4F9
330
1F
100
AcDbEntity
  8
Linee visibili 2D
100
AcDbLine
 10
324.4242533707206
 20
0.1225396948975097
 30
0.0
 11
324.382642773413
 21
0.1424375688494484
 31
0.0
  0
LINE
  5
4FA
330
1F
100
AcDbEntity
  8
Linee visibili 2D
100
AcDbLine
 10
324.382642773413
 20
0.1424375688494484
 30
0.0
 11
324.3417449246987
 21
0.1637620422697976
 31
0.0
  0
LINE
  5
4FB
330
1F
100
AcDbEntity
  8
Linee visibili 2D
100
AcDbLine
 10
324.3417449246987
 20
0.1637620422697976
 30
0.0
 11
324.3016087165934
 21
0.1864876224610982
 31
0.0
  0
LINE
  5
4FC
330
1F
100
AcDbEntity
  8
Linee visibili 2D
100
AcDbLine
 10
324.3016087165934
 20
0.1864876224610982
 30
0.0
 11
324.2622821305965
 21
0.2105871417494303
 31
0.0
  0
LINE
  5
4FD
330
1F
100
AcDbEntity
  8
Linee visibili 2D
100
AcDbLine
 10
324.2622821305965
 20
0.2105871417494303
 30
0.0
 11
324.2238121803311
 21
0.2360317899624623
 31
0.0
  0
LINE
  5
4FE
330
1F
100
AcDbEntity
  8
Linee visibili 2D
100
AcDbLine
 10
324.2238121803311
 20
0.2360317899624623
 30
0.0
 11
324.1862448553411
 21
0.2627911488710518
 31
0.0
  0
LINE
  5
4FF
330
1F
100
AcDbEntity
  8
Linee visibili 2D
100
AcDbLine
 10
324.1862448553411
 20
0.2627911488710518
 30
0.0
 11
324.1496250661117
 21
0.2908332285532247
 31
0.0
  0
LINE
  5
500
330
1F
100
AcDbEntity
  8
Linee visibili 2D
100
AcDbLine
 10
324.1496250661117
 20
0.2908332285532247
 30
0.0
 11
324.1139965903809
 21
0.3201245056370616
 31
0.0
  0
LINE
  5
501
330
1F
100
AcDbEntity
  8
Linee visibili 2D
100
AcDbLine
 10
324.1139965903809
 20
0.3201245056370616
 30
0.0
 11
324.0794020208042
 21
0.3506299633767715
 31
0.0
  0
LINE
  5
502
330
1F
100
AcDbEntity
  8
Linee visibili 2D
100
AcDbLine
 10
324.0794020208042
 20
0.3506299633767715
 30
0.0
 11
324.0458827140369
 21
0.3823131335140453
 31
0.0
  0
LINE
  5
503
330
1F
100
AcDbEntity
  8
Linee visibili 2D
100
AcDbLine
 10
324.0458827140369
 20
0.3823131335140453
 30
0.0
 11
324.0134787412935
 21
0.4151361398746426
 31
0.0
  0
LINE
  5
504
330
1F
100
AcDbEntity
  8
Linee visibili 2D
100
AcDbLine
 10
324.0134787412935
 20
0.4151361398746426
 30
0.0
 11
323.9822288404437
 21
0.4490597436480965
 31
0.0
  0
LINE
  5
505
330
1F
100
AcDbEntity
  8
Linee visibili 2D
100
AcDbLine
 10
323.9822288404437
 20
0.4490597436480965
 30
0.0
 11
323.9521703697026
 21
0.4840433902964049
 31
0.0
  0
LINE
  5
506
330
1F
100
AcDbEntity
  8
Linee visibili 2D
100
AcDbLine
 10
323.9521703697026
 20
0.4840433902964049
 30
0.0
 11
323.9233392629706
 21
0.5200452580356273
 31
0.0
  0
LINE
  5
507
330
1F
100
AcDbEntity
  8
Linee visibili 2D
100
AcDbLine
 10
323.9233392629706
 20
0.5200452580356273
 30
0.0
 11
323.8957699868751
 21
0.5570223078324362
 31
0.0
  0
LINE
  5
508
330
1F
100
AcDbEntity
  8
Linee visibili 2D
100
AcDbLine
 10
323.8957699868751
 20
0.5570223078324362
 30
0.0
 11
323.8694954995671
 21
0.5949303348558469
 31
0.0
  0
LINE
  5
509
330
1F
100
AcDbEntity
  8
Linee visibili 2D
100
AcDbLine
 10
323.8694954995671
 20
0.5949303348558469
 30
0.0
 11
323.8445472113207
 21
0.633724021322619
 31
0.0
  0
LINE
  5
50A
330
1F
100
AcDbEntity
  8
Linee visibili 2D
100
AcDbLine
 10
323.8445472113207
 20
0.633724021322619
 30
0.0
 11
323.8209549469834
 21
0.6733569906731572
 31
0.0
  0
LINE
  5
50B
330
1F
100
AcDbEntity
  8
Linee visibili 2D
100
AcDbLine
 10
323.8209549469834
 20
0.6733569906731572
 30
0.0
 11
323.798746910321
 21
0.7137818630131431
 31
0.0
  0
LINE
  5
50C
330
1F
100
AcDbEntity
  8
Linee visibili 2D
100
AcDbLine
 10
323.798746910321
 20
0.7137818630131431
 30
0.0
 11
323.7779496503013
 21
0.7549503117546198
 31
0.0
  0
LINE
  5
50D
330
1F
100
AcDbEntity
  8
Linee visibili 2D
100
AcDbLine
 10
323.7779496503013
 20
0.7549503117546198
 30
0.0
 11
323.7585880293558
 21
0.7968131213888185
 31
0.0
  0
LINE
  5
50E
330
1F
100
AcDbEntity
  8
Linee visibili 2D
100
AcDbLine
 10
323.7585880293558
 20
0.7968131213888185
 30
0.0
 11
323.7406851936573
 21
0.8393202463216576
 31
0.0
  0
LINE
  5
50F
330
1F
100
AcDbEntity
  8
Linee visibili 2D
100
AcDbLine
 10
323.7406851936573
 20
0.8393202463216576
 30
0.0
 11
323.7242625454492
 21
0.8824208707015853
 31
0.0
  0
LINE
  5
510
330
1F
100
AcDbEntity
  8
Linee visibili 2D
100
AcDbLine
 10
323.7242625454492
 20
0.8824208707015853
 30
0.0
 11
323.7093397174604
 21
0.9260634691682347
 31
0.0
  0
LINE
  5
511
330
1F
100
AcDbEntity
  8
Linee visibili 2D
100
AcDbLine
 10
323.7093397174604
 20
0.9260634691682347
 30
0.0
 11
323.6959345494345
 21
0.9701958684492769
 31
0.0
  0
LINE
  5
512
330
1F
100
AcDbEntity
  8
Linee visibili 2D
100
AcDbLine
 10
323.6959345494345
 20
0.9701958684492769
 30
0.0
 11
323.6840630668031
 21
1.014765309731829
 31
0.0
  0
LINE
  5
513
330
1F
100
AcDbEntity
  8
Linee visibili 2D
100
AcDbLine
 10
323.6840630668031
 20
1.014765309731829
 30
0.0
 11
323.6737394615283
 21
1.059718511733857
 31
0.0
  0
LINE
  5
514
330
1F
100
AcDbEntity
  8
Linee visibili 2D
100
AcDbLine
 10
323.6737394615283
 20
1.059718511733857
 30
0.0
 11
323.6649760751362
 21
1.105001734400174
 31
0.0
  0
LINE
  5
515
330
1F
100
AcDbEntity
  8
Linee visibili 2D
100
AcDbLine
 10
323.6649760751362
 20
1.105001734400174
 30
0.0
 11
323.6577833839632
 21
1.150560843146885
 31
0.0
  0
LINE
  5
516
330
1F
100
AcDbEntity
  8
Linee visibili 2D
100
AcDbLine
 10
323.6577833839632
 20
1.150560843146885
 30
0.0
 11
323.6521699866319
 21
1.196341373577477
 31
0.0
  0
LINE
  5
517
330
1F
100
AcDbEntity
  8
Linee visibili 2D
100
AcDbLine
 10
323.6521699866319
 20
1.196341373577477
 30
0.0
 11
323.6481425937719
 21
1.242288596593194
 31
0.0
  0
LINE
  5
518
330
1F
100
AcDbEntity
  8
Linee visibili 2D
100
AcDbLine
 10
323.6481425937719
 20
1.242288596593194
 30
0.0
 11
323.6457060199971
 21
1.288347583819845
 31
0.0
  0
LINE
  5
519
330
1F
100
AcDbEntity
  8
Linee visibili 2D
100
AcDbLine
 10
323.6457060199971
 20
1.288347583819845
 30
0.0
 11
323.6448631781503
 21
1.334463273272851
 31
0.0
  0
LINE
  5
51A
330
1F
100
AcDbEntity
  8
Linee visibili 2D
100
AcDbLine
 10
493.4159034113597
 20
1.325062382343013
 30
0.0
 11
493.4146346256287
 21
1.279204109018473
 31
0.0
  0
LINE
  5
51B
330
1F
100
AcDbEntity
  8
Linee visibili 2D
100
AcDbLine
 10
493.4146346256287
 20
1.279204109018473
 30
0.0
 11
493.411793756421
 21
1.233416332137691
 31
0.0
  0
LINE
  5
51C
330
1F
100
AcDbEntity
  8
Linee visibili 2D
100
AcDbLine
 10
493.411793756421
 20
1.233416332137691
 30
0.0
 11
493.4073841465118
 21
1.1877529289576
 31
0.0
  0
LINE
  5
51D
330
1F
100
AcDbEntity
  8
Linee visibili 2D
100
AcDbLine
 10
493.4073841465118
 20
1.1877529289576
 30
0.0
 11
493.4014109845714
 21
1.142267630387916
 31
0.0
  0
LINE
  5
51E
330
1F
100
AcDbEntity
  8
Linee visibili 2D
100
AcDbLine
 10
493.4014109845714
 20
1.142267630387916
 30
0.0
 11
493.3938812990604
 21
1.097013957767402
 31
0.0
  0
LINE
  5
51F
330
1F
100
AcDbEntity
  8
Linee visibili 2D
100
AcDbLine
 10
493.3938812990604
 20
1.097013957767402
 30
0.0
 11
493.384803949959
 21
1.052045159886743
 31
0.0
  0
LINE
  5
520
330
1F
100
AcDbEntity
  8
Linee visibili 2D
100
AcDbLine
 10
493.384803949959
 20
1.052045159886743
 30
0.0
 11
493.3741896183421
 21
1.007414150332106
 31
0.0
  0
LINE
  5
521
330
1F
100
AcDbEntity
  8
Linee visibili 2D
100
AcDbLine
 10
493.3741896183421
 20
1.007414150332106
 30
0.0
 11
493.3620507938109
 21
0.963173445223136
 31
0.0
  0
LINE
  5
522
330
1F
100
AcDbEntity
  8
Linee visibili 2D
100
AcDbLine
 10
493.3620507938109
 20
0.963173445223136
 30
0.0
 11
493.3484017597966
 21
0.9193751014186388
 31
0.0
  0
LINE
  5
523
330
1F
100
AcDbEntity
  8
Linee visibili 2D
100
AcDbLine
 10
493.3484017597966
 20
0.9193751014186388
 30
0.0
 11
493.333258576754
 21
0.8760706552626598
 31
0.0
  0
LINE
  5
524
330
1F
100
AcDbEntity
  8
Linee visibili 2D
100
AcDbLine
 10
493.333258576754
 20
0.8760706552626598
 30
0.0
 11
493.3166390632629
 21
0.8333110619430432
 31
0.0
  0
LINE
  5
525
330
1F
100
AcDbEntity
  8
Linee visibili 2D
100
AcDbLine
 10
493.3166390632629
 20
0.8333110619430432
 30
0.0
 11
493.298562775062
 21
0.7911466355338188
 31
0.0
  0
LINE
  5
526
330
1F
100
AcDbEntity
  8
Linee visibili 2D
100
AcDbLine
 10
493.298562775062
 20
0.7911466355338188
 30
0.0
 11
493.279050982038
 21
0.7496269897919736
 31
0.0
  0
LINE
  5
527
330
1F
100
AcDbEntity
  8
Linee visibili 2D
100
AcDbLine
 10
493.279050982038
 20
0.7496269897919736
 30
0.0
 11
493.2581266431978
 21
0.7088009797782634
 31
0.0
  0
LINE
  5
528
330
1F
100
AcDbEntity
  8
Linee visibili 2D
100
AcDbLine
 10
493.2581266431978
 20
0.7088009797782634
 30
0.0
 11
493.2358143796533
 21
0.6687166443707677
 31
0.0
  0
LINE
  5
529
330
1F
100
AcDbEntity
  8
Linee visibili 2D
100
AcDbLine
 10
493.2358143796533
 20
0.6687166443707677
 30
0.0
 11
493.2121404456505
 21
0.6294211497388199
 31
0.0
  0
LINE
  5
52A
330
1F
100
AcDbEntity
  8
Linee visibili 2D
100
AcDbLine
 10
493.2121404456505
 20
0.6294211497388199
 30
0.0
 11
493.1871326976766
 21
0.5909607338438335
 31
0.0
  0
LINE
  5
52B
330
1F
100
AcDbEntity
  8
Linee visibili 2D
100
AcDbLine
 10
493.1871326976766
 20
0.5909607338438335
 30
0.0
 11
493.1608205616824
 21
0.5533806520323246
 31
0.0
  0
LINE
  5
52C
330
1F
100
AcDbEntity
  8
Linee visibili 2D
100
AcDbLine
 10
493.1608205616824
 20
0.5533806520323246
 30
0.0
 11
493.1332349984571
 21
0.5167251237851516
 31
0.0
  0
LINE
  5
52D
330
1F
100
AcDbEntity
  8
Linee visibili 2D
100
AcDbLine
 10
493.1332349984571
 20
0.5167251237851516
 30
0.0
 11
493.1044084671977
 21
0.4810372806856315
 31
0.0
  0
LINE
  5
52E
330
1F
100
AcDbEntity
  8
Linee visibili 2D
100
AcDbLine
 10
493.1044084671977
 20
0.4810372806856315
 30
0.0
 11
493.0743748873157
 21
0.4463591156677535
 31
0.0
  0
LINE
  5
52F
330
1F
100
AcDbEntity
  8
Linee visibili 2D
100
AcDbLine
 10
493.0743748873157
 20
0.4463591156677535
 30
0.0
 11
493.043169598524
 21
0.4127314336042137
 31
0.0
  0
LINE
  5
530
330
1F
100
AcDbEntity
  8
Linee visibili 2D
100
AcDbLine
 10
493.043169598524
 20
0.4127314336042137
 30
0.0
 11
493.0108293192545
 21
0.380193803292408
 31
0.0
  0
LINE
  5
531
330
1F
100
AcDbEntity
  8
Linee visibili 2D
100
AcDbLine
 10
493.0108293192545
 20
0.380193803292408
 30
0.0
 11
492.9773921034519
 21
0.348784510894884
 31
0.0
  0
LINE
  5
532
330
1F
100
AcDbEntity
  8
Linee visibili 2D
100
AcDbLine
 10
492.9773921034519
 20
0.348784510894884
 30
0.0
 11
492.9428972957972
 21
0.3185405148890315
 31
0.0
  0
LINE
  5
533
330
1F
100
AcDbEntity
  8
Linee visibili 2D
100
AcDbLine
 10
492.9428972957972
 20
0.3185405148890315
 30
0.0
 11
492.9073854854112
 21
0.2894974025790291
 31
0.0
  0
LINE
  5
534
330
1F
100
AcDbEntity
  8
Linee visibili 2D
100
AcDbLine
 10
492.9073854854112
 20
0.2894974025790291
 30
0.0
 11
492.870898458095
 21
0.2616893482212104
 31
0.0
  0
LINE
  5
535
330
1F
100
AcDbEntity
  8
Linee visibili 2D
100
AcDbLine
 10
492.870898458095
 20
0.2616893482212104
 30
0.0
 11
492.8334791471614
 21
0.2351490728121277
 31
0.0
  0
LINE
  5
536
330
1F
100
AcDbEntity
  8
Linee visibili 2D
100
AcDbLine
 10
492.8334791471614
 20
0.2351490728121277
 30
0.0
 11
492.7951715829163
 21
0.2099078055866279
 31
0.0
  0
LINE
  5
537
330
1F
100
AcDbEntity
  8
Linee visibili 2D
100
AcDbLine
 10
492.7951715829163
 20
0.2099078055866279
 30
0.0
 11
492.7560208408499
 21
0.1859952472712421
 31
0.0
  0
LINE
  5
538
330
1F
100
AcDbEntity
  8
Linee visibili 2D
100
AcDbLine
 10
492.7560208408499
 20
0.1859952472712421
 30
0.0
 11
492.716072988597
 21
0.1634395351361349
 31
0.0
  0
LINE
  5
539
330
1F
100
AcDbEntity
  8
Linee visibili 2D
100
AcDbLine
 10
492.716072988597
 20
0.1634395351361349
 30
0.0
 11
492.6753750317309
 21
0.1422672098867257
 31
0.0
  0
LINE
  5
53A
330
1F
100
AcDbEntity
  8
Linee visibili 2D
100
AcDbLine
 10
492.6753750317309
 20
0.1422672098867257
 30
0.0
 11
492.633974858453
 21
0.1225031844339499
 31
0.0
  0
LINE
  5
53B
330
1F
100
AcDbEntity
  8
Linee visibili 2D
100
AcDbLine
 10
492.633974858453
 20
0.1225031844339499
 30
0.0
 11
492.591921183244
 21
0.1041707145798991
 31
0.0
  0
LINE
  5
53C
330
1F
100
AcDbEntity
  8
Linee visibili 2D
100
AcDbLine
 10
492.591921183244
 20
0.1041707145798991
 30
0.0
 11
492.5492634895427
 21
0.087291371653339
 31
0.0
  0
LINE
  5
53D
330
1F
100
AcDbEntity
  8
Linee visibili 2D
100
AcDbLine
 10
492.5492634895427
 20
0.087291371653339
 30
0.0
 11
492.5060519715208
 21
0.0718850171273018
 31
0.0
  0
LINE
  5
53E
330
1F
100
AcDbEntity
  8
Linee visibili 2D
100
AcDbLine
 10
492.5060519715208
 20
0.0718850171273018
 30
0.0
 11
492.46233747502
 21
0.0579697792486205
 31
0.0
  0
LINE
  5
53F
330
1F
100
AcDbEntity
  8
Linee visibili 2D
100
AcDbLine
 10
492.46233747502
 20
0.0579697792486205
 30
0.0
 11
492.4181714377235
 21
0.0455620317069032
 31
0.0
  0
LINE
  5
540
330
1F
100
AcDbEntity
  8
Linee visibili 2D
100
AcDbLine
 10
492.4181714377235
 20
0.0455620317069032
 30
0.0
 11
492.3736058286304
 21
0.0346763743680478
 31
0.0
  0
LINE
  5
541
330
1F
100
AcDbEntity
  8
Linee visibili 2D
100
AcDbLine
 10
492.3736058286304
 20
0.0346763743680478
 30
0.0
 11
492.3286930869053
 21
0.025325616094972
 31
0.0
  0
LINE
  5
542
330
1F
100
AcDbEntity
  8
Linee visibili 2D
100
AcDbLine
 10
492.3286930869053
 20
0.025325616094972
 30
0.0
 11
492.2834860601748
 21
0.0175207596757632
 31
0.0
  0
LINE
  5
543
330
1F
100
AcDbEntity
  8
Linee visibili 2D
100
AcDbLine
 10
492.2834860601748
 20
0.0175207596757632
 30
0.0
 11
492.2380379423424
 21
0.0112709888769904
 31
0.0
  0
LINE
  5
544
330
1F
100
AcDbEntity
  8
Linee visibili 2D
100
AcDbLine
 10
492.2380379423424
 20
0.0112709888769904
 30
0.0
 11
492.1924022109975
 21
0.0065836576374139
 31
0.0
  0
LINE
  5
545
330
1F
100
AcDbEntity
  8
Linee visibili 2D
100
AcDbLine
 10
492.1924022109975
 20
0.0065836576374139
 30
0.0
 11
492.1466325644889
 21
0.0034642814147978
 31
0.0
  0
LINE
  5
546
330
1F
100
AcDbEntity
  8
Linee visibili 2D
100
AcDbLine
 10
492.1466325644889
 20
0.0034642814147978
 30
0.0
 11
492.1007828587401
 21
0.0019165306960203
 31
0.0
  0
LINE
  5
547
330
1F
100
AcDbEntity
  8
Linee visibili 2D
100
AcDbLine
 10
493.4804257208227
 20
3.827287871475057
 30
0.0
 11
493.4727184172379
 21
3.290792557336319
 31
0.0
  0
LINE
  5
548
330
1F
100
AcDbEntity
  8
Linee visibili 2D
100
AcDbLine
 10
326.7379152630464
 20
198.4221190808849
 30
0.0
 11
327.656981816937
 21
198.4048409691288
 31
0.0
  0
LINE
  5
549
330
1F
100
AcDbEntity
  8
Linee visibili 2D
100
AcDbLine
 10
327.6569818169371
 20
198.4048409691288
 30
0.0
 11
489.404199057056
 21
198.4048409691288
 31
0.0
  0
LINE
  5
54A
330
1F
100
AcDbEntity
  8
Linee visibili 2D
100
AcDbLine
 10
489.404199057056
 20
198.4048409691288
 30
0.0
 11
490.3232656109467
 21
198.422119080885
 31
0.0
  0
LINE
  5
54B
330
1F
100
AcDbEntity
  8
Linee visibili 2D
100
AcDbLine
 10
492.0978023921
 20
0.0
 30
0.0
 11
324.9610944224913
 21
0.0
 31
0.0
  0
LINE
  5
54C
330
1F
100
AcDbEntity
  8
Linee visibili 2D
100
AcDbLine
 10
323.6506803652645
 20
1.334903918779177
 30
0.0
 11
323.7650458849316
 21
4.660307646082373
 31
0.0
  0
LINE
  5
54D
330
1F
100
AcDbEntity
  8
Linee visibili 2D
100
AcDbLine
 10
323.7650458849316
 20
4.660307646082373
 30
0.0
 11
323.7708909037598
 21
7.987672257513706
 31
0.0
  0
LINE
  5
54E
330
1F
100
AcDbEntity
  8
Linee visibili 2D
100
AcDbLine
 10
323.5662863012964
 20
5.206995535869565
 30
0.0
 11
323.6402761449868
 21
1.444053127374616
 31
0.0
  0
LINE
  5
54F
330
1F
100
AcDbEntity
  8
Linee visibili 2D
100
AcDbLine
 10
323.5583192615773
 20
6.304719599336652
 30
0.0
 11
323.5604929581995
 21
5.965589921479978
 31
0.0
  0
LINE
  5
550
330
1F
100
AcDbEntity
  8
Linee visibili 2D
100
AcDbLine
 10
323.5522341860584
 20
7.554449251023007
 30
0.0
 11
323.555804799313
 21
6.752527229311299
 31
0.0
  0
LINE
  5
551
330
1F
100
AcDbEntity
  8
Linee visibili 2D
100
AcDbLine
 10
323.5487420064868
 20
8.86103231668347
 30
0.0
 11
323.5497597256757
 21
8.35860324133841
 31
0.0
  0
LINE
  5
552
330
1F
100
AcDbEntity
  8
Linee visibili 2D
100
AcDbLine
 10
323.5478739669401
 20
9.928709573757146
 30
0.0
 11
323.548330884266
 21
9.15338172522466
 31
0.0
  0
LINE
  5
553
330
1F
100
AcDbEntity
  8
Linee visibili 2D
100
AcDbLine
 10
323.5478739669402
 20
198.665512671722
 30
0.0
 11
323.5478739669401
 21
9.928709573757146
 31
0.0
  0
LINE
  5
554
330
1F
100
AcDbEntity
  8
Linee visibili 2D
100
AcDbLine
 10
324.3423601631595
 20
197.0762679353808
 30
0.0
 11
323.5478739669402
 21
198.665512671722
 31
0.0
  0
LINE
  5
555
330
1F
100
AcDbEntity
  8
Linee visibili 2D
100
AcDbLine
 10
323.7708909037598
 20
7.987672257513736
 30
0.0
 11
324.3423601631595
 21
197.0762679353808
 31
0.0
  0
LINE
  5
556
330
1F
100
AcDbEntity
  8
Linee visibili 2D
100
AcDbLine
 10
493.513306907053
 20
198.6655126717219
 30
0.0
 11
492.7188207108335
 21
197.0762679353808
 31
0.0
  0
LINE
  5
557
330
1F
100
AcDbEntity
  8
Linee visibili 2D
100
AcDbLine
 10
493.513306907053
 20
9.928709573757146
 30
0.0
 11
493.513306907053
 21
198.6655126717219
 31
0.0
  0
LINE
  5
558
330
1F
100
AcDbEntity
  8
Linee visibili 2D
100
AcDbLine
 10
493.4802228618478
 20
3.827290521264151
 30
0.0
 11
493.513306907053
 21
9.928709573757148
 31
0.0
  0
LINE
  5
559
330
1F
100
AcDbEntity
  8
Linee visibili 2D
100
AcDbLine
 10
493.4265371321725
 20
1.535071141968426
 30
0.0
 11
493.4725195112104
 21
3.290795694789567
 31
0.0
  0
LINE
  5
55A
330
1F
100
AcDbEntity
  8
Linee visibili 2D
100
AcDbLine
 10
493.2902899702333
 20
7.98767225751314
 30
0.0
 11
493.3020234573323
 21
4.656649420636573
 31
0.0
  0
LINE
  5
55B
330
1F
100
AcDbEntity
  8
Linee visibili 2D
100
AcDbLine
 10
493.3020234573323
 20
4.656649420636573
 30
0.0
 11
493.391454088309
 21
1.326806635045066
 31
0.0
  0
LINE
  5
55C
330
1F
100
AcDbEntity
  8
Linee visibili 2D
100
AcDbLine
 10
492.7188207108335
 20
197.0762679353808
 30
0.0
 11
493.2902899702333
 21
7.987672257513111
 31
0.0
  0
LINE
  5
55D
330
1F
100
AcDbEntity
  8
Linee visibili 2D
100
AcDbLine
 10
327.1397623875496
 20
199.3997673441188
 30
0.0
 11
327.2859018782753
 21
199.4182525865981
 31
0.0
  0
LINE
  5
55E
330
1F
100
AcDbEntity
  8
Linee visibili 2D
100
AcDbLine
 10
327.1397623875496
 20
199.3997673441188
 30
0.0
 11
327.1512953846001
 21
198.4087428027863
 31
0.0
  0
LINE
  5
55F
330
1F
100
AcDbEntity
  8
Linee visibili 2D
100
AcDbLine
 10
328.3260318073824
 20
199.4215896672291
 30
0.0
 11
327.2859018782753
 21
199.4182525865981
 31
0.0
  0
LINE
  5
560
330
1F
100
AcDbEntity
  8
Linee visibili 2D
100
AcDbLine
 10
489.9214184864434
 20
199.3997673441188
 30
0.0
 11
489.2661385112299
 21
199.4215896672291
 31
0.0
  0
LINE
  5
561
330
1F
100
AcDbEntity
  8
Linee visibili 2D
100
AcDbLine
 10
489.9098845775414
 20
198.4086644478523
 30
0.0
 11
489.9214184864434
 21
199.3997673441188
 31
0.0
  0
LINE
  5
562
330
1F
100
AcDbEntity
  8
Linee visibili 2D
100
AcDbLine
 10
328.3260318073825
 20
199.6711651752485
 30
0.0
 11
328.3260318073825
 21
198.4048409691288
 31
0.0
  0
LINE
  5
563
330
1F
100
AcDbEntity
  8
Linee visibili 2D
100
AcDbLine
 10
489.2661385112299
 20
199.5960437999006
 30
0.0
 11
489.2661385112299
 21
198.4048409691288
 31
0.0
  0
LINE
  5
564
330
1F
100
AcDbEntity
  8
Linee visibili 2D
100
AcDbLine
 10
489.2661385112299
 20
199.5960437999006
 30
0.0
 11
328.3260318073825
 21
199.6711651752485
 31
0.0
  0
LINE
  5
565
330
1F
100
AcDbEntity
  8
Linee visibili 2D
100
AcDbLine
 10
63.33780345103284
 20
0.4253356063793634
 30
0.0
 11
0.3679428118957125
 21
50.32414519696766
 31
0.0
  0
LINE
  5
566
330
1F
100
AcDbEntity
  8
Linee visibili 2D
100
AcDbLine
 10
0.3679428118956878
 20
50.32414519696766
 30
0.0
 11
0.3426486392105889
 21
50.34485956622691
 31
0.0
  0
LINE
  5
567
330
1F
100
AcDbEntity
  8
Linee visibili 2D
100
AcDbLine
 10
0.3426486392105889
 20
50.34485956622691
 30
0.0
 11
0.3180673270879973
 21
50.36641506111716
 31
0.0
  0
LINE
  5
568
330
1F
100
AcDbEntity
  8
Linee visibili 2D
100
AcDbLine
 10
0.3180673270879973
 20
50.36641506111716
 30
0.0
 11
0.2942268324287217
 21
50.38878716607027
 31
0.0
  0
LINE
  5
569
330
1F
100
AcDbEntity
  8
Linee visibili 2D
100
AcDbLine
 10
0.2942268324287217
 20
50.38878716607027
 30
0.0
 11
0.2711542695845546
 21
50.41195043676839
 31
0.0
  0
LINE
  5
56A
330
1F
100
AcDbEntity
  8
Linee visibili 2D
100
AcDbLine
 10
0.2711542695845546
 20
50.41195043676839
 30
0.0
 11
0.2488758795204865
 21
50.43587852908234
 31
0.0
  0
LINE
  5
56B
330
1F
100
AcDbEntity
  8
Linee visibili 2D
100
AcDbLine
 10
0.2488758795204865
 20
50.43587852908234
 30
0.0
 11
0.2274169999702436
 21
50.46054422903349
 31
0.0
  0
LINE
  5
56C
330
1F
100
AcDbEntity
  8
Linee visibili 2D
100
AcDbLine
 10
0.2274169999702436
 20
50.46054422903349
 30
0.0
 11
0.20680203661909
 21
50.48591948374477
 31
0.0
  0
LINE
  5
56D
330
1F
100
AcDbEntity
  8
Linee visibili 2D
100
AcDbLine
 10
0.20680203661909
 20
50.48591948374477
 30
0.0
 11
0.1870544353466723
 21
50.51197543334592
 31
0.0
  0
LINE
  5
56E
330
1F
100
AcDbEntity
  8
Linee visibili 2D
100
AcDbLine
 10
0.1870544353466723
 20
50.51197543334592
 30
0.0
 11
0.1681966555614723
 21
50.53868244379645
 31
0.0
  0
LINE
  5
56F
330
1F
100
AcDbEntity
  8
Linee visibili 2D
100
AcDbLine
 10
0.1681966555614723
 20
50.53868244379645
 30
0.0
 11
0.1502501446571967
 21
50.56601014058918
 31
0.0
  0
LINE
  5
570
330
1F
100
AcDbEntity
  8
Linee visibili 2D
100
AcDbLine
 10
0.1502501446571967
 20
50.56601014058918
 30
0.0
 11
0.1332353136201556
 21
50.59392744329579
 31
0.0
  0
LINE
  5
571
330
1F
100
AcDbEntity
  8
Linee visibili 2D
100
AcDbLine
 10
0.1332353136201556
 20
50.59392744329579
 30
0.0
 11
0.1171715138153693
 21
50.62240260091544
 31
0.0
  0
LINE
  5
572
330
1F
100
AcDbEntity
  8
Linee visibili 2D
100
AcDbLine
 10
0.1171715138153693
 20
50.62240260091544
 30
0.0
 11
0.1020770149778107
 21
50.65140322798582
 31
0.0
  0
LINE
  5
573
330
1F
100
AcDbEntity
  8
Linee visibili 2D
100
AcDbLine
 10
0.1020770149778107
 20
50.65140322798582
 30
0.0
 11
0.0879689844338065
 21
50.68089634141593
 31
0.0
  0
LINE
  5
574
330
1F
100
AcDbEntity
  8
Linee visibili 2D
100
AcDbLine
 10
0.0879689844338065
 20
50.68089634141593
 30
0.0
 11
0.0748634675762372
 21
50.71084839799854
 31
0.0
  0
LINE
  5
575
330
1F
100
AcDbEntity
  8
Linee visibili 2D
100
AcDbLine
 10
0.0748634675762372
 20
50.71084839799854
 30
0.0
 11
0.0627753696157362
 21
50.74122533255964
 31
0.0
  0
LINE
  5
576
330
1F
100
AcDbEntity
  8
Linee visibili 2D
100
AcDbLine
 10
0.0627753696157362
 20
50.74122533255964
 30
0.0
 11
0.0517184386286453
 21
50.77199259670156
 31
0.0
  0
LINE
  5
577
330
1F
100
AcDbEntity
  8
Linee visibili 2D
100
AcDbLine
 10
0.0517184386286453
 20
50.77199259670156
 30
0.0
 11
0.0417052499210065
 21
50.80311519809568
 31
0.0
  0
LINE
  5
578
330
1F
100
AcDbEntity
  8
Linee visibili 2D
100
AcDbLine
 10
0.0417052499210065
 20
50.80311519809568
 30
0.0
 11
0.0327471917263721
 21
50.83455774028
 31
0.0
  0
LINE
  5
579
330
1F
100
AcDbEntity
  8
Linee visibili 2D
100
AcDbLine
 10
0.0327471917263721
 20
50.83455774028
 30
0.0
 11
0.024854452253701
 21
50.86628446291643
 31
0.0
  0
LINE
  5
57A
330
1F
100
AcDbEntity
  8
Linee visibili 2D
100
AcDbLine
 10
0.024854452253701
 20
50.86628446291643
 30
0.0
 11
0.0180360081000699
 21
50.89825928246175
 31
0.0
  0
LINE
  5
57B
330
1F
100
AcDbEntity
  8
Linee visibili 2D
100
AcDbLine
 10
0.0180360081000699
 20
50.89825928246175
 30
0.0
 11
0.0122996140413801
 21
50.93044583320637
 31
0.0
  0
LINE
  5
57C
330
1F
100
AcDbEntity
  8
Linee visibili 2D
100
AcDbLine
 10
0.0122996140413801
 20
50.93044583320637
 30
0.0
 11
0.0076517942126696
 21
50.96280750863382
 31
0.0
  0
LINE
  5
57D
330
1F
100
AcDbEntity
  8
Linee visibili 2D
100
AcDbLine
 10
0.0076517942126696
 20
50.96280750863382
 30
0.0
 11
0.0040978346880617
 21
50.99530750305426
 31
0.0
  0
LINE
  5
57E
330
1F
100
AcDbEntity
  8
Linee visibili 2D
100
AcDbLine
 10
0.0040978346880617
 20
50.99530750305426
 30
0.0
 11
0.0016417774687894
 21
51.02790885346445
 31
0.0
  0
LINE
  5
57F
330
1F
100
AcDbEntity
  8
Linee visibili 2D
100
AcDbLine
 10
0.0016417774687894
 20
51.02790885346445
 30
0.0
 11
0.0002864158861327
 21
51.06057448158657
 31
0.0
  0
LINE
  5
580
330
1F
100
AcDbEntity
  8
Linee visibili 2D
100
AcDbLine
 10
0.0002864158861327
 20
51.06057448158657
 30
0.0
 11
0.0000332914244981
 21
51.09326723603827
 31
0.0
  0
LINE
  5
581
330
1F
100
AcDbEntity
  8
Linee visibili 2D
100
AcDbLine
 10
193.2359877959674
 20
32.213678293251
 30
0.0
 11
64.31463145102202
 21
0.2131984644426268
 31
0.0
  0
LINE
  5
582
330
1F
100
AcDbEntity
  8
Linee visibili 2D
100
AcDbLine
 10
0.0000367243209496
 20
51.09415042816306
 30
0.0
 11
0.4179875003853469
 21
93.96386901790166
 31
0.0
  0
LINE
  5
583
330
1F
100
AcDbEntity
  8
Linee visibili 2D
100
AcDbLine
 10
197.3373409508931
 20
46.44253672232794
 30
0.0
 11
197.4398881295718
 21
46.38533406041358
 31
0.0
  0
LINE
  5
584
330
1F
100
AcDbEntity
  8
Linee visibili 2D
100
AcDbLine
 10
197.4398881295718
 20
46.38533406041358
 30
0.0
 11
197.5410435211684
 21
46.32571682806719
 31
0.0
  0
LINE
  5
585
330
1F
100
AcDbEntity
  8
Linee visibili 2D
100
AcDbLine
 10
197.5410435211684
 20
46.32571682806719
 30
0.0
 11
197.6407368255817
 21
46.26371274757204
 31
0.0
  0
LINE
  5
586
330
1F
100
AcDbEntity
  8
Linee visibili 2D
100
AcDbLine
 10
197.6407368255817
 20
46.26371274757204
 30
0.0
 11
197.7388977427109
 21
46.19934954121136
 31
0.0
  0
LINE
  5
587
330
1F
100
AcDbEntity
  8
Linee visibili 2D
100
AcDbLine
 10
197.7388977427109
 20
46.19934954121136
 30
0.0
 11
197.8354559724548
 21
46.13265493126843
 31
0.0
  0
LINE
  5
588
330
1F
100
AcDbEntity
  8
Linee visibili 2D
100
AcDbLine
 10
197.8354559724548
 20
46.13265493126843
 30
0.0
 11
197.9303412147125
 21
46.0636566400265
 31
0.0
  0
LINE
  5
589
330
1F
100
AcDbEntity
  8
Linee visibili 2D
100
AcDbLine
 10
197.9303412147125
 20
46.0636566400265
 30
0.0
 11
198.0234831693831
 21
45.99238238976883
 31
0.0
  0
LINE
  5
58A
330
1F
100
AcDbEntity
  8
Linee visibili 2D
100
AcDbLine
 10
198.0234831693831
 20
45.99238238976883
 30
0.0
 11
198.1148115363654
 21
45.91885990277867
 31
0.0
  0
LINE
  5
58B
330
1F
100
AcDbEntity
  8
Linee visibili 2D
100
AcDbLine
 10
198.1148115363654
 20
45.91885990277867
 30
0.0
 11
198.2042560155585
 21
45.84311690133929
 31
0.0
  0
LINE
  5
58C
330
1F
100
AcDbEntity
  8
Linee visibili 2D
100
AcDbLine
 10
198.2042560155585
 20
45.84311690133929
 30
0.0
 11
198.2917463068614
 21
45.76518110773392
 31
0.0
  0
LINE
  5
58D
330
1F
100
AcDbEntity
  8
Linee visibili 2D
100
AcDbLine
 10
198.2917463068614
 20
45.76518110773392
 30
0.0
 11
198.377212110173
 21
45.68508024424582
 31
0.0
  0
LINE
  5
58E
330
1F
100
AcDbEntity
  8
Linee visibili 2D
100
AcDbLine
 10
198.377212110173
 20
45.68508024424582
 30
0.0
 11
198.4605831253925
 21
45.60284203315828
 31
0.0
  0
LINE
  5
58F
330
1F
100
AcDbEntity
  8
Linee visibili 2D
100
AcDbLine
 10
198.4605831253925
 20
45.60284203315828
 30
0.0
 11
198.5417890524187
 21
45.51849419675453
 31
0.0
  0
LINE
  5
590
330
1F
100
AcDbEntity
  8
Linee visibili 2D
100
AcDbLine
 10
198.5417890524187
 20
45.51849419675453
 30
0.0
 11
198.6207595911507
 21
45.43206445731782
 31
0.0
  0
LINE
  5
591
330
1F
100
AcDbEntity
  8
Linee visibili 2D
100
AcDbLine
 10
198.6207595911507
 20
45.43206445731782
 30
0.0
 11
198.6974244414875
 21
45.34358053713143
 31
0.0
  0
LINE
  5
592
330
1F
100
AcDbEntity
  8
Linee visibili 2D
100
AcDbLine
 10
198.6974244414875
 20
45.34358053713143
 30
0.0
 11
198.7717133033281
 21
45.2530701584786
 31
0.0
  0
LINE
  5
593
330
1F
100
AcDbEntity
  8
Linee visibili 2D
100
AcDbLine
 10
198.7717133033281
 20
45.2530701584786
 30
0.0
 11
198.8468691212828
 21
45.15620149625958
 31
0.0
  0
LINE
  5
594
330
1F
100
AcDbEntity
  8
Linee visibili 2D
100
AcDbLine
 10
198.8468691212828
 20
45.15620149625958
 30
0.0
 11
198.9193653445933
 21
45.05724692641084
 31
0.0
  0
LINE
  5
595
330
1F
100
AcDbEntity
  8
Linee visibili 2D
100
AcDbLine
 10
198.9193653445933
 20
45.05724692641084
 30
0.0
 11
198.9892226508568
 21
44.95631045344781
 31
0.0
  0
LINE
  5
596
330
1F
100
AcDbEntity
  8
Linee visibili 2D
100
AcDbLine
 10
198.9892226508568
 20
44.95631045344781
 30
0.0
 11
199.0564617176705
 21
44.85349608188599
 31
0.0
  0
LINE
  5
597
330
1F
100
AcDbEntity
  8
Linee visibili 2D
100
AcDbLine
 10
199.0564617176705
 20
44.85349608188599
 30
0.0
 11
199.1211032226316
 21
44.7489078162408
 31
0.0
  0
LINE
  5
598
330
1F
100
AcDbEntity
  8
Linee visibili 2D
100
AcDbLine
 10
199.1211032226316
 20
44.7489078162408
 30
0.0
 11
199.1831678433373
 21
44.64264966102772
 31
0.0
  0
LINE
  5
599
330
1F
100
AcDbEntity
  8
Linee visibili 2D
100
AcDbLine
 10
199.1831678433373
 20
44.64264966102772
 30
0.0
 11
199.2426762573848
 21
44.5348256207622
 31
0.0
  0
LINE
  5
59A
330
1F
100
AcDbEntity
  8
Linee visibili 2D
100
AcDbLine
 10
199.2426762573848
 20
44.5348256207622
 30
0.0
 11
199.2996491423713
 21
44.42553969995971
 31
0.0
  0
LINE
  5
59B
330
1F
100
AcDbEntity
  8
Linee visibili 2D
100
AcDbLine
 10
199.2996491423713
 20
44.42553969995971
 30
0.0
 11
199.3541071758941
 21
44.3148959031357
 31
0.0
  0
LINE
  5
59C
330
1F
100
AcDbEntity
  8
Linee visibili 2D
100
AcDbLine
 10
199.3541071758941
 20
44.3148959031357
 30
0.0
 11
199.4060710355502
 21
44.20299823480562
 31
0.0
  0
LINE
  5
59D
330
1F
100
AcDbEntity
  8
Linee visibili 2D
100
AcDbLine
 10
199.4060710355502
 20
44.20299823480562
 30
0.0
 11
199.455561398937
 21
44.08995069948494
 31
0.0
  0
LINE
  5
59E
330
1F
100
AcDbEntity
  8
Linee visibili 2D
100
AcDbLine
 10
199.455561398937
 20
44.08995069948494
 30
0.0
 11
199.5025989436516
 21
43.97585730168912
 31
0.0
  0
LINE
  5
59F
330
1F
100
AcDbEntity
  8
Linee visibili 2D
100
AcDbLine
 10
199.5025989436516
 20
43.97585730168912
 30
0.0
 11
199.5472043472913
 21
43.8608220459336
 31
0.0
  0
LINE
  5
5A0
330
1F
100
AcDbEntity
  8
Linee visibili 2D
100
AcDbLine
 10
199.5472043472913
 20
43.8608220459336
 30
0.0
 11
199.5893982874531
 21
43.74494893673387
 31
0.0
  0
LINE
  5
5A1
330
1F
100
AcDbEntity
  8
Linee visibili 2D
100
AcDbLine
 10
199.5893982874531
 20
43.74494893673387
 30
0.0
 11
199.6292014417344
 21
43.62834197860536
 31
0.0
  0
LINE
  5
5A2
330
1F
100
AcDbEntity
  8
Linee visibili 2D
100
AcDbLine
 10
199.6292014417344
 20
43.62834197860536
 30
0.0
 11
199.6666344877324
 21
43.51110517606355
 31
0.0
  0
LINE
  5
5A3
330
1F
100
AcDbEntity
  8
Linee visibili 2D
100
AcDbLine
 10
199.6666344877324
 20
43.51110517606355
 30
0.0
 11
199.7072422405799
 21
43.37399458501118
 31
0.0
  0
LINE
  5
5A4
330
1F
100
AcDbEntity
  8
Linee visibili 2D
100
AcDbLine
 10
199.7072422405799
 20
43.37399458501118
 30
0.0
 11
199.7447087061884
 21
43.23621379245583
 31
0.0
  0
LINE
  5
5A5
330
1F
100
AcDbEntity
  8
Linee visibili 2D
100
AcDbLine
 10
199.7447087061884
 20
43.23621379245583
 30
0.0
 11
199.7790745121956
 21
43.09780475997442
 31
0.0
  0
LINE
  5
5A6
330
1F
100
AcDbEntity
  8
Linee visibili 2D
100
AcDbLine
 10
199.7790745121956
 20
43.09780475997442
 30
0.0
 11
199.8103802862386
 21
42.9588094491439
 31
0.0
  0
LINE
  5
5A7
330
1F
100
AcDbEntity
  8
Linee visibili 2D
100
AcDbLine
 10
199.8103802862386
 20
42.9588094491439
 30
0.0
 11
199.838666655955
 21
42.8192698215412
 31
0.0
  0
LINE
  5
5A8
330
1F
100
AcDbEntity
  8
Linee visibili 2D
100
AcDbLine
 10
199.838666655955
 20
42.8192698215412
 30
0.0
 11
199.863974248982
 21
42.67922783874326
 31
0.0
  0
LINE
  5
5A9
330
1F
100
AcDbEntity
  8
Linee visibili 2D
100
AcDbLine
 10
199.863974248982
 20
42.67922783874326
 30
0.0
 11
199.8863436929571
 21
42.538725462327
 31
0.0
  0
LINE
  5
5AA
330
1F
100
AcDbEntity
  8
Linee visibili 2D
100
AcDbLine
 10
199.8863436929571
 20
42.538725462327
 30
0.0
 11
199.9058156155177
 21
42.39780465386936
 31
0.0
  0
LINE
  5
5AB
330
1F
100
AcDbEntity
  8
Linee visibili 2D
100
AcDbLine
 10
199.9058156155177
 20
42.39780465386936
 30
0.0
 11
199.9224306443011
 21
42.25650737494727
 31
0.0
  0
LINE
  5
5AC
330
1F
100
AcDbEntity
  8
Linee visibili 2D
100
AcDbLine
 10
199.9224306443011
 20
42.25650737494727
 30
0.0
 11
199.9362294069447
 21
42.11487558713767
 31
0.0
  0
LINE
  5
5AD
330
1F
100
AcDbEntity
  8
Linee visibili 2D
100
AcDbLine
 10
199.9362294069447
 20
42.11487558713767
 30
0.0
 11
199.947252531086
 21
41.97295125201749
 31
0.0
  0
LINE
  5
5AE
330
1F
100
AcDbEntity
  8
Linee visibili 2D
100
AcDbLine
 10
199.947252531086
 20
41.97295125201749
 30
0.0
 11
199.9555406443622
 21
41.83077633116365
 31
0.0
  0
LINE
  5
5AF
330
1F
100
AcDbEntity
  8
Linee visibili 2D
100
AcDbLine
 10
199.9555406443622
 20
41.83077633116365
 30
0.0
 11
199.9611343744108
 21
41.68839278615311
 31
0.0
  0
LINE
  5
5B0
330
1F
100
AcDbEntity
  8
Linee visibili 2D
100
AcDbLine
 10
199.9611343744108
 20
41.68839278615311
 30
0.0
 11
199.9640743488692
 21
41.54584257856279
 31
0.0
  0
LINE
  5
5B1
330
1F
100
AcDbEntity
  8
Linee visibili 2D
100
AcDbLine
 10
199.9640743488692
 20
41.54584257856279
 30
0.0
 11
199.9644011953748
 21
41.40316766996963
 31
0.0
  0
LINE
  5
5B2
330
1F
100
AcDbEntity
  8
Linee visibili 2D
100
AcDbLine
 10
199.9644011953748
 20
41.40316766996963
 30
0.0
 11
199.9621555415649
 21
41.26041002195056
 31
0.0
  0
LINE
  5
5B3
330
1F
100
AcDbEntity
  8
Linee visibili 2D
100
AcDbLine
 10
199.9621555415649
 20
41.26041002195056
 30
0.0
 11
199.9501092435483
 21
40.9748143539424
 31
0.0
  0
LINE
  5
5B4
330
1F
100
AcDbEntity
  8
Linee visibili 2D
100
AcDbLine
 10
199.9501092435483
 20
40.9748143539424
 30
0.0
 11
199.9282604759184
 21
40.68939126715379
 31
0.0
  0
LINE
  5
5B5
330
1F
100
AcDbEntity
  8
Linee visibili 2D
100
AcDbLine
 10
199.9282604759184
 20
40.68939126715379
 30
0.0
 11
199.8969342597745
 21
40.40447645420021
 31
0.0
  0
LINE
  5
5B6
330
1F
100
AcDbEntity
  8
Linee visibili 2D
100
AcDbLine
 10
199.8969342597745
 20
40.40447645420021
 30
0.0
 11
199.8564556162154
 21
40.12040560769712
 31
0.0
  0
LINE
  5
5B7
330
1F
100
AcDbEntity
  8
Linee visibili 2D
100
AcDbLine
 10
199.8564556162154
 20
40.12040560769712
 30
0.0
 11
199.8071495663404
 21
39.83751442025999
 31
0.0
  0
LINE
  5
5B8
330
1F
100
AcDbEntity
  8
Linee visibili 2D
100
AcDbLine
 10
199.8071495663404
 20
39.83751442025999
 30
0.0
 11
199.7493411312485
 21
39.55613858450428
 31
0.0
  0
LINE
  5
5B9
330
1F
100
AcDbEntity
  8
Linee visibili 2D
100
AcDbLine
 10
199.7493411312485
 20
39.55613858450428
 30
0.0
 11
199.6833553320388
 21
39.27661379304547
 31
0.0
  0
LINE
  5
5BA
330
1F
100
AcDbEntity
  8
Linee visibili 2D
100
AcDbLine
 10
199.6833553320388
 20
39.27661379304547
 30
0.0
 11
199.6095171898103
 21
38.99927573849903
 31
0.0
  0
LINE
  5
5BB
330
1F
100
AcDbEntity
  8
Linee visibili 2D
100
AcDbLine
 10
199.6095171898103
 20
38.99927573849903
 30
0.0
 11
199.5188725726415
 21
38.69489331658414
 31
0.0
  0
LINE
  5
5BC
330
1F
100
AcDbEntity
  8
Linee visibili 2D
100
AcDbLine
 10
199.5188725726415
 20
38.69489331658414
 30
0.0
 11
199.4191150801379
 21
38.39380606302166
 31
0.0
  0
LINE
  5
5BD
330
1F
100
AcDbEntity
  8
Linee visibili 2D
100
AcDbLine
 10
199.4191150801379
 20
38.39380606302166
 30
0.0
 11
199.3103733893764
 21
38.09621227254353
 31
0.0
  0
LINE
  5
5BE
330
1F
100
AcDbEntity
  8
Linee visibili 2D
100
AcDbLine
 10
199.3103733893764
 20
38.09621227254353
 30
0.0
 11
199.1927761774336
 21
37.80231023988172
 31
0.0
  0
LINE
  5
5BF
330
1F
100
AcDbEntity
  8
Linee visibili 2D
100
AcDbLine
 10
199.1927761774336
 20
37.80231023988172
 30
0.0
 11
199.0664521213865
 21
37.51229825976816
 31
0.0
  0
LINE
  5
5C0
330
1F
100
AcDbEntity
  8
Linee visibili 2D
100
AcDbLine
 10
199.0664521213865
 20
37.51229825976816
 30
0.0
 11
198.9315298983116
 21
37.22637462693481
 31
0.0
  0
LINE
  5
5C1
330
1F
100
AcDbEntity
  8
Linee visibili 2D
100
AcDbLine
 10
198.9315298983116
 20
37.22637462693481
 30
0.0
 11
198.7881381852857
 21
36.9447376361136
 31
0.0
  0
LINE
  5
5C2
330
1F
100
AcDbEntity
  8
Linee visibili 2D
100
AcDbLine
 10
198.7881381852857
 20
36.9447376361136
 30
0.0
 11
198.6364056593857
 21
36.66758558203649
 31
0.0
  0
LINE
  5
5C3
330
1F
100
AcDbEntity
  8
Linee visibili 2D
100
AcDbLine
 10
198.6364056593857
 20
36.66758558203649
 30
0.0
 11
198.4764609976883
 21
36.39511675943542
 31
0.0
  0
LINE
  5
5C4
330
1F
100
AcDbEntity
  8
Linee visibili 2D
100
AcDbLine
 10
198.4764609976883
 20
36.39511675943542
 30
0.0
 11
198.3084328772703
 21
36.12752946304234
 31
0.0
  0
LINE
  5
5C5
330
1F
100
AcDbEntity
  8
Linee visibili 2D
100
AcDbLine
 10
198.3084328772703
 20
36.12752946304234
 30
0.0
 11
198.1324499752083
 21
35.8650219875892
 31
0.0
  0
LINE
  5
5C6
330
1F
100
AcDbEntity
  8
Linee visibili 2D
100
AcDbLine
 10
198.1324499752083
 20
35.8650219875892
 30
0.0
 11
197.9486409685792
 21
35.60779262780794
 31
0.0
  0
LINE
  5
5C7
330
1F
100
AcDbEntity
  8
Linee visibili 2D
100
AcDbLine
 10
197.9486409685792
 20
35.60779262780794
 30
0.0
 11
197.7571345344597
 21
35.35603967843052
 31
0.0
  0
LINE
  5
5C8
330
1F
100
AcDbEntity
  8
Linee visibili 2D
100
AcDbLine
 10
197.7571345344597
 20
35.35603967843052
 30
0.0
 11
197.5580593499266
 21
35.10996143418886
 31
0.0
  0
LINE
  5
5C9
330
1F
100
AcDbEntity
  8
Linee visibili 2D
100
AcDbLine
 10
197.5580593499266
 20
35.10996143418886
 30
0.0
 11
197.3515440920567
 21
34.86975618981494
 31
0.0
  0
LINE
  5
5CA
330
1F
100
AcDbEntity
  8
Linee visibili 2D
100
AcDbLine
 10
197.3515440920567
 20
34.86975618981494
 30
0.0
 11
197.1377174379266
 21
34.63562224004068
 31
0.0
  0
LINE
  5
5CB
330
1F
100
AcDbEntity
  8
Linee visibili 2D
100
AcDbLine
 10
197.1377174379266
 20
34.63562224004068
 30
0.0
 11
196.9350759306562
 21
34.42622644276989
 31
0.0
  0
LINE
  5
5CC
330
1F
100
AcDbEntity
  8
Linee visibili 2D
100
AcDbLine
 10
196.9350759306562
 20
34.42622644276989
 30
0.0
 11
196.7264786908452
 21
34.22254799910457
 31
0.0
  0
LINE
  5
5CD
330
1F
100
AcDbEntity
  8
Linee visibili 2D
100
AcDbLine
 10
196.7264786908452
 20
34.22254799910457
 30
0.0
 11
196.5120243304846
 21
34.02501959915224
 31
0.0
  0
LINE
  5
5CE
330
1F
100
AcDbEntity
  8
Linee visibili 2D
100
AcDbLine
 10
196.5120243304846
 20
34.02501959915224
 30
0.0
 11
196.2918114615651
 21
33.83407393302038
 31
0.0
  0
LINE
  5
5CF
330
1F
100
AcDbEntity
  8
Linee visibili 2D
100
AcDbLine
 10
196.2918114615651
 20
33.83407393302038
 30
0.0
 11
196.0659386960778
 21
33.65014369081652
 31
0.0
  0
LINE
  5
5D0
330
1F
100
AcDbEntity
  8
Linee visibili 2D
100
AcDbLine
 10
196.0659386960778
 20
33.65014369081652
 30
0.0
 11
195.8345046460134
 21
33.47366156264815
 31
0.0
  0
LINE
  5
5D1
330
1F
100
AcDbEntity
  8
Linee visibili 2D
100
AcDbLine
 10
195.8345046460134
 20
33.47366156264815
 30
0.0
 11
195.5976079233629
 21
33.30506023862279
 31
0.0
  0
LINE
  5
5D2
330
1F
100
AcDbEntity
  8
Linee visibili 2D
100
AcDbLine
 10
195.5976079233629
 20
33.30506023862279
 30
0.0
 11
195.3553471401173
 21
33.14477240884794
 31
0.0
  0
LINE
  5
5D3
330
1F
100
AcDbEntity
  8
Linee visibili 2D
100
AcDbLine
 10
195.3553471401173
 20
33.14477240884794
 30
0.0
 11
195.2322360420183
 21
33.06788126996305
 31
0.0
  0
LINE
  5
5D4
330
1F
100
AcDbEntity
  8
Linee visibili 2D
100
AcDbLine
 10
195.2322360420183
 20
33.06788126996305
 30
0.0
 11
195.1078209082672
 21
32.99323076343111
 31
0.0
  0
LINE
  5
5D5
330
1F
100
AcDbEntity
  8
Linee visibili 2D
100
AcDbLine
 10
195.1078209082672
 20
32.99323076343111
 30
0.0
 11
194.9821140653627
 21
32.92087497551555
 31
0.0
  0
LINE
  5
5D6
330
1F
100
AcDbEntity
  8
Linee visibili 2D
100
AcDbLine
 10
194.9821140653627
 20
32.92087497551555
 30
0.0
 11
194.8551278398037
 21
32.8508679924798
 31
0.0
  0
LINE
  5
5D7
330
1F
100
AcDbEntity
  8
Linee visibili 2D
100
AcDbLine
 10
194.8551278398037
 20
32.8508679924798
 30
0.0
 11
194.726874558089
 21
32.78326390058731
 31
0.0
  0
LINE
  5
5D8
330
1F
100
AcDbEntity
  8
Linee visibili 2D
100
AcDbLine
 10
194.726874558089
 20
32.78326390058731
 30
0.0
 11
194.5973665467176
 21
32.71811678610153
 31
0.0
  0
LINE
  5
5D9
330
1F
100
AcDbEntity
  8
Linee visibili 2D
100
AcDbLine
 10
194.5973665467176
 20
32.71811678610153
 30
0.0
 11
194.4666161321883
 21
32.65548073528586
 31
0.0
  0
LINE
  5
5DA
330
1F
100
AcDbEntity
  8
Linee visibili 2D
100
AcDbLine
 10
194.4666161321883
 20
32.65548073528586
 30
0.0
 11
194.3346356409999
 21
32.59540983440378
 31
0.0
  0
LINE
  5
5DB
330
1F
100
AcDbEntity
  8
Linee visibili 2D
100
AcDbLine
 10
194.3346356409999
 20
32.59540983440378
 30
0.0
 11
194.2014373996513
 21
32.53795816971871
 31
0.0
  0
LINE
  5
5DC
330
1F
100
AcDbEntity
  8
Linee visibili 2D
100
AcDbLine
 10
194.2014373996513
 20
32.53795816971871
 30
0.0
 11
194.0670337346414
 21
32.48317982749408
 31
0.0
  0
LINE
  5
5DD
330
1F
100
AcDbEntity
  8
Linee visibili 2D
100
AcDbLine
 10
194.0670337346414
 20
32.48317982749408
 30
0.0
 11
193.931436972469
 21
32.43112889399333
 31
0.0
  0
LINE
  5
5DE
330
1F
100
AcDbEntity
  8
Linee visibili 2D
100
AcDbLine
 10
193.931436972469
 20
32.43112889399333
 30
0.0
 11
193.7946594396329
 21
32.38185945547993
 31
0.0
  0
LINE
  5
5DF
330
1F
100
AcDbEntity
  8
Linee visibili 2D
100
AcDbLine
 10
193.7946594396329
 20
32.38185945547993
 30
0.0
 11
193.6567134626321
 21
32.33542559821727
 31
0.0
  0
LINE
  5
5E0
330
1F
100
AcDbEntity
  8
Linee visibili 2D
100
AcDbLine
 10
193.6567134626321
 20
32.33542559821727
 30
0.0
 11
193.5176113679655
 21
32.29188140846883
 31
0.0
  0
LINE
  5
5E1
330
1F
100
AcDbEntity
  8
Linee visibili 2D
100
AcDbLine
 10
193.5176113679655
 20
32.29188140846883
 30
0.0
 11
193.3773654821318
 21
32.25128097249802
 31
0.0
  0
LINE
  5
5E2
330
1F
100
AcDbEntity
  8
Linee visibili 2D
100
AcDbLine
 10
193.3773654821318
 20
32.25128097249802
 30
0.0
 11
193.2359881316299
 21
32.21367837656828
 31
0.0
  0
LINE
  5
5E3
330
1F
100
AcDbEntity
  8
Linee visibili 2D
100
AcDbLine
 10
0.4179894708477199
 20
93.96386899949759
 30
0.0
 11
0.4188676709676386
 21
93.99834628853567
 31
0.0
  0
LINE
  5
5E4
330
1F
100
AcDbEntity
  8
Linee visibili 2D
100
AcDbLine
 10
0.4188676709676386
 20
93.99834628853567
 30
0.0
 11
0.4209411196156267
 21
94.03277237610848
 31
0.0
  0
LINE
  5
5E5
330
1F
100
AcDbEntity
  8
Linee visibili 2D
100
AcDbLine
 10
0.4209411196156267
 20
94.03277237610848
 30
0.0
 11
0.4242073218635716
 21
94.06710583817893
 31
0.0
  0
LINE
  5
5E6
330
1F
100
AcDbEntity
  8
Linee visibili 2D
100
AcDbLine
 10
0.4242073218635716
 20
94.06710583817893
 30
0.0
 11
0.4286623475732373
 21
94.1013053621638
 31
0.0
  0
LINE
  5
5E7
330
1F
100
AcDbEntity
  8
Linee visibili 2D
100
AcDbLine
 10
0.4286623475732373
 20
94.1013053621638
 30
0.0
 11
0.4343008361253013
 21
94.13532979664426
 31
0.0
  0
LINE
  5
5E8
330
1F
100
AcDbEntity
  8
Linee visibili 2D
100
AcDbLine
 10
0.4343008361253013
 20
94.13532979664426
 30
0.0
 11
0.4411160028696511
 21
94.16913820088214
 31
0.0
  0
LINE
  5
5E9
330
1F
100
AcDbEntity
  8
Linee visibili 2D
100
AcDbLine
 10
0.4411160028696511
 20
94.16913820088214
 30
0.0
 11
0.4490996472891811
 21
94.20268989408308
 31
0.0
  0
LINE
  5
5EA
330
1F
100
AcDbEntity
  8
Linee visibili 2D
100
AcDbLine
 10
0.4490996472891811
 20
94.20268989408308
 30
0.0
 11
0.4582421628672672
 21
94.23594450434648
 31
0.0
  0
LINE
  5
5EB
330
1F
100
AcDbEntity
  8
Linee visibili 2D
100
AcDbLine
 10
0.4582421628672672
 20
94.23594450434648
 30
0.0
 11
0.4685325486470444
 21
94.26886201724417
 31
0.0
  0
LINE
  5
5EC
330
1F
100
AcDbEntity
  8
Linee visibili 2D
100
AcDbLine
 10
0.4685325486470444
 20
94.26886201724417
 30
0.0
 11
0.4799584224685781
 21
94.30140282396867
 31
0.0
  0
LINE
  5
5ED
330
1F
100
AcDbEntity
  8
Linee visibili 2D
100
AcDbLine
 10
0.4799584224685781
 20
94.30140282396867
 30
0.0
 11
0.4925060358680035
 21
94.33352776899345
 31
0.0
  0
LINE
  5
5EE
330
1F
100
AcDbEntity
  8
Linee visibili 2D
100
AcDbLine
 10
0.4925060358680035
 20
94.33352776899345
 30
0.0
 11
0.5061602906207031
 21
94.36519819718782
 31
0.0
  0
LINE
  5
5EF
330
1F
100
AcDbEntity
  8
Linee visibili 2D
100
AcDbLine
 10
0.5061602906207031
 20
94.36519819718782
 30
0.0
 11
0.5209047569086163
 21
94.39637600032965
 31
0.0
  0
LINE
  5
5F0
330
1F
100
AcDbEntity
  8
Linee visibili 2D
100
AcDbLine
 10
0.5209047569086163
 20
94.39637600032965
 30
0.0
 11
0.5367216930898232
 21
94.42702366296004
 31
0.0
  0
LINE
  5
5F1
330
1F
100
AcDbEntity
  8
Linee visibili 2D
100
AcDbLine
 10
0.5367216930898232
 20
94.42702366296004
 30
0.0
 11
0.5535920670466113
 21
94.45710430752469
 31
0.0
  0
LINE
  5
5F2
330
1F
100
AcDbEntity
  8
Linee visibili 2D
100
AcDbLine
 10
0.5535920670466113
 20
94.45710430752469
 30
0.0
 11
0.5714955790863399
 21
94.48658173874773
 31
0.0
  0
LINE
  5
5F3
330
1F
100
AcDbEntity
  8
Linee visibili 2D
100
AcDbLine
 10
0.5714955790863399
 20
94.48658173874773
 30
0.0
 11
0.5904106863675441
 21
94.51542048718464
 31
0.0
  0
LINE
  5
5F4
330
1F
100
AcDbEntity
  8
Linee visibili 2D
100
AcDbLine
 10
0.5904106863675441
 20
94.51542048718464
 30
0.0
 11
0.6103146288218901
 21
94.54358585190163
 31
0.0
  0
LINE
  5
5F5
330
1F
100
AcDbEntity
  8
Linee visibili 2D
100
AcDbLine
 10
0.6103146288218901
 20
94.54358585190163
 30
0.0
 11
0.6311834565407868
 21
94.57104394223045
 31
0.0
  0
LINE
  5
5F6
330
1F
100
AcDbEntity
  8
Linee visibili 2D
100
AcDbLine
 10
0.6311834565407868
 20
94.57104394223045
 30
0.0
 11
0.6529920585937025
 21
94.59776171854816
 31
0.0
  0
LINE
  5
5F7
330
1F
100
AcDbEntity
  8
Linee visibili 2D
100
AcDbLine
 10
0.6529920585937025
 20
94.59776171854816
 30
0.0
 11
0.6757141932435107
 21
94.62370703203293
 31
0.0
  0
LINE
  5
5F8
330
1F
100
AcDbEntity
  8
Linee visibili 2D
100
AcDbLine
 10
0.6757141932435107
 20
94.62370703203293
 30
0.0
 11
0.6993225195225055
 21
94.64884866334775
 31
0.0
  0
LINE
  5
5F9
330
1F
100
AcDbEntity
  8
Linee visibili 2D
100
AcDbLine
 10
0.6993225195225055
 20
94.64884866334775
 30
0.0
 11
0.7237886301310947
 21
94.67315636020604
 31
0.0
  0
LINE
  5
5FA
330
1F
100
AcDbEntity
  8
Linee visibili 2D
100
AcDbLine
 10
0.7237886301310947
 20
94.67315636020604
 30
0.0
 11
0.7490830856195809
 21
94.69660087377335
 31
0.0
  0
LINE
  5
5FB
330
1F
100
AcDbEntity
  8
Linee visibili 2D
100
AcDbLine
 10
0.7490830856195809
 20
94.69660087377335
 30
0.0
 11
0.7751754498119048
 21
94.71915399386174
 31
0.0
  0
LINE
  5
5FC
330
1F
100
AcDbEntity
  8
Linee visibili 2D
100
AcDbLine
 10
0.7751754498119048
 20
94.71915399386174
 30
0.0
 11
0.8020343264287235
 21
94.74078858287446
 31
0.0
  0
LINE
  5
5FD
330
1F
100
AcDbEntity
  8
Linee visibili 2D
100
AcDbLine
 10
0.8020343264287235
 20
94.74078858287446
 30
0.0
 11
0.8296273968657539
 21
94.76147860845984
 31
0.0
  0
LINE
  5
5FE
330
1F
100
AcDbEntity
  8
Linee visibili 2D
100
AcDbLine
 10
0.8296273968657539
 20
94.76147860845984
 30
0.0
 11
0.8579214590819324
 21
94.78119917483541
 31
0.0
  0
LINE
  5
5FF
330
1F
100
AcDbEntity
  8
Linee visibili 2D
100
AcDbLine
 10
0.8579214590819324
 20
94.78119917483541
 30
0.0
 11
0.8868824675505836
 21
94.79992655274437
 31
0.0
  0
LINE
  5
600
330
1F
100
AcDbEntity
  8
Linee visibili 2D
100
AcDbLine
 10
0.8868824675505836
 20
94.79992655274437
 30
0.0
 11
0.9164755742255425
 21
94.81763820800838
 31
0.0
  0
LINE
  5
601
330
1F
100
AcDbEntity
  8
Linee visibili 2D
100
AcDbLine
 10
0.9164755742255425
 20
94.81763820800838
 30
0.0
 11
0.9466651704729199
 21
94.83431282864234
 31
0.0
  0
LINE
  5
602
330
1F
100
AcDbEntity
  8
Linee visibili 2D
100
AcDbLine
 10
0.9466651704729199
 20
94.83431282864234
 30
0.0
 11
0.9774149299180703
 21
94.84993035049864
 31
0.0
  0
LINE
  5
603
330
1F
100
AcDbEntity
  8
Linee visibili 2D
100
AcDbLine
 10
0.9774149299180703
 20
94.84993035049864
 30
0.0
 11
1.008687852156194
 21
94.86447198140974
 31
0.0
  0
LINE
  5
604
330
1F
100
AcDbEntity
  8
Linee visibili 2D
100
AcDbLine
 10
1.008687852156194
 20
94.86447198140974
 30
0.0
 11
1.040446307273986
 21
94.87792022380039
 31
0.0
  0
LINE
  5
605
330
1F
100
AcDbEntity
  8
Linee visibili 2D
100
AcDbLine
 10
1.040446307273986
 20
94.87792022380039
 30
0.0
 11
1.072652081128755
 21
94.89025889574197
 31
0.0
  0
LINE
  5
606
330
1F
100
AcDbEntity
  8
Linee visibili 2D
100
AcDbLine
 10
1.072652081128755
 20
94.89025889574197
 30
0.0
 11
1.105266421330532
 21
94.90147315042381
 31
0.0
  0
LINE
  5
607
330
1F
100
AcDbEntity
  8
Linee visibili 2D
100
AcDbLine
 10
1.105266421330532
 20
94.90147315042381
 30
0.0
 11
1.138250083871834
 21
94.91154949401799
 31
0.0
  0
LINE
  5
608
330
1F
100
AcDbEntity
  8
Linee visibili 2D
100
AcDbLine
 10
1.138250083871834
 20
94.91154949401799
 30
0.0
 11
1.171563380348985
 21
94.9204758019161
 31
0.0
  0
LINE
  5
609
330
1F
100
AcDbEntity
  8
Linee visibili 2D
100
AcDbLine
 10
1.171563380348985
 20
94.9204758019161
 30
0.0
 11
1.205166225718165
 21
94.92824133331848
 31
0.0
  0
LINE
  5
60A
330
1F
100
AcDbEntity
  8
Linee visibili 2D
100
AcDbLine
 10
1.205166225718165
 20
94.92824133331848
 30
0.0
 11
1.239018186528721
 21
94.93483674415837
 31
0.0
  0
LINE
  5
60B
330
1F
100
AcDbEntity
  8
Linee visibili 2D
100
AcDbLine
 10
119.7878828323637
 20
86.91629246464558
 30
0.0
 11
119.944273616562
 21
86.90330953788242
 31
0.0
  0
LINE
  5
60C
330
1F
100
AcDbEntity
  8
Linee visibili 2D
100
AcDbLine
 10
119.944273616562
 20
86.90330953788242
 30
0.0
 11
120.1001168533107
 21
86.88488348759569
 31
0.0
  0
LINE
  5
60D
330
1F
100
AcDbEntity
  8
Linee visibili 2D
100
AcDbLine
 10
120.1001168533107
 20
86.88488348759569
 30
0.0
 11
120.2552231548428
 21
86.86103670595712
 31
0.0
  0
LINE
  5
60E
330
1F
100
AcDbEntity
  8
Linee visibili 2D
100
AcDbLine
 10
120.2552231548428
 20
86.86103670595712
 30
0.0
 11
120.4094040289483
 21
86.83179817265697
 31
0.0
  0
LINE
  5
60F
330
1F
100
AcDbEntity
  8
Linee visibili 2D
100
AcDbLine
 10
120.4094040289483
 20
86.83179817265697
 30
0.0
 11
120.5624721080386
 21
86.79720341968654
 31
0.0
  0
LINE
  5
610
330
1F
100
AcDbEntity
  8
Linee visibili 2D
100
AcDbLine
 10
120.5624721080386
 20
86.79720341968654
 30
0.0
 11
120.714241376844
 21
86.75729448815812
 31
0.0
  0
LINE
  5
611
330
1F
100
AcDbEntity
  8
Linee visibili 2D
100
AcDbLine
 10
120.714241376844
 20
86.75729448815812
 30
0.0
 11
120.8645273984681
 21
86.71211987721472
 31
0.0
  0
LINE
  5
612
330
1F
100
AcDbEntity
  8
Linee visibili 2D
100
AcDbLine
 10
120.8645273984681
 20
86.71211987721472
 30
0.0
 11
121.0131475385236
 21
86.66173448509176
 31
0.0
  0
LINE
  5
613
330
1F
100
AcDbEntity
  8
Linee visibili 2D
100
AcDbLine
 10
121.0131475385236
 20
86.66173448509176
 30
0.0
 11
121.1599211870779
 21
86.60619954240214
 31
0.0
  0
LINE
  5
614
330
1F
100
AcDbEntity
  8
Linee visibili 2D
100
AcDbLine
 10
121.1599211870779
 20
86.60619954240214
 30
0.0
 11
121.3046699781387
 21
86.5455825377261
 31
0.0
  0
LINE
  5
615
330
1F
100
AcDbEntity
  8
Linee visibili 2D
100
AcDbLine
 10
121.3046699781387
 20
86.5455825377261
 30
0.0
 11
121.4472180064126
 21
86.4799571355961
 31
0.0
  0
LINE
  5
616
330
1F
100
AcDbEntity
  8
Linee visibili 2D
100
AcDbLine
 10
121.4472180064126
 20
86.4799571355961
 30
0.0
 11
121.5873920410724
 21
86.40940308697613
 31
0.0
  0
LINE
  5
617
330
1F
100
AcDbEntity
  8
Linee visibili 2D
100
AcDbLine
 10
1.600370547509944
 20
94.93926819091207
 30
0.0
 11
119.7878828323639
 21
86.91629246464431
 31
0.0
  0
LINE
  5
618
330
1F
100
AcDbEntity
  8
Linee visibili 2D
100
AcDbLine
 10
64.19104325290607
 20
48.96706283461443
 30
0.0
 11
64.19275624320287
 21
49.00487313449488
 31
0.0
  0
LINE
  5
619
330
1F
100
AcDbEntity
  8
Linee visibili 2D
100
AcDbLine
 10
64.19275624320287
 20
49.00487313449488
 30
0.0
 11
64.19320522724996
 21
49.04271955475005
 31
0.0
  0
LINE
  5
61A
330
1F
100
AcDbEntity
  8
Linee visibili 2D
100
AcDbLine
 10
64.19320522724996
 20
49.04271955475005
 30
0.0
 11
64.19238970389112
 21
49.08055985118728
 31
0.0
  0
LINE
  5
61B
330
1F
100
AcDbEntity
  8
Linee visibili 2D
100
AcDbLine
 10
64.19238970389112
 20
49.08055985118728
 30
0.0
 11
64.19031058341396
 21
49.11835178644929
 31
0.0
  0
LINE
  5
61C
330
1F
100
AcDbEntity
  8
Linee visibili 2D
100
AcDbLine
 10
64.19031058341396
 20
49.11835178644929
 30
0.0
 11
64.18697018653374
 21
49.15605317715956
 31
0.0
  0
LINE
  5
61D
330
1F
100
AcDbEntity
  8
Linee visibili 2D
100
AcDbLine
 10
64.18697018653374
 20
49.15605317715956
 30
0.0
 11
64.18237224180308
 21
49.19362194100746
 31
0.0
  0
LINE
  5
61E
330
1F
100
AcDbEntity
  8
Linee visibili 2D
100
AcDbLine
 10
64.18237224180308
 20
49.19362194100746
 30
0.0
 11
64.17652188145011
 21
49.23101614372054
 31
0.0
  0
LINE
  5
61F
330
1F
100
AcDbEntity
  8
Linee visibili 2D
100
AcDbLine
 10
64.17652188145011
 20
49.23101614372054
 30
0.0
 11
64.16942563564993
 21
49.26819404587154
 31
0.0
  0
LINE
  5
620
330
1F
100
AcDbEntity
  8
Linee visibili 2D
100
AcDbLine
 10
64.16942563564993
 20
49.26819404587154
 30
0.0
 11
64.16109142523554
 21
49.30511414946802
 31
0.0
  0
LINE
  5
621
330
1F
100
AcDbEntity
  8
Linee visibili 2D
100
AcDbLine
 10
64.16109142523554
 20
49.30511414946802
 30
0.0
 11
64.15152855285666
 21
49.3417352442724
 31
0.0
  0
LINE
  5
622
330
1F
100
AcDbEntity
  8
Linee visibili 2D
100
AcDbLine
 10
64.15152855285666
 20
49.3417352442724
 30
0.0
 11
64.14074769259607
 21
49.37801645380085
 31
0.0
  0
LINE
  5
623
330
1F
100
AcDbEntity
  8
Linee visibili 2D
100
AcDbLine
 10
64.14074769259607
 20
49.37801645380085
 30
0.0
 11
64.12876087805523
 21
49.41391728094968
 31
0.0
  0
LINE
  5
624
330
1F
100
AcDbEntity
  8
Linee visibili 2D
100
AcDbLine
 10
64.12876087805523
 20
49.41391728094968
 30
0.0
 11
64.11558148892239
 21
49.44939765319817
 31
0.0
  0
LINE
  5
625
330
1F
100
AcDbEntity
  8
Linee visibili 2D
100
AcDbLine
 10
64.11558148892239
 20
49.44939765319817
 30
0.0
 11
64.10122423603808
 21
49.48441796733756
 31
0.0
  0
LINE
  5
626
330
1F
100
AcDbEntity
  8
Linee visibili 2D
100
AcDbLine
 10
64.10122423603808
 20
49.48441796733756
 30
0.0
 11
64.08570514497494
 21
49.51893913367621
 31
0.0
  0
LINE
  5
627
330
1F
100
AcDbEntity
  8
Linee visibili 2D
100
AcDbLine
 10
64.08570514497494
 20
49.51893913367621
 30
0.0
 11
64.06904153814996
 21
49.55292261967144
 31
0.0
  0
LINE
  5
628
330
1F
100
AcDbEntity
  8
Linee visibili 2D
100
AcDbLine
 10
64.06904153814996
 20
49.55292261967144
 30
0.0
 11
64.05125201548921
 21
49.58633049293971
 31
0.0
  0
LINE
  5
629
330
1F
100
AcDbEntity
  8
Linee visibili 2D
100
AcDbLine
 10
64.05125201548921
 20
49.58633049293971
 30
0.0
 11
64.0323564336665
 21
49.61912546359661
 31
0.0
  0
LINE
  5
62A
330
1F
100
AcDbEntity
  8
Linee visibili 2D
100
AcDbLine
 10
64.0323564336665
 20
49.61912546359661
 30
0.0
 11
64.01237588393943
 21
49.65127092587996
 31
0.0
  0
LINE
  5
62B
330
1F
100
AcDbEntity
  8
Linee visibili 2D
100
AcDbLine
 10
64.01237588393943
 20
49.65127092587996
 30
0.0
 11
63.99133266860735
 21
49.68273099900915
 31
0.0
  0
LINE
  5
62C
330
1F
100
AcDbEntity
  8
Linee visibili 2D
100
AcDbLine
 10
63.99133266860735
 20
49.68273099900915
 30
0.0
 11
63.96925027611742
 21
49.71347056723525
 31
0.0
  0
LINE
  5
62D
330
1F
100
AcDbEntity
  8
Linee visibili 2D
100
AcDbLine
 10
121.5938042441408
 20
86.4110491280223
 30
0.0
 11
197.339737546773
 21
46.44706750264621
 31
0.0
  0
LINE
  5
62E
330
1F
100
AcDbEntity
  8
Linee visibili 2D
100
AcDbLine
 10
64.31463145102146
 20
0.2131984644426557
 30
0.0
 11
64.27726376001159
 21
0.2046514357557483
 31
0.0
  0
LINE
  5
62F
330
1F
100
AcDbEntity
  8
Linee visibili 2D
100
AcDbLine
 10
64.27726376001159
 20
0.2046514357557483
 30
0.0
 11
64.23962896482479
 21
0.1973700744797673
 31
0.0
  0
LINE
  5
630
330
1F
100
AcDbEntity
  8
Linee visibili 2D
100
AcDbLine
 10
64.23962896482479
 20
0.1973700744797673
 30
0.0
 11
64.20176992167188
 21
0.1913626721851165
 31
0.0
  0
LINE
  5
631
330
1F
100
AcDbEntity
  8
Linee visibili 2D
100
AcDbLine
 10
64.20176992167188
 20
0.1913626721851165
 30
0.0
 11
64.16372974212359
 21
0.1866360697353624
 31
0.0
  0
LINE
  5
632
330
1F
100
AcDbEntity
  8
Linee visibili 2D
100
AcDbLine
 10
64.16372974212359
 20
0.1866360697353624
 30
0.0
 11
64.12555174401776
 21
0.1831956494972763
 31
0.0
  0
LINE
  5
633
330
1F
100
AcDbEntity
  8
Linee visibili 2D
100
AcDbLine
 10
64.12555174401776
 20
0.1831956494972763
 30
0.0
 11
64.08727940213156
 21
0.1810453292117227
 31
0.0
  0
LINE
  5
634
330
1F
100
AcDbEntity
  8
Linee visibili 2D
100
AcDbLine
 10
64.08727940213156
 20
0.1810453292117227
 30
0.0
 11
64.04895629867515
 21
0.1801875575323758
 31
0.0
  0
LINE
  5
635
330
1F
100
AcDbEntity
  8
Linee visibili 2D
100
AcDbLine
 10
64.04895629867515
 20
0.1801875575323758
 30
0.0
 11
64.01062607366286
 21
0.1806233112373402
 31
0.0
  0
LINE
  5
636
330
1F
100
AcDbEntity
  8
Linee visibili 2D
100
AcDbLine
 10
64.01062607366286
 20
0.1806233112373402
 30
0.0
 11
63.97233237521862
 21
0.1823520941168571
 31
0.0
  0
LINE
  5
637
330
1F
100
AcDbEntity
  8
Linee visibili 2D
100
AcDbLine
 10
63.97233237521862
 20
0.1823520941168571
 30
0.0
 11
63.93411880987208
 21
0.1853719375383572
 31
0.0
  0
LINE
  5
638
330
1F
100
AcDbEntity
  8
Linee visibili 2D
100
AcDbLine
 10
63.93411880987208
 20
0.1853719375383572
 30
0.0
 11
63.89602889290227
 21
0.1896794026882192
 31
0.0
  0
LINE
  5
639
330
1F
100
AcDbEntity
  8
Linee visibili 2D
100
AcDbLine
 10
63.89602889290227
 20
0.1896794026882192
 30
0.0
 11
63.85810599878496
 21
0.1952695844876811
 31
0.0
  0
LINE
  5
63A
330
1F
100
AcDbEntity
  8
Linee visibili 2D
100
AcDbLine
 10
63.85810599878496
 20
0.1952695844876811
 30
0.0
 11
63.82039331180047
 21
0.2021361171784463
 31
0.0
  0
LINE
  5
63B
330
1F
100
AcDbEntity
  8
Linee visibili 2D
100
AcDbLine
 10
63.82039331180047
 20
0.2021361171784463
 30
0.0
 11
63.78293377685804
 21
0.2102711815716184
 31
0.0
  0
LINE
  5
63C
330
1F
100
AcDbEntity
  8
Linee visibili 2D
100
AcDbLine
 10
63.78293377685804
 20
0.2102711815716184
 30
0.0
 11
63.74577005059282
 21
0.2196655139517199
 31
0.0
  0
LINE
  5
63D
330
1F
100
AcDbEntity
  8
Linee visibili 2D
100
AcDbLine
 10
63.74577005059282
 20
0.2196655139517199
 30
0.0
 11
63.70894445279106
 21
0.2303084166256448
 31
0.0
  0
LINE
  5
63E
330
1F
100
AcDbEntity
  8
Linee visibili 2D
100
AcDbLine
 10
63.70894445279106
 20
0.2303084166256448
 30
0.0
 11
63.67249891819891
 21
0.24218777010454
 31
0.0
  0
LINE
  5
63F
330
1F
100
AcDbEntity
  8
Linee visibili 2D
100
AcDbLine
 10
63.67249891819891
 20
0.24218777010454
 30
0.0
 11
63.63647494876972
 21
0.2552900469047409
 31
0.0
  0
LINE
  5
640
330
1F
100
AcDbEntity
  8
Linee visibili 2D
100
AcDbLine
 10
63.63647494876972
 20
0.2552900469047409
 30
0.0
 11
63.60091356640414
 21
0.2696003269520445
 31
0.0
  0
LINE
  5
641
330
1F
100
AcDbEntity
  8
Linee visibili 2D
100
AcDbLine
 10
63.60091356640414
 20
0.2696003269520445
 30
0.0
 11
63.56585526623682
 21
0.285102314571781
 31
0.0
  0
LINE
  5
642
330
1F
100
AcDbEntity
  8
Linee visibili 2D
100
AcDbLine
 10
63.56585526623682
 20
0.285102314571781
 30
0.0
 11
63.53133997052312
 21
0.301778357045335
 31
0.0
  0
LINE
  5
643
330
1F
100
AcDbEntity
  8
Linee visibili 2D
100
AcDbLine
 10
63.53133997052312
 20
0.301778357045335
 30
0.0
 11
63.49740698317801
 21
0.3196094647119846
 31
0.0
  0
LINE
  5
644
330
1F
100
AcDbEntity
  8
Linee visibili 2D
100
AcDbLine
 10
63.49740698317801
 20
0.3196094647119846
 30
0.0
 11
63.46409494501915
 21
0.338575332593171
 31
0.0
  0
LINE
  5
645
330
1F
100
AcDbEntity
  8
Linee visibili 2D
100
AcDbLine
 10
63.46409494501915
 20
0.338575332593171
 30
0.0
 11
63.43144178976515
 21
0.3586543635145688
 31
0.0
  0
LINE
  5
646
330
1F
100
AcDbEntity
  8
Linee visibili 2D
100
AcDbLine
 10
63.43144178976515
 20
0.3586543635145688
 30
0.0
 11
63.39948470083893
 21
0.3798236926996332
 31
0.0
  0
LINE
  5
647
330
1F
100
AcDbEntity
  8
Linee visibili 2D
100
AcDbLine
 10
63.39948470083893
 20
0.3798236926996332
 30
0.0
 11
63.3682600690255
 21
0.402059213806613
 31
0.0
  0
LINE
  5
648
330
1F
100
AcDbEntity
  8
Linee visibili 2D
100
AcDbLine
 10
63.3682600690255
 20
0.402059213806613
 30
0.0
 11
63.33780345103231
 21
0.4253356063793829
 31
0.0
  0
LINE
  5
649
330
1F
100
AcDbEntity
  8
Linee visibili 2D
100
AcDbLine
 10
62.31115886448237
 20
4.039542989840555
 30
0.0
 11
64.19104325292267
 21
48.96706283461371
 31
0.0
  0
LINE
  5
64A
330
1F
100
AcDbEntity
  8
Linee visibili 2D
100
AcDbLine
 10
62.27863822810619
 20
3.867429760146095
 30
0.0
 11
62.31115872664932
 21
4.039539694184058
 31
0.0
  0
LINE
  5
64B
330
1F
100
AcDbEntity
  8
Linee visibili 2D
100
AcDbLine
 10
179.1942833705671
 20
28.72828772673507
 30
0.0
 11
178.989133344303
 21
26.85778355459868
 31
0.0
  0
LINE
  5
64C
330
1F
100
AcDbEntity
  8
Linee visibili 2D
100
AcDbLine
 10
178.9890676039473
 20
26.85746522890954
 30
0.0
 11
178.9670919519213
 21
26.79681106476661
 31
0.0
  0
LINE
  5
64D
330
1F
100
AcDbEntity
  8
Linee visibili 2D
100
AcDbLine
 10
178.9670919519213
 20
26.79681106476661
 30
0.0
 11
178.9430486029527
 21
26.73694643180007
 31
0.0
  0
LINE
  5
64E
330
1F
100
AcDbEntity
  8
Linee visibili 2D
100
AcDbLine
 10
178.9430486029527
 20
26.73694643180007
 30
0.0
 11
178.9169658573604
 21
26.67794179391274
 31
0.0
  0
LINE
  5
64F
330
1F
100
AcDbEntity
  8
Linee visibili 2D
100
AcDbLine
 10
178.9169658573604
 20
26.67794179391274
 30
0.0
 11
178.8888744159433
 21
26.61986660274686
 31
0.0
  0
LINE
  5
650
330
1F
100
AcDbEntity
  8
Linee visibili 2D
100
AcDbLine
 10
178.8888744159433
 20
26.61986660274686
 30
0.0
 11
178.8588073438435
 21
26.56278921593574
 31
0.0
  0
LINE
  5
651
330
1F
100
AcDbEntity
  8
Linee visibili 2D
100
AcDbLine
 10
178.8588073438435
 20
26.56278921593574
 30
0.0
 11
178.8268000316269
 21
26.5067768166431
 31
0.0
  0
LINE
  5
652
330
1F
100
AcDbEntity
  8
Linee visibili 2D
100
AcDbLine
 10
178.8268000316269
 20
26.5067768166431
 30
0.0
 11
178.792890153627
 21
26.45189533448491
 31
0.0
  0
LINE
  5
653
330
1F
100
AcDbEntity
  8
Linee visibili 2D
100
AcDbLine
 10
178.792890153627
 20
26.45189533448491
 30
0.0
 11
178.7571176235998
 21
26.39820936792665
 31
0.0
  0
LINE
  5
654
330
1F
100
AcDbEntity
  8
Linee visibili 2D
100
AcDbLine
 10
178.7571176235998
 20
26.39820936792665
 30
0.0
 11
178.719524547743
 21
26.34578210824746
 31
0.0
  0
LINE
  5
655
330
1F
100
AcDbEntity
  8
Linee visibili 2D
100
AcDbLine
 10
178.719524547743
 20
26.34578210824746
 30
0.0
 11
178.6801551751352
 21
26.29467526516055
 31
0.0
  0
LINE
  5
656
330
1F
100
AcDbEntity
  8
Linee visibili 2D
100
AcDbLine
 10
178.6801551751352
 20
26.29467526516055
 30
0.0
 11
178.6390558456519
 21
26.24494899417756
 31
0.0
  0
LINE
  5
657
330
1F
100
AcDbEntity
  8
Linee visibili 2D
100
AcDbLine
 10
178.6390558456519
 20
26.24494899417756
 30
0.0
 11
178.5962749354215
 21
26.19666182580229
 31
0.0
  0
LINE
  5
658
330
1F
100
AcDbEntity
  8
Linee visibili 2D
100
AcDbLine
 10
178.5962749354215
 20
26.19666182580229
 30
0.0
 11
178.5518627998834
 21
26.14987059663714
 31
0.0
  0
LINE
  5
659
330
1F
100
AcDbEntity
  8
Linee visibili 2D
100
AcDbLine
 10
178.5518627998834
 20
26.14987059663714
 30
0.0
 11
178.5058717145172
 21
26.10463038248331
 31
0.0
  0
LINE
  5
65A
330
1F
100
AcDbEntity
  8
Linee visibili 2D
100
AcDbLine
 10
178.5058717145172
 20
26.10463038248331
 30
0.0
 11
178.4583558133117
 21
26.06099443351369
 31
0.0
  0
LINE
  5
65B
330
1F
100
AcDbEntity
  8
Linee visibili 2D
100
AcDbLine
 10
178.4583558133117
 20
26.06099443351369
 30
0.0
 11
178.4093710250463
 21
26.01901411159448
 31
0.0
  0
LINE
  5
65C
330
1F
100
AcDbEntity
  8
Linee visibili 2D
100
AcDbLine
 10
178.4093710250463
 20
26.01901411159448
 30
0.0
 11
178.3589750074597
 21
25.9787388298295
 31
0.0
  0
LINE
  5
65D
330
1F
100
AcDbEntity
  8
Linee visibili 2D
100
AcDbLine
 10
178.3589750074597
 20
25.9787388298295
 30
0.0
 11
178.3072270793834
 21
25.94021599439836
 31
0.0
  0
LINE
  5
65E
330
1F
100
AcDbEntity
  8
Linee visibili 2D
100
AcDbLine
 10
178.3072270793834
 20
25.94021599439836
 30
0.0
 11
178.2541881509207
 21
25.90349094875674
 31
0.0
  0
LINE
  5
65F
330
1F
100
AcDbEntity
  8
Linee visibili 2D
100
AcDbLine
 10
178.2541881509207
 20
25.90349094875674
 30
0.0
 11
178.1999206517521
 21
25.86860692026477
 31
0.0
  0
LINE
  5
660
330
1F
100
AcDbEntity
  8
Linee visibili 2D
100
AcDbLine
 10
178.1999206517521
 20
25.86860692026477
 30
0.0
 11
178.1444884576519
 21
25.83560496930606
 31
0.0
  0
LINE
  5
661
330
1F
100
AcDbEntity
  8
Linee visibili 2D
100
AcDbLine
 10
178.1444884576519
 20
25.83560496930606
 30
0.0
 11
178.0879568153032
 21
25.80452394095742
 31
0.0
  0
LINE
  5
662
330
1F
100
AcDbEntity
  8
Linee visibili 2D
100
AcDbLine
 10
178.0879568153032
 20
25.80452394095742
 30
0.0
 11
178.0303922654992
 21
25.77540041926612
 31
0.0
  0
LINE
  5
663
330
1F
100
AcDbEntity
  8
Linee visibili 2D
100
AcDbLine
 10
178.0303922654992
 20
25.77540041926612
 30
0.0
 11
177.9718625648206
 21
25.74826868418846
 31
0.0
  0
LINE
  5
664
330
1F
100
AcDbEntity
  8
Linee visibili 2D
100
AcDbLine
 10
177.9718625648206
 20
25.74826868418846
 30
0.0
 11
177.912436605883
 21
25.72316067124046
 31
0.0
  0
LINE
  5
665
330
1F
100
AcDbEntity
  8
Linee visibili 2D
100
AcDbLine
 10
177.912436605883
 20
25.72316067124046
 30
0.0
 11
177.8521843362464
 21
25.70010593390798
 31
0.0
  0
LINE
  5
666
330
1F
100
AcDbEntity
  8
Linee visibili 2D
100
AcDbLine
 10
177.8521843362464
 20
25.70010593390798
 30
0.0
 11
177.7911766760826
 21
25.67913160886073
 31
0.0
  0
LINE
  5
667
330
1F
100
AcDbEntity
  8
Linee visibili 2D
100
AcDbLine
 10
177.7911766760826
 20
25.67913160886073
 30
0.0
 11
177.7294854346993
 21
25.66026238401091
 31
0.0
  0
LINE
  5
668
330
1F
100
AcDbEntity
  8
Linee visibili 2D
100
AcDbLine
 10
177.7294854346993
 20
25.66026238401091
 30
0.0
 11
177.667183226016
 21
25.64352046945419
 31
0.0
  0
LINE
  5
669
330
1F
100
AcDbEntity
  8
Linee visibili 2D
100
AcDbLine
 10
177.667183226016
 20
25.64352046945419
 30
0.0
 11
177.6043433830936
 21
25.62892557132728
 31
0.0
  0
LINE
  5
66A
330
1F
100
AcDbEntity
  8
Linee visibili 2D
100
AcDbLine
 10
177.6043433830936
 20
25.62892557132728
 30
0.0
 11
177.5410398718176
 21
25.61649486861271
 31
0.0
  0
LINE
  5
66B
330
1F
100
AcDbEntity
  8
Linee visibili 2D
100
AcDbLine
 10
177.5410398718176
 20
25.61649486861271
 30
0.0
 11
177.4773472038362
 21
25.60624299291823
 31
0.0
  0
LINE
  5
66C
330
1F
100
AcDbEntity
  8
Linee visibili 2D
100
AcDbLine
 10
177.4773472038362
 20
25.60624299291823
 30
0.0
 11
177.4133403488559
 21
25.59818201125465
 31
0.0
  0
LINE
  5
66D
330
1F
100
AcDbEntity
  8
Linee visibili 2D
100
AcDbLine
 10
177.4125251002108
 20
25.59789796682617
 30
0.0
 11
75.9681836873583
 21
0.2070861421403265
 31
0.0
  0
LINE
  5
66E
330
1F
100
AcDbEntity
  8
Linee visibili 2D
100
AcDbLine
 10
75.9681835984794
 20
0.2070861198946689
 30
0.0
 11
75.79667786496401
 21
0.1664917924921964
 31
0.0
  0
LINE
  5
66F
330
1F
100
AcDbEntity
  8
Linee visibili 2D
100
AcDbLine
 10
75.79667786496401
 20
0.1664917924921964
 30
0.0
 11
75.62520333500441
 21
0.1316952034279529
 31
0.0
  0
LINE
  5
670
330
1F
100
AcDbEntity
  8
Linee visibili 2D
100
AcDbLine
 10
75.62520333500441
 20
0.1316952034279529
 30
0.0
 11
75.45328068610426
 21
0.101886774573757
 31
0.0
  0
LINE
  5
671
330
1F
100
AcDbEntity
  8
Linee visibili 2D
100
AcDbLine
 10
75.45328068610426
 20
0.101886774573757
 30
0.0
 11
75.28043059576729
 21
0.0762569278014273
 31
0.0
  0
LINE
  5
672
330
1F
100
AcDbEntity
  8
Linee visibili 2D
100
AcDbLine
 10
75.28043059576729
 20
0.0762569278014273
 30
0.0
 11
75.09727387529888
 21
0.0531045799220353
 31
0.0
  0
LINE
  5
673
330
1F
100
AcDbEntity
  8
Linee visibili 2D
100
AcDbLine
 10
75.09727387529888
 20
0.0531045799220353
 30
0.0
 11
74.91304903980009
 21
0.0338470803896796
 31
0.0
  0
LINE
  5
674
330
1F
100
AcDbEntity
  8
Linee visibili 2D
100
AcDbLine
 10
74.91304903980009
 20
0.0338470803896796
 30
0.0
 11
74.72824426080419
 21
0.0186521876945743
 31
0.0
  0
LINE
  5
675
330
1F
100
AcDbEntity
  8
Linee visibili 2D
100
AcDbLine
 10
74.72824426080419
 20
0.0186521876945743
 30
0.0
 11
74.54334770984445
 21
0.0076876603269337
 31
0.0
  0
LINE
  5
676
330
1F
100
AcDbEntity
  8
Linee visibili 2D
100
AcDbLine
 10
74.54334770984445
 20
0.0076876603269337
 30
0.0
 11
74.35283555196692
 21
0.0009406527717198
 31
0.0
  0
LINE
  5
677
330
1F
100
AcDbEntity
  8
Linee visibili 2D
100
AcDbLine
 10
74.35283555196692
 20
0.0009406527717198
 30
0.0
 11
74.16269593380147
 21
-0.0012035420637423
 31
0.0
  0
LINE
  5
678
330
1F
100
AcDbEntity
  8
Linee visibili 2D
100
AcDbLine
 10
74.16269593380147
 20
-0.0012035420637423
 30
0.0
 11
73.97287912107367
 21
0.0011726834576494
 31
0.0
  0
LINE
  5
679
330
1F
100
AcDbEntity
  8
Linee visibili 2D
100
AcDbLine
 10
73.97287912107367
 20
0.0011726834576494
 30
0.0
 11
73.78333537950911
 21
0.0079869369729971
 31
0.0
  0
LINE
  5
67A
330
1F
100
AcDbEntity
  8
Linee visibili 2D
100
AcDbLine
 10
73.78333537950911
 20
0.0079869369729971
 30
0.0
 11
73.59401497483339
 21
0.0191568261194029
 31
0.0
  0
LINE
  5
67B
330
1F
100
AcDbEntity
  8
Linee visibili 2D
100
AcDbLine
 10
73.59401497483339
 20
0.0191568261194029
 30
0.0
 11
73.40486817277204
 21
0.034599958533969
 31
0.0
  0
LINE
  5
67C
330
1F
100
AcDbEntity
  8
Linee visibili 2D
100
AcDbLine
 10
73.40486817277204
 20
0.034599958533969
 30
0.0
 11
73.21584523905068
 21
0.0542339418537975
 31
0.0
  0
LINE
  5
67D
330
1F
100
AcDbEntity
  8
Linee visibili 2D
100
AcDbLine
 10
73.21584523905068
 20
0.0542339418537975
 30
0.0
 11
73.02689643939486
 21
0.0779763837159906
 31
0.0
  0
LINE
  5
67E
330
1F
100
AcDbEntity
  8
Linee visibili 2D
100
AcDbLine
 10
73.02689643939486
 20
0.0779763837159906
 30
0.0
 11
72.86580671664758
 21
0.101456687867311
 31
0.0
  0
LINE
  5
67F
330
1F
100
AcDbEntity
  8
Linee visibili 2D
100
AcDbLine
 10
72.86580671664758
 20
0.101456687867311
 30
0.0
 11
72.70496660150488
 21
0.1280897932881522
 31
0.0
  0
LINE
  5
680
330
1F
100
AcDbEntity
  8
Linee visibili 2D
100
AcDbLine
 10
72.70496660150488
 20
0.1280897932881522
 30
0.0
 11
72.54460795216346
 21
0.1580997757342819
 31
0.0
  0
LINE
  5
681
330
1F
100
AcDbEntity
  8
Linee visibili 2D
100
AcDbLine
 10
72.54460795216346
 20
0.1580997757342819
 30
0.0
 11
72.38496262681997
 21
0.1917107109614682
 31
0.0
  0
LINE
  5
682
330
1F
100
AcDbEntity
  8
Linee visibili 2D
100
AcDbLine
 10
72.38496262681997
 20
0.1917107109614682
 30
0.0
 11
72.22626248367112
 21
0.2291466747254792
 31
0.0
  0
LINE
  5
683
330
1F
100
AcDbEntity
  8
Linee visibili 2D
100
AcDbLine
 10
72.22626248367112
 20
0.2291466747254792
 30
0.0
 11
72.0687393809136
 21
0.2706317427820826
 31
0.0
  0
LINE
  5
684
330
1F
100
AcDbEntity
  8
Linee visibili 2D
100
AcDbLine
 10
72.0687393809136
 20
0.2706317427820826
 30
0.0
 11
71.9126251767441
 21
0.3163899908870464
 31
0.0
  0
LINE
  5
685
330
1F
100
AcDbEntity
  8
Linee visibili 2D
100
AcDbLine
 10
71.9126251767441
 20
0.3163899908870464
 30
0.0
 11
71.7581517293593
 21
0.3666454947961387
 31
0.0
  0
LINE
  5
686
330
1F
100
AcDbEntity
  8
Linee visibili 2D
100
AcDbLine
 10
71.7581517293593
 20
0.3666454947961387
 30
0.0
 11
71.60555089695589
 21
0.4216223302651274
 31
0.0
  0
LINE
  5
687
330
1F
100
AcDbEntity
  8
Linee visibili 2D
100
AcDbLine
 10
71.60555089695589
 20
0.4216223302651274
 30
0.0
 11
71.45505453773053
 21
0.4815445730497804
 31
0.0
  0
LINE
  5
688
330
1F
100
AcDbEntity
  8
Linee visibili 2D
100
AcDbLine
 10
71.45505453773053
 20
0.4815445730497804
 30
0.0
 11
71.3806679912461
 21
0.5134302458591586
 31
0.0
  0
LINE
  5
689
330
1F
100
AcDbEntity
  8
Linee visibili 2D
100
AcDbLine
 10
71.3806679912461
 20
0.5134302458591586
 30
0.0
 11
71.30689450987997
 21
0.5466362989058657
 31
0.0
  0
LINE
  5
68A
330
1F
100
AcDbEntity
  8
Linee visibili 2D
100
AcDbLine
 10
71.30689450987997
 20
0.5466362989058657
 30
0.0
 11
71.23376307590668
 21
0.5811907416593731
 31
0.0
  0
LINE
  5
68B
330
1F
100
AcDbEntity
  8
Linee visibili 2D
100
AcDbLine
 10
71.23376307590668
 20
0.5811907416593731
 30
0.0
 11
71.16130267160084
 21
0.6171215835891514
 31
0.0
  0
LINE
  5
68C
330
1F
100
AcDbEntity
  8
Linee visibili 2D
100
AcDbLine
 10
71.16130267160084
 20
0.6171215835891514
 30
0.0
 11
71.08954227923704
 21
0.6544568341646717
 31
0.0
  0
LINE
  5
68D
330
1F
100
AcDbEntity
  8
Linee visibili 2D
100
AcDbLine
 10
71.08954227923704
 20
0.6544568341646717
 30
0.0
 11
71.01851088108985
 21
0.6932245028554053
 31
0.0
  0
LINE
  5
68E
330
1F
100
AcDbEntity
  8
Linee visibili 2D
100
AcDbLine
 10
71.01851088108985
 20
0.6932245028554053
 30
0.0
 11
70.94823745943387
 21
0.7334525991308227
 31
0.0
  0
LINE
  5
68F
330
1F
100
AcDbEntity
  8
Linee visibili 2D
100
AcDbLine
 10
70.94823745943387
 20
0.7334525991308227
 30
0.0
 11
70.87875099654369
 21
0.7751691324603953
 31
0.0
  0
LINE
  5
690
330
1F
100
AcDbEntity
  8
Linee visibili 2D
100
AcDbLine
 10
70.87875099654369
 20
0.7751691324603953
 30
0.0
 11
70.81008047469388
 21
0.8184021123135939
 31
0.0
  0
LINE
  5
691
330
1F
100
AcDbEntity
  8
Linee visibili 2D
100
AcDbLine
 10
70.81008047469388
 20
0.8184021123135939
 30
0.0
 11
70.74225487615904
 21
0.8631795481598896
 31
0.0
  0
LINE
  5
692
330
1F
100
AcDbEntity
  8
Linee visibili 2D
100
AcDbLine
 10
70.74225487615904
 20
0.8631795481598896
 30
0.0
 11
70.67530318321374
 21
0.9095294494687534
 31
0.0
  0
LINE
  5
693
330
1F
100
AcDbEntity
  8
Linee visibili 2D
100
AcDbLine
 10
70.67530318321374
 20
0.9095294494687534
 30
0.0
 11
70.60925437813259
 21
0.957479825709656
 31
0.0
  0
LINE
  5
694
330
1F
100
AcDbEntity
  8
Linee visibili 2D
100
AcDbLine
 10
70.60925406957614
 20
0.9574800658819531
 30
0.0
 11
69.81229586253751
 21
1.57781255239512
 31
0.0
  0
LINE
  5
695
330
1F
100
AcDbEntity
  8
Linee visibili 2D
100
AcDbLine
 10
1.239020844752846
 20
94.93482160259727
 30
0.0
 11
1.377607633414145
 21
94.90511889043682
 31
0.0
  0
LINE
  5
696
330
1F
100
AcDbEntity
  8
Linee visibili 2D
100
AcDbLine
 10
1.403810588243462
 20
94.89538397944965
 30
0.0
 11
1.598031514289517
 21
94.90481158442326
 31
0.0
  0
LINE
  5
697
330
1F
100
AcDbEntity
  8
Linee visibili 2D
100
AcDbLine
 10
1.351836095064684
 20
91.99897744096587
 30
0.0
 11
1.410089651803658
 21
92.23032346645051
 31
0.0
  0
LINE
  5
698
330
1F
100
AcDbEntity
  8
Linee visibili 2D
100
AcDbLine
 10
1.175667371011152
 20
52.36744027858762
 30
0.0
 11
1.174580712254175
 21
52.3518065223793
 31
0.0
  0
LINE
  5
699
330
1F
100
AcDbEntity
  8
Linee visibili 2D
100
AcDbLine
 10
1.174580712254175
 20
52.3518065223793
 30
0.0
 11
1.173869559632093
 21
52.3360796486138
 31
0.0
  0
LINE
  5
69A
330
1F
100
AcDbEntity
  8
Linee visibili 2D
100
AcDbLine
 10
1.173869559632093
 20
52.3360796486138
 30
0.0
 11
1.173539563960429
 21
52.32027285417493
 31
0.0
  0
LINE
  5
69B
330
1F
100
AcDbEntity
  8
Linee visibili 2D
100
AcDbLine
 10
1.173539563960429
 20
52.32027285417493
 30
0.0
 11
1.173595770809065
 21
52.30439971022876
 31
0.0
  0
LINE
  5
69C
330
1F
100
AcDbEntity
  8
Linee visibili 2D
100
AcDbLine
 10
1.173595770809065
 20
52.30439971022876
 30
0.0
 11
1.174042592356665
 21
52.28847412817903
 31
0.0
  0
LINE
  5
69D
330
1F
100
AcDbEntity
  8
Linee visibili 2D
100
AcDbLine
 10
1.174042592356665
 20
52.28847412817903
 30
0.0
 11
1.174883781504278
 21
52.27251032322292
 31
0.0
  0
LINE
  5
69E
330
1F
100
AcDbEntity
  8
Linee visibili 2D
100
AcDbLine
 10
1.174883781504278
 20
52.27251032322292
 30
0.0
 11
1.176122408478046
 21
52.25652277567995
 31
0.0
  0
LINE
  5
69F
330
1F
100
AcDbEntity
  8
Linee visibili 2D
100
AcDbLine
 10
1.176122408478046
 20
52.25652277567995
 30
0.0
 11
1.177760840136113
 21
52.2405261902901
 31
0.0
  0
LINE
  5
6A0
330
1F
100
AcDbEntity
  8
Linee visibili 2D
100
AcDbLine
 10
1.177760840136113
 20
52.2405261902901
 30
0.0
 11
1.179800722177149
 21
52.22453545370169
 31
0.0
  0
LINE
  5
6A1
330
1F
100
AcDbEntity
  8
Linee visibili 2D
100
AcDbLine
 10
1.179800722177149
 20
52.22453545370169
 30
0.0
 11
1.182242964427432
 21
52.20856559039001
 31
0.0
  0
LINE
  5
6A2
330
1F
100
AcDbEntity
  8
Linee visibili 2D
100
AcDbLine
 10
1.182242964427432
 20
52.20856559039001
 30
0.0
 11
1.1850877293605
 21
52.19263171726697
 31
0.0
  0
LINE
  5
6A3
330
1F
100
AcDbEntity
  8
Linee visibili 2D
100
AcDbLine
 10
1.1850877293605
 20
52.19263171726697
 30
0.0
 11
1.188334423978049
 21
52.1767489972591
 31
0.0
  0
LINE
  5
6A4
330
1F
100
AcDbEntity
  8
Linee visibili 2D
100
AcDbLine
 10
1.188334423978049
 20
52.1767489972591
 30
0.0
 11
1.191981695153538
 21
52.16093259214492
 31
0.0
  0
LINE
  5
6A5
330
1F
100
AcDbEntity
  8
Linee visibili 2D
100
AcDbLine
 10
1.191981695153538
 20
52.16093259214492
 30
0.0
 11
1.196027428511049
 21
52.14519761495347
 31
0.0
  0
LINE
  5
6A6
330
1F
100
AcDbEntity
  8
Linee visibili 2D
100
AcDbLine
 10
1.196027428511049
 20
52.14519761495347
 30
0.0
 11
1.200468750881761
 21
52.1295590822339
 31
0.0
  0
LINE
  5
6A7
330
1F
100
AcDbEntity
  8
Linee visibili 2D
100
AcDbLine
 10
1.200468750881761
 20
52.1295590822339
 30
0.0
 11
1.205302036349368
 21
52.11403186650946
 31
0.0
  0
LINE
  5
6A8
330
1F
100
AcDbEntity
  8
Linee visibili 2D
100
AcDbLine
 10
1.205302036349368
 20
52.11403186650946
 30
0.0
 11
1.210522915864296
 21
52.0986306492311
 31
0.0
  0
LINE
  5
6A9
330
1F
100
AcDbEntity
  8
Linee visibili 2D
100
AcDbLine
 10
1.210522915864296
 20
52.0986306492311
 30
0.0
 11
1.216126290375106
 21
52.08336987454192
 31
0.0
  0
LINE
  5
6AA
330
1F
100
AcDbEntity
  8
Linee visibili 2D
100
AcDbLine
 10
1.216126290375106
 20
52.08336987454192
 30
0.0
 11
1.22210634739445
 21
52.06826370415826
 31
0.0
  0
LINE
  5
6AB
330
1F
100
AcDbEntity
  8
Linee visibili 2D
100
AcDbLine
 10
1.22210634739445
 20
52.06826370415826
 30
0.0
 11
1.228456580886817
 21
52.05332597366276
 31
0.0
  0
LINE
  5
6AC
330
1F
100
AcDbEntity
  8
Linee visibili 2D
100
AcDbLine
 10
1.228456580886817
 20
52.05332597366276
 30
0.0
 11
1.235169814336483
 21
52.03857015049229
 31
0.0
  0
LINE
  5
6AD
330
1F
100
AcDbEntity
  8
Linee visibili 2D
100
AcDbLine
 10
1.235169814336483
 20
52.03857015049229
 30
0.0
 11
1.24223822682699
 21
52.02400929388664
 31
0.0
  0
LINE
  5
6AE
330
1F
100
AcDbEntity
  8
Linee visibili 2D
100
AcDbLine
 10
1.24223822682699
 20
52.02400929388664
 30
0.0
 11
1.249653381938431
 21
52.00965601704559
 31
0.0
  0
LINE
  5
6AF
330
1F
100
AcDbEntity
  8
Linee visibili 2D
100
AcDbLine
 10
1.249653381938431
 20
52.00965601704559
 30
0.0
 11
1.257406259246247
 21
51.99552245171935
 31
0.0
  0
LINE
  5
6B0
330
1F
100
AcDbEntity
  8
Linee visibili 2D
100
AcDbLine
 10
1.257406259246247
 20
51.99552245171935
 30
0.0
 11
1.265487288185284
 21
51.98162021543451
 31
0.0
  0
LINE
  5
6B1
330
1F
100
AcDbEntity
  8
Linee visibili 2D
100
AcDbLine
 10
1.265487288185284
 20
51.98162021543451
 30
0.0
 11
1.273886384025944
 21
51.96796038153074
 31
0.0
  0
LINE
  5
6B2
330
1F
100
AcDbEntity
  8
Linee visibili 2D
100
AcDbLine
 10
1.273886384025944
 20
51.96796038153074
 30
0.0
 11
1.282592985695345
 21
51.95455345215716
 31
0.0
  0
LINE
  5
6B3
330
1F
100
AcDbEntity
  8
Linee visibili 2D
100
AcDbLine
 10
1.282592985695345
 20
51.95455345215716
 30
0.0
 11
1.291596095165835
 21
51.941409334348
 31
0.0
  0
LINE
  5
6B4
330
1F
100
AcDbEntity
  8
Linee visibili 2D
100
AcDbLine
 10
1.291596095165835
 20
51.941409334348
 30
0.0
 11
1.300884318125864
 21
51.92853731926916
 31
0.0
  0
LINE
  5
6B5
330
1F
100
AcDbEntity
  8
Linee visibili 2D
100
AcDbLine
 10
1.300884318125864
 20
51.92853731926916
 30
0.0
 11
1.310445905644243
 21
51.91594606469685
 31
0.0
  0
LINE
  5
6B6
330
1F
100
AcDbEntity
  8
Linee visibili 2D
100
AcDbLine
 10
1.310445905644243
 20
51.91594606469685
 30
0.0
 11
1.320268796538079
 21
51.90364358076167
 31
0.0
  0
LINE
  5
6B7
330
1F
100
AcDbEntity
  8
Linee visibili 2D
100
AcDbLine
 10
1.320268796538079
 20
51.90364358076167
 30
0.0
 11
1.33034066015714
 21
51.89163721896158
 31
0.0
  0
LINE
  5
6B8
330
1F
100
AcDbEntity
  8
Linee visibili 2D
100
AcDbLine
 10
1.33034066015714
 20
51.89163721896158
 30
0.0
 11
62.27904043359113
 21
3.969402516615587
 31
0.0
  0
LINE
  5
6B9
330
1F
100
AcDbEntity
  8
Linee visibili 2D
100
AcDbLine
 10
1.351836095064684
 20
91.99897744096587
 30
0.0
 11
1.175667371011152
 21
52.36744027858762
 31
0.0
  0
LINE
  5
6BA
330
1F
100
AcDbEntity
  8
Linee visibili 2D
100
AcDbLine
 10
61.80718458008611
 20
5.113091690926566
 30
0.0
 11
63.58544381135083
 21
49.15340420290565
 31
0.0
  0
LINE
  5
6BB
330
1F
100
AcDbEntity
  8
Linee visibili 2D
100
AcDbLine
 10
1.244983559611658
 20
52.67374486151559
 30
0.0
 11
1.362161938919028
 21
91.60096860775793
 31
0.0
  0
LINE
  5
6BC
330
1F
100
AcDbEntity
  8
Linee visibili 2D
100
AcDbLine
 10
61.80718458008611
 20
5.113091690926566
 30
0.0
 11
62.36115638972806
 21
5.234438176736351
 31
0.0
  0
LINE
  5
6BD
330
1F
100
AcDbEntity
  8
Linee visibili 2D
100
AcDbLine
 10
1.244983559611658
 20
52.67374486151559
 30
0.0
 11
61.80718458008611
 21
5.113091690926566
 31
0.0
  0
LINE
  5
6BE
330
1F
100
AcDbEntity
  8
Linee visibili 2D
100
AcDbLine
 10
1.362161938919028
 20
91.60096860775793
 30
0.0
 11
2.16038245771657
 21
91.72040554758543
 31
0.0
  0
LINE
  5
6BF
330
1F
100
AcDbEntity
  8
Linee visibili 2D
100
AcDbLine
 10
63.58544381135083
 20
49.15340420290565
 30
0.0
 11
1.362161938919028
 21
91.60096860775793
 31
0.0
  0
LINE
  5
6C0
330
1F
100
AcDbEntity
  8
Linee visibili 2D
100
AcDbLine
 10
64.16596929115796
 20
49.26212962666669
 30
0.0
 11
63.58544381135083
 21
49.15340420290565
 31
0.0
  0
ENDSEC
  0
SECTION
  2
OBJECTS
  0
DICTIONARY
  5
C
330
0
100
AcDbDictionary
281
     1
  3
ACAD_GROUP
350
D
  3
ACAD_LAYOUT
350
1A
  3
ACAD_MLEADERSTYLE
350
6C2
  3
ACAD_MLINESTYLE
350
17
  3
ACAD_PLOTSETTINGS
350
19
  3
ACAD_PLOTSTYLENAME
350
E
  3
ACAD_TABLESTYLE
350
6C1
  3
ACAD_VISUALSTYLE
350
2A
  0
DICTIONARY
  5
D
102
{ACAD_REACTORS
330
C
102
}
330
C
100
AcDbDictionary
281
     1
  0
DICTIONARY
  5
1A
102
{ACAD_REACTORS
330
C
102
}
330
C
100
AcDbDictionary
281
     1
  3
Layout1
350
1E
  3
Layout2
350
26
  3
Model
350
22
  0
DICTIONARY
  5
6C2
102
{ACAD_REACTORS
330
C
102
}
330
C
100
AcDbDictionary
281
     1
  0
DICTIONARY
  5
17
102
{ACAD_REACTORS
330
C
102
}
330
C
100
AcDbDictionary
281
     1
  3
Standard
350
18
  0
DICTIONARY
  5
19
102
{ACAD_REACTORS
330
C
102
}
330
C
100
AcDbDictionary
281
     1
  0
ACDBDICTIONARYWDFLT
  5
E
102
{ACAD_REACTORS
330
C
102
}
330
C
100
AcDbDictionary
281
     1
  3
Normal
350
F
100
AcDbDictionaryWithDefault
340
F
  0
DICTIONARY
  5
6C1
102
{ACAD_REACTORS
330
C
102
}
330
C
100
AcDbDictionary
281
     1
  0
DICTIONARY
  5
2A
102
{ACAD_REACTORS
330
C
102
}
330
C
100
AcDbDictionary
281
     1
  3
2dWireframe
350
2F
  3
3D Hidden
350
31
  3
3dWireframe
350
30
  3
Basic
350
32
  3
Brighten
350
36
  3
ColorChange
350
3A
  3
Conceptual
350
34
  3
Dim
350
35
  3
Facepattern
350
39
  3
Flat
350
2B
  3
FlatWithEdges
350
2C
  3
Gouraud
350
2D
  3
GouraudWithEdges
350
2E
  3
Linepattern
350
38
  3
Realistic
350
33
  3
Thicken
350
37
  0
LAYOUT
  5
1E
102
{ACAD_REACTORS
330
1A
102
}
330
1A
100
AcDbPlotSettings
  1

  2
none_device
  4

  6

 40
0.0
 41
0.0
 42
0.0
 43
0.0
 44
0.0
 45
0.0
 46
0.0
 47
0.0
 48
0.0
 49
0.0
140
0.0
141
0.0
142
1.0
143
1.0
 70
   688
 72
     0
 73
     0
 74
     5
  7

 75
    16
 76
     0
 77
     2
 78
   300
147
1.0
148
0.0
149
0.0
100
AcDbLayout
  1
Layout1
 70
     1
 71
     1
 10
0.0
 20
0.0
 11
12.0
 21
9.0
 12
0.0
 22
0.0
 32
0.0
 14
1.000000000000000E+20
 24
1.000000000000000E+20
 34
1.000000000000000E+20
 15
-1.000000000000000E+20
 25
-1.000000000000000E+20
 35
-1.000000000000000E+20
146
0.0
 13
0.0
 23
0.0
 33
0.0
 16
1.0
 26
0.0
 36
0.0
 17
0.0
 27
1.0
 37
0.0
 76
     0
330
1B
  0
LAYOUT
  5
26
102
{ACAD_REACTORS
330
1A
102
}
330
1A
100
AcDbPlotSettings
  1

  2
none_device
  4

  6

 40
0.0
 41
0.0
 42
0.0
 43
0.0
 44
0.0
 45
0.0
 46
0.0
 47
0.0
 48
0.0
 49
0.0
140
0.0
141
0.0
142
1.0
143
1.0
 70
   688
 72
     0
 73
     0
 74
     5
  7

 75
    16
 76
     0
 77
     2
 78
   300
147
1.0
148
0.0
149
0.0
100
AcDbLayout
  1
Layout2
 70
     1
 71
     2
 10
0.0
 20
0.0
 11
0.0
 21
0.0
 12
0.0
 22
0.0
 32
0.0
 14
0.0
 24
0.0
 34
0.0
 15
0.0
 25
0.0
 35
0.0
146
0.0
 13
0.0
 23
0.0
 33
0.0
 16
1.0
 26
0.0
 36
0.0
 17
0.0
 27
1.0
 37
0.0
 76
     0
330
23
  0
LAYOUT
  5
22
102
{ACAD_REACTORS
330
1A
102
}
330
1A
100
AcDbPlotSettings
  1

  2
none_device
  4

  6

 40
0.0
 41
0.0
 42
0.0
 43
0.0
 44
0.0
 45
0.0
 46
0.0
 47
0.0
 48
0.0
 49
0.0
140
0.0
141
0.0
142
1.0
143
1.0
 70
  1712
 72
     0
 73
     0
 74
     0
  7

 75
     0
 76
     0
 77
     2
 78
   300
147
1.0
148
0.0
149
0.0
100
AcDbLayout
  1
Model
 70
     1
 71
     0
 10
0.0
 20
0.0
 11
12.0
 21
9.0
 12
0.0
 22
0.0
 32
0.0
 14
0.0000332914244981
 24
-0.0012035420637423
 34
0.0
 15
493.5255451249808
 25
398.3406114660999
 35
0.0
146
0.0
 13
0.0
 23
0.0
 33
0.0
 16
1.0
 26
0.0
 36
0.0
 17
0.0
 27
1.0
 37
0.0
 76
     0
330
1F
331
29
  0
MLINESTYLE
  5
18
102
{ACAD_REACTORS
330
17
102
}
330
17
100
AcDbMlineStyle
  2
Standard
 70
     0
  3

 62
   256
 51
90.0
 52
90.0
 71
     2
 49
0.5
 62
   256
  6
BYLAYER
 49
-0.5
 62
   256
  6
BYLAYER
  0
ACDBPLACEHOLDER
  5
F
102
{ACAD_REACTORS
330
E
102
}
330
E
  0
VISUALSTYLE
  5
2F
102
{ACAD_REACTORS
330
2A
102
}
330
2A
100
AcDbVisualStyle
  2
2dWireframe
 70
     4
 71
     0
 72
     2
 73
     0
 90
        0
 40
-0.6
 41
-30.0
 62
     5
 63
     7
421
 16777215
 74
     1
 91
        4
 64
     7
 65
   257
 75
     1
175
     1
 42
1.0
 92
        0
 66
   257
 43
1.0
 76
     1
 77
     6
 78
     2
 67
     7
 79
     5
170
     0
171
     0
290
     0
174
     0
 93
        1
 44
0.0
173
     0
291
     0
 45
0.0
1001
ACAD
1000
AcDbSavedByObjectVersion
1070
     0
  0
VISUALSTYLE
  5
31
102
{ACAD_REACTORS
330
2A
102
}
330
2A
100
AcDbVisualStyle
  2
3D Hidden
 70
     6
 71
     1
 72
     2
 73
     2
 90
        0
 40
-0.6
 41
-30.0
 62
     5
 63
     7
421
 16777215
 74
     2
 91
        2
 64
     7
 65
   257
 75
     2
175
     1
 42
40.0
 92
        0
 66
   257
 43
1.0
 76
     1
 77
     6
 78
     2
 67
     7
 79
     3
170
     0
171
     0
290
     0
174
     0
 93
        1
 44
0.0
173
     0
291
     0
 45
0.0
1001
ACAD
1000
AcDbSavedByObjectVersion
1070
     0
  0
VISUALSTYLE
  5
30
102
{ACAD_REACTORS
330
2A
102
}
330
2A
100
AcDbVisualStyle
  2
3dWireframe
 70
     5
 71
     0
 72
     2
 73
     0
 90
        0
 40
-0.6
 41
-30.0
 62
     5
 63
     7
421
 16777215
 74
     1
 91
        4
 64
     7
 65
   257
 75
     1
175
     1
 42
1.0
 92
        0
 66
   257
 43
1.0
 76
     1
 77
     6
 78
     2
 67
     7
 79
     5
170
     0
171
     0
290
     0
174
     0
 93
        1
 44
0.0
173
     0
291
     0
 45
0.0
1001
ACAD
1000
AcDbSavedByObjectVersion
1070
     0
  0
VISUALSTYLE
  5
32
102
{ACAD_REACTORS
330
2A
102
}
330
2A
100
AcDbVisualStyle
  2
Basic
 70
     7
 71
     1
 72
     0
 73
     1
 90
        0
 40
-0.6
 41
-30.0
 62
     5
 63
     7
421
 16777215
 74
     0
 91
        4
 64
     7
 65
   257
 75
     1
175
     1
 42
1.0
 92
        8
 66
     7
 43
1.0
 76
     1
 77
     6
 78
     2
 67
     7
 79
     5
170
     0
171
     0
290
     0
174
     0
 93
        1
 44
0.0
173
     0
291
     1
 45
0.0
1001
ACAD
1000
AcDbSavedByObjectVersion
1070
     0
  0
VISUALSTYLE
  5
36
102
{ACAD_REACTORS
330
2A
102
}
330
2A
100
AcDbVisualStyle
  2
Brighten
 70
    12
 71
     2
 72
     2
 73
     0
 90
        0
 40
-0.6
 41
-30.0
 62
     5
 63
     7
421
 16777215
 74
     1
 91
        4
 64
     7
 65
   257
 75
     1
175
     1
 42
1.0
 92
        8
 66
     7
 43
1.0
 76
     1
 77
     6
 78
     2
 67
     7
 79
     5
170
     0
171
     0
290
     0
174
     0
 93
        1
 44
50.0
173
     0
291
     1
 45
0.0
1001
ACAD
1000
AcDbSavedByObjectVersion
1070
     0
  0
VISUALSTYLE
  5
3A
102
{ACAD_REACTORS
330
2A
102
}
330
2A
100
AcDbVisualStyle
  2
ColorChange
 70
    16
 71
     2
 72
     2
 73
     3
 90
        0
 40
-0.6
 41
-30.0
 62
     5
 63
     8
421
  8421504
 74
     1
 91
        4
 64
     7
 65
   257
 75
     1
175
     1
 42
1.0
 92
        8
 66
     8
424
  8421504
 43
1.0
 76
     1
 77
     6
 78
     2
 67
     7
 79
     5
170
     0
171
     0
290
     0
174
     0
 93
        1
 44
0.0
173
     0
291
     1
 45
0.0
1001
ACAD
1000
AcDbSavedByObjectVersion
1070
     0
  0
VISUALSTYLE
  5
34
102
{ACAD_REACTORS
330
2A
102
}
330
2A
100
AcDbVisualStyle
  2
Conceptual
 70
     9
 71
     3
 72
     2
 73
     0
 90
        0
 40
-0.6
 41
-30.0
 62
     5
 63
     7
421
 16777215
 74
     2
 91
        2
 64
     7
 65
   257
 75
     1
175
     1
 42
40.0
 92
        8
 66
     7
 43
1.0
 76
     1
 77
     6
 78
     2
 67
     7
 79
     3
170
     0
171
     0
290
     0
174
     0
 93
        1
 44
0.0
173
     0
291
     0
 45
0.0
1001
ACAD
1000
AcDbSavedByObjectVersion
1070
     0
  0
VISUALSTYLE
  5
35
102
{ACAD_REACTORS
330
2A
102
}
330
2A
100
AcDbVisualStyle
  2
Dim
 70
    11
 71
     2
 72
     2
 73
     0
 90
        0
 40
-0.6
 41
-30.0
 62
     5
 63
     7
421
 16777215
 74
     1
 91
        4
 64
     7
 65
   257
 75
     1
175
     1
 42
1.0
 92
        8
 66
     7
 43
1.0
 76
     1
 77
     6
 78
     2
 67
     7
 79
     5
170
     0
171
     0
290
     0
174
     0
 93
        1
 44
-50.0
173
     0
291
     1
 45
0.0
1001
ACAD
1000
AcDbSavedByObjectVersion
1070
     0
  0
VISUALSTYLE
  5
39
102
{ACAD_REACTORS
330
2A
102
}
330
2A
100
AcDbVisualStyle
  2
Facepattern
 70
    15
 71
     2
 72
     2
 73
     0
 90
        0
 40
-0.6
 41
-30.0
 62
     5
 63
     7
421
 16777215
 74
     1
 91
        4
 64
     7
 65
   257
 75
     1
175
     1
 42
1.0
 92
        8
 66
     7
 43
1.0
 76
     1
 77
     6
 78
     2
 67
     7
 79
     5
170
     0
171
     0
290
     0
174
     0
 93
        1
 44
0.0
173
     0
291
     1
 45
0.0
1001
ACAD
1000
AcDbSavedByObjectVersion
1070
     0
  0
VISUALSTYLE
  5
2B
102
{ACAD_REACTORS
330
2A
102
}
330
2A
100
AcDbVisualStyle
  2
Flat
 70
     0
 71
     2
 72
     1
 73
     1
 90
        2
 40
-0.6
 41
30.0
 62
     5
 63
     7
421
 16777215
 74
     0
 91
        4
 64
     7
 65
   257
 75
     1
175
     1
 42
1.0
 92
        8
 66
     7
 43
1.0
 76
     1
 77
     6
 78
     2
 67
     7
 79
     5
170
     0
171
     0
290
     0
174
     0
 93
       13
 44
0.0
173
     0
291
     1
 45
0.0
1001
ACAD
1000
AcDbSavedByObjectVersion
1070
     0
  0
VISUALSTYLE
  5
2C
102
{ACAD_REACTORS
330
2A
102
}
330
2A
100
AcDbVisualStyle
  2
FlatWithEdges
 70
     1
 71
     2
 72
     1
 73
     1
 90
        2
 40
-0.6
 41
30.0
 62
     5
 63
     7
421
 16777215
 74
     1
 91
        4
 64
     7
 65
   257
 75
     1
175
     1
 42
1.0
 92
        0
 66
   257
 43
1.0
 76
     1
 77
     6
 78
     2
 67
     7
 79
     5
170
     0
171
     0
290
     0
174
     0
 93
       13
 44
0.0
173
     0
291
     1
 45
0.0
1001
ACAD
1000
AcDbSavedByObjectVersion
1070
     0
  0
VISUALSTYLE
  5
2D
102
{ACAD_REACTORS
330
2A
102
}
330
2A
100
AcDbVisualStyle
  2
Gouraud
 70
     2
 71
     2
 72
     2
 73
     1
 90
        2
 40
-0.6
 41
30.0
 62
     5
 63
     7
421
 16777215
 74
     0
 91
        4
 64
     7
 65
   257
 75
     1
175
     1
 42
1.0
 92
        0
 66
     7
 43
1.0
 76
     1
 77
     6
 78
     2
 67
     7
 79
     5
170
     0
171
     0
290
     0
174
     0
 93
       13
 44
0.0
173
     0
291
     1
 45
0.0
1001
ACAD
1000
AcDbSavedByObjectVersion
1070
     0
  0
VISUALSTYLE
  5
2E
102
{ACAD_REACTORS
330
2A
102
}
330
2A
100
AcDbVisualStyle
  2
GouraudWithEdges
 70
     3
 71
     2
 72
     2
 73
     1
 90
        2
 40
-0.6
 41
30.0
 62
     5
 63
     7
421
 16777215
 74
     1
 91
        4
 64
     7
 65
   257
 75
     1
175
     1
 42
1.0
 92
        0
 66
   257
 43
1.0
 76
     1
 77
     6
 78
     2
 67
     7
 79
     5
170
     0
171
     0
290
     0
174
     0
 93
       13
 44
0.0
173
     0
291
     1
 45
0.0
1001
ACAD
1000
AcDbSavedByObjectVersion
1070
     0
  0
VISUALSTYLE
  5
38
102
{ACAD_REACTORS
330
2A
102
}
330
2A
100
AcDbVisualStyle
  2
Linepattern
 70
    14
 71
     2
 72
     2
 73
     0
 90
        0
 40
-0.6
 41
-30.0
 62
     5
 63
     7
421
 16777215
 74
     1
 91
        4
 64
     7
 65
   257
 75
     7
175
     7
 42
1.0
 92
        8
 66
     7
 43
1.0
 76
     1
 77
     6
 78
     2
 67
     7
 79
     5
170
     0
171
     0
290
     0
174
     0
 93
        1
 44
0.0
173
     0
291
     1
 45
0.0
1001
ACAD
1000
AcDbSavedByObjectVersion
1070
     0
  0
VISUALSTYLE
  5
33
102
{ACAD_REACTORS
330
2A
102
}
330
2A
100
AcDbVisualStyle
  2
Realistic
 70
     8
 71
     2
 72
     2
 73
     0
 90
        0
 40
-0.6
 41
-30.0
 62
     5
 63
     7
421
 16777215
 74
     1
 91
        0
 64
     7
 65
   257
 75
     1
175
     1
 42
1.0
 92
        8
 66
     8
424
  7895160
 43
1.0
 76
     1
 77
     6
 78
     2
 67
     7
 79
     5
170
     0
171
     0
290
     0
174
     0
 93
       13
 44
0.0
173
     0
291
     0
 45
0.0
1001
ACAD
1000
AcDbSavedByObjectVersion
1070
     0
  0
VISUALSTYLE
  5
37
102
{ACAD_REACTORS
330
2A
102
}
330
2A
100
AcDbVisualStyle
  2
Thicken
 70
    13
 71
     2
 72
     2
 73
     0
 90
        0
 40
-0.6
 41
-30.0
 62
     5
 63
     7
421
 16777215
 74
     1
 91
        4
 64
     7
 65
   257
 75
     1
175
     1
 42
1.0
 92
       12
 66
     7
 43
1.0
 76
     1
 77
     6
 78
     2
 67
     7
 79
     5
170
     0
171
     0
290
     0
174
     0
 93
        1
 44
0.0
173
     0
291
     1
 45
0.0
1001
ACAD
1000
AcDbSavedByObjectVersion
1070
     0
  0
ENDSEC
  0
EOF
