  0
SECTION
  2
HEADER
  9
$ACADVER
  1
AC1018
  9
$ACADMAINTVER
 70
     0
  9
$DWGCODEPAGE
  3
ANSI_1252
  9
$INSBASE
 10
0.0
 20
0.0
 30
0.0
  9
$EXTMIN
 10
0.0
 20
0.0
 30
0.0
  9
$EXTMAX
 10
565.0262099820293
 20
704.5246826941197
 30
0.0
  9
$LIMMIN
 10
0.0
 20
0.0
  9
$LIMMAX
 10
12.0
 20
9.0
  9
$ORTHOMODE
 70
     0
  9
$REGENMODE
 70
     1
  9
$FILLMODE
 70
     1
  9
$QTEXTMODE
 70
     0
  9
$MIRRTEXT
 70
     1
  9
$LTSCALE
 40
1.0
  9
$ATTMODE
 70
     1
  9
$TEXTSIZE
 40
0.2
  9
$TRACEWID
 40
0.05
  9
$TEXTSTYLE
  7
Standard
  9
$CLAYER
  8
0
  9
$CELTYPE
  6
ByLayer
  9
$CECOLOR
 62
   256
  9
$CELTSCALE
 40
1.0
  9
$DISPSILH
 70
     0
  9
$DIMSCALE
 40
1.0
  9
$DIMASZ
 40
0.18
  9
$DIMEXO
 40
0.0625
  9
$DIMDLI
 40
0.38
  9
$DIMRND
 40
0.0
  9
$DIMDLE
 40
0.0
  9
$DIMEXE
 40
0.18
  9
$DIMTP
 40
0.0
  9
$DIMTM
 40
0.0
  9
$DIMTXT
 40
0.18
  9
$DIMCEN
 40
0.09
  9
$DIMTSZ
 40
0.0
  9
$DIMTOL
 70
     0
  9
$DIMLIM
 70
     0
  9
$DIMTIH
 70
     1
  9
$DIMTOH
 70
     1
  9
$DIMSE1
 70
     0
  9
$DIMSE2
 70
     0
  9
$DIMTAD
 70
     0
  9
$DIMZIN
 70
     0
  9
$DIMBLK
  1

  9
$DIMASO
 70
     1
  9
$DIMSHO
 70
     1
  9
$DIMPOST
  1

  9
$DIMAPOST
  1

  9
$DIMALT
 70
     0
  9
$DIMALTD
 70
     2
  9
$DIMALTF
 40
25.4
  9
$DIMLFAC
 40
1.0
  9
$DIMTOFL
 70
     0
  9
$DIMTVP
 40
0.0
  9
$DIMTIX
 70
     0
  9
$DIMSOXD
 70
     0
  9
$DIMSAH
 70
     0
  9
$DIMBLK1
  1

  9
$DIMBLK2
  1

  9
$DIMSTYLE
  2
Standard
  9
$DIMCLRD
 70
     0
  9
$DIMCLRE
 70
     0
  9
$DIMCLRT
 70
     0
  9
$DIMTFAC
 40
1.0
  9
$DIMGAP
 40
0.09
  9
$DIMJUST
 70
     0
  9
$DIMSD1
 70
     0
  9
$DIMSD2
 70
     0
  9
$DIMTOLJ
 70
     1
  9
$DIMTZIN
 70
     0
  9
$DIMALTZ
 70
     0
  9
$DIMALTTZ
 70
     0
  9
$DIMUPT
 70
     0
  9
$DIMDEC
 70
     4
  9
$DIMTDEC
 70
     4
  9
$DIMALTU
 70
     2
  9
$DIMALTTD
 70
     2
  9
$DIMTXSTY
  7
Standard
  9
$DIMAUNIT
 70
     0
  9
$DIMADEC
 70
     0
  9
$DIMALTRND
 40
0.0
  9
$DIMAZIN
 70
     0
  9
$DIMDSEP
 70
    46
  9
$DIMATFIT
 70
     3
  9
$DIMFRAC
 70
     0
  9
$DIMLDRBLK
  1

  9
$DIMLUNIT
 70
     2
  9
$DIMLWD
 70
    -2
  9
$DIMLWE
 70
    -2
  9
$DIMTMOVE
 70
     2
  9
$LUNITS
 70
     2
  9
$LUPREC
 70
     3
  9
$SKETCHINC
 40
0.1
  9
$FILLETRAD
 40
0.5
  9
$AUNITS
 70
     0
  9
$AUPREC
 70
     0
  9
$MENU
  1
.
  9
$ELEVATION
 40
0.0
  9
$PELEVATION
 40
0.0
  9
$THICKNESS
 40
0.0
  9
$LIMCHECK
 70
     0
  9
$CHAMFERA
 40
0.5
  9
$CHAMFERB
 40
0.5
  9
$CHAMFERC
 40
1.0
  9
$CHAMFERD
 40
0.0
  9
$SKPOLY
 70
     0
  9
$TDCREATE
 40
2455967.671205463
  9
$TDUCREATE
 40
2455967.629538796
  9
$TDUPDATE
 40
2455967.671205475
  9
$TDUUPDATE
 40
2455967.629538808
  9
$TDINDWG
 40
0.0000000116
  9
$TDUSRTIMER
 40
0.0000000116
  9
$USRTIMER
 70
     1
  9
$ANGBASE
 50
0.0
  9
$ANGDIR
 70
     0
  9
$PDMODE
 70
     0
  9
$PDSIZE
 40
0.0
  9
$PLINEWID
 40
0.0
  9
$SPLFRAME
 70
     0
  9
$SPLINETYPE
 70
     6
  9
$SPLINESEGS
 70
     8
  9
$HANDSEED
  5
C1
  9
$SURFTAB1
 70
     6
  9
$SURFTAB2
 70
     6
  9
$SURFTYPE
 70
     6
  9
$SURFU
 70
     6
  9
$SURFV
 70
     6
  9
$UCSBASE
  2

  9
$UCSNAME
  2

  9
$UCSORG
 10
0.0
 20
0.0
 30
0.0
  9
$UCSXDIR
 10
1.0
 20
0.0
 30
0.0
  9
$UCSYDIR
 10
0.0
 20
1.0
 30
0.0
  9
$UCSORTHOREF
  2

  9
$UCSORTHOVIEW
 70
     0
  9
$UCSORGTOP
 10
0.0
 20
0.0
 30
0.0
  9
$UCSORGBOTTOM
 10
0.0
 20
0.0
 30
0.0
  9
$UCSORGLEFT
 10
0.0
 20
0.0
 30
0.0
  9
$UCSORGRIGHT
 10
0.0
 20
0.0
 30
0.0
  9
$UCSORGFRONT
 10
0.0
 20
0.0
 30
0.0
  9
$UCSORGBACK
 10
0.0
 20
0.0
 30
0.0
  9
$PUCSBASE
  2

  9
$PUCSNAME
  2

  9
$PUCSORG
 10
0.0
 20
0.0
 30
0.0
  9
$PUCSXDIR
 10
1.0
 20
0.0
 30
0.0
  9
$PUCSYDIR
 10
0.0
 20
1.0
 30
0.0
  9
$PUCSORTHOREF
  2

  9
$PUCSORTHOVIEW
 70
     0
  9
$PUCSORGTOP
 10
0.0
 20
0.0
 30
0.0
  9
$PUCSORGBOTTOM
 10
0.0
 20
0.0
 30
0.0
  9
$PUCSORGLEFT
 10
0.0
 20
0.0
 30
0.0
  9
$PUCSORGRIGHT
 10
0.0
 20
0.0
 30
0.0
  9
$PUCSORGFRONT
 10
0.0
 20
0.0
 30
0.0
  9
$PUCSORGBACK
 10
0.0
 20
0.0
 30
0.0
  9
$USERI1
 70
     0
  9
$USERI2
 70
     0
  9
$USERI3
 70
     0
  9
$USERI4
 70
     0
  9
$USERI5
 70
     0
  9
$USERR1
 40
0.0
  9
$USERR2
 40
0.0
  9
$USERR3
 40
0.0
  9
$USERR4
 40
0.0
  9
$USERR5
 40
0.0
  9
$WORLDVIEW
 70
     1
  9
$SHADEDGE
 70
     3
  9
$SHADEDIF
 70
    70
  9
$TILEMODE
 70
     1
  9
$MAXACTVP
 70
    64
  9
$PINSBASE
 10
0.0
 20
0.0
 30
0.0
  9
$PLIMCHECK
 70
     0
  9
$PEXTMIN
 10
1.000000000000000E+20
 20
1.000000000000000E+20
 30
1.000000000000000E+20
  9
$PEXTMAX
 10
-1.000000000000000E+20
 20
-1.000000000000000E+20
 30
-1.000000000000000E+20
  9
$PLIMMIN
 10
0.0
 20
0.0
  9
$PLIMMAX
 10
12.0
 20
9.0
  9
$UNITMODE
 70
     0
  9
$VISRETAIN
 70
     1
  9
$PLINEGEN
 70
     0
  9
$PSLTSCALE
 70
     1
  9
$TREEDEPTH
 70
  3020
  9
$CMLSTYLE
  2
Standard
  9
$CMLJUST
 70
     0
  9
$CMLSCALE
 40
1.0
  9
$PROXYGRAPHICS
 70
     1
  9
$MEASUREMENT
 70
     0
  9
$CELWEIGHT
370
    -1
  9
$ENDCAPS
280
     0
  9
$JOINSTYLE
280
     0
  9
$LWDISPLAY
290
     0
  9
$INSUNITS
 70
     4
  9
$HYPERLINKBASE
  1

  9
$STYLESHEET
  1

  9
$XEDIT
290
     1
  9
$CEPSNTYPE
380
     0
  9
$PSTYLEMODE
290
     1
  9
$FINGERPRINTGUID
  2
{557F41A4-EAC1-44D8-8309-C6A4D6DE103B}
  9
$VERSIONGUID
  2
{FAEB1C32-E019-11D5-929B-00C0DF256EC4}
  9
$EXTNAMES
290
     1
  9
$PSVPSCALE
 40
0.0
  9
$OLESTARTUP
290
     0
  9
$SORTENTS
280
   127
  9
$INDEXCTL
280
     0
  9
$HIDETEXT
280
     1
  9
$XCLIPFRAME
290
     0
  9
$HALOGAP
280
     0
  9
$OBSCOLOR
 70
   257
  9
$OBSLTYPE
280
     0
  9
$INTERSECTIONDISPLAY
280
     0
  9
$INTERSECTIONCOLOR
 70
   257
  9
$DIMASSOC
280
     2
  9
$PROJECTNAME
  1

  0
ENDSEC
  0
SECTION
  2
CLASSES
  0
CLASS
  1
ACDBDICTIONARYWDFLT
  2
AcDbDictionaryWithDefault
  3
ObjectDBX Classes
 90
        0
 91
        4
280
     0
281
     0
  0
CLASS
  1
VISUALSTYLE
  2
AcDbVisualStyle
  3
ObjectDBX Classes
 90
     4095
 91
        4
280
     0
281
     0
  0
ENDSEC
  0
SECTION
  2
TABLES
  0
TABLE
  2
VPORT
  5
8
330
0
100
AcDbSymbolTable
 70
     1
  0
VPORT
  5
29
330
8
100
AcDbSymbolTableRecord
100
AcDbViewportTableRecord
  2
*Active
 70
     0
 10
0.0
 20
0.0
 11
1.0
 21
1.0
 12
282.5131049910146
 22
352.2623413470599
 13
0.0
 23
0.0
 14
0.5
 24
0.5
 15
0.5
 25
0.5
 16
0.0
 26
0.0
 36
1.0
 17
0.0
 27
0.0
 37
0.0
 40
718.6151763480021
 41
0.8019963300950013
 42
50.0
 43
0.0
 44
0.0
 50
0.0
 51
0.0
 71
     0
 72
   100
 73
     1
 74
     3
 75
     0
 76
     0
 77
     0
 78
     0
281
     0
 65
     1
110
0.0
120
0.0
130
0.0
111
1.0
121
0.0
131
0.0
112
0.0
122
1.0
132
0.0
 79
     0
146
0.0
  0
ENDTAB
  0
TABLE
  2
LTYPE
  5
5
330
0
100
AcDbSymbolTable
 70
     1
  0
LTYPE
  5
14
330
5
100
AcDbSymbolTableRecord
100
AcDbLinetypeTableRecord
  2
ByBlock
 70
     0
  3

 72
    65
 73
     0
 40
0.0
  0
LTYPE
  5
15
330
5
100
AcDbSymbolTableRecord
100
AcDbLinetypeTableRecord
  2
ByLayer
 70
     0
  3

 72
    65
 73
     0
 40
0.0
  0
LTYPE
  5
16
330
5
100
AcDbSymbolTableRecord
100
AcDbLinetypeTableRecord
  2
Continuous
 70
     0
  3
Solid line
 72
    65
 73
     0
 40
0.0
  0
ENDTAB
  0
TABLE
  2
LAYER
  5
2
330
0
100
AcDbSymbolTable
 70
     2
  0
LAYER
  5
10
330
2
100
AcDbSymbolTableRecord
100
AcDbLayerTableRecord
  2
0
 70
     0
 62
     7
  6
Continuous
370
    -3
390
F
  0
LAYER
  5
3B
330
2
100
AcDbSymbolTableRecord
100
AcDbLayerTableRecord
  2
Linee visibili 2D
 70
     0
 62
     7
  6
Continuous
370
    -3
390
F
  0
ENDTAB
  0
TABLE
  2
STYLE
  5
3
330
0
100
AcDbSymbolTable
 70
     1
  0
STYLE
  5
11
330
3
100
AcDbSymbolTableRecord
100
AcDbTextStyleTableRecord
  2
Standard
 70
     0
 40
0.0
 41
1.0
 50
0.0
 71
     0
 42
0.2
  3
txt
  4

  0
ENDTAB
  0
TABLE
  2
VIEW
  5
6
330
0
100
AcDbSymbolTable
 70
     0
  0
ENDTAB
  0
TABLE
  2
UCS
  5
7
330
0
100
AcDbSymbolTable
 70
     0
  0
ENDTAB
  0
TABLE
  2
APPID
  5
9
330
0
100
AcDbSymbolTable
 70
     1
  0
APPID
  5
12
330
9
100
AcDbSymbolTableRecord
100
AcDbRegAppTableRecord
  2
ACAD
 70
     0
  0
ENDTAB
  0
TABLE
  2
DIMSTYLE
  5
A
330
0
100
AcDbSymbolTable
 70
     1
100
AcDbDimStyleTable
  0
DIMSTYLE
105
27
330
A
100
AcDbSymbolTableRecord
100
AcDbDimStyleTableRecord
  2
Standard
 70
     0
340
11
  0
ENDTAB
  0
TABLE
  2
BLOCK_RECORD
  5
1
330
0
100
AcDbSymbolTable
 70
     1
  0
BLOCK_RECORD
  5
1F
330
1
100
AcDbSymbolTableRecord
100
AcDbBlockTableRecord
  2
*Model_Space
340
22
  0
BLOCK_RECORD
  5
1B
330
1
100
AcDbSymbolTableRecord
100
AcDbBlockTableRecord
  2
*Paper_Space
340
1E
  0
BLOCK_RECORD
  5
23
330
1
100
AcDbSymbolTableRecord
100
AcDbBlockTableRecord
  2
*Paper_Space0
340
26
  0
ENDTAB
  0
ENDSEC
  0
SECTION
  2
BLOCKS
  0
BLOCK
  5
20
330
1F
100
AcDbEntity
  8
0
100
AcDbBlockBegin
  2
*Model_Space
 70
     0
 10
0.0
 20
0.0
 30
0.0
  3
*Model_Space
  1

  0
ENDBLK
  5
21
330
1F
100
AcDbEntity
  8
0
100
AcDbBlockEnd
  0
BLOCK
  5
1C
330
1B
100
AcDbEntity
 67
     1
  8
0
100
AcDbBlockBegin
  2
*Paper_Space
 70
     0
 10
0.0
 20
0.0
 30
0.0
  3
*Paper_Space
  1

  0
ENDBLK
  5
1D
330
1B
100
AcDbEntity
 67
     1
  8
0
100
AcDbBlockEnd
  0
BLOCK
  5
24
330
23
100
AcDbEntity
  8
0
100
AcDbBlockBegin
  2
*Paper_Space0
 70
     0
 10
0.0
 20
0.0
 30
0.0
  3
*Paper_Space0
  1

  0
ENDBLK
  5
25
330
23
100
AcDbEntity
  8
0
100
AcDbBlockEnd
  0
ENDSEC
  0
SECTION
  2
ENTITIES
  0
LINE
  5
3C
330
1F
100
AcDbEntity
  8
Linee visibili 2D
 62
   255
100
AcDbLine
 10
412.1620970036573
 20
23.09058313207745
 30
0.0
 11
412.1154706313644
 21
22.82542696523256
 31
0.0
  0
LINE
  5
3D
330
1F
100
AcDbEntity
  8
Linee visibili 2D
 62
   255
100
AcDbLine
 10
412.1154706313644
 20
24.17457303477699
 30
0.0
 11
412.1620970036573
 21
23.9094168679321
 31
0.0
  0
LINE
  5
3E
330
1F
100
AcDbEntity
  8
Linee visibili 2D
 62
   255
100
AcDbLine
 10
412.1154706313664
 20
144.1745730347724
 30
0.0
 11
412.1620970036595
 21
143.9094168679274
 31
0.0
  0
LINE
  5
3F
330
1F
100
AcDbEntity
  8
Linee visibili 2D
 62
   255
100
AcDbLine
 10
412.1620970036595
 20
143.0905831320727
 30
0.0
 11
412.1154692414051
 21
142.8254207103777
 31
0.0
  0
POLYLINE
  5
40
330
1F
100
AcDbEntity
  8
Linee visibili 2D
 62
   255
100
AcDb2dPolyline
 66
     1
 10
0.0
 20
0.0
 30
0.0
  0
VERTEX
  5
41
330
40
100
AcDbEntity
  8
Linee visibili 2D
 62
   255
100
AcDbVertex
100
AcDb2dVertex
 10
520.0262099820284
 20
164.0629486088192
 30
0.0
  0
VERTEX
  5
42
330
40
100
AcDbEntity
  8
Linee visibili 2D
 62
   255
100
AcDbVertex
100
AcDb2dVertex
 10
520.5349375202932
 20
164.5540687657113
 30
0.0
  0
VERTEX
  5
43
330
40
100
AcDbEntity
  8
Linee visibili 2D
 62
   255
100
AcDbVertex
100
AcDb2dVertex
 10
561.5174824437643
 20
164.5540687657112
 30
0.0
  0
VERTEX
  5
44
330
40
100
AcDbEntity
  8
Linee visibili 2D
 62
   255
100
AcDbVertex
100
AcDb2dVertex
 10
562.0262099820284
 20
164.0629486088191
 30
0.0
  0
VERTEX
  5
45
330
40
100
AcDbEntity
  8
Linee visibili 2D
 62
   255
100
AcDbVertex
100
AcDb2dVertex
 10
562.0262099820284
 20
3.062796303975475
 30
0.0
  0
VERTEX
  5
46
330
40
100
AcDbEntity
  8
Linee visibili 2D
 62
   255
100
AcDbVertex
100
AcDb2dVertex
 10
561.5262861344502
 20
2.562872456397287
 30
0.0
  0
VERTEX
  5
47
330
40
100
AcDbEntity
  8
Linee visibili 2D
 62
   255
100
AcDbVertex
100
AcDb2dVertex
 10
520.5261338296073
 20
2.562872456397258
 30
0.0
  0
VERTEX
  5
48
330
40
100
AcDbEntity
  8
Linee visibili 2D
 62
   255
100
AcDbVertex
100
AcDb2dVertex
 10
520.0262099820286
 20
3.062796303975432
 30
0.0
  0
SEQEND
  5
49
330
40
100
AcDbEntity
  8
Linee visibili 2D
 62
   255
  0
POLYLINE
  5
4A
330
1F
100
AcDbEntity
  8
Linee visibili 2D
 62
   255
100
AcDb2dPolyline
 66
     1
 10
0.0
 20
0.0
 30
0.0
  0
VERTEX
  5
4B
330
4A
100
AcDbEntity
  8
Linee visibili 2D
 62
   255
100
AcDbVertex
100
AcDb2dVertex
 10
310.4677687548711
 20
95.75000000000007
 30
0.0
  0
VERTEX
  5
4C
330
4A
100
AcDbEntity
  8
Linee visibili 2D
 62
   255
100
AcDbVertex
100
AcDb2dVertex
 10
309.7170051109181
 20
95.75000000000006
 30
0.0
  0
VERTEX
  5
4D
330
4A
100
AcDbEntity
  8
Linee visibili 2D
 62
   255
100
AcDbVertex
100
AcDb2dVertex
 10
308.7170051109187
 20
94.75000077249811
 30
0.0
  0
VERTEX
  5
4E
330
4A
100
AcDbEntity
  8
Linee visibili 2D
 62
   255
100
AcDbVertex
100
AcDb2dVertex
 10
308.7170051109188
 20
72.24999922750203
 30
0.0
 42
0.4142056677315322
  0
VERTEX
  5
4F
330
4A
100
AcDbEntity
  8
Linee visibili 2D
 62
   255
100
AcDbVertex
100
AcDb2dVertex
 10
309.7170051109181
 20
71.25000000000007
 30
0.0
  0
VERTEX
  5
50
330
4A
100
AcDbEntity
  8
Linee visibili 2D
 62
   255
100
AcDbVertex
100
AcDb2dVertex
 10
310.4677687548712
 20
71.25000000000007
 30
0.0
  0
SEQEND
  5
51
330
4A
100
AcDbEntity
  8
Linee visibili 2D
 62
   255
  0
POLYLINE
  5
52
330
1F
100
AcDbEntity
  8
Linee visibili 2D
 62
   255
100
AcDb2dPolyline
 66
     1
 10
0.0
 20
0.0
 30
0.0
  0
VERTEX
  5
53
330
52
100
AcDbEntity
  8
Linee visibili 2D
 62
   255
100
AcDbVertex
100
AcDb2dVertex
 10
310.4677687548712
 20
292.4048363904578
 30
0.0
  0
VERTEX
  5
54
330
52
100
AcDbEntity
  8
Linee visibili 2D
 62
   255
100
AcDbVertex
100
AcDb2dVertex
 10
309.7170051109181
 20
292.4048363904578
 30
0.0
 42
-0.4142135623729757
  0
VERTEX
  5
55
330
52
100
AcDbEntity
  8
Linee visibili 2D
 62
   255
100
AcDbVertex
100
AcDb2dVertex
 10
308.7170051109181
 20
293.4048363904578
 30
0.0
  0
VERTEX
  5
56
330
52
100
AcDbEntity
  8
Linee visibili 2D
 62
   255
100
AcDbVertex
100
AcDb2dVertex
 10
308.7170051109188
 20
315.9048371629559
 30
0.0
  0
VERTEX
  5
57
330
52
100
AcDbEntity
  8
Linee visibili 2D
 62
   255
100
AcDbVertex
100
AcDb2dVertex
 10
309.7170051109182
 20
316.9048363904578
 30
0.0
  0
VERTEX
  5
58
330
52
100
AcDbEntity
  8
Linee visibili 2D
 62
   255
100
AcDbVertex
100
AcDb2dVertex
 10
310.4677687548713
 20
316.9048363904578
 30
0.0
  0
SEQEND
  5
59
330
52
100
AcDbEntity
  8
Linee visibili 2D
 62
   255
  0
POLYLINE
  5
5A
330
1F
100
AcDbEntity
  8
Linee visibili 2D
 62
   255
100
AcDb2dPolyline
 66
     1
 10
0.0
 20
0.0
 30
0.0
  0
VERTEX
  5
5B
330
5A
100
AcDbEntity
  8
Linee visibili 2D
 62
   255
100
AcDbVertex
100
AcDb2dVertex
 10
520.0262099820293
 20
164.5000000000001
 30
0.0
  0
VERTEX
  5
5C
330
5A
100
AcDbEntity
  8
Linee visibili 2D
 62
   255
100
AcDbVertex
100
AcDb2dVertex
 10
520.0262099820292
 20
2.500000000000014
 30
0.0
  0
VERTEX
  5
5D
330
5A
100
AcDbEntity
  8
Linee visibili 2D
 62
   255
100
AcDbVertex
100
AcDb2dVertex
 10
520.5262099820292
 20
2.000000000000012
 30
0.0
  0
VERTEX
  5
5E
330
5A
100
AcDbEntity
  8
Linee visibili 2D
 62
   255
100
AcDbVertex
100
AcDb2dVertex
 10
562.5262099820292
 20
2.000000000000014
 30
0.0
  0
VERTEX
  5
5F
330
5A
100
AcDbEntity
  8
Linee visibili 2D
 62
   255
100
AcDbVertex
100
AcDb2dVertex
 10
563.0262099820292
 20
2.500000000000014
 30
0.0
  0
VERTEX
  5
60
330
5A
100
AcDbEntity
  8
Linee visibili 2D
 62
   255
100
AcDbVertex
100
AcDb2dVertex
 10
563.0262099820292
 20
164.5000000000001
 30
0.0
  0
VERTEX
  5
61
330
5A
100
AcDbEntity
  8
Linee visibili 2D
 62
   255
100
AcDbVertex
100
AcDb2dVertex
 10
562.5262099820293
 20
165.0
 30
0.0
  0
VERTEX
  5
62
330
5A
100
AcDbEntity
  8
Linee visibili 2D
 62
   255
100
AcDbVertex
100
AcDb2dVertex
 10
520.5262099820292
 20
165.0000000000001
 30
0.0
  0
VERTEX
  5
63
330
5A
100
AcDbEntity
  8
Linee visibili 2D
 62
   255
100
AcDbVertex
100
AcDb2dVertex
 10
520.0262099820293
 20
164.5000000000001
 30
0.0
  0
SEQEND
  5
64
330
5A
100
AcDbEntity
  8
Linee visibili 2D
 62
   255
  0
POLYLINE
  5
65
330
1F
100
AcDbEntity
  8
Linee visibili 2D
 62
   255
100
AcDb2dPolyline
 66
     1
 10
0.0
 20
0.0
 30
0.0
  0
VERTEX
  5
66
330
65
100
AcDbEntity
  8
Linee visibili 2D
 62
   255
100
AcDbVertex
100
AcDb2dVertex
 10
411.7997492702092
 20
23.50000000000477
 30
0.0
 42
-1.414213562373096
  0
VERTEX
  5
67
330
65
100
AcDbEntity
  8
Linee visibili 2D
 62
   255
100
AcDbVertex
100
AcDb2dVertex
 10
406.5671590894287
 20
23.50000000000477
 30
0.0
 42
-1.414213562373126
  0
VERTEX
  5
68
330
65
100
AcDbEntity
  8
Linee visibili 2D
 62
   255
100
AcDbVertex
100
AcDb2dVertex
 10
411.7997492702092
 20
23.50000000000477
 30
0.0
  0
SEQEND
  5
69
330
65
100
AcDbEntity
  8
Linee visibili 2D
 62
   255
  0
POLYLINE
  5
6A
330
1F
100
AcDbEntity
  8
Linee visibili 2D
 62
   255
100
AcDb2dPolyline
 66
     1
 10
0.0
 20
0.0
 30
0.0
  0
VERTEX
  5
6B
330
6A
100
AcDbEntity
  8
Linee visibili 2D
 62
   255
100
AcDbVertex
100
AcDb2dVertex
 10
518.0262099820288
 20
543.9927201256555
 30
0.0
  0
VERTEX
  5
6C
330
6A
100
AcDbEntity
  8
Linee visibili 2D
 62
   255
100
AcDbVertex
100
AcDb2dVertex
 10
518.0262099820293
 20
704.5246826941197
 30
0.0
  0
VERTEX
  5
6D
330
6A
100
AcDbEntity
  8
Linee visibili 2D
 62
   255
100
AcDbVertex
100
AcDb2dVertex
 10
565.0262099820293
 20
704.5246826941195
 30
0.0
  0
VERTEX
  5
6E
330
6A
100
AcDbEntity
  8
Linee visibili 2D
 62
   255
100
AcDbVertex
100
AcDb2dVertex
 10
565.0262099820287
 20
524.5246826941197
 30
0.0
  0
SEQEND
  5
6F
330
6A
100
AcDbEntity
  8
Linee visibili 2D
 62
   255
  0
POLYLINE
  5
70
330
1F
100
AcDbEntity
  8
Linee visibili 2D
 62
   255
100
AcDb2dPolyline
 66
     1
 10
0.0
 20
0.0
 30
0.0
  0
VERTEX
  5
71
330
70
100
AcDbEntity
  8
Linee visibili 2D
 62
   255
100
AcDbVertex
100
AcDb2dVertex
 10
310.467768754871
 20
270.6733482481498
 30
0.0
  0
VERTEX
  5
72
330
70
100
AcDbEntity
  8
Linee visibili 2D
 62
   255
100
AcDbVertex
100
AcDb2dVertex
 10
310.467768754871
 20
336.4263850221863
 30
0.0
  0
VERTEX
  5
73
330
70
100
AcDbEntity
  8
Linee visibili 2D
 62
   255
100
AcDbVertex
100
AcDb2dVertex
 10
518.0262099820287
 20
543.9927201256553
 30
0.0
  0
VERTEX
  5
74
330
70
100
AcDbEntity
  8
Linee visibili 2D
 62
   255
100
AcDbVertex
100
AcDb2dVertex
 10
518.5262099820287
 20
543.7856133444686
 30
0.0
  0
VERTEX
  5
75
330
70
100
AcDbEntity
  8
Linee visibili 2D
 62
   255
100
AcDbVertex
100
AcDb2dVertex
 10
565.0262099820288
 20
524.5246826941194
 30
0.0
  0
VERTEX
  5
76
330
70
100
AcDbEntity
  8
Linee visibili 2D
 62
   255
100
AcDbVertex
100
AcDb2dVertex
 10
310.467768754871
 20
269.9662414669633
 30
0.0
  0
VERTEX
  5
77
330
70
100
AcDbEntity
  8
Linee visibili 2D
 62
   255
100
AcDbVertex
100
AcDb2dVertex
 10
310.467768754871
 20
270.6733482481498
 30
0.0
  0
SEQEND
  5
78
330
70
100
AcDbEntity
  8
Linee visibili 2D
 62
   255
  0
POLYLINE
  5
79
330
1F
100
AcDbEntity
  8
Linee visibili 2D
 62
   255
100
AcDb2dPolyline
 66
     1
 10
0.0
 20
0.0
 30
0.0
  0
VERTEX
  5
7A
330
79
100
AcDbEntity
  8
Linee visibili 2D
 62
   255
100
AcDbVertex
100
AcDb2dVertex
 10
565.0262099820293
 20
166.5000000000001
 30
0.0
  0
VERTEX
  5
7B
330
79
100
AcDbEntity
  8
Linee visibili 2D
 62
   255
100
AcDbVertex
100
AcDb2dVertex
 10
564.5262099820293
 20
167.0000000000001
 30
0.0
  0
VERTEX
  5
7C
330
79
100
AcDbEntity
  8
Linee visibili 2D
 62
   255
100
AcDbVertex
100
AcDb2dVertex
 10
518.5262099820292
 20
167.0000000000001
 30
0.0
  0
VERTEX
  5
7D
330
79
100
AcDbEntity
  8
Linee visibili 2D
 62
   255
100
AcDbVertex
100
AcDb2dVertex
 10
518.0262099820293
 20
166.5000000000001
 30
0.0
  0
VERTEX
  5
7E
330
79
100
AcDbEntity
  8
Linee visibili 2D
 62
   255
100
AcDbVertex
100
AcDb2dVertex
 10
518.0262099820292
 20
0.5000000000000142
 30
0.0
  0
VERTEX
  5
7F
330
79
100
AcDbEntity
  8
Linee visibili 2D
 62
   255
100
AcDbVertex
100
AcDb2dVertex
 10
518.5262099820292
 20
0.000000000000041
 30
0.0
  0
VERTEX
  5
80
330
79
100
AcDbEntity
  8
Linee visibili 2D
 62
   255
100
AcDbVertex
100
AcDb2dVertex
 10
564.5262099820293
 20
0.0000000000000142
 30
0.0
  0
VERTEX
  5
81
330
79
100
AcDbEntity
  8
Linee visibili 2D
 62
   255
100
AcDbVertex
100
AcDb2dVertex
 10
565.0262099820293
 20
0.5000000000000142
 30
0.0
  0
VERTEX
  5
82
330
79
100
AcDbEntity
  8
Linee visibili 2D
 62
   255
100
AcDbVertex
100
AcDb2dVertex
 10
565.0262099820293
 20
166.5000000000001
 30
0.0
  0
SEQEND
  5
83
330
79
100
AcDbEntity
  8
Linee visibili 2D
 62
   255
  0
POLYLINE
  5
84
330
1F
100
AcDbEntity
  8
Linee visibili 2D
 62
   255
100
AcDb2dPolyline
 66
     1
 10
0.0
 20
0.0
 30
0.0
  0
VERTEX
  5
85
330
84
100
AcDbEntity
  8
Linee visibili 2D
 62
   255
100
AcDbVertex
100
AcDb2dVertex
 10
411.7997492702109
 20
143.5000000000001
 30
0.0
 42
-1.414213562373091
  0
VERTEX
  5
86
330
84
100
AcDbEntity
  8
Linee visibili 2D
 62
   255
100
AcDbVertex
100
AcDb2dVertex
 10
406.5671590894304
 20
143.5000000000001
 30
0.0
 42
-1.414213562373097
  0
VERTEX
  5
87
330
84
100
AcDbEntity
  8
Linee visibili 2D
 62
   255
100
AcDbVertex
100
AcDb2dVertex
 10
411.7997492702108
 20
143.5000000000001
 30
0.0
  0
SEQEND
  5
88
330
84
100
AcDbEntity
  8
Linee visibili 2D
 62
   255
  0
POLYLINE
  5
89
330
1F
100
AcDbEntity
  8
Linee visibili 2D
 62
   255
100
AcDb2dPolyline
 66
     1
 10
0.0
 20
0.0
 30
0.0
  0
VERTEX
  5
8A
330
89
100
AcDbEntity
  8
Linee visibili 2D
 62
   255
100
AcDbVertex
100
AcDb2dVertex
 10
409.4185399045406
 20
139.8000000000001
 30
0.0
  0
VERTEX
  5
8B
330
89
100
AcDbEntity
  8
Linee visibili 2D
 62
   255
100
AcDbVertex
100
AcDb2dVertex
 10
409.537007570413
 20
139.8
 30
0.0
 42
0.39707780193158
  0
VERTEX
  5
8C
330
89
100
AcDbEntity
  8
Linee visibili 2D
 62
   255
100
AcDbVertex
100
AcDb2dVertex
 10
412.153302660804
 20
143.5000000000001
 30
0.0
 42
0.397077801931544
  0
VERTEX
  5
8D
330
89
100
AcDbEntity
  8
Linee visibili 2D
 62
   255
100
AcDbVertex
100
AcDb2dVertex
 10
409.5370075704139
 20
147.2000000000001
 30
0.0
  0
VERTEX
  5
8E
330
89
100
AcDbEntity
  8
Linee visibili 2D
 62
   255
100
AcDbVertex
100
AcDb2dVertex
 10
409.4185399045424
 20
147.2
 30
0.0
  0
SEQEND
  5
8F
330
89
100
AcDbEntity
  8
Linee visibili 2D
 62
   255
  0
POLYLINE
  5
90
330
1F
100
AcDbEntity
  8
Linee visibili 2D
 62
   255
100
AcDb2dPolyline
 66
     1
 10
0.0
 20
0.0
 30
0.0
  0
VERTEX
  5
91
330
90
100
AcDbEntity
  8
Linee visibili 2D
 62
   255
100
AcDbVertex
100
AcDb2dVertex
 10
409.41853990454
 20
19.80000000000479
 30
0.0
  0
VERTEX
  5
92
330
90
100
AcDbEntity
  8
Linee visibili 2D
 62
   255
100
AcDbVertex
100
AcDb2dVertex
 10
409.537007570412
 20
19.80000000000481
 30
0.0
 42
0.3970778019315532
  0
VERTEX
  5
93
330
90
100
AcDbEntity
  8
Linee visibili 2D
 62
   255
100
AcDbVertex
100
AcDb2dVertex
 10
412.1533026608024
 20
23.50000000000477
 30
0.0
 42
0.3970778019315179
  0
VERTEX
  5
94
330
90
100
AcDbEntity
  8
Linee visibili 2D
 62
   255
100
AcDbVertex
100
AcDb2dVertex
 10
409.5370075704124
 20
27.20000000000473
 30
0.0
  0
VERTEX
  5
95
330
90
100
AcDbEntity
  8
Linee visibili 2D
 62
   255
100
AcDbVertex
100
AcDb2dVertex
 10
409.4185399045409
 20
27.20000000000476
 30
0.0
  0
SEQEND
  5
96
330
90
100
AcDbEntity
  8
Linee visibili 2D
 62
   255
  0
POLYLINE
  5
97
330
1F
100
AcDbEntity
  8
Linee visibili 2D
 62
   255
100
AcDb2dPolyline
 66
     1
 10
0.0
 20
0.0
 30
0.0
  0
VERTEX
  5
98
330
97
100
AcDbEntity
  8
Linee visibili 2D
 62
   255
100
AcDbVertex
100
AcDb2dVertex
 10
412.1886579998637
 20
143.5000000000001
 30
0.0
 42
1.414213562373019
  0
VERTEX
  5
99
330
97
100
AcDbEntity
  8
Linee visibili 2D
 62
   255
100
AcDbVertex
100
AcDb2dVertex
 10
406.1782503597777
 20
143.5000000000001
 30
0.0
 42
1.414213562373031
  0
VERTEX
  5
9A
330
97
100
AcDbEntity
  8
Linee visibili 2D
 62
   255
100
AcDbVertex
100
AcDb2dVertex
 10
412.1886579998637
 20
143.5000000000001
 30
0.0
  0
SEQEND
  5
9B
330
97
100
AcDbEntity
  8
Linee visibili 2D
 62
   255
  0
POLYLINE
  5
9C
330
1F
100
AcDbEntity
  8
Linee visibili 2D
 62
   255
100
AcDb2dPolyline
 66
     1
 10
0.0
 20
0.0
 30
0.0
  0
VERTEX
  5
9D
330
9C
100
AcDbEntity
  8
Linee visibili 2D
 62
   255
100
AcDbVertex
100
AcDb2dVertex
 10
0.5000000000000995
 20
524.5246826941194
 30
0.0
  0
VERTEX
  5
9E
330
9C
100
AcDbEntity
  8
Linee visibili 2D
 62
   255
100
AcDbVertex
100
AcDb2dVertex
 10
166.5000000000001
 20
524.5246826941194
 30
0.0
  0
VERTEX
  5
9F
330
9C
100
AcDbEntity
  8
Linee visibili 2D
 62
   255
100
AcDbVertex
100
AcDb2dVertex
 10
167.0000000000001
 20
524.7317894753062
 30
0.0
  0
VERTEX
  5
A0
330
9C
100
AcDbEntity
  8
Linee visibili 2D
 62
   255
100
AcDbVertex
100
AcDb2dVertex
 10
167.0000000000002
 20
270.6733482481498
 30
0.0
  0
VERTEX
  5
A1
330
9C
100
AcDbEntity
  8
Linee visibili 2D
 62
   255
100
AcDbVertex
100
AcDb2dVertex
 10
166.5000000000001
 20
269.9662414669633
 30
0.0
  0
VERTEX
  5
A2
330
9C
100
AcDbEntity
  8
Linee visibili 2D
 62
   255
100
AcDbVertex
100
AcDb2dVertex
 10
0.5000000000000853
 20
269.9662414669633
 30
0.0
  0
VERTEX
  5
A3
330
9C
100
AcDbEntity
  8
Linee visibili 2D
 62
   255
100
AcDbVertex
100
AcDb2dVertex
 10
0.0
 20
270.6733482481498
 30
0.0
  0
VERTEX
  5
A4
330
9C
100
AcDbEntity
  8
Linee visibili 2D
 62
   255
100
AcDbVertex
100
AcDb2dVertex
 10
0.0000000000000853
 20
524.7317894753062
 30
0.0
  0
VERTEX
  5
A5
330
9C
100
AcDbEntity
  8
Linee visibili 2D
 62
   255
100
AcDbVertex
100
AcDb2dVertex
 10
0.5000000000000995
 20
524.5246826941194
 30
0.0
  0
SEQEND
  5
A6
330
9C
100
AcDbEntity
  8
Linee visibili 2D
 62
   255
  0
POLYLINE
  5
A7
330
1F
100
AcDbEntity
  8
Linee visibili 2D
 62
   255
100
AcDb2dPolyline
 66
     1
 10
0.0
 20
0.0
 30
0.0
  0
VERTEX
  5
A8
330
A7
100
AcDbEntity
  8
Linee visibili 2D
 62
   255
100
AcDbVertex
100
AcDb2dVertex
 10
518.5262099820286
 20
0.0000000000000711
 30
0.0
  0
VERTEX
  5
A9
330
A7
100
AcDbEntity
  8
Linee visibili 2D
 62
   255
100
AcDbVertex
100
AcDb2dVertex
 10
310.4677687548711
 20
0.0
 30
0.0
  0
VERTEX
  5
AA
330
A7
100
AcDbEntity
  8
Linee visibili 2D
 62
   255
100
AcDbVertex
100
AcDb2dVertex
 10
310.4677687548711
 20
167.0000000000002
 30
0.0
  0
VERTEX
  5
AB
330
A7
100
AcDbEntity
  8
Linee visibili 2D
 62
   255
100
AcDbVertex
100
AcDb2dVertex
 10
518.5262099820286
 20
167.0000000000001
 30
0.0
  0
SEQEND
  5
AC
330
A7
100
AcDbEntity
  8
Linee visibili 2D
 62
   255
  0
POLYLINE
  5
AD
330
1F
100
AcDbEntity
  8
Linee visibili 2D
 62
   255
100
AcDb2dPolyline
 66
     1
 10
0.0
 20
0.0
 30
0.0
  0
VERTEX
  5
AE
330
AD
100
AcDbEntity
  8
Linee visibili 2D
 62
   255
100
AcDbVertex
100
AcDb2dVertex
 10
0.0000000000000426
 20
524.7317894753065
 30
0.0
  0
VERTEX
  5
AF
330
AD
100
AcDbEntity
  8
Linee visibili 2D
 62
   255
100
AcDbVertex
100
AcDb2dVertex
 10
0.0000000000000426
 20
704.5246826941195
 30
0.0
  0
VERTEX
  5
B0
330
AD
100
AcDbEntity
  8
Linee visibili 2D
 62
   255
100
AcDbVertex
100
AcDb2dVertex
 10
167.0000000000001
 20
704.5246826941195
 30
0.0
  0
VERTEX
  5
B1
330
AD
100
AcDbEntity
  8
Linee visibili 2D
 62
   255
100
AcDbVertex
100
AcDb2dVertex
 10
167.0000000000001
 20
524.7317894753065
 30
0.0
  0
SEQEND
  5
B2
330
AD
100
AcDbEntity
  8
Linee visibili 2D
 62
   255
  0
POLYLINE
  5
B3
330
1F
100
AcDbEntity
  8
Linee visibili 2D
 62
   255
100
AcDb2dPolyline
 66
     1
 10
0.0
 20
0.0
 30
0.0
  0
VERTEX
  5
B4
330
B3
100
AcDbEntity
  8
Linee visibili 2D
 62
   255
100
AcDbVertex
100
AcDb2dVertex
 10
349.005088329538
 20
335.7271721173122
 30
0.0
 42
0.9999999999999526
  0
VERTEX
  5
B5
330
B3
100
AcDbEntity
  8
Linee visibili 2D
 62
   255
100
AcDbVertex
100
AcDb2dVertex
 10
342.9946806894524
 20
341.7375797573978
 30
0.0
  0
VERTEX
  5
B6
330
B3
100
AcDbEntity
  8
Linee visibili 2D
 62
   255
100
AcDbVertex
100
AcDb2dVertex
 10
326.7312247370887
 20
325.4741238050343
 30
0.0
 42
1.000000003725309
  0
VERTEX
  5
B7
330
B3
100
AcDbEntity
  8
Linee visibili 2D
 62
   255
100
AcDbVertex
100
AcDb2dVertex
 10
332.7416323622474
 20
319.4637161500217
 30
0.0
  0
VERTEX
  5
B8
330
B3
100
AcDbEntity
  8
Linee visibili 2D
 62
   255
100
AcDbVertex
100
AcDb2dVertex
 10
349.005088329538
 20
335.7271721173122
 30
0.0
  0
SEQEND
  5
B9
330
B3
100
AcDbEntity
  8
Linee visibili 2D
 62
   255
  0
POLYLINE
  5
BA
330
1F
100
AcDbEntity
  8
Linee visibili 2D
 62
   255
100
AcDb2dPolyline
 66
     1
 10
0.0
 20
0.0
 30
0.0
  0
VERTEX
  5
BB
330
BA
100
AcDbEntity
  8
Linee visibili 2D
 62
   255
100
AcDbVertex
100
AcDb2dVertex
 10
406.1782503597761
 20
23.50000000000477
 30
0.0
 42
1.414213562373125
  0
VERTEX
  5
BC
330
BA
100
AcDbEntity
  8
Linee visibili 2D
 62
   255
100
AcDbVertex
100
AcDb2dVertex
 10
412.1886579998618
 20
23.50000000000477
 30
0.0
 42
1.414213562373103
  0
VERTEX
  5
BD
330
BA
100
AcDbEntity
  8
Linee visibili 2D
 62
   255
100
AcDbVertex
100
AcDb2dVertex
 10
406.1782503597761
 20
23.50000000000478
 30
0.0
  0
SEQEND
  5
BE
330
BA
100
AcDbEntity
  8
Linee visibili 2D
 62
   255
  0
ENDSEC
  0
SECTION
  2
OBJECTS
  0
DICTIONARY
  5
C
330
0
100
AcDbDictionary
281
     1
  3
ACAD_GROUP
350
D
  3
ACAD_LAYOUT
350
1A
  3
ACAD_MLEADERSTYLE
350
C0
  3
ACAD_MLINESTYLE
350
17
  3
ACAD_PLOTSETTINGS
350
19
  3
ACAD_PLOTSTYLENAME
350
E
  3
ACAD_TABLESTYLE
350
BF
  3
ACAD_VISUALSTYLE
350
2A
  0
DICTIONARY
  5
D
102
{ACAD_REACTORS
330
C
102
}
330
C
100
AcDbDictionary
281
     1
  0
DICTIONARY
  5
1A
102
{ACAD_REACTORS
330
C
102
}
330
C
100
AcDbDictionary
281
     1
  3
Layout1
350
1E
  3
Layout2
350
26
  3
Model
350
22
  0
DICTIONARY
  5
C0
102
{ACAD_REACTORS
330
C
102
}
330
C
100
AcDbDictionary
281
     1
  0
DICTIONARY
  5
17
102
{ACAD_REACTORS
330
C
102
}
330
C
100
AcDbDictionary
281
     1
  3
Standard
350
18
  0
DICTIONARY
  5
19
102
{ACAD_REACTORS
330
C
102
}
330
C
100
AcDbDictionary
281
     1
  0
ACDBDICTIONARYWDFLT
  5
E
102
{ACAD_REACTORS
330
C
102
}
330
C
100
AcDbDictionary
281
     1
  3
Normal
350
F
100
AcDbDictionaryWithDefault
340
F
  0
DICTIONARY
  5
BF
102
{ACAD_REACTORS
330
C
102
}
330
C
100
AcDbDictionary
281
     1
  0
DICTIONARY
  5
2A
102
{ACAD_REACTORS
330
C
102
}
330
C
100
AcDbDictionary
281
     1
  3
2dWireframe
350
2F
  3
3D Hidden
350
31
  3
3dWireframe
350
30
  3
Basic
350
32
  3
Brighten
350
36
  3
ColorChange
350
3A
  3
Conceptual
350
34
  3
Dim
350
35
  3
Facepattern
350
39
  3
Flat
350
2B
  3
FlatWithEdges
350
2C
  3
Gouraud
350
2D
  3
GouraudWithEdges
350
2E
  3
Linepattern
350
38
  3
Realistic
350
33
  3
Thicken
350
37
  0
LAYOUT
  5
1E
102
{ACAD_REACTORS
330
1A
102
}
330
1A
100
AcDbPlotSettings
  1

  2
none_device
  4

  6

 40
0.0
 41
0.0
 42
0.0
 43
0.0
 44
0.0
 45
0.0
 46
0.0
 47
0.0
 48
0.0
 49
0.0
140
0.0
141
0.0
142
1.0
143
1.0
 70
   688
 72
     0
 73
     0
 74
     5
  7

 75
    16
 76
     0
 77
     2
 78
   300
147
1.0
148
0.0
149
0.0
100
AcDbLayout
  1
Layout1
 70
     1
 71
     1
 10
0.0
 20
0.0
 11
12.0
 21
9.0
 12
0.0
 22
0.0
 32
0.0
 14
1.000000000000000E+20
 24
1.000000000000000E+20
 34
1.000000000000000E+20
 15
-1.000000000000000E+20
 25
-1.000000000000000E+20
 35
-1.000000000000000E+20
146
0.0
 13
0.0
 23
0.0
 33
0.0
 16
1.0
 26
0.0
 36
0.0
 17
0.0
 27
1.0
 37
0.0
 76
     0
330
1B
  0
LAYOUT
  5
26
102
{ACAD_REACTORS
330
1A
102
}
330
1A
100
AcDbPlotSettings
  1

  2
none_device
  4

  6

 40
0.0
 41
0.0
 42
0.0
 43
0.0
 44
0.0
 45
0.0
 46
0.0
 47
0.0
 48
0.0
 49
0.0
140
0.0
141
0.0
142
1.0
143
1.0
 70
   688
 72
     0
 73
     0
 74
     5
  7

 75
    16
 76
     0
 77
     2
 78
   300
147
1.0
148
0.0
149
0.0
100
AcDbLayout
  1
Layout2
 70
     1
 71
     2
 10
0.0
 20
0.0
 11
0.0
 21
0.0
 12
0.0
 22
0.0
 32
0.0
 14
0.0
 24
0.0
 34
0.0
 15
0.0
 25
0.0
 35
0.0
146
0.0
 13
0.0
 23
0.0
 33
0.0
 16
1.0
 26
0.0
 36
0.0
 17
0.0
 27
1.0
 37
0.0
 76
     0
330
23
  0
LAYOUT
  5
22
102
{ACAD_REACTORS
330
1A
102
}
330
1A
100
AcDbPlotSettings
  1

  2
none_device
  4

  6

 40
0.0
 41
0.0
 42
0.0
 43
0.0
 44
0.0
 45
0.0
 46
0.0
 47
0.0
 48
0.0
 49
0.0
140
0.0
141
0.0
142
1.0
143
1.0
 70
  1712
 72
     0
 73
     0
 74
     0
  7

 75
     0
 76
     0
 77
     2
 78
   300
147
1.0
148
0.0
149
0.0
100
AcDbLayout
  1
Model
 70
     1
 71
     0
 10
0.0
 20
0.0
 11
12.0
 21
9.0
 12
0.0
 22
0.0
 32
0.0
 14
0.0
 24
0.0
 34
0.0
 15
565.0262099820293
 25
704.5246826941197
 35
0.0
146
0.0
 13
0.0
 23
0.0
 33
0.0
 16
1.0
 26
0.0
 36
0.0
 17
0.0
 27
1.0
 37
0.0
 76
     0
330
1F
331
29
  0
MLINESTYLE
  5
18
102
{ACAD_REACTORS
330
17
102
}
330
17
100
AcDbMlineStyle
  2
Standard
 70
     0
  3

 62
   256
 51
90.0
 52
90.0
 71
     2
 49
0.5
 62
   256
  6
BYLAYER
 49
-0.5
 62
   256
  6
BYLAYER
  0
ACDBPLACEHOLDER
  5
F
102
{ACAD_REACTORS
330
E
102
}
330
E
  0
VISUALSTYLE
  5
2F
102
{ACAD_REACTORS
330
2A
102
}
330
2A
100
AcDbVisualStyle
  2
2dWireframe
 70
     4
 71
     0
 72
     2
 73
     0
 90
        0
 40
-0.6
 41
-30.0
 62
     5
 63
     7
421
 16777215
 74
     1
 91
        4
 64
     7
 65
   257
 75
     1
175
     1
 42
1.0
 92
        0
 66
   257
 43
1.0
 76
     1
 77
     6
 78
     2
 67
     7
 79
     5
170
     0
171
     0
290
     0
174
     0
 93
        1
 44
0.0
173
     0
291
     0
 45
0.0
1001
ACAD
1000
AcDbSavedByObjectVersion
1070
     0
  0
VISUALSTYLE
  5
31
102
{ACAD_REACTORS
330
2A
102
}
330
2A
100
AcDbVisualStyle
  2
3D Hidden
 70
     6
 71
     1
 72
     2
 73
     2
 90
        0
 40
-0.6
 41
-30.0
 62
     5
 63
     7
421
 16777215
 74
     2
 91
        2
 64
     7
 65
   257
 75
     2
175
     1
 42
40.0
 92
        0
 66
   257
 43
1.0
 76
     1
 77
     6
 78
     2
 67
     7
 79
     3
170
     0
171
     0
290
     0
174
     0
 93
        1
 44
0.0
173
     0
291
     0
 45
0.0
1001
ACAD
1000
AcDbSavedByObjectVersion
1070
     0
  0
VISUALSTYLE
  5
30
102
{ACAD_REACTORS
330
2A
102
}
330
2A
100
AcDbVisualStyle
  2
3dWireframe
 70
     5
 71
     0
 72
     2
 73
     0
 90
        0
 40
-0.6
 41
-30.0
 62
     5
 63
     7
421
 16777215
 74
     1
 91
        4
 64
     7
 65
   257
 75
     1
175
     1
 42
1.0
 92
        0
 66
   257
 43
1.0
 76
     1
 77
     6
 78
     2
 67
     7
 79
     5
170
     0
171
     0
290
     0
174
     0
 93
        1
 44
0.0
173
     0
291
     0
 45
0.0
1001
ACAD
1000
AcDbSavedByObjectVersion
1070
     0
  0
VISUALSTYLE
  5
32
102
{ACAD_REACTORS
330
2A
102
}
330
2A
100
AcDbVisualStyle
  2
Basic
 70
     7
 71
     1
 72
     0
 73
     1
 90
        0
 40
-0.6
 41
-30.0
 62
     5
 63
     7
421
 16777215
 74
     0
 91
        4
 64
     7
 65
   257
 75
     1
175
     1
 42
1.0
 92
        8
 66
     7
 43
1.0
 76
     1
 77
     6
 78
     2
 67
     7
 79
     5
170
     0
171
     0
290
     0
174
     0
 93
        1
 44
0.0
173
     0
291
     1
 45
0.0
1001
ACAD
1000
AcDbSavedByObjectVersion
1070
     0
  0
VISUALSTYLE
  5
36
102
{ACAD_REACTORS
330
2A
102
}
330
2A
100
AcDbVisualStyle
  2
Brighten
 70
    12
 71
     2
 72
     2
 73
     0
 90
        0
 40
-0.6
 41
-30.0
 62
     5
 63
     7
421
 16777215
 74
     1
 91
        4
 64
     7
 65
   257
 75
     1
175
     1
 42
1.0
 92
        8
 66
     7
 43
1.0
 76
     1
 77
     6
 78
     2
 67
     7
 79
     5
170
     0
171
     0
290
     0
174
     0
 93
        1
 44
50.0
173
     0
291
     1
 45
0.0
1001
ACAD
1000
AcDbSavedByObjectVersion
1070
     0
  0
VISUALSTYLE
  5
3A
102
{ACAD_REACTORS
330
2A
102
}
330
2A
100
AcDbVisualStyle
  2
ColorChange
 70
    16
 71
     2
 72
     2
 73
     3
 90
        0
 40
-0.6
 41
-30.0
 62
     5
 63
     8
421
  8421504
 74
     1
 91
        4
 64
     7
 65
   257
 75
     1
175
     1
 42
1.0
 92
        8
 66
     8
424
  8421504
 43
1.0
 76
     1
 77
     6
 78
     2
 67
     7
 79
     5
170
     0
171
     0
290
     0
174
     0
 93
        1
 44
0.0
173
     0
291
     1
 45
0.0
1001
ACAD
1000
AcDbSavedByObjectVersion
1070
     0
  0
VISUALSTYLE
  5
34
102
{ACAD_REACTORS
330
2A
102
}
330
2A
100
AcDbVisualStyle
  2
Conceptual
 70
     9
 71
     3
 72
     2
 73
     0
 90
        0
 40
-0.6
 41
-30.0
 62
     5
 63
     7
421
 16777215
 74
     2
 91
        2
 64
     7
 65
   257
 75
     1
175
     1
 42
40.0
 92
        8
 66
     7
 43
1.0
 76
     1
 77
     6
 78
     2
 67
     7
 79
     3
170
     0
171
     0
290
     0
174
     0
 93
        1
 44
0.0
173
     0
291
     0
 45
0.0
1001
ACAD
1000
AcDbSavedByObjectVersion
1070
     0
  0
VISUALSTYLE
  5
35
102
{ACAD_REACTORS
330
2A
102
}
330
2A
100
AcDbVisualStyle
  2
Dim
 70
    11
 71
     2
 72
     2
 73
     0
 90
        0
 40
-0.6
 41
-30.0
 62
     5
 63
     7
421
 16777215
 74
     1
 91
        4
 64
     7
 65
   257
 75
     1
175
     1
 42
1.0
 92
        8
 66
     7
 43
1.0
 76
     1
 77
     6
 78
     2
 67
     7
 79
     5
170
     0
171
     0
290
     0
174
     0
 93
        1
 44
-50.0
173
     0
291
     1
 45
0.0
1001
ACAD
1000
AcDbSavedByObjectVersion
1070
     0
  0
VISUALSTYLE
  5
39
102
{ACAD_REACTORS
330
2A
102
}
330
2A
100
AcDbVisualStyle
  2
Facepattern
 70
    15
 71
     2
 72
     2
 73
     0
 90
        0
 40
-0.6
 41
-30.0
 62
     5
 63
     7
421
 16777215
 74
     1
 91
        4
 64
     7
 65
   257
 75
     1
175
     1
 42
1.0
 92
        8
 66
     7
 43
1.0
 76
     1
 77
     6
 78
     2
 67
     7
 79
     5
170
     0
171
     0
290
     0
174
     0
 93
        1
 44
0.0
173
     0
291
     1
 45
0.0
1001
ACAD
1000
AcDbSavedByObjectVersion
1070
     0
  0
VISUALSTYLE
  5
2B
102
{ACAD_REACTORS
330
2A
102
}
330
2A
100
AcDbVisualStyle
  2
Flat
 70
     0
 71
     2
 72
     1
 73
     1
 90
        2
 40
-0.6
 41
30.0
 62
     5
 63
     7
421
 16777215
 74
     0
 91
        4
 64
     7
 65
   257
 75
     1
175
     1
 42
1.0
 92
        8
 66
     7
 43
1.0
 76
     1
 77
     6
 78
     2
 67
     7
 79
     5
170
     0
171
     0
290
     0
174
     0
 93
       13
 44
0.0
173
     0
291
     1
 45
0.0
1001
ACAD
1000
AcDbSavedByObjectVersion
1070
     0
  0
VISUALSTYLE
  5
2C
102
{ACAD_REACTORS
330
2A
102
}
330
2A
100
AcDbVisualStyle
  2
FlatWithEdges
 70
     1
 71
     2
 72
     1
 73
     1
 90
        2
 40
-0.6
 41
30.0
 62
     5
 63
     7
421
 16777215
 74
     1
 91
        4
 64
     7
 65
   257
 75
     1
175
     1
 42
1.0
 92
        0
 66
   257
 43
1.0
 76
     1
 77
     6
 78
     2
 67
     7
 79
     5
170
     0
171
     0
290
     0
174
     0
 93
       13
 44
0.0
173
     0
291
     1
 45
0.0
1001
ACAD
1000
AcDbSavedByObjectVersion
1070
     0
  0
VISUALSTYLE
  5
2D
102
{ACAD_REACTORS
330
2A
102
}
330
2A
100
AcDbVisualStyle
  2
Gouraud
 70
     2
 71
     2
 72
     2
 73
     1
 90
        2
 40
-0.6
 41
30.0
 62
     5
 63
     7
421
 16777215
 74
     0
 91
        4
 64
     7
 65
   257
 75
     1
175
     1
 42
1.0
 92
        0
 66
     7
 43
1.0
 76
     1
 77
     6
 78
     2
 67
     7
 79
     5
170
     0
171
     0
290
     0
174
     0
 93
       13
 44
0.0
173
     0
291
     1
 45
0.0
1001
ACAD
1000
AcDbSavedByObjectVersion
1070
     0
  0
VISUALSTYLE
  5
2E
102
{ACAD_REACTORS
330
2A
102
}
330
2A
100
AcDbVisualStyle
  2
GouraudWithEdges
 70
     3
 71
     2
 72
     2
 73
     1
 90
        2
 40
-0.6
 41
30.0
 62
     5
 63
     7
421
 16777215
 74
     1
 91
        4
 64
     7
 65
   257
 75
     1
175
     1
 42
1.0
 92
        0
 66
   257
 43
1.0
 76
     1
 77
     6
 78
     2
 67
     7
 79
     5
170
     0
171
     0
290
     0
174
     0
 93
       13
 44
0.0
173
     0
291
     1
 45
0.0
1001
ACAD
1000
AcDbSavedByObjectVersion
1070
     0
  0
VISUALSTYLE
  5
38
102
{ACAD_REACTORS
330
2A
102
}
330
2A
100
AcDbVisualStyle
  2
Linepattern
 70
    14
 71
     2
 72
     2
 73
     0
 90
        0
 40
-0.6
 41
-30.0
 62
     5
 63
     7
421
 16777215
 74
     1
 91
        4
 64
     7
 65
   257
 75
     7
175
     7
 42
1.0
 92
        8
 66
     7
 43
1.0
 76
     1
 77
     6
 78
     2
 67
     7
 79
     5
170
     0
171
     0
290
     0
174
     0
 93
        1
 44
0.0
173
     0
291
     1
 45
0.0
1001
ACAD
1000
AcDbSavedByObjectVersion
1070
     0
  0
VISUALSTYLE
  5
33
102
{ACAD_REACTORS
330
2A
102
}
330
2A
100
AcDbVisualStyle
  2
Realistic
 70
     8
 71
     2
 72
     2
 73
     0
 90
        0
 40
-0.6
 41
-30.0
 62
     5
 63
     7
421
 16777215
 74
     1
 91
        0
 64
     7
 65
   257
 75
     1
175
     1
 42
1.0
 92
        8
 66
     8
424
  7895160
 43
1.0
 76
     1
 77
     6
 78
     2
 67
     7
 79
     5
170
     0
171
     0
290
     0
174
     0
 93
       13
 44
0.0
173
     0
291
     0
 45
0.0
1001
ACAD
1000
AcDbSavedByObjectVersion
1070
     0
  0
VISUALSTYLE
  5
37
102
{ACAD_REACTORS
330
2A
102
}
330
2A
100
AcDbVisualStyle
  2
Thicken
 70
    13
 71
     2
 72
     2
 73
     0
 90
        0
 40
-0.6
 41
-30.0
 62
     5
 63
     7
421
 16777215
 74
     1
 91
        4
 64
     7
 65
   257
 75
     1
175
     1
 42
1.0
 92
       12
 66
     7
 43
1.0
 76
     1
 77
     6
 78
     2
 67
     7
 79
     5
170
     0
171
     0
290
     0
174
     0
 93
        1
 44
0.0
173
     0
291
     1
 45
0.0
1001
ACAD
1000
AcDbSavedByObjectVersion
1070
     0
  0
ENDSEC
  0
EOF
