  0
SECTION
  2
HEADER
  9
$ACADVER
  1
AC1015
  9
$ACADMAINTVER
 70
    20
  9
$DWGCODEPAGE
  3
ANSI_1252
  9
$INSBASE
 10
0.0
 20
0.0
 30
0.0
  9
$EXTMIN
 10
-25.15000000000019
 20
-54.90887251042946
 30
0.0
  9
$EXTMAX
 10
283.3876917595092
 20
256.9250000000001
 30
0.0
  9
$LIMMIN
 10
0.0
 20
0.0
  9
$LIMMAX
 10
0.0
 20
0.0
  9
$ORTHOMODE
 70
     0
  9
$REGENMODE
 70
     1
  9
$FILLMODE
 70
     1
  9
$QTEXTMODE
 70
     0
  9
$MIRRTEXT
 70
     1
  9
$LTSCALE
 40
1.0
  9
$ATTMODE
 70
     1
  9
$TEXTSIZE
 40
0.0
  9
$TRACEWID
 40
0.05
  9
$TEXTSTYLE
  7
STANDARD
  9
$CLAYER
  8
0
  9
$CELTYPE
  6
CONTINUOUS
  9
$CECOLOR
 62
   256
  9
$CELTSCALE
 40
1.0
  9
$DISPSILH
 70
     0
  9
$DIMSCALE
 40
1.0
  9
$DIMASZ
 40
6.0
  9
$DIMEXO
 40
1.0
  9
$DIMDLI
 40
0.38
  9
$DIMRND
 40
0.0
  9
$DIMDLE
 40
1.0
  9
$DIMEXE
 40
0.18
  9
$DIMTP
 40
0.0
  9
$DIMTM
 40
0.0
  9
$DIMTXT
 40
3.5
  9
$DIMCEN
 40
0.09
  9
$DIMTSZ
 40
0.0
  9
$DIMTOL
 70
     0
  9
$DIMLIM
 70
     0
  9
$DIMTIH
 70
     1
  9
$DIMTOH
 70
     1
  9
$DIMSE1
 70
     0
  9
$DIMSE2
 70
     0
  9
$DIMTAD
 70
     1
  9
$DIMZIN
 70
     0
  9
$DIMBLK
  1

  9
$DIMASO
 70
     1
  9
$DIMSHO
 70
     1
  9
$DIMPOST
  1

  9
$DIMAPOST
  1

  9
$DIMALT
 70
     0
  9
$DIMALTD
 70
     2
  9
$DIMALTF
 40
0.0394
  9
$DIMLFAC
 40
1.0
  9
$DIMTOFL
 70
     0
  9
$DIMTVP
 40
0.0
  9
$DIMTIX
 70
     0
  9
$DIMSOXD
 70
     0
  9
$DIMSAH
 70
     0
  9
$DIMBLK1
  1

  9
$DIMBLK2
  1

  9
$DIMSTYLE
  2
STANDARD
  9
$DIMCLRD
 70
     0
  9
$DIMCLRE
 70
     0
  9
$DIMCLRT
 70
     0
  9
$DIMTFAC
 40
1.0
  9
$DIMGAP
 40
1.0
  9
$DIMJUST
 70
     0
  9
$DIMSD1
 70
     0
  9
$DIMSD2
 70
     0
  9
$DIMTOLJ
 70
     1
  9
$DIMTZIN
 70
     0
  9
$DIMALTZ
 70
     0
  9
$DIMALTTZ
 70
     0
  9
$DIMUPT
 70
     0
  9
$DIMDEC
 70
     4
  9
$DIMTDEC
 70
     4
  9
$DIMALTU
 70
     2
  9
$DIMALTTD
 70
     2
  9
$DIMTXSTY
  7
STANDARD
  9
$DIMAUNIT
 70
     0
  9
$DIMADEC
 70
     0
  9
$DIMALTRND
 40
0.0
  9
$DIMAZIN
 70
     0
  9
$DIMDSEP
 70
    46
  9
$DIMATFIT
 70
     3
  9
$DIMFRAC
 70
     0
  9
$DIMLDRBLK
  1

  9
$DIMLUNIT
 70
     2
  9
$DIMLWD
 70
    -2
  9
$DIMLWE
 70
    -2
  9
$DIMTMOVE
 70
     0
  9
$LUNITS
 70
     2
  9
$LUPREC
 70
     2
  9
$SKETCHINC
 40
0.1
  9
$FILLETRAD
 40
0.0
  9
$AUNITS
 70
     0
  9
$AUPREC
 70
     2
  9
$MENU
  1
acad
  9
$ELEVATION
 40
0.0
  9
$PELEVATION
 40
0.0
  9
$THICKNESS
 40
0.0
  9
$LIMCHECK
 70
     0
  9
$CHAMFERA
 40
0.0
  9
$CHAMFERB
 40
0.0
  9
$CHAMFERC
 40
0.0
  9
$CHAMFERD
 40
0.0
  9
$SKPOLY
 70
     0
  9
$TDCREATE
 40
2444972.083333333
  9
$TDUCREATE
 40
2444972.000000000
  9
$TDUPDATE
 40
2453848.792184965
  9
$TDUUPDATE
 40
2453848.708851632
  9
$TDINDWG
 40
0.0004864699
  9
$TDUSRTIMER
 40
0.0004864699
  9
$USRTIMER
 70
     1
  9
$ANGBASE
 50
0.0
  9
$ANGDIR
 70
     0
  9
$PDMODE
 70
     0
  9
$PDSIZE
 40
-1.0
  9
$PLINEWID
 40
0.0
  9
$SPLFRAME
 70
     0
  9
$SPLINETYPE
 70
     6
  9
$SPLINESEGS
 70
     8
  9
$HANDSEED
  5
15B
  9
$SURFTAB1
 70
     6
  9
$SURFTAB2
 70
     6
  9
$SURFTYPE
 70
     6
  9
$SURFU
 70
     6
  9
$SURFV
 70
     6
  9
$UCSBASE
  2

  9
$UCSNAME
  2

  9
$UCSORG
 10
0.0
 20
0.0
 30
0.0
  9
$UCSXDIR
 10
1.0
 20
0.0
 30
0.0
  9
$UCSYDIR
 10
0.0
 20
1.0
 30
0.0
  9
$UCSORTHOREF
  2

  9
$UCSORTHOVIEW
 70
     1
  9
$UCSORGTOP
 10
0.0
 20
0.0
 30
0.0
  9
$UCSORGBOTTOM
 10
0.0
 20
0.0
 30
0.0
  9
$UCSORGLEFT
 10
0.0
 20
0.0
 30
0.0
  9
$UCSORGRIGHT
 10
0.0
 20
0.0
 30
0.0
  9
$UCSORGFRONT
 10
0.0
 20
0.0
 30
0.0
  9
$UCSORGBACK
 10
0.0
 20
0.0
 30
0.0
  9
$PUCSBASE
  2

  9
$PUCSNAME
  2

  9
$PUCSORG
 10
0.0
 20
0.0
 30
0.0
  9
$PUCSXDIR
 10
1.0
 20
0.0
 30
0.0
  9
$PUCSYDIR
 10
0.0
 20
1.0
 30
0.0
  9
$PUCSORTHOREF
  2

  9
$PUCSORTHOVIEW
 70
     0
  9
$PUCSORGTOP
 10
0.0
 20
0.0
 30
0.0
  9
$PUCSORGBOTTOM
 10
0.0
 20
0.0
 30
0.0
  9
$PUCSORGLEFT
 10
0.0
 20
0.0
 30
0.0
  9
$PUCSORGRIGHT
 10
0.0
 20
0.0
 30
0.0
  9
$PUCSORGFRONT
 10
0.0
 20
0.0
 30
0.0
  9
$PUCSORGBACK
 10
0.0
 20
0.0
 30
0.0
  9
$USERI1
 70
     0
  9
$USERI2
 70
     0
  9
$USERI3
 70
     0
  9
$USERI4
 70
     0
  9
$USERI5
 70
     0
  9
$USERR1
 40
0.0
  9
$USERR2
 40
0.0
  9
$USERR3
 40
0.0
  9
$USERR4
 40
0.0
  9
$USERR5
 40
0.0
  9
$WORLDVIEW
 70
     1
  9
$SHADEDGE
 70
     3
  9
$SHADEDIF
 70
    70
  9
$TILEMODE
 70
     1
  9
$MAXACTVP
 70
    16
  9
$PINSBASE
 10
0.0
 20
0.0
 30
0.0
  9
$PLIMCHECK
 70
     0
  9
$PEXTMIN
 10
1.000000000000000E+20
 20
1.000000000000000E+20
 30
1.000000000000000E+20
  9
$PEXTMAX
 10
-1.000000000000000E+20
 20
-1.000000000000000E+20
 30
-1.000000000000000E+20
  9
$PLIMMIN
 10
0.0
 20
0.0
  9
$PLIMMAX
 10
12.0
 20
9.0
  9
$UNITMODE
 70
     0
  9
$VISRETAIN
 70
     0
  9
$PLINEGEN
 70
     1
  9
$PSLTSCALE
 70
     1
  9
$TREEDEPTH
 70
  3020
  9
$CMLSTYLE
  2
STANDARD
  9
$CMLJUST
 70
     0
  9
$CMLSCALE
 40
1.0
  9
$PROXYGRAPHICS
 70
     0
  9
$MEASUREMENT
 70
     0
  9
$CELWEIGHT
370
    -1
  9
$ENDCAPS
280
     0
  9
$JOINSTYLE
280
     0
  9
$LWDISPLAY
290
     0
  9
$INSUNITS
 70
     0
  9
$HYPERLINKBASE
  1

  9
$STYLESHEET
  1

  9
$XEDIT
290
     1
  9
$CEPSNTYPE
380
     0
  9
$PSTYLEMODE
290
     1
  9
$FINGERPRINTGUID
  2
{24D6EA7E-0112-4625-9487-9122F1D37130}
  9
$VERSIONGUID
  2
{6E73294E-C126-4CE3-A6BD-27DD39151B94}
  9
$EXTNAMES
290
     1
  9
$PSVPSCALE
 40
0.0
  9
$OLESTARTUP
290
     0
  0
ENDSEC
  0
SECTION
  2
CLASSES
  0
CLASS
  1
IMAGE
  2
AcDbRasterImage
  3
ISM
 90
    32895
280
     0
281
     1
  0
CLASS
  1
DICTIONARYVAR
  2
AcDbDictionaryVar
  3
ObjectDBX Classes
 90
        0
280
     0
281
     0
  0
CLASS
  1
RASTERVARIABLES
  2
AcDbRasterVariables
  3
ISM
 90
    32768
280
     0
281
     0
  0
CLASS
  1
IMAGEDEF
  2
AcDbRasterImageDef
  3
ISM
 90
    32768
280
     0
281
     0
  0
CLASS
  1
IMAGEDEF_REACTOR
  2
AcDbRasterImageDefReactor
  3
ISM
 90
    32769
280
     0
281
     0
  0
CLASS
  1
IDBUFFER
  2
AcDbIdBuffer
  3
ObjectDBX Classes
 90
    32768
280
     0
281
     0
  0
CLASS
  1
SPATIAL_FILTER
  2
AcDbSpatialFilter
  3
ObjectDBX Classes
 90
    32768
280
     0
281
     0
  0
CLASS
  1
SORTENTSTABLE
  2
AcDbSortentsTable
  3
ObjectDBX Classes
 90
    32768
280
     0
281
     0
  0
CLASS
  1
LAYER_INDEX
  2
AcDbLayerIndex
  3
ObjectDBX Classes
 90
    32768
280
     0
281
     0
  0
CLASS
  1
SPATIAL_INDEX
  2
AcDbSpatialIndex
  3
ObjectDBX Classes
 90
    32768
280
     0
281
     0
  0
CLASS
  1
OBJECT_PTR
  2
CAseDLPNTableRecord
  3
ASE-LPNTableRecord
 90
    32769
280
     0
281
     0
  0
CLASS
  1
LAYOUT
  2
AcDbLayout
  3
ObjectDBX Classes
 90
        0
280
     0
281
     0
  0
CLASS
  1
PLOTSETTINGS
  2
AcDbPlotSettings
  3
ObjectDBX Classes
 90
    32768
280
     0
281
     0
  0
CLASS
  1
ACDBDICTIONARYWDFLT
  2
AcDbDictionaryWithDefault
  3
ObjectDBX Classes
 90
        0
280
     0
281
     0
  0
CLASS
  1
ACDBPLACEHOLDER
  2
AcDbPlaceHolder
  3
ObjectDBX Classes
 90
        0
280
     0
281
     0
  0
CLASS
  1
VBA_PROJECT
  2
AcDbVbaProject
  3
acad
 90
    32768
280
     0
281
     0
  0
CLASS
  1
WIPEOUT
  2
AcDbWipeout
  3
"WipeOut|Product Desc: Object Enabler for WipeOut entity^I^I^I^I^I^I|Company: Autodesk, Inc.^I^I^I^I^I^I|WEB Address: www.autodesk.com"
 90
    32895
280
     0
281
     1
  0
CLASS
  1
WIPEOUTVARIABLES
  2
AcDbWipeoutVariables
  3
"WipeOut|Product Desc:     WipeOut Dbx Application|Company:          Autodesk, Inc.|WEB Address:      www.autodesk.com"
 90
    32768
280
     0
281
     0
  0
CLASS
  1
RTEXT
  2
RText
  3
RText|AutoCAD Express Tool|expresstools@autodesk.com
 90
    32768
280
     0
281
     1
  0
CLASS
  1
ARCALIGNEDTEXT
  2
AcDbArcAlignedText
  3
ATEXT|AutoCAD Express Tool|expresstools@autodesk.com
 90
    32768
280
     0
281
     1
  0
ENDSEC
  0
SECTION
  2
TABLES
  0
TABLE
  2
VPORT
  5
7
330
0
100
AcDbSymbolTable
 70
     3
  0
VPORT
  5
155
330
7
100
AcDbSymbolTableRecord
100
AcDbViewportTableRecord
  2
*Active
 70
     0
 10
0.0
 20
0.0
 11
1.0
 21
1.0
 12
169.9853931559397
 22
52.22823689023477
 13
0.0
 23
0.0
 14
1.0
 24
1.0
 15
0.0
 25
0.0
 16
0.0
 26
0.0
 36
1.0
 17
0.0
 27
0.0
 37
0.0
 40
502.7699213619077
 41
1.569570871261378
 42
50.0
 43
0.0
 44
0.0
 50
0.0
 51
0.0
 71
     0
 72
  2000
 73
     1
 74
     1
 75
     0
 76
     0
 77
     0
 78
     0
281
     0
 65
     1
110
0.0
120
0.0
130
0.0
111
1.0
121
0.0
131
0.0
112
0.0
122
1.0
132
0.0
 79
     1
146
0.0
  0
ENDTAB
  0
TABLE
  2
LTYPE
  5
4
330
0
100
AcDbSymbolTable
 70
     6
  0
LTYPE
  5
11
330
4
100
AcDbSymbolTableRecord
100
AcDbLinetypeTableRecord
  2
BYBLOCK
 70
     0
  3

 72
    65
 73
     0
 40
0.0
  0
LTYPE
  5
12
330
4
100
AcDbSymbolTableRecord
100
AcDbLinetypeTableRecord
  2
BYLAYER
 70
     0
  3

 72
    65
 73
     0
 40
0.0
  0
LTYPE
  5
13
330
4
100
AcDbSymbolTableRecord
100
AcDbLinetypeTableRecord
  2
CONTINUOUS
 70
     0
  3
Solid line
 72
    65
 73
     0
 40
0.0
  0
LTYPE
  5
1E
330
4
100
AcDbSymbolTableRecord
100
AcDbLinetypeTableRecord
  2
HIDDEN
 70
     0
  3
Hidden __ __ __ __ __ __ __ __ __ __ __ __ __ __
 72
    65
 73
     2
 40
1.905
 49
1.27
 74
     0
 49
-0.635
 74
     0
  0
LTYPE
  5
1F
330
4
100
AcDbSymbolTableRecord
100
AcDbLinetypeTableRecord
  2
PHANTOM
 70
     0
  3
Phantom ______  __  __  ______  __  __  ______
 72
    65
 73
     6
 40
12.7
 49
6.349999999999999
 74
     0
 49
-1.27
 74
     0
 49
1.27
 74
     0
 49
-1.27
 74
     0
 49
1.27
 74
     0
 49
-1.27
 74
     0
  0
LTYPE
  5
20
330
4
100
AcDbSymbolTableRecord
100
AcDbLinetypeTableRecord
  2
CENTER
 70
     0
  3
Center ____ _ ____ _ ____ _ ____ _ ____ _ ____
 72
    65
 73
     4
 40
10.16
 49
6.349999999999999
 74
     0
 49
-1.27
 74
     0
 49
1.27
 74
     0
 49
-1.27
 74
     0
  0
LTYPE
  5
21
330
4
100
AcDbSymbolTableRecord
100
AcDbLinetypeTableRecord
  2
CENTERX2
 70
     0
  3
Center (2x) ________  __  ________  __  _____
 72
    65
 73
     4
 40
20.32
 49
12.7
 74
     0
 49
-2.54
 74
     0
 49
2.54
 74
     0
 49
-2.54
 74
     0
  0
LTYPE
  5
22
330
4
100
AcDbSymbolTableRecord
100
AcDbLinetypeTableRecord
  2
DOT2
 70
     0
  3
Dot (.5x) ........................................
 72
    65
 73
     2
 40
0.635
 49
0.0
 74
     0
 49
-0.635
 74
     0
  0
ENDTAB
  0
TABLE
  2
LAYER
  5
2
330
0
100
AcDbSymbolTable
 70
     2
  0
LAYER
  5
14
330
2
100
AcDbSymbolTableRecord
100
AcDbLayerTableRecord
  2
0
 70
     0
 62
     7
  6
CONTINUOUS
370
    -3
390
13C
  0
LAYER
  5
26
330
2
100
AcDbSymbolTableRecord
100
AcDbLayerTableRecord
  2
DEFPOINTS
 70
     0
 62
     7
  6
CONTINUOUS
290
     0
370
    -3
390
13C
  0
ENDTAB
  0
TABLE
  2
STYLE
  5
3
330
0
100
AcDbSymbolTable
 70
     1
  0
STYLE
  5
17
330
3
100
AcDbSymbolTableRecord
100
AcDbTextStyleTableRecord
  2
STANDARD
 70
     0
 40
0.0
 41
1.0
 50
0.0
 71
     0
 42
0.0
  3
Century Gothic
  4

  0
ENDTAB
  0
TABLE
  2
VIEW
  5
5
330
0
100
AcDbSymbolTable
 70
     0
  0
ENDTAB
  0
TABLE
  2
UCS
  5
6
330
0
100
AcDbSymbolTable
 70
     0
  0
ENDTAB
  0
TABLE
  2
APPID
  5
8
330
0
100
AcDbSymbolTable
 70
     2
  0
APPID
  5
16
330
8
100
AcDbSymbolTableRecord
100
AcDbRegAppTableRecord
  2
ACAD
 70
     0
  0
APPID
  5
147
330
8
100
AcDbSymbolTableRecord
100
AcDbRegAppTableRecord
  2
DCO15
 70
     0
  0
ENDTAB
  0
TABLE
  2
DIMSTYLE
  5
9
330
0
100
AcDbSymbolTable
 70
     1
100
AcDbDimStyleTable
 71
     0
  0
DIMSTYLE
105
18
330
9
100
AcDbSymbolTableRecord
100
AcDbDimStyleTableRecord
  2
STANDARD
 70
     0
289
     0
340
17
  0
ENDTAB
  0
TABLE
  2
BLOCK_RECORD
  5
1
330
0
100
AcDbSymbolTable
 70
     1
  0
BLOCK_RECORD
  5
A
330
1
100
AcDbSymbolTableRecord
100
AcDbBlockTableRecord
  2
*MODEL_SPACE
340
141
  0
BLOCK_RECORD
  5
B
330
1
100
AcDbSymbolTableRecord
100
AcDbBlockTableRecord
  2
*PAPER_SPACE
340
142
  0
BLOCK_RECORD
  5
2F
330
1
100
AcDbSymbolTableRecord
100
AcDbBlockTableRecord
  2
SW_CENTERMARK0
340
0
  0
ENDTAB
  0
ENDSEC
  0
SECTION
  2
BLOCKS
  0
BLOCK
  5
D
330
A
100
AcDbEntity
  8
0
100
AcDbBlockBegin
  2
*MODEL_SPACE
 70
     0
 10
0.0
 20
0.0
 30
0.0
  3
*MODEL_SPACE
  1

  0
ENDBLK
  5
E
330
A
100
AcDbEntity
  8
0
100
AcDbBlockEnd
  0
BLOCK
  5
F
330
B
100
AcDbEntity
 67
     1
  8
0
100
AcDbBlockBegin
  2
*PAPER_SPACE
 70
     0
 10
0.0
 20
0.0
 30
0.0
  3
*PAPER_SPACE
  1

  0
ENDBLK
  5
10
330
B
100
AcDbEntity
 67
     1
  8
0
100
AcDbBlockEnd
  0
BLOCK
  5
30
330
2F
100
AcDbEntity
  8
0
 62
     0
100
AcDbBlockBegin
  2
SW_CENTERMARK0
 70
     0
 10
0.0
 20
0.0
 30
0.0
  3
SW_CENTERMARK0
  1

  0
LINE
  5
31
330
2F
100
AcDbEntity
  8
0
  6
Continuous
 62
     7
100
AcDbLine
 10
69.84999999999999
 20
161.925
 30
0.0
 11
69.84999999999999
 21
164.4249999999999
 31
0.0
  0
LINE
  5
32
330
2F
100
AcDbEntity
  8
0
  6
Continuous
 62
     7
100
AcDbLine
 10
69.84999999999999
 20
161.925
 30
0.0
 11
67.35000000000001
 21
161.925
 31
0.0
  0
LINE
  5
33
330
2F
100
AcDbEntity
  8
0
  6
Continuous
 62
     7
100
AcDbLine
 10
69.84999999999999
 20
161.925
 30
0.0
 11
69.84999999999999
 21
159.425
 31
0.0
  0
LINE
  5
34
330
2F
100
AcDbEntity
  8
0
  6
Continuous
 62
     7
100
AcDbLine
 10
69.84999999999999
 20
161.925
 30
0.0
 11
72.34999999999999
 21
161.925
 31
0.0
  0
LINE
  5
35
330
2F
100
AcDbEntity
  8
0
  6
Continuous
 62
     7
100
AcDbLine
 10
69.84999999999999
 20
166.925
 30
0.0
 11
69.84999999999999
 21
249.2745596825791
 31
0.0
  0
LINE
  5
36
330
2F
100
AcDbEntity
  8
0
  6
Continuous
 62
     7
100
AcDbLine
 10
64.85000000000001
 20
161.925
 30
0.0
 11
-17.4995596825791
 21
161.925
 31
0.0
  0
LINE
  5
37
330
2F
100
AcDbEntity
  8
0
  6
Continuous
 62
     7
100
AcDbLine
 10
69.84999999999999
 20
156.925
 30
0.0
 11
69.84999999999999
 21
74.57544031742088
 31
0.0
  0
LINE
  5
38
330
2F
100
AcDbEntity
  8
0
  6
Continuous
 62
     7
100
AcDbLine
 10
74.84999999999999
 20
161.925
 30
0.0
 11
157.1995596825791
 21
161.925
 31
0.0
  0
ENDBLK
  5
3A
330
2F
100
AcDbEntity
  8
0
100
AcDbBlockEnd
  0
ENDSEC
  0
SECTION
  2
ENTITIES
  0
CIRCLE
  5
27
330
A
100
AcDbEntity
  8
0
  6
Continuous
 62
     7
100
AcDbCircle
 10
69.84999999999999
 20
161.925
 30
0.0
 40
75.84955968257911
  0
CIRCLE
  5
28
330
A
100
AcDbEntity
  8
0
  6
Continuous
 62
     7
100
AcDbCircle
 10
69.84999999999999
 20
161.925
 30
0.0
 40
84.8495596825791
  0
CIRCLE
  5
29
330
A
100
AcDbEntity
  8
0
  6
Continuous
 62
     7
100
AcDbCircle
 10
69.84999999999999
 20
161.925
 30
0.0
 40
95.0
  0
CIRCLE
  5
2A
330
A
100
AcDbEntity
  8
0
  6
Continuous
 62
     7
100
AcDbCircle
 10
69.85000000000001
 20
161.925
 30
0.0
 40
75.34955968257911
  0
CIRCLE
  5
2B
330
A
100
AcDbEntity
  8
0
  6
PHANTOM
 62
     7
100
AcDbCircle
 10
69.84999999999999
 20
161.925
 30
0.0
 40
76.67153550029266
  0
CIRCLE
  5
2C
330
A
100
AcDbEntity
  8
0
  6
PHANTOM
 62
     7
100
AcDbCircle
 10
69.84999999999999
 20
161.925
 30
0.0
 40
84.73559421301386
  0
CIRCLE
  5
2D
330
A
100
AcDbEntity
  8
0
  6
PHANTOM
 62
     7
100
AcDbCircle
 10
69.84999999999999
 20
161.925
 30
0.0
 40
88.26952110967514
  0
CIRCLE
  5
2E
330
A
100
AcDbEntity
  8
0
  6
PHANTOM
 62
     7
100
AcDbCircle
 10
69.85000000000001
 20
161.925
 30
0.0
 40
75.16109402256049
  0
LWPOLYLINE
  5
3C
330
A
100
AcDbEntity
  8
0
  6
Continuous
 62
     7
100
AcDbPolyline
 90
        7
 70
   128
 43
0.0
 10
-25.15000000000001
 20
3.591127489570567
 10
-24.96085479964138
 20
-0.0985673257723856
 10
-24.39417237555117
 20
-3.773569760797228
 10
-23.4522092595324
 20
-7.419245940306254
 10
-22.13871635268633
 20
-11.02107876637491
 10
-20.45892398930843
 20
-14.564725725497
 10
-18.41952110967518
 20
-18.0360760005339
  0
LWPOLYLINE
  5
45
330
A
100
AcDbEntity
  8
0
  6
Continuous
 62
     7
100
AcDbPolyline
 90
        7
 70
   128
 43
0.0
 10
158.1195211096751
 20
-18.03607600053393
 10
160.1589239893085
 20
-14.56472572549687
 10
161.8387163526864
 20
-11.02107876637463
 10
163.1522092595325
 20
-7.419245940305824
 10
164.0941723755513
 20
-3.773569760796638
 10
164.6608547996414
 20
-0.0985673257716362
 10
164.85
 20
3.591127489571473
  0
LWPOLYLINE
  5
4E
330
A
100
AcDbEntity
  8
0
  6
Continuous
 62
     7
100
AcDbPolyline
 90
       11
 70
   128
 43
0.0
 10
-7.649999999999962
 20
23.09112748957054
 10
-10.59033355053275
 20
21.52860924575383
 10
-13.28085207629892
 20
19.91038446453998
 10
-15.71319991885597
 20
18.24147869525173
 10
-17.87982319311034
 20
16.52707488178907
 10
-19.7739932466183
 20
14.77249726650924
 10
-21.38982755604931
 20
12.98319485529111
 10
-22.72230799591565
 20
11.16472449513474
 10
-23.76729642283336
 20
9.322733616850126
 10
-24.52154752691585
 20
7.462942696429442
 10
-24.98271891038917
 20
5.59112748957059
  0
LWPOLYLINE
  5
5B
330
A
100
AcDbEntity
  8
0
  6
Continuous
 62
     7
100
AcDbPolyline
 90
       11
 70
   128
 43
0.0
 10
164.6827189103891
 20
5.591127489570614
 10
164.2215475269158
 20
7.462942696429462
 10
163.4672964228333
 20
9.322733616850147
 10
162.4223079959157
 20
11.16472449513476
 10
161.0898275560493
 20
12.98319485529114
 10
159.4739932466183
 20
14.77249726650926
 10
157.5798231931103
 20
16.5270748817891
 10
155.413199918856
 20
18.24147869525176
 10
152.9808520762989
 20
19.91038446454
 10
150.2903335505327
 20
21.52860924575386
 10
147.35
 20
23.09112748957056
  0
LINE
  5
68
330
A
100
AcDbEntity
  8
0
  6
Continuous
 62
     7
100
AcDbLine
 10
-20.15
 20
5.591127489570552
 30
0.0
 11
-20.15
 21
3.59112748957055
 31
0.0
  0
LINE
  5
69
330
A
100
AcDbEntity
  8
0
  6
Continuous
 62
     7
100
AcDbLine
 10
159.85
 20
3.59112748957057
 30
0.0
 11
159.85
 21
5.591127489570572
 31
0.0
  0
ARC
  5
6A
330
A
100
AcDbEntity
  8
0
  6
Continuous
 62
     7
100
AcDbCircle
 10
-17.99955968257911
 20
-17.76472309424499
 30
0.0
 40
0.5000000000000048
100
AcDbArc
 50
212.8680258887331
 51
270.0000000000008
  0
ARC
  5
6B
330
A
100
AcDbEntity
  8
0
  6
Continuous
 62
     7
100
AcDbCircle
 10
157.6995596825791
 20
-17.76472309424496
 30
0.0
 40
0.5000000000000107
100
AcDbArc
 50
270.0000000000008
 51
327.1319741112689
  0
LINE
  5
6C
330
A
100
AcDbEntity
  8
0
  6
Continuous
 62
     7
100
AcDbLine
 10
-17.99955968257911
 20
-18.26472309424499
 30
0.0
 11
157.6995596825791
 21
-18.26472309424497
 31
0.0
  0
LINE
  5
6D
330
A
100
AcDbEntity
  8
0
  6
Continuous
 62
     7
100
AcDbLine
 10
-14.99955968257911
 20
-18.26472309424491
 30
0.0
 11
-14.9995596825791
 21
-22.5405268516503
 31
0.0
  0
LINE
  5
6E
330
A
100
AcDbEntity
  8
0
  6
Continuous
 62
     7
100
AcDbLine
 10
154.6995596825791
 20
-22.54052685165028
 30
0.0
 11
154.6995596825791
 21
-18.2647230942449
 31
0.0
  0
ARC
  5
6F
330
A
100
AcDbEntity
  8
0
  6
Continuous
 62
     7
100
AcDbCircle
 10
-14.4995596825791
 20
-22.5405268516503
 30
0.0
 40
0.5000000000000015
100
AcDbArc
 50
180.0000000000004
 51
219.4599459813459
  0
ARC
  5
70
330
A
100
AcDbEntity
  8
0
  6
Continuous
 62
     7
100
AcDbCircle
 10
154.1995596825791
 20
-22.54052685165028
 30
0.0
 40
0.5000000000000001
100
AcDbArc
 50
320.5400540186556
 51
0.0
  0
LWPOLYLINE
  5
71
330
A
100
AcDbEntity
  8
0
  6
Continuous
 62
     7
100
AcDbPolyline
 90
        4
 70
   128
 43
0.0
 10
-14.88559421301384
 20
-22.85829617256095
 10
-12.43624748152147
 20
-25.64411236651396
 10
-9.745597816780096
 20
-28.34419674807517
 10
-6.821535500292657
 20
-30.95063136860515
  0
LWPOLYLINE
  5
77
330
A
100
AcDbEntity
  8
0
  6
Continuous
 62
     7
100
AcDbPolyline
 90
        4
 70
   128
 43
0.0
 10
146.5215355002927
 20
-30.95063136860511
 10
149.4455978167801
 20
-28.34419674807515
 10
152.1362474815214
 20
-25.64411236651396
 10
154.5855942130138
 20
-22.85829617256097
  0
ARC
  5
7D
330
A
100
AcDbEntity
  8
0
  6
Continuous
 62
     7
100
AcDbCircle
 10
-6.499559682579119
 20
-30.56809826832794
 30
0.0
 40
0.5000000000000071
100
AcDbArc
 50
229.9128818683276
 51
270.0000000000008
  0
ARC
  5
7E
330
A
100
AcDbEntity
  8
0
  6
Continuous
 62
     7
100
AcDbCircle
 10
146.1995596825791
 20
-30.56809826832792
 30
0.0
 40
0.5000000000000107
100
AcDbArc
 50
270.0000000000008
 51
310.0871181316734
  0
LINE
  5
7F
330
A
100
AcDbEntity
  8
0
  6
Continuous
 62
     7
100
AcDbLine
 10
-6.499559682579119
 20
-31.06809826832794
 30
0.0
 11
146.1995596825791
 21
-31.06809826832793
 31
0.0
  0
LINE
  5
80
330
A
100
AcDbEntity
  8
0
  6
Continuous
 62
     7
100
AcDbLine
 10
-2.649999999999999
 20
25.09112748957055
 30
0.0
 11
-2.649999999999999
 21
23.09112748957054
 31
0.0
  0
LINE
  5
81
330
A
100
AcDbEntity
  8
0
  6
Continuous
 62
     7
100
AcDbLine
 10
142.3499999999999
 20
23.09112748957056
 30
0.0
 11
142.3499999999999
 21
25.09112748957056
 31
0.0
  0
LINE
  5
82
330
A
100
AcDbEntity
  8
0
  6
Continuous
 62
     7
100
AcDbLine
 10
-5.499559682579105
 20
-31.06809826832791
 30
0.0
 11
-5.499559682579105
 21
-31.79621693944135
 31
0.0
  0
LINE
  5
83
330
A
100
AcDbEntity
  8
0
  6
Continuous
 62
     7
100
AcDbLine
 10
145.1995596825791
 20
-31.79621693944133
 30
0.0
 11
145.1995596825791
 21
-31.06809826832789
 31
0.0
  0
ARC
  5
84
330
A
100
AcDbEntity
  8
0
  6
Continuous
 62
     7
100
AcDbCircle
 10
-4.999559682579104
 20
-31.79621693944135
 30
0.0
 40
0.5000000000000009
100
AcDbArc
 50
180.0000000000004
 51
231.4594263238601
  0
ARC
  5
85
330
A
100
AcDbEntity
  8
0
  6
Continuous
 62
     7
100
AcDbCircle
 10
144.6995596825791
 20
-31.79621693944133
 30
0.0
 40
0.5
100
AcDbArc
 50
308.5405736761394
 51
0.0
  0
LWPOLYLINE
  5
86
330
A
100
AcDbEntity
  8
0
  6
Continuous
 62
     7
100
AcDbPolyline
 90
       17
 70
   128
 43
0.0
 10
-5.311094022560455
 20
-32.18730050469611
 10
-1.876224820710703
 20
-34.7679042777179
 10
1.791987034289455
 20
-37.22371689844869
 10
5.681607967395418
 20
-39.54674901802768
 10
9.779984106602212
 20
-41.72944325448627
 10
14.07378244903229
 20
-43.76469877872845
 10
18.54903423639927
 20
-45.6458944152351
 10
23.1911803987369
 20
-47.36691018233957
 10
27.9851189185538
 20
-48.92214720199953
 10
32.91525396132712
 20
-50.30654591429318
 10
37.96554661250161
 20
-51.51560253738405
 10
43.1195670559346
 20
-52.54538371940611
 10
48.36054802403785
 20
-53.39253933460305
 10
53.6714393457301
 20
-54.05431338209268
 10
59.03496341474255
 20
-54.5285529518004
 10
64.43367139782593
 20
-54.81371522839334
 10
69.84999999999981
 20
-54.90887251042946
  0
LWPOLYLINE
  5
99
330
A
100
AcDbEntity
  8
0
  6
Continuous
 62
     7
100
AcDbPolyline
 90
       17
 70
   128
 43
0.0
 10
69.85000000000005
 20
-54.90887251042946
 10
75.26632860217393
 20
-54.81371522839335
 10
80.6650365852573
 20
-54.52855295180042
 10
86.02856065426976
 20
-54.05431338209268
 10
91.33945197596203
 20
-53.39253933460307
 10
96.58043294406528
 20
-52.54538371940615
 10
101.7344533874982
 20
-51.51560253738407
 10
106.7847460386727
 20
-50.3065459142932
 10
111.714881081446
 20
-48.92214720199957
 10
116.508819601263
 20
-47.36691018233963
 10
121.1509657636006
 20
-45.64589441523515
 10
125.6262175509675
 20
-43.76469877872851
 10
129.9200158933977
 20
-41.72944325448632
 10
134.0183920326044
 20
-39.54674901802774
 10
137.9080129657104
 20
-37.22371689844875
 10
141.5762248207106
 20
-34.76790427771796
 10
145.0110940225603
 20
-32.18730050469619
  0
LINE
  5
AC
330
A
100
AcDbEntity
  8
0
  6
Continuous
 62
     7
100
AcDbLine
 10
-25.15000000000001
 20
3.591127489570574
 30
0.0
 11
164.85
 21
3.591127489570598
 31
0.0
  0
LINE
  5
AD
330
A
100
AcDbEntity
  8
0
  6
Continuous
 62
     7
100
AcDbLine
 10
-7.650000000000003
 20
23.09112748957054
 30
0.0
 11
147.35
 21
23.09112748957056
 31
0.0
  0
LINE
  5
AE
330
A
100
AcDbEntity
  8
0
  6
Continuous
 62
     7
100
AcDbLine
 10
-24.98271891038917
 20
5.591127489570594
 30
0.0
 11
164.6827189103891
 21
5.591127489570614
 31
0.0
  0
LINE
  5
AF
330
A
100
AcDbEntity
  8
0
  6
Continuous
 62
     7
100
AcDbLine
 10
-2.649999999999999
 20
25.09112748957055
 30
0.0
 11
142.3499999999999
 21
25.09112748957056
 31
0.0
  0
LINE
  5
B0
330
A
100
AcDbEntity
  8
0
  6
PHANTOM
 62
     7
100
AcDbLine
 10
-18.41952110967515
 20
-18.03607600053396
 30
0.0
 11
158.1195211096751
 21
-18.03607600053393
 31
0.0
  0
LINE
  5
B1
330
A
100
AcDbEntity
  8
0
  6
PHANTOM
 62
     7
100
AcDbLine
 10
-14.9995596825791
 20
-22.5405268516503
 30
0.0
 11
154.6995596825791
 21
-22.54052685165028
 31
0.0
  0
LINE
  5
B2
330
A
100
AcDbEntity
  8
0
  6
PHANTOM
 62
     7
100
AcDbLine
 10
-14.88559421301386
 20
-22.85829617256095
 30
0.0
 11
154.5855942130138
 21
-22.85829617256094
 31
0.0
  0
LINE
  5
B3
330
A
100
AcDbEntity
  8
0
  6
PHANTOM
 62
     7
100
AcDbLine
 10
-6.821535500292672
 20
-30.95063136860514
 30
0.0
 11
146.5215355002927
 21
-30.95063136860512
 31
0.0
  0
LINE
  5
B4
330
A
100
AcDbEntity
  8
0
  6
PHANTOM
 62
     7
100
AcDbLine
 10
-5.499559682579105
 20
-31.79621693944135
 30
0.0
 11
145.1995596825792
 21
-31.79621693944133
 31
0.0
  0
LINE
  5
B5
330
A
100
AcDbEntity
  8
0
  6
PHANTOM
 62
     7
100
AcDbLine
 10
-5.311094022560483
 20
-32.1873005046961
 30
0.0
 11
145.0110940225605
 21
-32.18730050469608
 31
0.0
  0
LWPOLYLINE
  5
B6
330
A
100
AcDbEntity
  8
0
  6
Continuous
 62
     7
100
AcDbPolyline
 90
        7
 70
   128
 43
0.0
 10
224.8876917595092
 20
66.92499999999997
 10
228.5773865748522
 20
67.11414520035859
 10
232.252389009877
 20
67.68082762444881
 10
235.898065189386
 20
68.62279074046758
 10
239.4998980154547
 20
69.93628364731364
 10
243.0435449745767
 20
71.61607601069154
 10
246.5148952496137
 20
73.65547889032479
  0
LWPOLYLINE
  5
BF
330
A
100
AcDbEntity
  8
0
  6
Continuous
 62
     7
100
AcDbPolyline
 90
        7
 70
   128
 43
0.0
 10
246.5148952496137
 20
250.1945211096752
 10
243.0435449745768
 20
252.2339239893084
 10
239.4998980154547
 20
253.9137163526863
 10
235.898065189386
 20
255.2272092595323
 10
232.2523890098771
 20
256.1691723755512
 10
228.5773865748522
 20
256.7358547996414
 10
224.8876917595092
 20
256.925
  0
LWPOLYLINE
  5
C8
330
A
100
AcDbEntity
  8
0
  6
Continuous
 62
     7
100
AcDbPolyline
 90
       11
 70
   128
 43
0.0
 10
205.3876917595092
 20
84.425
 10
206.9502100033259
 20
81.48466644946724
 10
208.5684347845397
 20
78.79414792370107
 10
210.237340553828
 20
76.36180008114401
 10
211.9517443672907
 20
74.19517680688963
 10
213.7063219825705
 20
72.30100675338167
 10
215.4956243937886
 20
70.68517244395067
 10
217.314094753945
 20
69.35269200408431
 10
219.1560856322297
 20
68.30770357716662
 10
221.0158765526503
 20
67.55345247308412
 10
222.8876917595091
 20
67.09228108961081
  0
LWPOLYLINE
  5
D5
330
A
100
AcDbEntity
  8
0
  6
Continuous
 62
     7
100
AcDbPolyline
 90
       11
 70
   128
 43
0.0
 10
222.8876917595091
 20
256.7577189103892
 10
221.0158765526503
 20
256.2965475269158
 10
219.1560856322297
 20
255.5422964228333
 10
217.314094753945
 20
254.4973079959156
 10
215.4956243937886
 20
253.1648275560493
 10
213.7063219825705
 20
251.5489932466183
 10
211.9517443672907
 20
249.6548231931103
 10
210.237340553828
 20
247.488199918856
 10
208.5684347845397
 20
245.0558520762989
 10
206.9502100033259
 20
242.3653335505327
 10
205.3876917595092
 20
239.4249999999999
  0
LINE
  5
E2
330
A
100
AcDbEntity
  8
0
  6
Continuous
 62
     7
100
AcDbLine
 10
222.8876917595092
 20
71.92499999999999
 30
0.0
 11
224.8876917595092
 21
71.92499999999999
 31
0.0
  0
LINE
  5
E3
330
A
100
AcDbEntity
  8
0
  6
Continuous
 62
     7
100
AcDbLine
 10
224.8876917595092
 20
251.9249999999999
 30
0.0
 11
222.8876917595092
 21
251.9249999999999
 31
0.0
  0
ARC
  5
E4
330
A
100
AcDbEntity
  8
0
  6
Continuous
 62
     7
100
AcDbCircle
 10
246.2435423433248
 20
74.07544031742087
 30
0.0
 40
0.5000000000000007
100
AcDbArc
 50
302.8680258887339
 51
0.0
  0
ARC
  5
E5
330
A
100
AcDbEntity
  8
0
  6
Continuous
 62
     7
100
AcDbCircle
 10
246.2435423433248
 20
249.7745596825791
 30
0.0
 40
0.5
100
AcDbArc
 50
0.0
 51
57.13197411126685
  0
LINE
  5
E6
330
A
100
AcDbEntity
  8
0
  6
Continuous
 62
     7
100
AcDbLine
 10
246.7435423433248
 20
74.07544031742087
 30
0.0
 11
246.7435423433248
 21
249.7745596825791
 31
0.0
  0
LINE
  5
E7
330
A
100
AcDbEntity
  8
0
  6
Continuous
 62
     7
100
AcDbLine
 10
246.7435423433247
 20
77.07544031742087
 30
0.0
 11
251.0193461007301
 21
77.07544031742087
 31
0.0
  0
LINE
  5
E8
330
A
100
AcDbEntity
  8
0
  6
Continuous
 62
     7
100
AcDbLine
 10
251.0193461007301
 20
246.7745596825791
 30
0.0
 11
246.7435423433247
 21
246.7745596825791
 31
0.0
  0
ARC
  5
E9
330
A
100
AcDbEntity
  8
0
  6
Continuous
 62
     7
100
AcDbCircle
 10
251.0193461007301
 20
77.57544031742089
 30
0.0
 40
0.5000000000000025
100
AcDbArc
 50
270.0000000000008
 51
309.4599459813463
  0
ARC
  5
EA
330
A
100
AcDbEntity
  8
0
  6
Continuous
 62
     7
100
AcDbCircle
 10
251.0193461007301
 20
246.2745596825791
 30
0.0
 40
0.5000000000000025
100
AcDbArc
 50
50.5400540186545
 51
90.0
  0
LWPOLYLINE
  5
EB
330
A
100
AcDbEntity
  8
0
  6
Continuous
 62
     7
100
AcDbPolyline
 90
        4
 70
   128
 43
0.0
 10
251.3371154216407
 20
77.18940578698613
 10
254.1229316155937
 20
79.63875251847849
 10
256.8230159971549
 20
82.32940218321985
 10
259.4294506176848
 20
85.25346449970728
  0
LWPOLYLINE
  5
F1
330
A
100
AcDbEntity
  8
0
  6
Continuous
 62
     7
100
AcDbPolyline
 90
        4
 70
   128
 43
0.0
 10
259.4294506176849
 20
238.5965355002927
 10
256.8230159971549
 20
241.5205978167801
 10
254.1229316155937
 20
244.2112474815214
 10
251.3371154216407
 20
246.6605942130138
  0
ARC
  5
F7
330
A
100
AcDbEntity
  8
0
  6
Continuous
 62
     7
100
AcDbCircle
 10
259.0469175174078
 20
85.57544031742088
 30
0.0
 40
0.5
100
AcDbArc
 50
319.9128818683208
 51
0.0
  0
ARC
  5
F8
330
A
100
AcDbEntity
  8
0
  6
Continuous
 62
     7
100
AcDbCircle
 10
259.0469175174078
 20
238.2745596825791
 30
0.0
 40
0.5
100
AcDbArc
 50
0.0
 51
40.08711813167998
  0
LINE
  5
F9
330
A
100
AcDbEntity
  8
0
  6
Continuous
 62
     7
100
AcDbLine
 10
259.5469175174077
 20
85.57544031742088
 30
0.0
 11
259.5469175174077
 21
238.2745596825791
 31
0.0
  0
LINE
  5
FA
330
A
100
AcDbEntity
  8
0
  6
Continuous
 62
     7
100
AcDbLine
 10
203.3876917595092
 20
89.425
 30
0.0
 11
205.3876917595092
 21
89.425
 31
0.0
  0
LINE
  5
FB
330
A
100
AcDbEntity
  8
0
  6
Continuous
 62
     7
100
AcDbLine
 10
205.3876917595092
 20
234.425
 30
0.0
 11
203.3876917595092
 21
234.425
 31
0.0
  0
LINE
  5
FC
330
A
100
AcDbEntity
  8
0
  6
Continuous
 62
     7
100
AcDbLine
 10
259.5469175174077
 20
86.57544031742089
 30
0.0
 11
260.2750361885211
 21
86.57544031742089
 31
0.0
  0
LINE
  5
FD
330
A
100
AcDbEntity
  8
0
  6
Continuous
 62
     7
100
AcDbLine
 10
260.2750361885211
 20
237.2745596825791
 30
0.0
 11
259.5469175174077
 21
237.2745596825791
 31
0.0
  0
ARC
  5
FE
330
A
100
AcDbEntity
  8
0
  6
Continuous
 62
     7
100
AcDbCircle
 10
260.2750361885211
 20
87.07544031742086
 30
0.0
 40
0.5
100
AcDbArc
 50
270.0000000000008
 51
321.4594263238593
  0
ARC
  5
FF
330
A
100
AcDbEntity
  8
0
  6
Continuous
 62
     7
100
AcDbCircle
 10
260.2750361885211
 20
236.7745596825791
 30
0.0
 40
0.5
100
AcDbArc
 50
38.54057367614155
 51
90.0
  0
LWPOLYLINE
  5
100
330
A
100
AcDbEntity
  8
0
  6
Continuous
 62
     7
100
AcDbPolyline
 90
       17
 70
   128
 43
0.0
 10
260.6661197537758
 20
86.76390597743949
 10
263.2467235267977
 20
90.19877517928927
 10
265.7025361475285
 20
93.86698703428946
 10
268.0255682671075
 20
97.75660796739545
 10
270.2082625035661
 20
101.8549841066023
 10
272.2435180278083
 20
106.1487824490324
 10
274.124713664315
 20
110.6240342363994
 10
275.8457294314194
 20
115.2661803987371
 10
277.4009664510793
 20
120.060118918554
 10
278.785365163373
 20
124.9902539613273
 10
279.9944217864639
 20
130.0405466125018
 10
281.0242029684859
 20
135.1945670559348
 10
281.8713585836828
 20
140.4355480240381
 10
282.5331326311724
 20
145.7464393457303
 10
283.0073722008802
 20
151.1099634147428
 10
283.2925344774732
 20
156.5086713978262
 10
283.3876917595092
 20
161.9250000000001
  0
LWPOLYLINE
  5
113
330
A
100
AcDbEntity
  8
0
  6
Continuous
 62
     7
100
AcDbPolyline
 90
       17
 70
   128
 43
0.0
 10
283.3876917595092
 20
161.925
 10
283.2925344774731
 20
167.3413286021739
 10
283.0073722008802
 20
172.7400365852573
 10
282.5331326311724
 20
178.1035606542697
 10
281.8713585836828
 20
183.414451975962
 10
281.0242029684859
 20
188.6554329440652
 10
279.9944217864638
 20
193.8094533874982
 10
278.785365163373
 20
198.8597460386727
 10
277.4009664510793
 20
203.7898810814461
 10
275.8457294314194
 20
208.583819601263
 10
274.1247136643149
 20
213.2259657636007
 10
272.2435180278082
 20
217.7012175509677
 10
270.208262503566
 20
221.9950158933978
 10
268.0255682671074
 20
226.0933920326047
 10
265.7025361475283
 20
229.9830129657106
 10
263.2467235267975
 20
233.6512248207109
 10
260.6661197537757
 20
237.0860940225606
  0
LINE
  5
126
330
A
100
AcDbEntity
  8
0
  6
Continuous
 62
     7
100
AcDbLine
 10
224.8876917595095
 20
161.925
 30
0.0
 11
224.8876917595092
 21
256.925
 31
0.0
  0
LINE
  5
127
330
A
100
AcDbEntity
  8
0
  6
Continuous
 62
     7
100
AcDbLine
 10
224.8876917595092
 20
66.92499999999999
 30
0.0
 11
224.8876917595095
 21
161.925
 31
0.0
  0
LINE
  5
128
330
A
100
AcDbEntity
  8
0
  6
Continuous
 62
     7
100
AcDbLine
 10
205.3876917595095
 20
161.925
 30
0.0
 11
205.3876917595092
 21
239.4250000000001
 31
0.0
  0
LINE
  5
129
330
A
100
AcDbEntity
  8
0
  6
Continuous
 62
     7
100
AcDbLine
 10
205.3876917595092
 20
84.42499999999979
 30
0.0
 11
205.3876917595095
 21
161.925
 31
0.0
  0
LINE
  5
12A
330
A
100
AcDbEntity
  8
0
  6
Continuous
 62
     7
100
AcDbLine
 10
222.8876917595095
 20
161.925
 30
0.0
 11
222.8876917595091
 21
256.7577189103892
 31
0.0
  0
LINE
  5
12B
330
A
100
AcDbEntity
  8
0
  6
Continuous
 62
     7
100
AcDbLine
 10
222.8876917595091
 20
67.09228108961082
 30
0.0
 11
222.8876917595095
 21
161.925
 31
0.0
  0
LINE
  5
12C
330
A
100
AcDbEntity
  8
0
  6
Continuous
 62
     7
100
AcDbLine
 10
203.3876917595095
 20
161.925
 30
0.0
 11
203.3876917595092
 21
234.425
 31
0.0
  0
LINE
  5
12D
330
A
100
AcDbEntity
  8
0
  6
Continuous
 62
     7
100
AcDbLine
 10
203.3876917595092
 20
89.425
 30
0.0
 11
203.3876917595095
 21
161.925
 31
0.0
  0
LINE
  5
12E
330
A
100
AcDbEntity
  8
0
  6
PHANTOM
 62
     7
100
AcDbLine
 10
246.514895249614
 20
161.925
 30
0.0
 11
246.5148952496137
 21
250.1945211096751
 31
0.0
  0
LINE
  5
12F
330
A
100
AcDbEntity
  8
0
  6
PHANTOM
 62
     7
100
AcDbLine
 10
246.5148952496137
 20
73.65547889032484
 30
0.0
 11
246.514895249614
 21
161.925
 31
0.0
  0
LINE
  5
130
330
A
100
AcDbEntity
  8
0
  6
PHANTOM
 62
     7
100
AcDbLine
 10
251.0193461007304
 20
161.925
 30
0.0
 11
251.0193461007301
 21
246.7745596825791
 31
0.0
  0
LINE
  5
131
330
A
100
AcDbEntity
  8
0
  6
PHANTOM
 62
     7
100
AcDbLine
 10
251.0193461007301
 20
77.07544031742087
 30
0.0
 11
251.0193461007304
 21
161.925
 31
0.0
  0
LINE
  5
132
330
A
100
AcDbEntity
  8
0
  6
PHANTOM
 62
     7
100
AcDbLine
 10
251.337115421641
 20
161.925
 30
0.0
 11
251.3371154216407
 21
246.6605942130138
 31
0.0
  0
LINE
  5
133
330
A
100
AcDbEntity
  8
0
  6
PHANTOM
 62
     7
100
AcDbLine
 10
251.3371154216407
 20
77.18940578698613
 30
0.0
 11
251.337115421641
 21
161.925
 31
0.0
  0
LINE
  5
134
330
A
100
AcDbEntity
  8
0
  6
PHANTOM
 62
     7
100
AcDbLine
 10
259.4294506176852
 20
161.925
 30
0.0
 11
259.4294506176849
 21
238.5965355002927
 31
0.0
  0
LINE
  5
135
330
A
100
AcDbEntity
  8
0
  6
PHANTOM
 62
     7
100
AcDbLine
 10
259.4294506176849
 20
85.25346449970731
 30
0.0
 11
259.4294506176852
 21
161.925
 31
0.0
  0
LINE
  5
136
330
A
100
AcDbEntity
  8
0
  6
PHANTOM
 62
     7
100
AcDbLine
 10
260.2750361885214
 20
161.925
 30
0.0
 11
260.2750361885211
 21
237.2745596825791
 31
0.0
  0
LINE
  5
137
330
A
100
AcDbEntity
  8
0
  6
PHANTOM
 62
     7
100
AcDbLine
 10
260.2750361885211
 20
86.57544031742089
 30
0.0
 11
260.2750361885214
 21
161.925
 31
0.0
  0
LINE
  5
138
330
A
100
AcDbEntity
  8
0
  6
PHANTOM
 62
     7
100
AcDbLine
 10
260.6661197537761
 20
161.925
 30
0.0
 11
260.6661197537758
 21
237.0860940225605
 31
0.0
  0
LINE
  5
139
330
A
100
AcDbEntity
  8
0
  6
PHANTOM
 62
     7
100
AcDbLine
 10
260.6661197537758
 20
86.76390597743949
 30
0.0
 11
260.6661197537761
 21
161.925
 31
0.0
  0
ENDSEC
  0
SECTION
  2
OBJECTS
  0
DICTIONARY
  5
19
330
0
100
AcDbDictionary
281
     1
  3
ACAD_COLOR
350
13E
  3
ACAD_GROUP
350
1A
  3
ACAD_LAYOUT
350
13F
  3
ACAD_MATERIAL
350
13D
  3
ACAD_MLINESTYLE
350
1B
  3
ACAD_PLOTSETTINGS
350
140
  3
ACAD_PLOTSTYLENAME
350
13B
  3
ACDBHEADERROUNDTRIPXREC
350
156
  3
AcDbVariableDictionary
350
152
  3
ASE_INDEX_DICTIONARY
350
146
  0
DICTIONARY
  5
13E
102
{ACAD_REACTORS
330
19
102
}
330
19
100
AcDbDictionary
281
     1
  0
DICTIONARY
  5
1A
102
{ACAD_REACTORS
330
19
102
}
330
19
100
AcDbDictionary
281
     1
  0
DICTIONARY
  5
13F
102
{ACAD_REACTORS
330
19
102
}
330
19
100
AcDbDictionary
281
     1
  3
Layout1
350
142
  3
Model
350
141
  0
DICTIONARY
  5
13D
102
{ACAD_REACTORS
330
19
102
}
330
19
100
AcDbDictionary
281
     1
  0
DICTIONARY
  5
1B
102
{ACAD_REACTORS
330
19
102
}
330
19
100
AcDbDictionary
281
     1
  3
STANDARD
350
1C
  0
DICTIONARY
  5
140
102
{ACAD_REACTORS
330
19
102
}
330
19
100
AcDbDictionary
281
     1
  0
ACDBDICTIONARYWDFLT
  5
13B
102
{ACAD_REACTORS
330
19
102
}
330
19
100
AcDbDictionary
281
     1
  3
Normal
350
13C
100
AcDbDictionaryWithDefault
340
13C
  0
DICTIONARY
  5
156
102
{ACAD_REACTORS
330
19
102
}
330
19
100
AcDbDictionary
281
     1
  0
DICTIONARY
  5
152
102
{ACAD_REACTORS
330
19
102
}
330
19
100
AcDbDictionary
281
     1
  3
DIMASSOC
350
153
  3
PROJECTNAME
350
154
  0
DICTIONARY
  5
146
102
{ACAD_REACTORS
330
19
102
}
330
19
100
AcDbDictionary
281
     1
  3
ASEBlockHierarchyIndexRecord
350
148
1001
DCO15
1040
1559138140.781
  0
LAYOUT
  5
142
102
{ACAD_XDICTIONARY
360
159
102
}
102
{ACAD_REACTORS
330
13F
102
}
330
13F
100
AcDbPlotSettings
  1

  2
ProgeSOFT PDF Wizard
  4

  6

 40
0.0
 41
0.0
 42
0.0
 43
0.0
 44
0.0
 45
0.0
 46
0.0
 47
0.0
 48
0.0
 49
0.0
140
0.0
141
0.0
142
1.0
143
1.0
 70
   688
 72
     0
 73
     0
 74
     5
  7

 75
    16
147
1.0
148
0.0
149
0.0
100
AcDbLayout
  1
Layout1
 70
     1
 71
     1
 10
0.0
 20
0.0
 11
12.0
 21
9.0
 12
0.0
 22
0.0
 32
0.0
 14
1.000000000000000E+20
 24
1.000000000000000E+20
 34
1.000000000000000E+20
 15
-1.000000000000000E+20
 25
-1.000000000000000E+20
 35
-1.000000000000000E+20
146
0.0
 13
0.0
 23
0.0
 33
0.0
 16
1.0
 26
0.0
 36
0.0
 17
0.0
 27
1.0
 37
0.0
 76
     0
330
B
  0
LAYOUT
  5
141
102
{ACAD_XDICTIONARY
360
157
102
}
102
{ACAD_REACTORS
330
13F
102
}
330
13F
100
AcDbPlotSettings
  1

  2
ProgeSOFT PDF Wizard
  4

  6

 40
0.0
 41
0.0
 42
0.0
 43
0.0
 44
0.0
 45
0.0
 46
0.0
 47
0.0
 48
0.0
 49
0.0
140
0.0
141
0.0
142
1.0
143
1.0
 70
  1712
 72
     0
 73
     0
 74
     0
  7

 75
     0
147
1.0
148
0.0
149
0.0
100
AcDbLayout
  1
Model
 70
     1
 71
     0
 10
0.0
 20
0.0
 11
12.0
 21
9.0
 12
0.0
 22
0.0
 32
0.0
 14
0.0
 24
0.0
 34
0.0
 15
0.0
 25
0.0
 35
0.0
146
0.0
 13
0.0
 23
0.0
 33
0.0
 16
1.0
 26
0.0
 36
0.0
 17
0.0
 27
1.0
 37
0.0
 76
     0
330
A
  0
MLINESTYLE
  5
1C
102
{ACAD_REACTORS
330
1B
102
}
330
1B
100
AcDbMlineStyle
  2
STANDARD
 70
     0
  3

 62
     0
 51
90.0
 52
90.0
 71
     2
 49
0.5
 62
   256
  6
BYLAYER
 49
-0.5
 62
   256
  6
BYLAYER
  0
ACDBPLACEHOLDER
  5
13C
102
{ACAD_REACTORS
330
13B
102
}
330
13B
  0
DICTIONARYVAR
  5
153
102
{ACAD_REACTORS
330
152
102
}
330
152
100
DictionaryVariables
280
     0
  1
1
  0
DICTIONARYVAR
  5
154
102
{ACAD_REACTORS
330
152
102
}
330
152
100
DictionaryVariables
280
     0
  1

  0
XRECORD
  5
148
102
{ACAD_REACTORS
330
146
102
}
330
146
100
AcDbXrecord
280
     1
  0
DICTIONARY
  5
159
330
142
100
AcDbDictionary
280
     1
281
     1
  3
ACAD_XREC_ROUNDTRIP
360
15A
  0
DICTIONARY
  5
157
330
141
100
AcDbDictionary
280
     1
281
     1
  3
ACAD_XREC_ROUNDTRIP
360
158
  0
XRECORD
  5
15A
102
{ACAD_REACTORS
330
159
102
}
330
159
100
AcDbXrecord
280
     1
102
SHADEPLOT
 70
     0
102
SHADEPLOTRESLEVEL
 70
     2
102
SHADEPLOTCUSTOMDPI
 70
   300
  0
XRECORD
  5
158
102
{ACAD_REACTORS
330
157
102
}
330
157
100
AcDbXrecord
280
     1
102
SHADEPLOT
 70
     0
102
SHADEPLOTRESLEVEL
 70
     2
102
SHADEPLOTCUSTOMDPI
 70
   300
  0
ENDSEC
  0
EOF
