  0
SECTION
  2
HEADER
  9
$ACADVER
  1
AC1018
  9
$ACADMAINTVER
 70
     0
  9
$DWGCODEPAGE
  3
ANSI_1252
  9
$INSBASE
 10
0.0
 20
0.0
 30
0.0
  9
$EXTMIN
 10
-0.0000000000000593
 20
-0.0000000000000118
 30
0.0
  9
$EXTMAX
 10
470.12715692718
 20
1922.246117974981
 30
0.0
  9
$LIMMIN
 10
0.0
 20
0.0
  9
$LIMMAX
 10
12.0
 20
9.0
  9
$ORTHOMODE
 70
     0
  9
$REGENMODE
 70
     1
  9
$FILLMODE
 70
     1
  9
$QTEXTMODE
 70
     0
  9
$MIRRTEXT
 70
     1
  9
$LTSCALE
 40
1.0
  9
$ATTMODE
 70
     1
  9
$TEXTSIZE
 40
0.2
  9
$TRACEWID
 40
0.05
  9
$TEXTSTYLE
  7
Standard
  9
$CLAYER
  8
Predefinito
  9
$CELTYPE
  6
ByLayer
  9
$CECOLOR
 62
   256
  9
$CELTSCALE
 40
1.0
  9
$DISPSILH
 70
     0
  9
$DIMSCALE
 40
1.0
  9
$DIMASZ
 40
0.18
  9
$DIMEXO
 40
0.0625
  9
$DIMDLI
 40
0.38
  9
$DIMRND
 40
0.0
  9
$DIMDLE
 40
0.0
  9
$DIMEXE
 40
0.18
  9
$DIMTP
 40
0.0
  9
$DIMTM
 40
0.0
  9
$DIMTXT
 40
0.18
  9
$DIMCEN
 40
0.09
  9
$DIMTSZ
 40
0.0
  9
$DIMTOL
 70
     0
  9
$DIMLIM
 70
     0
  9
$DIMTIH
 70
     1
  9
$DIMTOH
 70
     1
  9
$DIMSE1
 70
     0
  9
$DIMSE2
 70
     0
  9
$DIMTAD
 70
     0
  9
$DIMZIN
 70
     0
  9
$DIMBLK
  1

  9
$DIMASO
 70
     1
  9
$DIMSHO
 70
     1
  9
$DIMPOST
  1

  9
$DIMAPOST
  1

  9
$DIMALT
 70
     0
  9
$DIMALTD
 70
     2
  9
$DIMALTF
 40
25.4
  9
$DIMLFAC
 40
1.0
  9
$DIMTOFL
 70
     0
  9
$DIMTVP
 40
0.0
  9
$DIMTIX
 70
     0
  9
$DIMSOXD
 70
     0
  9
$DIMSAH
 70
     0
  9
$DIMBLK1
  1

  9
$DIMBLK2
  1

  9
$DIMSTYLE
  2
Standard
  9
$DIMCLRD
 70
     0
  9
$DIMCLRE
 70
     0
  9
$DIMCLRT
 70
     0
  9
$DIMTFAC
 40
1.0
  9
$DIMGAP
 40
0.09
  9
$DIMJUST
 70
     0
  9
$DIMSD1
 70
     0
  9
$DIMSD2
 70
     0
  9
$DIMTOLJ
 70
     1
  9
$DIMTZIN
 70
     0
  9
$DIMALTZ
 70
     0
  9
$DIMALTTZ
 70
     0
  9
$DIMUPT
 70
     0
  9
$DIMDEC
 70
     4
  9
$DIMTDEC
 70
     4
  9
$DIMALTU
 70
     2
  9
$DIMALTTD
 70
     2
  9
$DIMTXSTY
  7
Standard
  9
$DIMAUNIT
 70
     0
  9
$DIMADEC
 70
     0
  9
$DIMALTRND
 40
0.0
  9
$DIMAZIN
 70
     0
  9
$DIMDSEP
 70
    46
  9
$DIMATFIT
 70
     3
  9
$DIMFRAC
 70
     0
  9
$DIMLDRBLK
  1

  9
$DIMLUNIT
 70
     2
  9
$DIMLWD
 70
    -2
  9
$DIMLWE
 70
    -2
  9
$DIMTMOVE
 70
     2
  9
$LUNITS
 70
     2
  9
$LUPREC
 70
     3
  9
$SKETCHINC
 40
0.1
  9
$FILLETRAD
 40
0.5
  9
$AUNITS
 70
     0
  9
$AUPREC
 70
     0
  9
$MENU
  1
.
  9
$ELEVATION
 40
0.0
  9
$PELEVATION
 40
0.0
  9
$THICKNESS
 40
0.0
  9
$LIMCHECK
 70
     0
  9
$CHAMFERA
 40
0.5
  9
$CHAMFERB
 40
0.5
  9
$CHAMFERC
 40
1.0
  9
$CHAMFERD
 40
0.0
  9
$SKPOLY
 70
     0
  9
$TDCREATE
 40
2455883.601136551
  9
$TDUCREATE
 40
2455883.559469884
  9
$TDUPDATE
 40
2455883.601136562
  9
$TDUUPDATE
 40
2455883.559469896
  9
$TDINDWG
 40
0.0000000116
  9
$TDUSRTIMER
 40
0.0000000116
  9
$USRTIMER
 70
     1
  9
$ANGBASE
 50
0.0
  9
$ANGDIR
 70
     0
  9
$PDMODE
 70
     0
  9
$PDSIZE
 40
0.0
  9
$PLINEWID
 40
0.0
  9
$SPLFRAME
 70
     0
  9
$SPLINETYPE
 70
     6
  9
$SPLINESEGS
 70
     8
  9
$HANDSEED
  5
138
  9
$SURFTAB1
 70
     6
  9
$SURFTAB2
 70
     6
  9
$SURFTYPE
 70
     6
  9
$SURFU
 70
     6
  9
$SURFV
 70
     6
  9
$UCSBASE
  2

  9
$UCSNAME
  2

  9
$UCSORG
 10
0.0
 20
0.0
 30
0.0
  9
$UCSXDIR
 10
1.0
 20
0.0
 30
0.0
  9
$UCSYDIR
 10
0.0
 20
1.0
 30
0.0
  9
$UCSORTHOREF
  2

  9
$UCSORTHOVIEW
 70
     0
  9
$UCSORGTOP
 10
0.0
 20
0.0
 30
0.0
  9
$UCSORGBOTTOM
 10
0.0
 20
0.0
 30
0.0
  9
$UCSORGLEFT
 10
0.0
 20
0.0
 30
0.0
  9
$UCSORGRIGHT
 10
0.0
 20
0.0
 30
0.0
  9
$UCSORGFRONT
 10
0.0
 20
0.0
 30
0.0
  9
$UCSORGBACK
 10
0.0
 20
0.0
 30
0.0
  9
$PUCSBASE
  2

  9
$PUCSNAME
  2

  9
$PUCSORG
 10
0.0
 20
0.0
 30
0.0
  9
$PUCSXDIR
 10
1.0
 20
0.0
 30
0.0
  9
$PUCSYDIR
 10
0.0
 20
1.0
 30
0.0
  9
$PUCSORTHOREF
  2

  9
$PUCSORTHOVIEW
 70
     0
  9
$PUCSORGTOP
 10
0.0
 20
0.0
 30
0.0
  9
$PUCSORGBOTTOM
 10
0.0
 20
0.0
 30
0.0
  9
$PUCSORGLEFT
 10
0.0
 20
0.0
 30
0.0
  9
$PUCSORGRIGHT
 10
0.0
 20
0.0
 30
0.0
  9
$PUCSORGFRONT
 10
0.0
 20
0.0
 30
0.0
  9
$PUCSORGBACK
 10
0.0
 20
0.0
 30
0.0
  9
$USERI1
 70
     0
  9
$USERI2
 70
     0
  9
$USERI3
 70
     0
  9
$USERI4
 70
     0
  9
$USERI5
 70
     0
  9
$USERR1
 40
0.0
  9
$USERR2
 40
0.0
  9
$USERR3
 40
0.0
  9
$USERR4
 40
0.0
  9
$USERR5
 40
0.0
  9
$WORLDVIEW
 70
     1
  9
$SHADEDGE
 70
     3
  9
$SHADEDIF
 70
    70
  9
$TILEMODE
 70
     1
  9
$MAXACTVP
 70
    64
  9
$PINSBASE
 10
0.0
 20
0.0
 30
0.0
  9
$PLIMCHECK
 70
     0
  9
$PEXTMIN
 10
1.000000000000000E+20
 20
1.000000000000000E+20
 30
1.000000000000000E+20
  9
$PEXTMAX
 10
-1.000000000000000E+20
 20
-1.000000000000000E+20
 30
-1.000000000000000E+20
  9
$PLIMMIN
 10
0.0
 20
0.0
  9
$PLIMMAX
 10
12.0
 20
9.0
  9
$UNITMODE
 70
     0
  9
$VISRETAIN
 70
     1
  9
$PLINEGEN
 70
     0
  9
$PSLTSCALE
 70
     1
  9
$TREEDEPTH
 70
  3020
  9
$CMLSTYLE
  2
Standard
  9
$CMLJUST
 70
     0
  9
$CMLSCALE
 40
1.0
  9
$PROXYGRAPHICS
 70
     1
  9
$MEASUREMENT
 70
     0
  9
$CELWEIGHT
370
    -1
  9
$ENDCAPS
280
     0
  9
$JOINSTYLE
280
     0
  9
$LWDISPLAY
290
     0
  9
$INSUNITS
 70
     4
  9
$HYPERLINKBASE
  1

  9
$STYLESHEET
  1

  9
$XEDIT
290
     1
  9
$CEPSNTYPE
380
     0
  9
$PSTYLEMODE
290
     1
  9
$FINGERPRINTGUID
  2
{4A664E3A-0FB9-4FF7-B281-55565D875F61}
  9
$VERSIONGUID
  2
{FAEB1C32-E019-11D5-929B-00C0DF256EC4}
  9
$EXTNAMES
290
     1
  9
$PSVPSCALE
 40
0.0
  9
$OLESTARTUP
290
     0
  9
$SORTENTS
280
   127
  9
$INDEXCTL
280
     0
  9
$HIDETEXT
280
     1
  9
$XCLIPFRAME
290
     0
  9
$HALOGAP
280
     0
  9
$OBSCOLOR
 70
   257
  9
$OBSLTYPE
280
     0
  9
$INTERSECTIONDISPLAY
280
     0
  9
$INTERSECTIONCOLOR
 70
   257
  9
$DIMASSOC
280
     2
  9
$PROJECTNAME
  1

  0
ENDSEC
  0
SECTION
  2
CLASSES
  0
CLASS
  1
ACDBDICTIONARYWDFLT
  2
AcDbDictionaryWithDefault
  3
ObjectDBX Classes
 90
        0
 91
        4
280
     0
281
     0
  0
CLASS
  1
VISUALSTYLE
  2
AcDbVisualStyle
  3
ObjectDBX Classes
 90
     4095
 91
        4
280
     0
281
     0
  0
ENDSEC
  0
SECTION
  2
TABLES
  0
TABLE
  2
VPORT
  5
8
330
0
100
AcDbSymbolTable
 70
     1
  0
VPORT
  5
29
330
8
100
AcDbSymbolTableRecord
100
AcDbViewportTableRecord
  2
*Active
 70
     0
 10
0.0
 20
0.0
 11
1.0
 21
1.0
 12
235.0635784635899
 22
961.1230589874906
 13
0.0
 23
0.0
 14
0.5
 24
0.5
 15
0.5
 25
0.5
 16
0.0
 26
0.0
 36
1.0
 17
0.0
 27
0.0
 37
0.0
 40
1960.691040334481
 41
0.2445717811736004
 42
50.0
 43
0.0
 44
0.0
 50
0.0
 51
0.0
 71
     0
 72
   100
 73
     1
 74
     3
 75
     0
 76
     0
 77
     0
 78
     0
281
     0
 65
     1
110
0.0
120
0.0
130
0.0
111
1.0
121
0.0
131
0.0
112
0.0
122
1.0
132
0.0
 79
     0
146
0.0
  0
ENDTAB
  0
TABLE
  2
LTYPE
  5
5
330
0
100
AcDbSymbolTable
 70
     1
  0
LTYPE
  5
14
330
5
100
AcDbSymbolTableRecord
100
AcDbLinetypeTableRecord
  2
ByBlock
 70
     0
  3

 72
    65
 73
     0
 40
0.0
  0
LTYPE
  5
15
330
5
100
AcDbSymbolTableRecord
100
AcDbLinetypeTableRecord
  2
ByLayer
 70
     0
  3

 72
    65
 73
     0
 40
0.0
  0
LTYPE
  5
16
330
5
100
AcDbSymbolTableRecord
100
AcDbLinetypeTableRecord
  2
Continuous
 70
     0
  3
Solid line
 72
    65
 73
     0
 40
0.0
  0
ENDTAB
  0
TABLE
  2
LAYER
  5
2
330
0
100
AcDbSymbolTable
 70
     3
  0
LAYER
  5
10
330
2
100
AcDbSymbolTableRecord
100
AcDbLayerTableRecord
  2
0
 70
     0
 62
     7
  6
Continuous
370
    -3
390
F
  0
LAYER
  5
3B
330
2
100
AcDbSymbolTableRecord
100
AcDbLayerTableRecord
  2
Predefinito
 70
     0
 62
     7
  6
Continuous
370
    -3
390
F
  0
LAYER
  5
45
330
2
100
AcDbSymbolTableRecord
100
AcDbLayerTableRecord
  2
Linee visibili 2D
 70
     0
 62
     7
  6
Continuous
370
    -3
390
F
  0
ENDTAB
  0
TABLE
  2
STYLE
  5
3
330
0
100
AcDbSymbolTable
 70
     1
  0
STYLE
  5
11
330
3
100
AcDbSymbolTableRecord
100
AcDbTextStyleTableRecord
  2
Standard
 70
     0
 40
0.0
 41
1.0
 50
0.0
 71
     0
 42
0.2
  3
txt
  4

  0
ENDTAB
  0
TABLE
  2
VIEW
  5
6
330
0
100
AcDbSymbolTable
 70
     0
  0
ENDTAB
  0
TABLE
  2
UCS
  5
7
330
0
100
AcDbSymbolTable
 70
     0
  0
ENDTAB
  0
TABLE
  2
APPID
  5
9
330
0
100
AcDbSymbolTable
 70
     1
  0
APPID
  5
12
330
9
100
AcDbSymbolTableRecord
100
AcDbRegAppTableRecord
  2
ACAD
 70
     0
  0
ENDTAB
  0
TABLE
  2
DIMSTYLE
  5
A
330
0
100
AcDbSymbolTable
 70
     1
100
AcDbDimStyleTable
  0
DIMSTYLE
105
27
330
A
100
AcDbSymbolTableRecord
100
AcDbDimStyleTableRecord
  2
Standard
 70
     0
340
11
  0
ENDTAB
  0
TABLE
  2
BLOCK_RECORD
  5
1
330
0
100
AcDbSymbolTable
 70
     1
  0
BLOCK_RECORD
  5
1F
330
1
100
AcDbSymbolTableRecord
100
AcDbBlockTableRecord
  2
*Model_Space
340
22
  0
BLOCK_RECORD
  5
1B
330
1
100
AcDbSymbolTableRecord
100
AcDbBlockTableRecord
  2
*Paper_Space
340
1E
  0
BLOCK_RECORD
  5
23
330
1
100
AcDbSymbolTableRecord
100
AcDbBlockTableRecord
  2
*Paper_Space0
340
26
  0
ENDTAB
  0
ENDSEC
  0
SECTION
  2
BLOCKS
  0
BLOCK
  5
20
330
1F
100
AcDbEntity
  8
0
100
AcDbBlockBegin
  2
*Model_Space
 70
     0
 10
0.0
 20
0.0
 30
0.0
  3
*Model_Space
  1

  0
ENDBLK
  5
21
330
1F
100
AcDbEntity
  8
0
100
AcDbBlockEnd
  0
BLOCK
  5
1C
330
1B
100
AcDbEntity
 67
     1
  8
0
100
AcDbBlockBegin
  2
*Paper_Space
 70
     0
 10
0.0
 20
0.0
 30
0.0
  3
*Paper_Space
  1

  0
ENDBLK
  5
1D
330
1B
100
AcDbEntity
 67
     1
  8
0
100
AcDbBlockEnd
  0
BLOCK
  5
24
330
23
100
AcDbEntity
  8
0
100
AcDbBlockBegin
  2
*Paper_Space0
 70
     0
 10
0.0
 20
0.0
 30
0.0
  3
*Paper_Space0
  1

  0
ENDBLK
  5
25
330
23
100
AcDbEntity
  8
0
100
AcDbBlockEnd
  0
ENDSEC
  0
SECTION
  2
ENTITIES
  0
SPLINE
  5
3C
330
1F
100
AcDbEntity
  8
Predefinito
100
AcDbSpline
210
0.0
220
0.0
230
1.0
 70
     8
 71
     3
 72
     8
 73
     4
 74
     0
 42
0.0000000001
 43
0.0000000001
 40
0.0
 40
0.0
 40
0.0
 40
0.0
 40
1.0
 40
1.0
 40
1.0
 40
1.0
 10
151.647473045017
 20
620.7893236353941
 30
0.0
 10
159.6726197420047
 20
616.1012101814966
 30
0.0
 10
153.0388971142675
 20
594.6391663858763
 30
0.0
 10
141.7201948385374
 20
580.3956347378844
 30
0.0
  0
SPLINE
  5
3D
330
1F
100
AcDbEntity
  8
Predefinito
100
AcDbSpline
210
0.0
220
0.0
230
1.0
 70
     8
 71
     3
 72
    12
 73
     8
 74
     0
 42
0.0000000001
 43
0.0000000001
 40
0.0
 40
0.0
 40
0.0
 40
0.0
 40
7.641405873372896
 40
15.7678376395742
 40
31.26476182506572
 40
44.76449008888355
 40
55.45312308835008
 40
55.45312308835008
 40
55.45312308835008
 40
55.45312308835008
 10
27.8419811115217
 20
594.5343163619615
 30
0.0
 10
28.75171818344315
 20
592.154234547159
 30
0.0
 10
30.92231763447183
 20
587.360359138533
 30
0.0
 10
36.27768462685435
 20
578.3972589407119
 30
0.0
 10
44.31648111939235
 20
568.895178866822
 30
0.0
 10
55.16008310917962
 20
561.0823781439308
 30
0.0
 10
63.15065210282589
 20
558.966556529475
 30
0.0
 10
66.73261498259677
 20
559.3259079319821
 30
0.0
  0
SPLINE
  5
3E
330
1F
100
AcDbEntity
  8
Predefinito
100
AcDbSpline
210
0.0
220
0.0
230
1.0
 70
    12
 71
     2
 72
     6
 73
     3
 74
     0
 42
0.0000000001
 43
0.0000000001
 40
0.0
 40
0.0
 40
0.0
 40
0.9789018938763072
 40
0.9789018938763072
 40
0.9789018938763072
 10
66.73261498259677
 20
559.3259079319821
 30
0.0
 41
0.9999999986719015
 10
67.21908873013572
 20
559.3818236320972
 30
0.0
 41
0.9993252857629017
 10
67.7005840527113
 20
559.470928714082
 30
0.0
 41
1.0
  0
SPLINE
  5
3F
330
1F
100
AcDbEntity
  8
Predefinito
100
AcDbSpline
210
0.0
220
0.0
230
1.0
 70
     8
 71
     2
 72
     6
 73
     3
 74
     0
 42
0.0000000001
 43
0.0000000001
 40
0.0
 40
0.0
 40
0.0
 40
1.0
 40
1.0
 40
1.0
 10
67.7005840527113
 20
559.470928714082
 30
0.0
 10
68.0
 20
559.5263383541758
 30
0.0
 10
68.27924804508761
 20
559.5922486179443
 30
0.0
  0
SPLINE
  5
40
330
1F
100
AcDbEntity
  8
Predefinito
100
AcDbSpline
210
0.0
220
0.0
230
1.0
 70
    12
 71
     2
 72
     6
 73
     3
 74
     0
 42
0.0000000001
 43
0.0000000001
 40
0.0
 40
0.0
 40
0.0
 40
0.5245065834881797
 40
0.5245065834881797
 40
0.5245065834881797
 10
68.27924804508761
 20
559.5922486179443
 30
0.0
 41
1.0
 10
68.53463326007225
 20
559.6520509779035
 30
0.0
 41
0.9997695269909129
 10
68.78721593245902
 20
559.7227611179077
 30
0.0
 41
1.0
  0
SPLINE
  5
41
330
1F
100
AcDbEntity
  8
Predefinito
100
AcDbSpline
210
0.0
220
0.0
230
1.0
 70
     8
 71
     3
 72
    12
 73
     8
 74
     0
 42
0.0000000001
 43
0.0000000001
 40
0.0
 40
0.0
 40
0.0
 40
0.0
 40
1.0
 40
2.0
 40
3.0
 40
4.0
 40
5.0
 40
5.0
 40
5.0
 40
5.0
 10
68.78721593245902
 20
559.7227611179077
 30
0.0
 10
69.38791158283617
 20
559.9082120168953
 30
0.0
 10
69.58566067632596
 20
559.9770674955222
 30
0.0
 10
70.34411943271681
 20
560.2796880156935
 30
0.0
 10
70.4927054519253
 20
560.346528433355
 30
0.0
 10
71.25127059598579
 20
560.7299708710605
 30
0.0
 10
71.37108076319676
 20
560.7974057206824
 30
0.0
 10
71.78538305711007
 20
561.0462180047507
 30
0.0
  0
SPLINE
  5
42
330
1F
100
AcDbEntity
  8
Predefinito
100
AcDbSpline
210
0.0
220
0.0
230
1.0
 70
     8
 71
     3
 72
    12
 73
     8
 74
     0
 42
0.0000000001
 43
0.0000000001
 40
0.0
 40
0.0
 40
0.0
 40
0.0
 40
3.09757318824909
 40
6.39577200160131
 40
13.77510984871259
 40
23.0843697724512
 40
33.23589395768378
 40
33.23589395768378
 40
33.23589395768378
 40
33.23589395768378
 10
71.78538305711007
 20
561.0462180047507
 30
0.0
 10
72.65929121930752
 20
561.5994257664811
 30
0.0
 10
74.29700313825707
 20
562.9860466968108
 30
0.0
 10
76.89373280473326
 20
566.8412759292729
 30
0.0
 10
78.51025813222415
 20
573.4193897583301
 30
0.0
 10
77.94198356810477
 20
582.414058130414
 30
0.0
 10
76.18426469483676
 20
588.6875730975333
 30
0.0
 10
75.00847488723272
 20
591.8602420581109
 30
0.0
  0
SPLINE
  5
43
330
1F
100
AcDbEntity
  8
Predefinito
100
AcDbSpline
210
0.0
220
0.0
230
1.0
 70
     8
 71
     3
 72
    15
 73
    11
 74
     0
 42
0.0000000001
 43
0.0000000001
 40
0.0
 40
0.0
 40
0.0
 40
0.0
 40
11.3426715255536
 40
22.78116778207739
 40
33.60267011073891
 40
43.48538377391074
 40
51.80482622007671
 40
58.6261091286534
 40
64.87362645101976
 40
71.72236680256931
 40
71.72236680256931
 40
71.72236680256931
 40
71.72236680256931
 10
75.00847488723272
 20
591.8602420581109
 30
0.0
 10
73.69334092728437
 20
595.4065640513139
 30
0.0
 10
70.41591648865976
 20
602.2821203372272
 30
0.0
 10
64.03766903094497
 20
611.5362520614107
 30
0.0
 10
56.59383226078928
 20
619.2888689980352
 30
0.0
 10
48.64242526060177
 20
624.9126330085147
 30
0.0
 10
40.7765214064464
 20
627.9046165006395
 30
0.0
 10
33.43161049870011
 20
627.7917921698344
 30
0.0
 10
27.64965201616585
 20
623.9503524968227
 30
0.0
 10
25.85122110675589
 20
619.7995533862023
 30
0.0
 10
25.25366981700391
 20
617.6146715000405
 30
0.0
  0
SPLINE
  5
44
330
1F
100
AcDbEntity
  8
Predefinito
100
AcDbSpline
210
0.0
220
0.0
230
1.0
 70
     8
 71
     3
 72
    11
 73
     7
 74
     0
 42
0.0000000001
 43
0.0000000001
 40
0.0
 40
0.0
 40
0.0
 40
0.0
 40
2.379230246239848
 40
4.971642633856304
 40
10.54985478598087
 40
23.57898511730357
 40
23.57898511730357
 40
23.57898511730357
 40
23.57898511730357
 10
25.25366981700391
 20
617.6146715000405
 30
0.0
 10
25.04996258062312
 20
616.8480759577486
 30
0.0
 10
24.7198776466836
 20
615.2218025194876
 30
0.0
 10
24.37111118587135
 20
611.7181172833457
 30
0.0
 10
24.65952270573566
 20
604.6309399329388
 30
0.0
 10
26.30475363992027
 20
598.59014949278
 30
0.0
 10
27.8419811115217
 20
594.5343163619615
 30
0.0
  0
SPLINE
  5
46
330
1F
100
AcDbEntity
  8
Linee visibili 2D
100
AcDbSpline
210
0.0
220
0.0
230
1.0
 70
    24
 71
     2
 72
     6
 73
     3
 74
     0
 42
0.0000000001
 43
0.0000000001
 40
-400.0
 40
-400.0
 40
-400.0
 40
0.0
 40
0.0
 40
0.0
 10
6.500000000000171
 20
1021.746117974981
 30
0.0
 10
6.500000000000185
 20
1221.746117974981
 30
0.0
 10
6.500000000000199
 20
1421.746117974981
 30
0.0
  0
SPLINE
  5
47
330
1F
100
AcDbEntity
  8
Linee visibili 2D
100
AcDbSpline
210
0.0
220
0.0
230
1.0
 70
    24
 71
     2
 72
     6
 73
     3
 74
     0
 42
0.0000000001
 43
0.0000000001
 40
0.0
 40
0.0
 40
0.0
 40
500.5
 40
500.5
 40
500.5
 10
6.500000000000199
 20
1421.746117974981
 30
0.0
 10
6.500000000000199
 20
1671.996117974981
 30
0.0
 10
6.500000000000199
 20
1922.246117974981
 30
0.0
  0
SPLINE
  5
48
330
1F
100
AcDbEntity
  8
Linee visibili 2D
100
AcDbSpline
210
0.0
220
0.0
230
1.0
 70
    24
 71
     2
 72
     6
 73
     3
 74
     0
 42
0.0000000001
 43
0.0000000001
 40
0.0
 40
0.0
 40
0.0
 40
167.0
 40
167.0
 40
167.0
 10
6.500000000000199
 20
1922.246117974981
 30
0.0
 10
90.0000000000002
 20
1922.246117974981
 30
0.0
 10
173.5000000000002
 20
1922.246117974981
 30
0.0
  0
SPLINE
  5
49
330
1F
100
AcDbEntity
  8
Linee visibili 2D
100
AcDbSpline
210
0.0
220
0.0
230
1.0
 70
    24
 71
     2
 72
     6
 73
     3
 74
     0
 42
0.0000000001
 43
0.0000000001
 40
0.0
 40
0.0
 40
0.0
 40
500.5
 40
500.5
 40
500.5
 10
173.5000000000002
 20
1922.246117974981
 30
0.0
 10
173.5000000000002
 20
1671.996117974981
 30
0.0
 10
173.5000000000002
 20
1421.746117974981
 30
0.0
  0
SPLINE
  5
4A
330
1F
100
AcDbEntity
  8
Linee visibili 2D
100
AcDbSpline
210
0.0
220
0.0
230
1.0
 70
    24
 71
     2
 72
     6
 73
     3
 74
     0
 42
0.0000000001
 43
0.0000000001
 40
-400.0
 40
-400.0
 40
-400.0
 40
0.0
 40
0.0
 40
0.0
 10
173.5000000000002
 20
1421.746117974981
 30
0.0
 10
173.5000000000002
 20
1221.746117974981
 30
0.0
 10
173.5000000000002
 20
1021.746117974981
 30
0.0
  0
SPLINE
  5
4B
330
1F
100
AcDbEntity
  8
Linee visibili 2D
100
AcDbSpline
210
0.0
220
0.0
230
1.0
 70
    24
 71
     2
 72
     6
 73
     3
 74
     0
 42
0.0000000001
 43
0.0000000001
 40
0.0
 40
0.0
 40
0.0
 40
256.9911969768868
 40
256.9911969768868
 40
256.9911969768868
 10
169.0000000000002
 20
1917.717006840412
 30
0.0
 10
169.0000000000003
 20
1789.221408351969
 30
0.0
 10
169.0000000000003
 20
1660.725809863525
 30
0.0
  0
SPLINE
  5
4C
330
1F
100
AcDbEntity
  8
Linee visibili 2D
100
AcDbSpline
210
0.0
220
0.0
230
1.0
 70
    24
 71
     2
 72
     6
 73
     3
 74
     0
 42
0.0000000001
 43
0.0000000001
 40
0.0
 40
0.0
 40
0.0
 40
158.0043253562337
 40
158.0043253562337
 40
158.0043253562337
 10
169.0000000000003
 20
1660.725809863525
 30
0.0
 10
89.99783732188345
 20
1660.725809863525
 30
0.0
 10
10.99567464376661
 20
1660.725809863525
 30
0.0
  0
SPLINE
  5
4D
330
1F
100
AcDbEntity
  8
Linee visibili 2D
100
AcDbSpline
210
0.0
220
0.0
230
1.0
 70
    24
 71
     2
 72
     6
 73
     3
 74
     0
 42
0.0000000001
 43
0.0000000001
 40
0.0
 40
0.0
 40
0.0
 40
256.9911969768868
 40
256.9911969768868
 40
256.9911969768868
 10
10.99567464376661
 20
1660.725809863525
 30
0.0
 10
10.99567464376661
 20
1789.221408351969
 30
0.0
 10
10.99567464376661
 20
1917.717006840412
 30
0.0
  0
SPLINE
  5
4E
330
1F
100
AcDbEntity
  8
Linee visibili 2D
100
AcDbSpline
210
0.0
220
0.0
230
1.0
 70
    24
 71
     2
 72
     6
 73
     3
 74
     0
 42
0.0000000001
 43
0.0000000001
 40
0.0
 40
0.0
 40
0.0
 40
158.0043253562336
 40
158.0043253562336
 40
158.0043253562336
 10
10.99567464376661
 20
1917.717006840412
 30
0.0
 10
89.9978373218834
 20
1917.717006840412
 30
0.0
 10
169.0000000000002
 20
1917.717006840412
 30
0.0
  0
SPLINE
  5
4F
330
1F
100
AcDbEntity
  8
Linee visibili 2D
100
AcDbSpline
210
0.0
220
0.0
230
1.0
 70
    12
 71
     2
 72
     6
 73
     3
 74
     0
 42
0.0000000001
 43
0.0000000001
 40
0.0
 40
0.0
 40
0.0
 40
0.5202016891525246
 40
0.5202016891525246
 40
0.5202016891525246
 10
357.3101693674676
 20
1917.648330056553
 30
0.0
 41
1.0
 10
357.0631055379184
 20
1917.50344071363
 30
0.0
 41
0.8677189466937815
 10
357.0631055379179
 20
1917.217025878881
 30
0.0
 41
1.0
  0
SPLINE
  5
50
330
1F
100
AcDbEntity
  8
Linee visibili 2D
100
AcDbSpline
210
0.0
220
0.0
230
1.0
 70
    24
 71
     2
 72
     6
 73
     3
 74
     0
 42
0.0000000001
 43
0.0000000001
 40
0.0
 40
0.0
 40
0.0
 40
0.5043824731710629
 40
0.5043824731710629
 40
0.5043824731710629
 10
357.0631055379179
 20
1917.217025878881
 30
0.0
 10
357.063105537918
 20
1916.964834642296
 30
0.0
 10
357.063105537918
 20
1916.71264340571
 30
0.0
  0
SPLINE
  5
51
330
1F
100
AcDbEntity
  8
Linee visibili 2D
100
AcDbSpline
210
0.0
220
0.0
230
1.0
 70
    24
 71
     2
 72
     6
 73
     3
 74
     0
 42
0.0000000001
 43
0.0000000001
 40
0.0
 40
0.0
 40
0.0
 40
254.9824701074831
 40
254.9824701074831
 40
254.9824701074831
 10
357.063105537918
 20
1916.71264340571
 30
0.0
 10
357.063105537918
 20
1789.221408351968
 30
0.0
 10
357.063105537918
 20
1661.730173298227
 30
0.0
  0
SPLINE
  5
52
330
1F
100
AcDbEntity
  8
Linee visibili 2D
100
AcDbSpline
210
0.0
220
0.0
230
1.0
 70
    24
 71
     2
 72
     6
 73
     3
 74
     0
 42
0.0000000001
 43
0.0000000001
 40
0.0
 40
0.0
 40
0.0
 40
0.5043824731696986
 40
0.5043824731696986
 40
0.5043824731696986
 10
357.063105537918
 20
1661.730173298227
 30
0.0
 10
357.063105537918
 20
1661.477982061642
 30
0.0
 10
357.063105537918
 20
1661.225790825057
 30
0.0
  0
SPLINE
  5
53
330
1F
100
AcDbEntity
  8
Linee visibili 2D
100
AcDbSpline
210
0.0
220
0.0
230
1.0
 70
    12
 71
     2
 72
     6
 73
     3
 74
     0
 42
0.0000000001
 43
0.0000000001
 40
0.0
 40
0.0
 40
0.0
 40
0.5202016891531448
 40
0.5202016891531448
 40
0.5202016891531448
 10
357.063105537918
 20
1661.225790825057
 30
0.0
 41
1.0
 10
357.063105537918
 20
1660.939375990308
 30
0.0
 41
0.8677189466934039
 10
357.3101693674673
 20
1660.794486647384
 30
0.0
 41
1.0
  0
SPLINE
  5
54
330
1F
100
AcDbEntity
  8
Linee visibili 2D
100
AcDbSpline
210
0.0
220
0.0
230
1.0
 70
    12
 71
     2
 72
     6
 73
     3
 74
     0
 42
0.0000000001
 43
0.0000000001
 40
0.0
 40
0.0
 40
0.0
 40
0.5202016891527692
 40
0.5202016891527692
 40
0.5202016891527692
 10
404.063105534693
 20
1917.648330056553
 30
0.0
 41
1.0
 10
404.3101693642424
 20
1917.50344071363
 30
0.0
 41
0.8677189466936424
 10
404.3101693642432
 20
1917.217025878881
 30
0.0
 41
1.0
  0
SPLINE
  5
55
330
1F
100
AcDbEntity
  8
Linee visibili 2D
100
AcDbSpline
210
0.0
220
0.0
230
1.0
 70
    24
 71
     2
 72
     6
 73
     3
 74
     0
 42
0.0000000001
 43
0.0000000001
 40
0.0
 40
0.0
 40
0.0
 40
0.5043824731710629
 40
0.5043824731710629
 40
0.5043824731710629
 10
404.3101693642432
 20
1917.217025878881
 30
0.0
 10
404.3101693642432
 20
1916.964834642296
 30
0.0
 10
404.3101693642432
 20
1916.71264340571
 30
0.0
  0
SPLINE
  5
56
330
1F
100
AcDbEntity
  8
Linee visibili 2D
100
AcDbSpline
210
0.0
220
0.0
230
1.0
 70
    24
 71
     2
 72
     6
 73
     3
 74
     0
 42
0.0000000001
 43
0.0000000001
 40
0.0
 40
0.0
 40
0.0
 40
254.9824701074831
 40
254.9824701074831
 40
254.9824701074831
 10
404.3101693642432
 20
1916.71264340571
 30
0.0
 10
404.3101693642432
 20
1789.221408351968
 30
0.0
 10
404.3101693642432
 20
1661.730173298227
 30
0.0
  0
SPLINE
  5
57
330
1F
100
AcDbEntity
  8
Linee visibili 2D
100
AcDbSpline
210
0.0
220
0.0
230
1.0
 70
    24
 71
     2
 72
     6
 73
     3
 74
     0
 42
0.0000000001
 43
0.0000000001
 40
0.0
 40
0.0
 40
0.0
 40
0.5043824731696986
 40
0.5043824731696986
 40
0.5043824731696986
 10
404.3101693642432
 20
1661.730173298227
 30
0.0
 10
404.3101693642432
 20
1661.477982061642
 30
0.0
 10
404.3101693642432
 20
1661.225790825057
 30
0.0
  0
SPLINE
  5
58
330
1F
100
AcDbEntity
  8
Linee visibili 2D
100
AcDbSpline
210
0.0
220
0.0
230
1.0
 70
    12
 71
     2
 72
     6
 73
     3
 74
     0
 42
0.0000000001
 43
0.0000000001
 40
0.0
 40
0.0
 40
0.0
 40
0.5202016891538376
 40
0.5202016891538376
 40
0.5202016891538376
 10
404.3101693642432
 20
1661.225790825057
 30
0.0
 41
1.0
 10
404.3101693642433
 20
1660.939375990307
 30
0.0
 41
0.8677189466927949
 10
404.0631055346931
 20
1660.794486647384
 30
0.0
 41
1.0
  0
SPLINE
  5
59
330
1F
100
AcDbEntity
  8
Linee visibili 2D
100
AcDbSpline
210
0.0
220
0.0
230
1.0
 70
    24
 71
     2
 72
     6
 73
     3
 74
     0
 42
0.0000000001
 43
0.0000000001
 40
-5.0
 40
-5.0
 40
-5.0
 40
0.0
 40
0.0
 40
0.0
 10
0.0
 20
1016.746117974981
 30
0.0
 10
0.0
 20
1019.246117974981
 30
0.0
 10
0.0
 20
1021.746117974981
 30
0.0
  0
SPLINE
  5
5A
330
1F
100
AcDbEntity
  8
Linee visibili 2D
100
AcDbSpline
210
0.0
220
0.0
230
1.0
 70
    24
 71
     2
 72
     6
 73
     3
 74
     0
 42
0.0000000001
 43
0.0000000001
 40
0.0
 40
0.0
 40
0.0
 40
180.0000000000001
 40
180.0000000000001
 40
180.0000000000001
 10
0.0
 20
1021.746117974981
 30
0.0
 10
90.00000000000003
 20
1021.746117974981
 30
0.0
 10
180.0000000000001
 20
1021.746117974981
 30
0.0
  0
SPLINE
  5
5B
330
1F
100
AcDbEntity
  8
Linee visibili 2D
100
AcDbSpline
210
0.0
220
0.0
230
1.0
 70
    24
 71
     2
 72
     6
 73
     3
 74
     0
 42
0.0000000001
 43
0.0000000001
 40
0.0
 40
0.0
 40
0.0
 40
5.0
 40
5.0
 40
5.0
 10
180.0000000000001
 20
1021.746117974981
 30
0.0
 10
180.0000000000001
 20
1019.246117974981
 30
0.0
 10
180.0000000000001
 20
1016.746117974981
 30
0.0
  0
SPLINE
  5
5C
330
1F
100
AcDbEntity
  8
Linee visibili 2D
100
AcDbSpline
210
0.0
220
0.0
230
1.0
 70
    24
 71
     2
 72
     6
 73
     3
 74
     0
 42
0.0000000001
 43
0.0000000001
 40
0.0
 40
0.0
 40
0.0
 40
180.0000000000001
 40
180.0000000000001
 40
180.0000000000001
 10
180.0000000000001
 20
1016.746117974981
 30
0.0
 10
90.00000000000003
 20
1016.746117974981
 30
0.0
 10
0.0
 20
1016.746117974981
 30
0.0
  0
SPLINE
  5
5D
330
1F
100
AcDbEntity
  8
Linee visibili 2D
100
AcDbSpline
210
0.0
220
0.0
230
1.0
 70
     8
 71
     3
 72
    13
 73
     9
 74
     0
 42
0.0000000001
 43
0.0000000001
 40
0.0
 40
0.0
 40
0.0
 40
0.0
 40
0.7800046829151357
 40
1.760637853039354
 40
4.205353388978958
 40
6.584425158167226
 40
7.579372156198318
 40
8.3109060525314
 40
8.3109060525314
 40
8.3109060525314
 40
8.3109060525314
 10
80.43515423280786
 20
505.0575993238298
 30
0.0
 10
80.7071874132399
 20
505.0823128008902
 30
0.0
 10
81.24069158461776
 20
505.372659923692
 30
0.0
 10
82.05568811299747
 20
506.5485973820471
 30
0.0
 10
82.44623642763311
 20
508.4823499071898
 30
0.0
 10
82.14301644643879
 20
510.4379199326443
 30
0.0
 10
81.3756966504851
 20
511.6098117126828
 30
0.0
 10
80.84368501422128
 20
511.886095540498
 30
0.0
 10
80.59684170554668
 20
511.8992098041965
 30
0.0
  0
SPLINE
  5
5E
330
1F
100
AcDbEntity
  8
Linee visibili 2D
100
AcDbSpline
210
0.0
220
0.0
230
1.0
 70
    12
 71
     2
 72
     6
 73
     3
 74
     0
 42
0.0000000001
 43
0.0000000001
 40
0.0
 40
0.0
 40
0.0
 40
0.1531983410828968
 40
0.1531983410828968
 40
0.1531983410828968
 10
80.59684170554668
 20
511.8992098041965
 30
0.0
 41
1.0
 10
80.52017897143067
 20
511.9037622314893
 30
0.0
 41
0.9978778118569663
 10
80.44366451101347
 20
511.8983199347536
 30
0.0
 41
1.0
  0
SPLINE
  5
5F
330
1F
100
AcDbEntity
  8
Linee visibili 2D
100
AcDbSpline
210
0.0
220
0.0
230
1.0
 70
    24
 71
     2
 72
     6
 73
     3
 74
     0
 42
0.0000000001
 43
0.0000000001
 40
0.0
 40
0.0
 40
0.0
 40
10.67159234433433
 40
10.67159234433433
 40
10.67159234433433
 10
80.44366451101347
 20
511.8983199347536
 30
0.0
 10
75.12125423472679
 20
511.5206035837814
 30
0.0
 10
69.79884395844012
 20
511.1428872328091
 30
0.0
  0
SPLINE
  5
60
330
1F
100
AcDbEntity
  8
Linee visibili 2D
100
AcDbSpline
210
0.0
220
0.0
230
1.0
 70
    12
 71
     2
 72
     8
 73
     5
 74
     0
 42
0.0000000001
 43
0.0000000001
 40
0.0
 40
0.0
 40
0.0
 40
7.05538295110733
 40
7.05538295110733
 40
13.88221149910953
 40
13.88221149910953
 40
13.88221149910953
 10
69.79884395844012
 20
511.1428872328092
 30
0.0
 41
2688.599609227321
 10
67.82364733523477
 20
511.0027131345639
 30
0.0
 41
1903.684931338109
 10
67.82502585841492
 20
507.6112350263119
 30
0.0
 41
2692.38165138295
 10
67.82634190689689
 20
504.3734587744422
 30
0.0
 41
1929.459476021446
 10
69.70994883940881
 20
504.3487685154703
 30
0.0
 41
2639.720191152382
  0
SPLINE
  5
61
330
1F
100
AcDbEntity
  8
Linee visibili 2D
100
AcDbSpline
210
0.0
220
0.0
230
1.0
 70
    12
 71
     2
 72
     6
 73
     3
 74
     0
 42
0.0000000001
 43
0.0000000001
 40
0.0
 40
0.0
 40
0.0
 40
0.0721389317195258
 40
0.0721389317195258
 40
0.0721389317195258
 10
69.70994883940881
 20
504.3487685154704
 30
0.0
 41
1.0
 10
69.74603449053572
 20
504.3482986157824
 30
0.0
 41
0.9992108080865467
 10
69.79167750130594
 20
504.3513338318809
 30
0.0
 41
1.0
  0
SPLINE
  5
62
330
1F
100
AcDbEntity
  8
Linee visibili 2D
100
AcDbSpline
210
0.0
220
0.0
230
1.0
 70
    24
 71
     2
 72
     6
 73
     3
 74
     0
 42
0.0000000001
 43
0.0000000001
 40
0.0
 40
0.0
 40
0.0
 40
10.64755011314562
 40
10.64755011314562
 40
10.64755011314562
 10
69.79167750130594
 20
504.3513338318809
 30
0.0
 10
75.1134158670569
 20
504.7044665778553
 30
0.0
 10
80.43515423280786
 20
505.0575993238298
 30
0.0
  0
SPLINE
  5
63
330
1F
100
AcDbEntity
  8
Linee visibili 2D
100
AcDbSpline
210
0.0
220
0.0
230
1.0
 70
    24
 71
     2
 72
     6
 73
     3
 74
     0
 42
0.0000000001
 43
0.0000000001
 40
0.0
 40
0.0
 40
0.0
 40
389.6030937727871
 40
389.6030937727871
 40
389.6030937727871
 10
113.0233486259589
 20
707.1954490822824
 30
0.0
 10
112.944086239395
 20
512.3939183213413
 30
0.0
 10
112.864823852831
 20
317.5923875604003
 30
0.0
  0
SPLINE
  5
64
330
1F
100
AcDbEntity
  8
Linee visibili 2D
100
AcDbSpline
210
0.0
220
0.0
230
1.0
 70
    24
 71
     2
 72
     6
 73
     3
 74
     0
 42
0.0000000001
 43
0.0000000001
 40
-307.4722510271321
 40
-307.4722510271321
 40
-307.4722510271321
 40
0.0
 40
0.0
 40
0.0
 10
112.864823852831
 20
317.5923875604003
 30
0.0
 10
112.8022704881166
 20
163.8562747729374
 30
0.0
 10
112.7397171234023
 20
10.12016198547459
 30
0.0
  0
SPLINE
  5
65
330
1F
100
AcDbEntity
  8
Linee visibili 2D
100
AcDbSpline
210
0.0
220
0.0
230
1.0
 70
    24
 71
     2
 72
     6
 73
     3
 74
     0
 42
0.0000000001
 43
0.0000000001
 40
0.0
 40
0.0
 40
0.0
 40
28.75381430729734
 40
28.75381430729734
 40
28.75381430729734
 10
112.7397171234023
 20
10.12016198547459
 30
0.0
 10
126.9682577955957
 20
12.18028082776804
 30
0.0
 10
141.1967984677891
 20
14.24039967006149
 30
0.0
  0
SPLINE
  5
66
330
1F
100
AcDbEntity
  8
Linee visibili 2D
100
AcDbSpline
210
0.0
220
0.0
230
1.0
 70
    24
 71
     2
 72
     6
 73
     3
 74
     0
 42
0.0000000001
 43
0.0000000001
 40
0.0
 40
0.0
 40
0.0
 40
304.2839964627225
 40
304.2839964627225
 40
304.2839964627225
 10
141.1967984677891
 20
14.24039967006149
 30
0.0
 10
141.3374498841358
 20
166.3823328870764
 30
0.0
 10
141.4781013004826
 20
318.5242661040912
 30
0.0
  0
SPLINE
  5
67
330
1F
100
AcDbEntity
  8
Linee visibili 2D
100
AcDbSpline
210
0.0
220
0.0
230
1.0
 70
    24
 71
     2
 72
     6
 73
     3
 74
     0
 42
0.0000000001
 43
0.0000000001
 40
-385.5124319955981
 40
-385.5124319955981
 40
-385.5124319955981
 40
0.0
 40
0.0
 40
0.0
 10
141.4781013004826
 20
318.5242661040912
 30
0.0
 10
141.6562995304579
 20
511.280399732002
 30
0.0
 10
141.8344977604332
 20
704.0365333599128
 30
0.0
  0
SPLINE
  5
68
330
1F
100
AcDbEntity
  8
Linee visibili 2D
100
AcDbSpline
210
0.0
220
0.0
230
1.0
 70
    24
 71
     2
 72
     6
 73
     3
 74
     0
 42
0.0000000001
 43
0.0000000001
 40
0.0
 40
0.0
 40
0.0
 40
28.98380690989277
 40
28.98380690989277
 40
28.98380690989277
 10
141.8344977604332
 20
704.0365333599128
 30
0.0
 10
127.428923193196
 20
705.6159912210976
 30
0.0
 10
113.0233486259589
 20
707.1954490822824
 30
0.0
  0
SPLINE
  5
69
330
1F
100
AcDbEntity
  8
Linee visibili 2D
100
AcDbSpline
210
0.0
220
0.0
230
1.0
 70
    24
 71
     2
 72
     6
 73
     3
 74
     0
 42
0.0000000001
 43
0.0000000001
 40
-75.81239384903337
 40
-75.81239384903337
 40
-75.81239384903337
 40
0.0
 40
0.0
 40
0.0
 10
113.0233486259589
 20
707.1954490822824
 30
0.0
 10
75.84257054382276
 20
699.8151031224252
 30
0.0
 10
38.66179246168658
 20
692.434757162568
 30
0.0
  0
SPLINE
  5
6A
330
1F
100
AcDbEntity
  8
Linee visibili 2D
100
AcDbSpline
210
0.0
220
0.0
230
1.0
 70
    24
 71
     2
 72
     6
 73
     3
 74
     0
 42
0.0000000001
 43
0.0000000001
 40
-57.06246598066695
 40
-57.06246598066695
 40
-57.06246598066695
 40
0.0
 40
0.0
 40
0.0
 10
38.66179246168658
 20
692.434757162568
 30
0.0
 10
38.68830124785712
 20
663.9035364870878
 30
0.0
 10
38.71481003402766
 20
635.3723158116076
 30
0.0
  0
SPLINE
  5
6B
330
1F
100
AcDbEntity
  8
Linee visibili 2D
100
AcDbSpline
210
0.0
220
0.0
230
1.0
 70
    24
 71
     2
 72
     6
 73
     3
 74
     0
 42
0.0000000001
 43
0.0000000001
 40
0.0
 40
0.0
 40
0.0
 40
39.94343018588955
 40
39.94343018588955
 40
39.94343018588955
 10
141.2096947444917
 20
28.19023764391296
 30
0.0
 10
160.6048473722459
 20
23.42605268739834
 30
0.0
 10
180.0
 20
18.66186773088373
 30
0.0
  0
SPLINE
  5
6C
330
1F
100
AcDbEntity
  8
Linee visibili 2D
100
AcDbSpline
210
0.0
220
0.0
230
1.0
 70
    24
 71
     2
 72
     6
 73
     3
 74
     0
 42
0.0000000001
 43
0.0000000001
 40
0.0
 40
0.0
 40
0.0
 40
3.740061875600626
 40
3.740061875600626
 40
3.740061875600626
 10
180.0
 20
18.66186773088373
 30
0.0
 10
179.9969515705454
 20
16.7918392777825
 30
0.0
 10
179.9939031410908
 20
14.92181082468127
 30
0.0
  0
SPLINE
  5
6D
330
1F
100
AcDbEntity
  8
Linee visibili 2D
100
AcDbSpline
210
0.0
220
0.0
230
1.0
 70
    24
 71
     2
 72
     6
 73
     3
 74
     0
 42
0.0000000001
 43
0.0000000001
 40
0.0
 40
0.0
 40
0.0
 40
102.8500536108352
 40
102.8500536108352
 40
102.8500536108352
 10
179.9939031410908
 20
14.92181082468127
 30
0.0
 10
129.1129806615796
 20
7.460905412340628
 30
0.0
 10
78.23205818206844
 20
-0.0000000000000118
 30
0.0
  0
SPLINE
  5
6E
330
1F
100
AcDbEntity
  8
Linee visibili 2D
100
AcDbSpline
210
0.0
220
0.0
230
1.0
 70
    24
 71
     2
 72
     6
 73
     3
 74
     0
 42
0.0000000001
 43
0.0000000001
 40
0.0
 40
0.0
 40
0.0
 40
5.0
 40
5.0
 40
5.0
 10
464.1866374510807
 20
1021.746117974981
 30
0.0
 10
464.1866374510807
 20
1019.246117974981
 30
0.0
 10
464.1866374510807
 20
1016.746117974981
 30
0.0
  0
SPLINE
  5
6F
330
1F
100
AcDbEntity
  8
Linee visibili 2D
100
AcDbSpline
210
0.0
220
0.0
230
1.0
 70
    24
 71
     2
 72
     6
 73
     3
 74
     0
 42
0.0000000001
 43
0.0000000001
 40
0.0
 40
0.0
 40
0.0
 40
167.0
 40
167.0
 40
167.0
 10
464.1866374510807
 20
1016.746117974981
 30
0.0
 10
380.6866374510807
 20
1016.746117974981
 30
0.0
 10
297.1866374510807
 20
1016.746117974981
 30
0.0
  0
SPLINE
  5
70
330
1F
100
AcDbEntity
  8
Linee visibili 2D
100
AcDbSpline
210
0.0
220
0.0
230
1.0
 70
    24
 71
     2
 72
     6
 73
     3
 74
     0
 42
0.0000000001
 43
0.0000000001
 40
0.0
 40
0.0
 40
0.0
 40
5.0
 40
5.0
 40
5.0
 10
297.1866374510807
 20
1016.746117974981
 30
0.0
 10
297.1866374510807
 20
1019.246117974981
 30
0.0
 10
297.1866374510807
 20
1021.746117974981
 30
0.0
  0
SPLINE
  5
71
330
1F
100
AcDbEntity
  8
Linee visibili 2D
100
AcDbSpline
210
0.0
220
0.0
230
1.0
 70
    24
 71
     2
 72
     6
 73
     3
 74
     0
 42
0.0000000001
 43
0.0000000001
 40
0.0
 40
0.0
 40
0.0
 40
167.0
 40
167.0
 40
167.0
 10
297.1866374510807
 20
1021.746117974981
 30
0.0
 10
380.6866374510807
 20
1021.746117974981
 30
0.0
 10
464.1866374510807
 20
1021.746117974981
 30
0.0
  0
POLYLINE
  5
72
330
1F
100
AcDbEntity
  8
Predefinito
100
AcDb2dPolyline
 66
     1
 10
0.0
 20
0.0
 30
0.0
  0
VERTEX
  5
73
330
72
100
AcDbEntity
  8
Predefinito
100
AcDbVertex
100
AcDb2dVertex
 10
357.063105537918
 20
1724.949427351281
 30
0.0
  0
VERTEX
  5
74
330
72
100
AcDbEntity
  8
Predefinito
100
AcDbVertex
100
AcDb2dVertex
 10
357.0168623788846
 20
1725.358943035182
 30
0.0
  0
SEQEND
  5
75
330
72
100
AcDbEntity
  8
Predefinito
  0
SPLINE
  5
76
330
1F
100
AcDbEntity
  8
Predefinito
100
AcDbSpline
210
0.0
220
0.0
230
1.0
 70
     8
 71
     3
 72
    12
 73
     8
 74
     0
 42
0.0000000001
 43
0.0000000001
 40
0.0
 40
0.0
 40
0.0
 40
0.0
 40
1.64431925805653
 40
3.367458831876077
 40
6.983136188805277
 40
10.0889906248567
 40
14.41628748262738
 40
14.41628748262738
 40
14.41628748262738
 40
14.41628748262738
 10
357.0168623788846
 20
1725.358943035182
 30
0.0
 10
356.9559488534338
 20
1725.898375127523
 30
0.0
 10
356.7042610886772
 20
1727.015818288248
 30
0.0
 10
355.6588143261018
 20
1729.083865710227
 30
0.0
 10
353.7464115935189
 20
1731.257179665946
 30
0.0
 10
350.2926639262398
 20
1732.718523861592
 30
0.0
 10
347.7770986052311
 20
1732.784005764926
 30
0.0
 10
346.3465574537181
 20
1732.860441519366
 30
0.0
  0
SPLINE
  5
77
330
1F
100
AcDbEntity
  8
Predefinito
100
AcDbSpline
210
0.0
220
0.0
230
1.0
 70
    12
 71
     2
 72
     6
 73
     3
 74
     0
 42
0.0000000001
 43
0.0000000001
 40
-0.5173241023604742
 40
-0.5173241023604742
 40
-0.5173241023604742
 40
0.0
 40
0.0
 40
0.0
 10
346.3465574537181
 20
1732.860441519366
 30
0.0
 41
1.0
 10
346.0620727916075
 20
1732.864011801596
 30
0.0
 41
0.8691456682230401
 10
345.9198192609539
 20
1733.110402148217
 30
0.0
 41
1.0
  0
SPLINE
  5
78
330
1F
100
AcDbEntity
  8
Predefinito
100
AcDbSpline
210
0.0
220
0.0
230
1.0
 70
    24
 71
     2
 72
     6
 73
     3
 74
     0
 42
0.0000000001
 43
0.0000000001
 40
0.0
 40
0.0
 40
0.0
 40
109.2134279761317
 40
109.2134279761317
 40
109.2134279761317
 10
345.9198192609539
 20
1733.110402148217
 30
0.0
 10
318.6164622670205
 20
1780.401203679131
 30
0.0
 10
291.3131052730871
 20
1827.692005210044
 30
0.0
  0
SPLINE
  5
79
330
1F
100
AcDbEntity
  8
Predefinito
100
AcDbSpline
210
0.0
220
0.0
230
1.0
 70
    12
 71
     2
 72
     6
 73
     3
 74
     0
 42
0.0000000001
 43
0.0000000001
 40
0.0
 40
0.0
 40
0.0
 40
0.7853971145992609
 40
0.7853971145992609
 40
0.7853971145992609
 10
291.3131052730871
 20
1827.692005210044
 30
0.0
 41
1.0
 10
291.063105797489
 20
1828.125017003653
 30
0.0
 41
0.7071075227986605
 10
291.496117066699
 20
1828.375017387535
 30
0.0
 41
1.0
  0
SPLINE
  5
7A
330
1F
100
AcDbEntity
  8
Predefinito
100
AcDbSpline
210
0.0
220
0.0
230
1.0
 70
     8
 71
     3
 72
    15
 73
    11
 74
     0
 42
0.0000000001
 43
0.0000000001
 40
0.0
 40
0.0
 40
0.0
 40
0.0
 40
30.8744389149322
 40
39.09155753246348
 40
39.68916882432887
 40
44.32057407212943
 40
60.45605348321396
 40
77.18901174698092
 40
85.40602376517337
 40
93.31504723359839
 40
93.31504723359839
 40
93.31504723359839
 40
93.31504723359839
 10
291.496117066699
 20
1828.375017387535
 30
0.0
 10
300.4018999816683
 20
1833.524917724353
 30
0.0
 10
311.7047432973607
 20
1840.029690992543
 30
0.0
 10
323.1412647006364
 20
1846.656057706214
 30
0.0
 10
327.0547356347963
 20
1848.879804715934
 30
0.0
 10
333.0632276236706
 20
1852.592573151614
 30
0.0
 10
343.8832763497731
 20
1859.194219319318
 30
0.0
 10
352.0972875538668
 20
1870.512203372689
 30
0.0
 10
356.0396584772585
 20
1880.744364554565
 30
0.0
 10
356.9112798716782
 20
1886.100112696368
 30
0.0
 10
357.0200588420363
 20
1888.728578244755
 30
0.0
  0
POLYLINE
  5
7B
330
1F
100
AcDbEntity
  8
Predefinito
100
AcDb2dPolyline
 66
     1
 10
0.0
 20
0.0
 30
0.0
  0
VERTEX
  5
7C
330
7B
100
AcDbEntity
  8
Predefinito
100
AcDbVertex
100
AcDb2dVertex
 10
357.0200588420363
 20
1888.728578244755
 30
0.0
  0
VERTEX
  5
7D
330
7B
100
AcDbEntity
  8
Predefinito
100
AcDbVertex
100
AcDb2dVertex
 10
357.0726765944398
 20
1890.0
 30
0.0
  0
SEQEND
  5
7E
330
7B
100
AcDbEntity
  8
Predefinito
  0
POLYLINE
  5
7F
330
1F
100
AcDbEntity
  8
Predefinito
100
AcDb2dPolyline
 66
     1
 10
0.0
 20
0.0
 30
0.0
  0
VERTEX
  5
80
330
7F
100
AcDbEntity
  8
Predefinito
100
AcDbVertex
100
AcDb2dVertex
 10
404.3101693642432
 20
1724.949427351279
 30
0.0
  0
VERTEX
  5
81
330
7F
100
AcDbEntity
  8
Predefinito
100
AcDbVertex
100
AcDb2dVertex
 10
404.3564125232765
 20
1725.358943035182
 30
0.0
  0
SEQEND
  5
82
330
7F
100
AcDbEntity
  8
Predefinito
  0
SPLINE
  5
83
330
1F
100
AcDbEntity
  8
Predefinito
100
AcDbSpline
210
0.0
220
0.0
230
1.0
 70
     8
 71
     3
 72
    12
 73
     8
 74
     0
 42
0.0000000001
 43
0.0000000001
 40
0.0
 40
0.0
 40
0.0
 40
0.0
 40
1.644319258056564
 40
3.367458831876103
 40
6.983136188805265
 40
10.08899062485673
 40
14.41628748262737
 40
14.41628748262737
 40
14.41628748262737
 40
14.41628748262737
 10
404.3564125232765
 20
1725.358943035182
 30
0.0
 10
404.4173260487267
 20
1725.89837512752
 30
0.0
 10
404.6690138134835
 20
1727.015818288252
 30
0.0
 10
405.7144605760594
 20
1729.083865710228
 30
0.0
 10
407.6268633086436
 20
1731.257179665946
 30
0.0
 10
411.0806109759211
 20
1732.718523861592
 30
0.0
 10
413.5961762969298
 20
1732.784005764926
 30
0.0
 10
415.026717448443
 20
1732.860441519366
 30
0.0
  0
SPLINE
  5
84
330
1F
100
AcDbEntity
  8
Predefinito
100
AcDbSpline
210
0.0
220
0.0
230
1.0
 70
    12
 71
     2
 72
     6
 73
     3
 74
     0
 42
0.0000000001
 43
0.0000000001
 40
-0.5173241023604742
 40
-0.5173241023604742
 40
-0.5173241023604742
 40
0.0
 40
0.0
 40
0.0
 10
415.026717448443
 20
1732.860441519366
 30
0.0
 41
1.0
 10
415.3112021105537
 20
1732.864011801596
 30
0.0
 41
0.8691456682230401
 10
415.4534556412073
 20
1733.110402148217
 30
0.0
 41
1.0
  0
SPLINE
  5
85
330
1F
100
AcDbEntity
  8
Predefinito
100
AcDbSpline
210
0.0
220
0.0
230
1.0
 70
    24
 71
     2
 72
     6
 73
     3
 74
     0
 42
0.0000000001
 43
0.0000000001
 40
0.0
 40
0.0
 40
0.0
 40
109.2134279761317
 40
109.2134279761317
 40
109.2134279761317
 10
415.4534556412073
 20
1733.110402148217
 30
0.0
 10
442.7568126351406
 20
1780.401203679131
 30
0.0
 10
470.060169629074
 20
1827.692005210044
 30
0.0
  0
SPLINE
  5
86
330
1F
100
AcDbEntity
  8
Predefinito
100
AcDbSpline
210
0.0
220
0.0
230
1.0
 70
    12
 71
     2
 72
     6
 73
     3
 74
     0
 42
0.0000000001
 43
0.0000000001
 40
0.0
 40
0.0
 40
0.0
 40
0.7853971145992585
 40
0.7853971145992585
 40
0.7853971145992585
 10
470.060169629074
 20
1827.692005210044
 30
0.0
 41
1.0
 10
470.3101691046719
 20
1828.125017003653
 30
0.0
 41
0.7071075227990449
 10
469.8771578354622
 20
1828.375017387535
 30
0.0
 41
1.0
  0
SPLINE
  5
87
330
1F
100
AcDbEntity
  8
Predefinito
100
AcDbSpline
210
0.0
220
0.0
230
1.0
 70
     8
 71
     3
 72
    15
 73
    11
 74
     0
 42
0.0000000001
 43
0.0000000001
 40
0.0
 40
0.0
 40
0.0
 40
0.0
 40
30.87443891493225
 40
39.09155753246344
 40
39.68916882432892
 40
44.32057407212936
 40
60.45605348321406
 40
77.18901174698085
 40
85.40602376517329
 40
93.31504723359829
 40
93.31504723359829
 40
93.31504723359829
 40
93.31504723359829
 10
469.8771578354622
 20
1828.375017387535
 30
0.0
 10
460.9713749204918
 20
1833.524917724357
 30
0.0
 10
449.6685316048002
 20
1840.02969099254
 30
0.0
 10
438.2320102015244
 20
1846.656057706214
 30
0.0
 10
434.3185392673651
 20
1848.879804715933
 30
0.0
 10
428.3100472784905
 20
1852.592573151612
 30
0.0
 10
417.4899985523892
 20
1859.194219319318
 30
0.0
 10
409.2759873482948
 20
1870.512203372687
 30
0.0
 10
405.3336164249034
 20
1880.744364554562
 30
0.0
 10
404.4619950304831
 20
1886.100112696367
 30
0.0
 10
404.3532160601249
 20
1888.728578244755
 30
0.0
  0
POLYLINE
  5
88
330
1F
100
AcDbEntity
  8
Predefinito
100
AcDb2dPolyline
 66
     1
 10
0.0
 20
0.0
 30
0.0
  0
VERTEX
  5
89
330
88
100
AcDbEntity
  8
Predefinito
100
AcDbVertex
100
AcDb2dVertex
 10
404.3532160601249
 20
1888.728578244755
 30
0.0
  0
VERTEX
  5
8A
330
88
100
AcDbEntity
  8
Predefinito
100
AcDbVertex
100
AcDb2dVertex
 10
404.3101693642432
 20
1889.768731104489
 30
0.0
  0
SEQEND
  5
8B
330
88
100
AcDbEntity
  8
Predefinito
  0
SPLINE
  5
8C
330
1F
100
AcDbEntity
  8
Linee visibili 2D
100
AcDbSpline
210
0.0
220
0.0
230
1.0
 70
    24
 71
     2
 72
     6
 73
     3
 74
     0
 42
0.0000000001
 43
0.0000000001
 40
0.0
 40
0.0
 40
0.0
 40
46.75293617367532
 40
46.75293617367532
 40
46.75293617367532
 10
404.063105537918
 20
6.500000000000199
 30
0.0
 10
380.6866374510803
 20
6.500000000000199
 30
0.0
 10
357.3101693642427
 20
6.500000000000199
 30
0.0
  0
SPLINE
  5
8D
330
1F
100
AcDbEntity
  8
Linee visibili 2D
100
AcDbSpline
210
0.0
220
0.0
230
1.0
 70
    24
 71
     2
 72
     6
 73
     3
 74
     0
 42
0.0000000001
 43
0.0000000001
 40
0.0
 40
0.0
 40
0.0
 40
167.0
 40
167.0
 40
167.0
 10
357.3101693642427
 20
6.500000000000199
 30
0.0
 10
357.3101693642427
 20
90.0000000000002
 30
0.0
 10
357.3101693642427
 20
173.5000000000002
 30
0.0
  0
SPLINE
  5
8E
330
1F
100
AcDbEntity
  8
Linee visibili 2D
100
AcDbSpline
210
0.0
220
0.0
230
1.0
 70
    24
 71
     2
 72
     6
 73
     3
 74
     0
 42
0.0000000001
 43
0.0000000001
 40
0.0
 40
0.0
 40
0.0
 40
46.75293617367532
 40
46.75293617367532
 40
46.75293617367532
 10
357.3101693642427
 20
173.5000000000002
 30
0.0
 10
380.6866374510803
 20
173.5000000000002
 30
0.0
 10
404.063105537918
 20
173.5000000000002
 30
0.0
  0
SPLINE
  5
8F
330
1F
100
AcDbEntity
  8
Linee visibili 2D
100
AcDbSpline
210
0.0
220
0.0
230
1.0
 70
    24
 71
     2
 72
     6
 73
     3
 74
     0
 42
0.0000000001
 43
0.0000000001
 40
-167.0
 40
-167.0
 40
-167.0
 40
0.0
 40
0.0
 40
0.0
 10
404.063105537918
 20
173.5000000000002
 30
0.0
 10
404.063105537918
 20
90.0000000000002
 30
0.0
 10
404.063105537918
 20
6.500000000000199
 30
0.0
  0
SPLINE
  5
90
330
1F
100
AcDbEntity
  8
Predefinito
100
AcDbSpline
210
0.0
220
0.0
230
1.0
 70
     8
 71
     3
 72
    11
 73
     7
 74
     0
 42
0.0000000001
 43
0.0000000001
 40
0.0
 40
0.0
 40
0.0
 40
0.0
 40
3.182860068766445
 40
6.579044974476884
 40
13.99054031236561
 40
31.62990409642122
 40
31.62990409642122
 40
31.62990409642122
 40
31.62990409642122
 10
64.9623833920203
 20
555.6482962931418
 30
0.0
 10
63.90442049169344
 20
555.7376871883748
 30
0.0
 10
61.73795011607367
 20
556.1032661770022
 30
0.0
 10
57.2715303208774
 20
557.4847864501278
 30
0.0
 10
48.81124991909718
 20
561.8811631181677
 30
0.0
 10
42.61155001747377
 20
567.6391011217056
 30
0.0
 10
38.77361743605411
 20
572.0783214489405
 30
0.0
  0
SPLINE
  5
91
330
1F
100
AcDbEntity
  8
Predefinito
100
AcDbSpline
210
0.0
220
0.0
230
1.0
 70
     8
 71
     3
 72
    10
 73
     6
 74
     0
 42
0.0000000001
 43
0.0000000001
 40
-3.0
 40
-3.0
 40
-3.0
 40
-3.0
 40
-2.0
 40
-1.0
 40
0.0
 40
0.0
 40
0.0
 40
0.0
 10
38.77361743605411
 20
572.0783214489405
 30
0.0
 10
28.35463328431205
 20
584.8041035371351
 30
0.0
 10
22.10982779989378
 20
601.8417134262704
 30
0.0
 10
20.81115350259815
 20
613.2227714771772
 30
0.0
 10
22.01321347777843
 20
624.9715728611089
 30
0.0
 10
29.13097496050748
 20
629.5748541071755
 30
0.0
  0
SPLINE
  5
92
330
1F
100
AcDbEntity
  8
Predefinito
100
AcDbSpline
210
0.0
220
0.0
230
1.0
 70
     8
 71
     3
 72
    11
 73
     7
 74
     0
 42
0.0000000001
 43
0.0000000001
 40
0.0
 40
0.0
 40
0.0
 40
0.0
 40
14.95455921179727
 40
25.37269269633633
 40
29.13458818757622
 40
32.5284305868125
 40
32.5284305868125
 40
32.5284305868125
 40
32.5284305868125
 10
29.13097496050748
 20
629.5748541071755
 30
0.0
 10
33.39990574840343
 20
632.1488435298082
 30
0.0
 10
40.63753317871591
 20
636.5244051057839
 30
0.0
 10
48.9114402199499
 20
641.6097937720887
 30
0.0
 10
53.84927177074552
 20
644.7622381896617
 30
0.0
 10
55.75887074794449
 20
646.1970700942884
 30
0.0
 10
56.64278916103058
 20
646.9017374056549
 30
0.0
  0
SPLINE
  5
93
330
1F
100
AcDbEntity
  8
Linee visibili 2D
100
AcDbSpline
210
0.0
220
0.0
230
1.0
 70
    24
 71
     2
 72
     6
 73
     3
 74
     0
 42
0.0000000001
 43
0.0000000001
 40
-250.1304677430693
 40
-250.1304677430693
 40
-250.1304677430693
 40
0.0
 40
0.0
 40
0.0
 10
38.7736174359795
 20
572.0783214489157
 30
0.0
 10
38.88981737529485
 20
447.013141558925
 30
0.0
 10
39.0060173146102
 20
321.9479616689342
 30
0.0
  0
SPLINE
  5
94
330
1F
100
AcDbEntity
  8
Linee visibili 2D
100
AcDbSpline
210
0.0
220
0.0
230
1.0
 70
    24
 71
     2
 72
     6
 73
     3
 74
     0
 42
0.0000000001
 43
0.0000000001
 40
0.0
 40
0.0
 40
0.0
 40
292.5659398304624
 40
292.5659398304624
 40
292.5659398304624
 10
39.0060173146102
 20
321.9479616689342
 30
0.0
 10
39.14193096303842
 20
175.6650548933967
 30
0.0
 10
39.27784461146663
 20
29.38214811785919
 30
0.0
  0
SPLINE
  5
95
330
1F
100
AcDbEntity
  8
Linee visibili 2D
100
AcDbSpline
210
0.0
220
0.0
230
1.0
 70
    24
 71
     2
 72
     6
 73
     3
 74
     0
 42
0.0000000001
 43
0.0000000001
 40
0.0
 40
0.0
 40
0.0
 40
75.9451830119861
 40
75.9451830119861
 40
75.9451830119861
 10
39.27784461146663
 20
29.38214811785919
 30
0.0
 10
76.00878086743447
 20
19.75115505166689
 30
0.0
 10
112.7397171234023
 20
10.12016198547459
 30
0.0
  0
SPLINE
  5
96
330
1F
100
AcDbEntity
  8
Linee visibili 2D
100
AcDbSpline
210
0.0
220
0.0
230
1.0
 70
    12
 71
     2
 72
     8
 73
     5
 74
     0
 42
0.0000000001
 43
0.0000000001
 40
-120.9540664385979
 40
-120.9540664385979
 40
-120.9540664385979
 40
-75.8926954646794
 40
-75.8926954646794
 40
0.0
 40
0.0
 40
0.0
 10
50.97298201214485
 20
564.416088496089
 30
0.0
 41
2309.256745205481
 10
37.66723620228834
 20
573.4496441219577
 30
0.0
 41
2231.257279990948
 10
30.05861543345101
 20
590.4848223814689
 30
0.0
 41
2692.903632425357
 10
14.95388170145527
 20
624.3032816666096
 30
0.0
 41
1892.945420078824
 10
36.50493533165761
 20
627.6152564574644
 30
0.0
 41
2636.872961846937
  0
SPLINE
  5
97
330
1F
100
AcDbEntity
  8
Linee visibili 2D
100
AcDbSpline
210
0.0
220
0.0
230
1.0
 70
    12
 71
     2
 72
     6
 73
     3
 74
     0
 42
0.0000000001
 43
0.0000000001
 40
0.0
 40
0.0
 40
0.0
 40
0.9824787361721679
 40
0.9824787361721679
 40
0.9824787361721679
 10
36.50493533165761
 20
627.6152564574644
 30
0.0
 41
1.0
 10
36.99070597092668
 20
627.6897223039417
 30
0.0
 41
0.9993722097856349
 10
37.48053027504564
 20
627.7296024664521
 30
0.0
 41
1.0
  0
SPLINE
  5
98
330
1F
100
AcDbEntity
  8
Linee visibili 2D
100
AcDbSpline
210
0.0
220
0.0
230
1.0
 70
    24
 71
     2
 72
     6
 73
     3
 74
     0
 42
0.0000000001
 43
0.0000000001
 40
-400.0
 40
-400.0
 40
-400.0
 40
0.0
 40
0.0
 40
0.0
 10
404.063105537918
 20
1021.746117974981
 30
0.0
 10
404.063105537918
 20
1221.746117974981
 30
0.0
 10
404.063105537918
 20
1421.746117974981
 30
0.0
  0
SPLINE
  5
99
330
1F
100
AcDbEntity
  8
Linee visibili 2D
100
AcDbSpline
210
0.0
220
0.0
230
1.0
 70
    24
 71
     2
 72
     6
 73
     3
 74
     0
 42
0.0000000001
 43
0.0000000001
 40
0.0
 40
0.0
 40
0.0
 40
500.5
 40
500.5
 40
500.5
 10
404.063105537918
 20
1421.746117974981
 30
0.0
 10
404.063105537918
 20
1671.996117974981
 30
0.0
 10
404.063105537918
 20
1922.246117974981
 30
0.0
  0
SPLINE
  5
9A
330
1F
100
AcDbEntity
  8
Linee visibili 2D
100
AcDbSpline
210
0.0
220
0.0
230
1.0
 70
    24
 71
     2
 72
     6
 73
     3
 74
     0
 42
0.0000000001
 43
0.0000000001
 40
0.0
 40
0.0
 40
0.0
 40
46.75293617367532
 40
46.75293617367532
 40
46.75293617367532
 10
404.063105537918
 20
1922.246117974981
 30
0.0
 10
380.6866374510803
 20
1922.246117974981
 30
0.0
 10
357.3101693642427
 20
1922.246117974981
 30
0.0
  0
SPLINE
  5
9B
330
1F
100
AcDbEntity
  8
Linee visibili 2D
100
AcDbSpline
210
0.0
220
0.0
230
1.0
 70
    24
 71
     2
 72
     6
 73
     3
 74
     0
 42
0.0000000001
 43
0.0000000001
 40
0.0
 40
0.0
 40
0.0
 40
500.5
 40
500.5
 40
500.5
 10
357.3101693642427
 20
1922.246117974981
 30
0.0
 10
357.3101693642427
 20
1671.996117974981
 30
0.0
 10
357.3101693642427
 20
1421.746117974981
 30
0.0
  0
SPLINE
  5
9C
330
1F
100
AcDbEntity
  8
Linee visibili 2D
100
AcDbSpline
210
0.0
220
0.0
230
1.0
 70
    24
 71
     2
 72
     6
 73
     3
 74
     0
 42
0.0000000001
 43
0.0000000001
 40
-400.0
 40
-400.0
 40
-400.0
 40
0.0
 40
0.0
 40
0.0
 10
357.3101693642427
 20
1421.746117974981
 30
0.0
 10
357.3101693642427
 20
1221.746117974981
 30
0.0
 10
357.3101693642427
 20
1021.746117974981
 30
0.0
  0
SPLINE
  5
9D
330
1F
100
AcDbEntity
  8
Linee visibili 2D
100
AcDbSpline
210
0.0
220
0.0
230
1.0
 70
    24
 71
     2
 72
     6
 73
     3
 74
     0
 42
0.0000000001
 43
0.0000000001
 40
0.0
 40
0.0
 40
0.0
 40
0.4257736964188574
 40
0.4257736964188574
 40
0.4257736964188574
 10
40.57117573148486
 20
689.0079634832146
 30
0.0
 10
40.57098522704243
 20
689.2208502461863
 30
0.0
 10
40.5707947226
 20
689.4337370091581
 30
0.0
  0
SPLINE
  5
9E
330
1F
100
AcDbEntity
  8
Linee visibili 2D
100
AcDbSpline
210
0.0
220
0.0
230
1.0
 70
    24
 71
     2
 72
     6
 73
     3
 74
     0
 42
0.0000000001
 43
0.0000000001
 40
0.0
 40
0.0
 40
0.0
 40
71.68742668980931
 40
71.68742668980931
 40
71.68742668980931
 10
40.5707947226
 20
689.4337370091581
 30
0.0
 10
75.74422786044568
 20
696.3331128975408
 30
0.0
 10
110.9176609982913
 20
703.2324887859235
 30
0.0
  0
SPLINE
  5
9F
330
1F
100
AcDbEntity
  8
Linee visibili 2D
100
AcDbSpline
210
0.0
220
0.0
230
1.0
 70
    24
 71
     2
 72
     6
 73
     3
 74
     0
 42
0.0000000001
 43
0.0000000001
 40
0.0
 40
0.0
 40
0.0
 40
200.427432115462
 40
200.427432115462
 40
200.427432115462
 10
110.9176609982913
 20
703.2324887859235
 30
0.0
 10
110.8806731491412
 20
603.0187795541095
 30
0.0
 10
110.843685299991
 20
502.8050703222956
 30
0.0
  0
SPLINE
  5
A0
330
1F
100
AcDbEntity
  8
Linee visibili 2D
100
AcDbSpline
210
0.0
220
0.0
230
1.0
 70
    24
 71
     2
 72
     6
 73
     3
 74
     0
 42
0.0000000001
 43
0.0000000001
 40
0.0
 40
0.0
 40
0.0
 40
70.24318661220137
 40
70.24318661220137
 40
70.24318661220137
 10
110.843685299991
 20
502.8050703222956
 30
0.0
 10
75.79273594045965
 20
500.5785786078034
 30
0.0
 10
40.74178658092826
 20
498.3520868933111
 30
0.0
  0
SPLINE
  5
A1
330
1F
100
AcDbEntity
  8
Linee visibili 2D
100
AcDbSpline
210
0.0
220
0.0
230
1.0
 70
    24
 71
     2
 72
     6
 73
     3
 74
     0
 42
0.0000000001
 43
0.0000000001
 40
0.0
 40
0.0
 40
0.0
 40
0.488066620898367
 40
0.488066620898367
 40
0.488066620898367
 10
40.74178658092826
 20
498.3520868933111
 30
0.0
 10
40.74156820468692
 20
498.5961201060519
 30
0.0
 10
40.74134982844559
 20
498.8401533187927
 30
0.0
  0
SPLINE
  5
A2
330
1F
100
AcDbEntity
  8
Linee visibili 2D
100
AcDbSpline
210
0.0
220
0.0
230
1.0
 70
    24
 71
     2
 72
     6
 73
     3
 74
     0
 42
0.0000000001
 43
0.0000000001
 40
0.0
 40
0.0
 40
0.0
 40
3.881418440909599
 40
3.881418440909599
 40
3.881418440909599
 10
78.23120087819919
 20
3.881418346231579
 30
0.0
 10
78.23162953013382
 20
1.940709173115783
 30
0.0
 10
78.23205818206844
 20
-0.0000000000000118
 30
0.0
  0
SPLINE
  5
A3
330
1F
100
AcDbEntity
  8
Linee visibili 2D
100
AcDbSpline
210
0.0
220
0.0
230
1.0
 70
    24
 71
     2
 72
     6
 73
     3
 74
     0
 42
0.0000000001
 43
0.0000000001
 40
0.0
 40
0.0
 40
0.0
 40
81.13353865338436
 40
81.13353865338436
 40
81.13353865338436
 10
78.23205818206844
 20
-0.0000000000000118
 30
0.0
 10
39.11905102596427
 20
10.76268762027392
 30
0.0
 10
0.0060438698601103
 20
21.52537524054785
 30
0.0
  0
SPLINE
  5
A4
330
1F
100
AcDbEntity
  8
Linee visibili 2D
100
AcDbSpline
210
0.0
220
0.0
230
1.0
 70
    24
 71
     2
 72
     6
 73
     3
 74
     0
 42
0.0000000001
 43
0.0000000001
 40
-3.677478712759631
 40
-3.677478712759631
 40
-3.677478712759631
 40
0.0
 40
0.0
 40
0.0
 10
0.0060438698601103
 20
21.52537524054785
 30
0.0
 10
0.0030219349300255
 20
23.36411211367824
 30
0.0
 10
-0.0000000000000593
 20
25.20284898680863
 30
0.0
  0
SPLINE
  5
A5
330
1F
100
AcDbEntity
  8
Linee visibili 2D
100
AcDbSpline
210
0.0
220
0.0
230
1.0
 70
    24
 71
     2
 72
     6
 73
     3
 74
     0
 42
0.0000000001
 43
0.0000000001
 40
0.0
 40
0.0
 40
0.0
 40
81.0846729993166
 40
81.0846729993166
 40
81.0846729993166
 10
-0.0000000000000593
 20
25.20284898680863
 30
0.0
 10
39.11560043909957
 20
14.5421336665201
 30
0.0
 10
78.23120087819919
 20
3.881418346231579
 30
0.0
  0
SPLINE
  5
A6
330
1F
100
AcDbEntity
  8
Linee visibili 2D
100
AcDbSpline
210
0.0
220
0.0
230
1.0
 70
    24
 71
     2
 72
     6
 73
     3
 74
     0
 42
0.0000000001
 43
0.0000000001
 40
0.0
 40
0.0
 40
0.0
 40
102.8365215218101
 40
102.8365215218101
 40
102.8365215218101
 10
78.23120087819919
 20
3.881418346231579
 30
0.0
 10
129.1156004390996
 20
11.27164303855765
 30
0.0
 10
180.0
 20
18.66186773088373
 30
0.0
  0
SPLINE
  5
A7
330
1F
100
AcDbEntity
  8
Linee visibili 2D
100
AcDbSpline
210
0.0
220
0.0
230
1.0
 70
    12
 71
     2
 72
     8
 73
     5
 74
     0
 42
0.0000000001
 43
0.0000000001
 40
-14.11076590221443
 40
-14.11076590221443
 40
-14.11076590221443
 40
-7.055382951107358
 40
-7.055382951107358
 40
0.0
 40
0.0
 40
0.0
 10
78.0000000000012
 20
1675.22173150806
 30
0.0
 41
1.0
 10
73.5084037117014
 20
1675.22173150806
 30
0.0
 41
0.7071067811865744
 10
73.50840371170104
 20
1670.73013521976
 30
0.0
 41
1.0
 10
73.50840371170128
 20
1666.23853893146
 30
0.0
 41
0.70710678118658
 10
78.0000000000012
 20
1666.23853893146
 30
0.0
 41
1.0
  0
SPLINE
  5
A8
330
1F
100
AcDbEntity
  8
Linee visibili 2D
100
AcDbSpline
210
0.0
220
0.0
230
1.0
 70
    24
 71
     2
 72
     6
 73
     3
 74
     0
 42
0.0000000001
 43
0.0000000001
 40
0.0
 40
0.0
 40
0.0
 40
24.0
 40
24.0
 40
24.0
 10
78.0000000000012
 20
1666.23853893146
 30
0.0
 10
90.0000000000012
 20
1666.23853893146
 30
0.0
 10
102.0000000000012
 20
1666.23853893146
 30
0.0
  0
SPLINE
  5
A9
330
1F
100
AcDbEntity
  8
Linee visibili 2D
100
AcDbSpline
210
0.0
220
0.0
230
1.0
 70
    12
 71
     2
 72
     8
 73
     5
 74
     0
 42
0.0000000001
 43
0.0000000001
 40
0.0
 40
0.0
 40
0.0
 40
7.055382951107498
 40
7.055382951107498
 40
14.11076590221471
 40
14.11076590221471
 40
14.11076590221471
 10
102.0000000000012
 20
1666.23853893146
 30
0.0
 41
1.0
 10
106.4915962883014
 20
1666.23853893146
 30
0.0
 41
0.7071067811865408
 10
106.4915962883014
 20
1670.73013521976
 30
0.0
 41
1.0
 10
106.4915962883013
 20
1675.22173150806
 30
0.0
 41
0.7071067811865229
 10
102.0000000000012
 20
1675.22173150806
 30
0.0
 41
1.0
  0
SPLINE
  5
AA
330
1F
100
AcDbEntity
  8
Linee visibili 2D
100
AcDbSpline
210
0.0
220
0.0
230
1.0
 70
    24
 71
     2
 72
     6
 73
     3
 74
     0
 42
0.0000000001
 43
0.0000000001
 40
0.0
 40
0.0
 40
0.0
 40
24.0
 40
24.0
 40
24.0
 10
102.0000000000012
 20
1675.22173150806
 30
0.0
 10
90.0000000000012
 20
1675.22173150806
 30
0.0
 10
78.0000000000012
 20
1675.22173150806
 30
0.0
  0
SPLINE
  5
AB
330
1F
100
AcDbEntity
  8
Linee visibili 2D
100
AcDbSpline
210
0.0
220
0.0
230
1.0
 70
    12
 71
     2
 72
     6
 73
     3
 74
     0
 42
0.0000000001
 43
0.0000000001
 40
0.0
 40
0.0
 40
0.0
 40
0.8362307705122153
 40
0.8362307705122153
 40
0.8362307705122153
 10
41.12112978212978
 20
498.4142455591649
 30
0.0
 41
1.0
 10
40.70485248852468
 20
498.6350660764752
 30
0.0
 41
0.8392197045419338
 10
40.73631806519686
 20
499.1052347133266
 30
0.0
 41
1.0
  0
SPLINE
  5
AC
330
1F
100
AcDbEntity
  8
Linee visibili 2D
100
AcDbSpline
210
0.0
220
0.0
230
1.0
 70
    24
 71
     2
 72
     6
 73
     3
 74
     0
 42
0.0000000001
 43
0.0000000001
 40
0.0
 40
0.0
 40
0.0
 40
70.85271006538731
 40
70.85271006538731
 40
70.85271006538731
 10
40.73631806519686
 20
499.1052347133266
 30
0.0
 10
40.70461328843483
 20
534.5315756352779
 30
0.0
 10
40.67290851167279
 20
569.9579165572292
 30
0.0
  0
SPLINE
  5
AD
330
1F
100
AcDbEntity
  8
Linee visibili 2D
100
AcDbSpline
210
0.0
220
0.0
230
1.0
 70
    24
 71
     2
 72
     6
 73
     3
 74
     0
 42
0.0000000001
 43
0.0000000001
 40
0.0
 40
0.0
 40
0.0
 40
52.18561630053622
 40
52.18561630053622
 40
52.18561630053622
 10
40.61333332114113
 20
636.5261509310046
 30
0.0
 10
40.58998159161982
 20
662.6189487875913
 30
0.0
 10
40.5666298620985
 20
688.711746644178
 30
0.0
  0
SPLINE
  5
AE
330
1F
100
AcDbEntity
  8
Linee visibili 2D
100
AcDbSpline
210
0.0
220
0.0
230
1.0
 70
    12
 71
     2
 72
     6
 73
     3
 74
     0
 42
0.0000000001
 43
0.0000000001
 40
0.0
 40
0.0
 40
0.0
 40
1.014105269826647
 40
1.014105269826647
 40
1.014105269826647
 10
40.5666298620985
 20
688.711746644178
 30
0.0
 41
1.0
 10
40.50981544588109
 20
689.3094765908043
 30
0.0
 41
0.7822586259921274
 10
41.07965757157835
 20
689.4986552012539
 30
0.0
 41
1.0
  0
SPLINE
  5
AF
330
1F
100
AcDbEntity
  8
Linee visibili 2D
100
AcDbSpline
210
0.0
220
0.0
230
1.0
 70
    12
 71
     2
 72
     6
 73
     3
 74
     0
 42
0.0000000001
 43
0.0000000001
 40
0.0
 40
0.0
 40
0.0
 40
0.7976558610253285
 40
0.7976558610253285
 40
0.7976558610253285
 10
44.52100020451105
 20
1763.077297069015
 30
0.0
 41
1.0
 10
44.70389850455096
 20
1762.722864890035
 30
0.0
 41
0.9999517228625271
 10
44.88558461757854
 20
1762.367680097863
 30
0.0
 41
1.0
  0
SPLINE
  5
B0
330
1F
100
AcDbEntity
  8
Linee visibili 2D
100
AcDbSpline
210
0.0
220
0.0
230
1.0
 70
    12
 71
     2
 72
     6
 73
     3
 74
     0
 42
0.0000000001
 43
0.0000000001
 40
0.0
 40
0.0
 40
0.0
 40
1.381638949199431
 40
1.381638949199431
 40
1.381638949199431
 10
44.88558461757854
 20
1762.367680097863
 30
0.0
 41
0.999999999660029
 10
45.20689777245062
 20
1761.755989187405
 30
0.0
 41
0.9998559012787243
 10
45.56410634591143
 20
1761.164541114213
 30
0.0
 41
1.0
  0
SPLINE
  5
B1
330
1F
100
AcDbEntity
  8
Linee visibili 2D
100
AcDbSpline
210
0.0
220
0.0
230
1.0
 70
    12
 71
     2
 72
     6
 73
     3
 74
     0
 42
0.0000000001
 43
0.0000000001
 40
0.0
 40
0.0
 40
0.0
 40
0.8543765620043261
 40
0.8543765620043261
 40
0.8543765620043261
 10
45.56410634591143
 20
1761.164541114213
 30
0.0
 41
1.0
 10
45.78733028318945
 20
1760.800197622943
 30
0.0
 41
0.999946442842845
 10
46.00399421923593
 20
1760.431915901966
 30
0.0
 41
1.0
  0
SPLINE
  5
B2
330
1F
100
AcDbEntity
  8
Linee visibili 2D
100
AcDbSpline
210
0.0
220
0.0
230
1.0
 70
    12
 71
     2
 72
     6
 73
     3
 74
     0
 42
0.0000000001
 43
0.0000000001
 40
0.0
 40
0.0
 40
0.0
 40
1.332918835159811
 40
1.332918835159811
 40
1.332918835159811
 10
46.00399421923593
 20
1760.431915901966
 30
0.0
 41
1.0
 10
46.34646299662229
 20
1759.860056697179
 30
0.0
 41
0.9998733297846784
 10
46.71974794499666
 20
1759.307820260666
 30
0.0
 41
1.0
  0
SPLINE
  5
B3
330
1F
100
AcDbEntity
  8
Linee visibili 2D
100
AcDbSpline
210
0.0
220
0.0
230
1.0
 70
    12
 71
     2
 72
     6
 73
     3
 74
     0
 42
0.0000000001
 43
0.0000000001
 40
0.0
 40
0.0
 40
0.0
 40
0.3824378478829265
 40
0.3824378478829265
 40
0.3824378478829265
 10
46.71974794499666
 20
1759.307820260666
 30
0.0
 41
1.0
 10
46.83103596621996
 20
1759.152148478438
 30
0.0
 41
0.9999896969836279
 10
46.93174605154438
 20
1758.989438424245
 30
0.0
 41
1.0
  0
SPLINE
  5
B4
330
1F
100
AcDbEntity
  8
Linee visibili 2D
100
AcDbSpline
210
0.0
220
0.0
230
1.0
 70
    12
 71
     2
 72
     6
 73
     3
 74
     0
 42
0.0000000001
 43
0.0000000001
 40
0.0
 40
0.0
 40
0.0
 40
1.822774773602651
 40
1.822774773602651
 40
1.822774773602651
 10
46.93174605154438
 20
1758.989438424245
 30
0.0
 41
0.9999999988473118
 10
47.43489592762749
 20
1758.229327315887
 30
0.0
 41
0.9997697079851399
 10
47.98089373834262
 20
1757.499385229997
 30
0.0
 41
1.0
  0
SPLINE
  5
B5
330
1F
100
AcDbEntity
  8
Linee visibili 2D
100
AcDbSpline
210
0.0
220
0.0
230
1.0
 70
    12
 71
     2
 72
     6
 73
     3
 74
     0
 42
0.0000000001
 43
0.0000000001
 40
0.0
 40
0.0
 40
0.0
 40
1.163425617336004
 40
1.163425617336004
 40
1.163425617336004
 10
47.98089373834262
 20
1757.499385229997
 30
0.0
 41
1.0
 10
48.3306120830831
 20
1757.034448653496
 30
0.0
 41
0.9999090083873122
 10
48.68356479639189
 20
1756.571948237489
 30
0.0
 41
1.0
  0
SPLINE
  5
B6
330
1F
100
AcDbEntity
  8
Linee visibili 2D
100
AcDbSpline
210
0.0
220
0.0
230
1.0
 70
    12
 71
     2
 72
     6
 73
     3
 74
     0
 42
0.0000000001
 43
0.0000000001
 40
0.0
 40
0.0
 40
0.0
 40
1.063788970434749
 40
1.063788970434749
 40
1.063788970434749
 10
48.68356479639189
 20
1756.571948237489
 30
0.0
 41
1.0
 10
49.00641218900218
 20
1756.149157333548
 30
0.0
 41
0.9999253610961557
 10
49.3474926245466
 20
1755.740949291063
 30
0.0
 41
1.0
  0
SPLINE
  5
B7
330
1F
100
AcDbEntity
  8
Linee visibili 2D
100
AcDbSpline
210
0.0
220
0.0
230
1.0
 70
    12
 71
     2
 72
     6
 73
     3
 74
     0
 42
0.0000000001
 43
0.0000000001
 40
0.0
 40
0.0
 40
0.0
 40
1.075284076843052
 40
1.075284076843052
 40
1.075284076843052
 10
49.3474926245466
 20
1755.740949291063
 30
0.0
 41
1.0
 10
49.69173092170107
 20
1755.327897645148
 30
0.0
 41
0.9999247729971408
 10
50.03908205578269
 20
1754.91745905772
 30
0.0
 41
1.0
  0
SPLINE
  5
B8
330
1F
100
AcDbEntity
  8
Linee visibili 2D
100
AcDbSpline
210
0.0
220
0.0
230
1.0
 70
    12
 71
     2
 72
     6
 73
     3
 74
     0
 42
0.0000000001
 43
0.0000000001
 40
0.0
 40
0.0
 40
0.0
 40
1.178781092815475
 40
1.178781092815475
 40
1.178781092815475
 10
50.03908205578269
 20
1754.91745905772
 30
0.0
 41
1.0
 10
50.42065154567234
 20
1754.468186039084
 30
0.0
 41
0.9999130007701058
 10
50.8198331483414
 20
1754.034488829657
 30
0.0
 41
1.0
  0
SPLINE
  5
B9
330
1F
100
AcDbEntity
  8
Linee visibili 2D
100
AcDbSpline
210
0.0
220
0.0
230
1.0
 70
    12
 71
     2
 72
     6
 73
     3
 74
     0
 42
0.0000000001
 43
0.0000000001
 40
0.0
 40
0.0
 40
0.0
 40
0.6950054781521502
 40
0.6950054781521502
 40
0.6950054781521502
 10
50.8198331483414
 20
1754.034488829657
 30
0.0
 41
1.0
 10
51.0560695561504
 20
1753.779598614577
 30
0.0
 41
0.9999701634265473
 10
51.29103009939237
 20
1753.523531727796
 30
0.0
 41
1.0
  0
SPLINE
  5
BA
330
1F
100
AcDbEntity
  8
Linee visibili 2D
100
AcDbSpline
210
0.0
220
0.0
230
1.0
 70
    12
 71
     2
 72
     6
 73
     3
 74
     0
 42
0.0000000001
 43
0.0000000001
 40
0.0
 40
0.0
 40
0.0
 40
1.573866413977928
 40
1.573866413977928
 40
1.573866413977928
 10
51.29103009939237
 20
1753.523531727796
 30
0.0
 41
1.0
 10
51.82675991731297
 20
1752.946996187331
 30
0.0
 41
0.999850223101919
 10
52.38648980945831
 20
1752.393731976497
 30
0.0
 41
1.0
  0
SPLINE
  5
BB
330
1F
100
AcDbEntity
  8
Linee visibili 2D
100
AcDbSpline
210
0.0
220
0.0
230
1.0
 70
    12
 71
     2
 72
     6
 73
     3
 74
     0
 42
0.0000000001
 43
0.0000000001
 40
0.0
 40
0.0
 40
0.0
 40
1.302768847548903
 40
1.302768847548903
 40
1.302768847548903
 10
52.38648980945831
 20
1752.393731976497
 30
0.0
 41
1.0
 10
52.84977072759755
 20
1751.935761076027
 30
0.0
 41
0.9998991647769292
 10
53.32240945289212
 20
1751.487445949593
 30
0.0
 41
1.0
  0
SPLINE
  5
BC
330
1F
100
AcDbEntity
  8
Linee visibili 2D
100
AcDbSpline
210
0.0
220
0.0
230
1.0
 70
    12
 71
     2
 72
     6
 73
     3
 74
     0
 42
0.0000000001
 43
0.0000000001
 40
0.0
 40
0.0
 40
0.0
 40
0.969441612680755
 40
0.969441612680755
 40
0.969441612680755
 10
53.32240945289212
 20
1751.487445949593
 30
0.0
 41
1.0
 10
53.67396850776457
 20
1751.153696759316
 30
0.0
 41
0.9999451381679387
 10
54.03522576010214
 20
1750.830479021171
 30
0.0
 41
1.0
  0
SPLINE
  5
BD
330
1F
100
AcDbEntity
  8
Linee visibili 2D
100
AcDbSpline
210
0.0
220
0.0
230
1.0
 70
    12
 71
     2
 72
     6
 73
     3
 74
     0
 42
0.0000000001
 43
0.0000000001
 40
0.0
 40
0.0
 40
0.0
 40
0.9437761963697624
 40
0.9437761963697624
 40
0.9437761963697624
 10
54.03522576010214
 20
1750.830479021171
 30
0.0
 41
1.0
 10
54.38669790797437
 20
1750.515575128679
 30
0.0
 41
0.9999489300187594
 10
54.74223981579276
 20
1750.205270405645
 30
0.0
 41
1.0
  0
SPLINE
  5
BE
330
1F
100
AcDbEntity
  8
Linee visibili 2D
100
AcDbSpline
210
0.0
220
0.0
230
1.0
 70
    12
 71
     2
 72
     6
 73
     3
 74
     0
 42
0.0000000001
 43
0.0000000001
 40
0.0
 40
0.0
 40
0.0
 40
1.33737385956702
 40
1.33737385956702
 40
1.33737385956702
 10
54.74223981579276
 20
1750.205270405645
 30
0.0
 41
1.0
 10
55.24684793815297
 20
1749.766433596523
 30
0.0
 41
0.9998999222814061
 10
55.76524740721172
 20
1749.3439813796
 30
0.0
 41
1.0
  0
SPLINE
  5
BF
330
1F
100
AcDbEntity
  8
Linee visibili 2D
100
AcDbSpline
210
0.0
220
0.0
230
1.0
 70
    12
 71
     2
 72
     6
 73
     3
 74
     0
 42
0.0000000001
 43
0.0000000001
 40
0.0
 40
0.0
 40
0.0
 40
1.765024303958056
 40
1.765024303958056
 40
1.765024303958056
 10
55.76524740721172
 20
1749.3439813796
 30
0.0
 41
1.0
 10
56.44883817644101
 20
1748.785672097259
 30
0.0
 41
0.9998297446279191
 10
57.15171116931037
 20
1748.251832682656
 30
0.0
 41
1.0
  0
SPLINE
  5
C0
330
1F
100
AcDbEntity
  8
Linee visibili 2D
100
AcDbSpline
210
0.0
220
0.0
230
1.0
 70
    12
 71
     2
 72
     6
 73
     3
 74
     0
 42
0.0000000001
 43
0.0000000001
 40
0.0
 40
0.0
 40
0.0
 40
1.75864456774571
 40
1.75864456774571
 40
1.75864456774571
 10
57.15171116931037
 20
1748.251832682656
 30
0.0
 41
1.0
 10
57.85222071222717
 20
1747.720162884738
 30
0.0
 41
0.9998347730934379
 10
58.57187052386911
 20
1747.214712180563
 30
0.0
 41
0.999999999617009
  0
SPLINE
  5
C1
330
1F
100
AcDbEntity
  8
Linee visibili 2D
100
AcDbSpline
210
0.0
220
0.0
230
1.0
 70
    12
 71
     2
 72
     6
 73
     3
 74
     0
 42
0.0000000001
 43
0.0000000001
 40
0.0
 40
0.0
 40
0.0
 40
1.778448207000609
 40
1.778448207000609
 40
1.778448207000609
 10
58.57187052386911
 20
1747.214712180563
 30
0.0
 41
0.9999999996275795
 10
59.29937715992645
 20
1746.703223384098
 30
0.0
 41
0.9998397150317919
 10
60.04491873917588
 20
1746.218395595684
 30
0.0
 41
1.0
  0
SPLINE
  5
C2
330
1F
100
AcDbEntity
  8
Linee visibili 2D
100
AcDbSpline
210
0.0
220
0.0
230
1.0
 70
    12
 71
     2
 72
     6
 73
     3
 74
     0
 42
0.0000000001
 43
0.0000000001
 40
0.0
 40
0.0
 40
0.0
 40
0.6698165792127454
 40
0.6698165792127454
 40
0.6698165792127454
 10
60.04491873917588
 20
1746.218395595684
 30
0.0
 41
1.0
 10
60.32590755816343
 20
1746.036151297331
 30
0.0
 41
0.9999779716284306
 10
60.60876919175281
 20
1745.856831010519
 30
0.0
 41
0.9999999998596802
  0
SPLINE
  5
C3
330
1F
100
AcDbEntity
  8
Linee visibili 2D
100
AcDbSpline
210
0.0
220
0.0
230
1.0
 70
    12
 71
     2
 72
     6
 73
     3
 74
     0
 42
0.0000000001
 43
0.0000000001
 40
0.0
 40
0.0
 40
0.0
 40
1.711632289215687
 40
1.711632289215687
 40
1.711632289215687
 10
60.60876919175281
 20
1745.856831010519
 30
0.0
 41
0.9999999996908002
 10
61.33190851637558
 20
1745.398979697827
 30
0.0
 41
0.999858399500695
 10
62.07081174203547
 20
1744.967026698838
 30
0.0
 41
1.0
  0
SPLINE
  5
C4
330
1F
100
AcDbEntity
  8
Linee visibili 2D
100
AcDbSpline
210
0.0
220
0.0
230
1.0
 70
    12
 71
     2
 72
     6
 73
     3
 74
     0
 42
0.0000000001
 43
0.0000000001
 40
0.0
 40
0.0
 40
0.0
 40
0.7432768897822448
 40
0.7432768897822448
 40
0.7432768897822448
 10
62.07081174203547
 20
1744.967026698838
 30
0.0
 41
1.0
 10
62.39198866684014
 20
1744.780032136179
 30
0.0
 41
0.999973937184564
 10
62.71484034995223
 20
1744.595947082302
 30
0.0
 41
0.9999999998947875
  0
SPLINE
  5
C5
330
1F
100
AcDbEntity
  8
Linee visibili 2D
100
AcDbSpline
210
0.0
220
0.0
230
1.0
 70
    12
 71
     2
 72
     6
 73
     3
 74
     0
 42
0.0000000001
 43
0.0000000001
 40
0.0
 40
0.0
 40
0.0
 40
1.632819105085934
 40
1.632819105085934
 40
1.632819105085934
 10
62.71484034995223
 20
1744.595947082302
 30
0.0
 41
0.9999999998190803
 10
63.42463439005593
 20
1744.192427678775
 30
0.0
 41
0.9998753904589749
 10
64.14792688385688
 20
1743.813631463559
 30
0.0
 41
1.0
  0
SPLINE
  5
C6
330
1F
100
AcDbEntity
  8
Linee visibili 2D
100
AcDbSpline
210
0.0
220
0.0
230
1.0
 70
    12
 71
     2
 72
     6
 73
     3
 74
     0
 42
0.0000000001
 43
0.0000000001
 40
0.0
 40
0.0
 40
0.0
 40
0.8246570626425087
 40
0.8246570626425087
 40
0.8246570626425087
 10
64.14792688385688
 20
1743.813631463559
 30
0.0
 41
1.0
 10
64.51356901873642
 20
1743.623026558643
 30
0.0
 41
0.9999681919822729
 10
64.88093656840971
 20
1743.43577182517
 30
0.0
 41
0.9999999998152705
  0
SPLINE
  5
C7
330
1F
100
AcDbEntity
  8
Linee visibili 2D
100
AcDbSpline
210
0.0
220
0.0
230
1.0
 70
    12
 71
     2
 72
     6
 73
     3
 74
     0
 42
0.0000000001
 43
0.0000000001
 40
0.0
 40
0.0
 40
0.0
 40
1.566557150204416
 40
1.566557150204416
 40
1.566557150204416
 10
64.88093656840971
 20
1743.43577182517
 30
0.0
 41
0.9999999997536055
 10
65.57928838603407
 20
1743.080916732579
 30
0.0
 41
0.9998885083261867
 10
66.28938928481841
 20
1742.750190392592
 30
0.0
 41
1.0
  0
SPLINE
  5
C8
330
1F
100
AcDbEntity
  8
Linee visibili 2D
100
AcDbSpline
210
0.0
220
0.0
230
1.0
 70
    12
 71
     2
 72
     6
 73
     3
 74
     0
 42
0.0000000001
 43
0.0000000001
 40
0.0
 40
0.0
 40
0.0
 40
0.889286354332562
 40
0.889286354332562
 40
0.889286354332562
 10
66.28938928481841
 20
1742.750190392592
 30
0.0
 41
1.0
 10
66.69293522289445
 20
1742.563445993766
 30
0.0
 41
0.9999649255770708
 10
67.09785509653736
 20
1742.379706208414
 30
0.0
 41
0.9999999997915829
  0
SPLINE
  5
C9
330
1F
100
AcDbEntity
  8
Linee visibili 2D
100
AcDbSpline
210
0.0
220
0.0
230
1.0
 70
    12
 71
     2
 72
     6
 73
     3
 74
     0
 42
0.0000000001
 43
0.0000000001
 40
0.0
 40
0.0
 40
0.0
 40
1.510312138479665
 40
1.510312138479665
 40
1.510312138479665
 10
67.09785509653736
 20
1742.379706208414
 30
0.0
 41
0.9999999997806406
 10
67.78606062839775
 20
1742.068716843895
 30
0.0
 41
0.9998987445711511
 10
68.48463416003366
 20
1741.781766688071
 30
0.0
 41
1.0
  0
SPLINE
  5
CA
330
1F
100
AcDbEntity
  8
Linee visibili 2D
100
AcDbSpline
210
0.0
220
0.0
230
1.0
 70
    12
 71
     2
 72
     6
 73
     3
 74
     0
 42
0.0000000001
 43
0.0000000001
 40
0.0
 40
0.0
 40
0.0
 40
0.93965491859127
 40
0.93965491859127
 40
0.93965491859127
 10
68.48463416003366
 20
1741.781766688071
 30
0.0
 41
1.0
 10
68.91966475192088
 20
1741.604268840996
 30
0.0
 41
0.9999614999570869
 10
69.35585410227299
 20
1741.429642815268
 30
0.0
 41
0.9999999998607871
  0
SPLINE
  5
CB
330
1F
100
AcDbEntity
  8
Linee visibili 2D
100
AcDbSpline
210
0.0
220
0.0
230
1.0
 70
    12
 71
     2
 72
     6
 73
     3
 74
     0
 42
0.0000000001
 43
0.0000000001
 40
0.0
 40
0.0
 40
0.0
 40
1.33257182856675
 40
1.33257182856675
 40
1.33257182856675
 10
69.35585410227299
 20
1741.429642815268
 30
0.0
 41
0.9999999998857021
 10
69.97479286600081
 20
1741.182856427388
 30
0.0
 41
0.9999232517054855
 10
70.60153763038545
 20
1740.956616221008
 30
0.0
 41
1.0
  0
SPLINE
  5
CC
330
1F
100
AcDbEntity
  8
Linee visibili 2D
100
AcDbSpline
210
0.0
220
0.0
230
1.0
 70
    12
 71
     2
 72
     6
 73
     3
 74
     0
 42
0.0000000001
 43
0.0000000001
 40
0.0
 40
0.0
 40
0.0
 40
1.107242715130388
 40
1.107242715130388
 40
1.107242715130388
 10
70.60153763038545
 20
1740.956616221008
 30
0.0
 41
1.0
 10
71.12250267409848
 20
1740.769201117626
 30
0.0
 41
0.999948025423261
 10
71.64530710306406
 20
1740.58698897671
 30
0.0
 41
0.9999999998596878
  0
SPLINE
  5
CD
330
1F
100
AcDbEntity
  8
Linee visibili 2D
100
AcDbSpline
210
0.0
220
0.0
230
1.0
 70
    12
 71
     2
 72
     6
 73
     3
 74
     0
 42
0.0000000001
 43
0.0000000001
 40
0.0
 40
0.0
 40
0.0
 40
1.493031796374258
 40
1.493031796374258
 40
1.493031796374258
 10
71.64530710306406
 20
1740.58698897671
 30
0.0
 41
0.9999999999002924
 10
72.35056443197026
 20
1740.342090809252
 30
0.0
 41
0.9999072690716972
 10
73.0640450879254
 20
1740.122294314782
 30
0.0
 41
1.0
  0
SPLINE
  5
CE
330
1F
100
AcDbEntity
  8
Linee visibili 2D
100
AcDbSpline
210
0.0
220
0.0
230
1.0
 70
    12
 71
     2
 72
     6
 73
     3
 74
     0
 42
0.0000000001
 43
0.0000000001
 40
0.0
 40
0.0
 40
0.0
 40
0.9324807145481068
 40
0.9324807145481068
 40
0.9324807145481068
 10
73.0640450879254
 20
1740.122294314782
 30
0.0
 41
1.0
 10
73.51001605577098
 20
1739.986239691398
 30
0.0
 41
0.9999646529582087
 10
73.95642022226332
 20
1739.851615908363
 30
0.0
 41
0.9999999999321681
  0
SPLINE
  5
CF
330
1F
100
AcDbEntity
  8
Linee visibili 2D
100
AcDbSpline
210
0.0
220
0.0
230
1.0
 70
    12
 71
     2
 72
     6
 73
     3
 74
     0
 42
0.0000000001
 43
0.0000000001
 40
0.0
 40
0.0
 40
0.0
 40
1.497356138926897
 40
1.497356138926897
 40
1.497356138926897
 10
73.95642022226332
 20
1739.851615908363
 30
0.0
 41
0.9999999999459248
 10
74.67379257374763
 20
1739.637201031783
 30
0.0
 41
0.9999090665651977
 10
75.3983692277734
 20
1739.448540968148
 30
0.0
 41
1.0
  0
SPLINE
  5
D0
330
1F
100
AcDbEntity
  8
Linee visibili 2D
100
AcDbSpline
210
0.0
220
0.0
230
1.0
 70
    12
 71
     2
 72
     6
 73
     3
 74
     0
 42
0.0000000001
 43
0.0000000001
 40
0.0
 40
0.0
 40
0.0
 40
0.9097742502942867
 40
0.9097742502942867
 40
0.9097742502942867
 10
75.3983692277734
 20
1739.448540968148
 30
0.0
 41
1.0
 10
75.83896794238134
 20
1739.335319203023
 30
0.0
 41
0.9999664126396842
 10
76.27971834608937
 20
1739.222705772827
 30
0.0
 41
0.9999999998243372
  0
SPLINE
  5
D1
330
1F
100
AcDbEntity
  8
Linee visibili 2D
100
AcDbSpline
210
0.0
220
0.0
230
1.0
 70
    12
 71
     2
 72
     6
 73
     3
 74
     0
 42
0.0000000001
 43
0.0000000001
 40
0.0
 40
0.0
 40
0.0
 40
1.43223607120704
 40
1.43223607120704
 40
1.43223607120704
 10
76.27971834608937
 20
1739.222705772827
 30
0.0
 41
0.9999999998829917
 10
76.97401893536626
 20
1739.047094516746
 30
0.0
 41
0.9999179767137779
 10
77.67414560206745
 20
1738.896371632757
 30
0.0
 41
1.0
  0
SPLINE
  5
D2
330
1F
100
AcDbEntity
  8
Linee visibili 2D
100
AcDbSpline
210
0.0
220
0.0
230
1.0
 70
    12
 71
     2
 72
     6
 73
     3
 74
     0
 42
0.0000000001
 43
0.0000000001
 40
0.0
 40
0.0
 40
0.0
 40
0.9526177810175158
 40
0.9526177810175158
 40
0.9526177810175158
 10
77.67414560206745
 20
1738.896371632757
 30
0.0
 41
1.0
 10
78.14009277641483
 20
1738.79743665965
 30
0.0
 41
0.9999649457549212
 10
78.60612675938518
 20
1738.698912321609
 30
0.0
 41
0.9999999998826521
  0
SPLINE
  5
D3
330
1F
100
AcDbEntity
  8
Linee visibili 2D
100
AcDbSpline
210
0.0
220
0.0
230
1.0
 70
    12
 71
     2
 72
     6
 73
     3
 74
     0
 42
0.0000000001
 43
0.0000000001
 40
0.0
 40
0.0
 40
0.0
 40
1.893084249458983
 40
1.893084249458983
 40
1.893084249458983
 10
78.60612675938518
 20
1738.698912321609
 30
0.0
 41
0.9999999999068756
 10
79.53302039875372
 20
1738.506588210322
 30
0.0
 41
0.9998625036781612
 10
80.4670936366459
 20
1738.352862319516
 30
0.0
 41
1.0
  0
SPLINE
  5
D4
330
1F
100
AcDbEntity
  8
Linee visibili 2D
100
AcDbSpline
210
0.0
220
0.0
230
1.0
 70
    12
 71
     2
 72
     6
 73
     3
 74
     0
 42
0.0000000001
 43
0.0000000001
 40
0.0
 40
0.0
 40
0.0
 40
0.4658820975007665
 40
0.4658820975007665
 40
0.4658820975007665
 10
80.4670936366459
 20
1738.352862319516
 30
0.0
 41
1.0
 10
80.69745892394332
 20
1738.318064152954
 30
0.0
 41
0.9999917344679667
 10
80.92681536626948
 20
1738.277148864362
 30
0.0
 41
0.9999999999692304
  0
SPLINE
  5
D5
330
1F
100
AcDbEntity
  8
Linee visibili 2D
100
AcDbSpline
210
0.0
220
0.0
230
1.0
 70
    12
 71
     2
 72
     6
 73
     3
 74
     0
 42
0.0000000001
 43
0.0000000001
 40
0.0
 40
0.0
 40
0.0
 40
18.22434665462126
 40
18.22434665462126
 40
18.22434665462126
 10
80.92681536626948
 20
1738.277148864362
 30
0.0
 41
0.9999999979245611
 10
89.99999985731051
 20
1736.818686570003
 30
0.0
 41
0.9874004545379437
 10
99.0732972279552
 20
1738.276445988827
 30
0.0
 41
0.9999999990719917
  0
SPLINE
  5
D6
330
1F
100
AcDbEntity
  8
Linee visibili 2D
100
AcDbSpline
210
0.0
220
0.0
230
1.0
 70
    12
 71
     2
 72
     6
 73
     3
 74
     0
 42
0.0000000001
 43
0.0000000001
 40
0.0
 40
0.0
 40
0.0
 40
0.843712755069302
 40
0.843712755069302
 40
0.843712755069302
 10
99.07329722795521
 20
1738.276445988827
 30
0.0
 41
0.9999999999255543
 10
99.48924048349853
 20
1738.346980965824
 30
0.0
 41
0.9999725396291784
 10
99.90542551527727
 20
1738.416091072889
 30
0.0
 41
1.0
  0
SPLINE
  5
D7
330
1F
100
AcDbEntity
  8
Linee visibili 2D
100
AcDbSpline
210
0.0
220
0.0
230
1.0
 70
    12
 71
     2
 72
     6
 73
     3
 74
     0
 42
0.0000000001
 43
0.0000000001
 40
0.0
 40
0.0
 40
0.0
 40
1.515250813593984
 40
1.515250813593984
 40
1.515250813593984
 10
99.90542551527727
 20
1738.416091072889
 30
0.0
 41
1.0
 10
100.6523470860564
 20
1738.543335433939
 30
0.0
 41
0.9999106171089837
 10
101.394109791453
 20
1738.697821272497
 30
0.0
 41
0.9999999999574967
  0
SPLINE
  5
D8
330
1F
100
AcDbEntity
  8
Linee visibili 2D
100
AcDbSpline
210
0.0
220
0.0
230
1.0
 70
    12
 71
     2
 72
     6
 73
     3
 74
     0
 42
0.0000000001
 43
0.0000000001
 40
0.0
 40
0.0
 40
0.0
 40
1.210045002102451
 40
1.210045002102451
 40
1.210045002102451
 10
101.394109791453
 20
1738.697821272496
 30
0.0
 41
0.9999999998976222
 10
101.9863291726038
 20
1738.821794564616
 30
0.0
 41
0.9999422091019833
 10
102.57732996634
 20
1738.951455015364
 30
0.0
 41
1.0
  0
SPLINE
  5
D9
330
1F
100
AcDbEntity
  8
Linee visibili 2D
100
AcDbSpline
210
0.0
220
0.0
230
1.0
 70
    12
 71
     2
 72
     6
 73
     3
 74
     0
 42
0.0000000001
 43
0.0000000001
 40
0.0
 40
0.0
 40
0.0
 40
1.174820966868025
 40
1.174820966868025
 40
1.174820966868025
 10
102.57732996634
 20
1738.951455015364
 30
0.0
 41
1.0
 10
103.1511226807049
 20
1739.077357471706
 30
0.0
 41
0.9999442740027301
 10
103.7204617067144
 20
1739.222067460503
 30
0.0
 41
0.9999999999512205
  0
SPLINE
  5
DA
330
1F
100
AcDbEntity
  8
Linee visibili 2D
100
AcDbSpline
210
0.0
220
0.0
230
1.0
 70
    12
 71
     2
 72
     6
 73
     3
 74
     0
 42
0.0000000001
 43
0.0000000001
 40
0.0
 40
0.0
 40
0.0
 40
1.339268390028015
 40
1.339268390028015
 40
1.339268390028015
 10
103.7204617067144
 20
1739.222067460503
 30
0.0
 41
0.9999999998462258
 10
104.3696598729838
 20
1739.386401396142
 30
0.0
 41
0.9999274127143256
 10
105.0164434196728
 20
1739.560015378835
 30
0.0
 41
1.0
  0
SPLINE
  5
DB
330
1F
100
AcDbEntity
  8
Linee visibili 2D
100
AcDbSpline
210
0.0
220
0.0
230
1.0
 70
    12
 71
     2
 72
     6
 73
     3
 74
     0
 42
0.0000000001
 43
0.0000000001
 40
0.0
 40
0.0
 40
0.0
 40
1.067814410037811
 40
1.067814410037811
 40
1.067814410037811
 10
105.0164434196728
 20
1739.560015378835
 30
0.0
 41
1.0
 10
105.5322363793822
 20
1739.6980267717
 30
0.0
 41
0.999953481119172
 10
106.0435451078692
 20
1739.851799900081
 30
0.0
 41
0.9999999999388735
  0
SPLINE
  5
DC
330
1F
100
AcDbEntity
  8
Linee visibili 2D
100
AcDbSpline
210
0.0
220
0.0
230
1.0
 70
    12
 71
     2
 72
     6
 73
     3
 74
     0
 42
0.0000000001
 43
0.0000000001
 40
0.0
 40
0.0
 40
0.0
 40
1.308452312983231
 40
1.308452312983231
 40
1.308452312983231
 10
106.0435451078692
 20
1739.851799900081
 30
0.0
 41
0.9999999997806922
 10
106.6703624736914
 20
1740.039307219024
 30
0.0
 41
0.9999300839359734
 10
107.294266978068
 20
1740.236298580804
 30
0.0
 41
1.0
  0
SPLINE
  5
DD
330
1F
100
AcDbEntity
  8
Linee visibili 2D
100
AcDbSpline
210
0.0
220
0.0
230
1.0
 70
    12
 71
     2
 72
     6
 73
     3
 74
     0
 42
0.0000000001
 43
0.0000000001
 40
0.0
 40
0.0
 40
0.0
 40
1.116981621360166
 40
1.116981621360166
 40
1.116981621360166
 10
107.294266978068
 20
1740.236298580804
 30
0.0
 41
1.0
 10
107.8269032450451
 20
1740.404350264403
 30
0.0
 41
0.9999486446821672
 10
108.3544033150434
 20
1740.587877278408
 30
0.0
 41
0.9999999999281282
  0
SPLINE
  5
DE
330
1F
100
AcDbEntity
  8
Linee visibili 2D
100
AcDbSpline
210
0.0
220
0.0
230
1.0
 70
    12
 71
     2
 72
     6
 73
     3
 74
     0
 42
0.0000000001
 43
0.0000000001
 40
0.0
 40
0.0
 40
0.0
 40
1.362554879820777
 40
1.362554879820777
 40
1.362554879820777
 10
108.3544033150434
 20
1740.587877278408
 30
0.0
 41
0.9999999997858112
 10
108.9981596389083
 20
1740.81096725317
 30
0.0
 41
0.9999222988981613
 10
109.6376996980603
 20
1741.045876063803
 30
0.0
 41
1.0
  0
SPLINE
  5
DF
330
1F
100
AcDbEntity
  8
Linee visibili 2D
100
AcDbSpline
210
0.0
220
0.0
230
1.0
 70
    12
 71
     2
 72
     6
 73
     3
 74
     0
 42
0.0000000001
 43
0.0000000001
 40
0.0
 40
0.0
 40
0.0
 40
1.077185641241499
 40
1.077185641241499
 40
1.077185641241499
 10
109.6376996980603
 20
1741.045876063803
 30
0.0
 41
1.0
 10
110.1433663865629
 20
1741.231370841873
 30
0.0
 41
0.9999510355227736
 10
110.6438058415207
 20
1741.430531063338
 30
0.0
 41
0.9999999999465465
  0
SPLINE
  5
E0
330
1F
100
AcDbEntity
  8
Linee visibili 2D
100
AcDbSpline
210
0.0
220
0.0
230
1.0
 70
    12
 71
     2
 72
     6
 73
     3
 74
     0
 42
0.0000000001
 43
0.0000000001
 40
0.0
 40
0.0
 40
0.0
 40
1.364709203723742
 40
1.364709203723742
 40
1.364709203723742
 10
110.6438058415207
 20
1741.430531063338
 30
0.0
 41
0.9999999998624248
 10
111.2780976428156
 20
1741.682195242399
 30
0.0
 41
0.999918916240482
 10
111.9071974333558
 20
1741.946571647893
 30
0.0
 41
1.0
  0
SPLINE
  5
E1
330
1F
100
AcDbEntity
  8
Linee visibili 2D
100
AcDbSpline
210
0.0
220
0.0
230
1.0
 70
    12
 71
     2
 72
     6
 73
     3
 74
     0
 42
0.0000000001
 43
0.0000000001
 40
0.0
 40
0.0
 40
0.0
 40
1.085195693559748
 40
1.085195693559748
 40
1.085195693559748
 10
111.9071974333558
 20
1741.946571647893
 30
0.0
 41
1.0
 10
112.407549835519
 20
1742.156532904101
 30
0.0
 41
0.99994823023565
 10
112.9021078793419
 20
1742.379799412501
 30
0.0
 41
0.9999999999819031
  0
SPLINE
  5
E2
330
1F
100
AcDbEntity
  8
Linee visibili 2D
100
AcDbSpline
210
0.0
220
0.0
230
1.0
 70
    12
 71
     2
 72
     6
 73
     3
 74
     0
 42
0.0000000001
 43
0.0000000001
 40
0.0
 40
0.0
 40
0.0
 40
1.444354250688906
 40
1.444354250688906
 40
1.444354250688906
 10
112.9021078793419
 20
1742.379799412501
 30
0.0
 41
0.9999999999543576
 10
113.5606246371326
 20
1742.67638441249
 30
0.0
 41
0.999907270817691
 10
114.212251810387
 20
1742.987823991047
 30
0.0
 41
1.0
  0
SPLINE
  5
E3
330
1F
100
AcDbEntity
  8
Linee visibili 2D
100
AcDbSpline
210
0.0
220
0.0
230
1.0
 70
    12
 71
     2
 72
     6
 73
     3
 74
     0
 42
0.0000000001
 43
0.0000000001
 40
0.0
 40
0.0
 40
0.0
 40
1.011468697261804
 40
1.011468697261804
 40
1.011468697261804
 10
114.212251810387
 20
1742.987823991047
 30
0.0
 41
1.0
 10
114.6686989657331
 20
1743.205642632146
 30
0.0
 41
0.9999527190589038
 10
115.1194817046998
 20
1743.434945099506
 30
0.0
 41
0.9999999998912162
  0
SPLINE
  5
E4
330
1F
100
AcDbEntity
  8
Linee visibili 2D
100
AcDbSpline
210
0.0
220
0.0
230
1.0
 70
    12
 71
     2
 72
     6
 73
     3
 74
     0
 42
0.0000000001
 43
0.0000000001
 40
0.0
 40
0.0
 40
0.0
 40
1.941880245990582
 40
1.941880245990582
 40
1.941880245990582
 10
115.1194817046998
 20
1743.434945099506
 30
0.0
 41
0.9999999996682488
 10
115.985780982058
 20
1743.873662640222
 30
0.0
 41
0.999822922916475
 10
116.8361220359286
 20
1744.342562947692
 30
0.0
 41
1.0
  0
SPLINE
  5
E5
330
1F
100
AcDbEntity
  8
Linee visibili 2D
100
AcDbSpline
210
0.0
220
0.0
230
1.0
 70
    12
 71
     2
 72
     6
 73
     3
 74
     0
 42
0.0000000001
 43
0.0000000001
 40
0.0
 40
0.0
 40
0.0
 40
0.515607989992996
 40
0.515607989992996
 40
0.515607989992996
 10
116.8361220359286
 20
1744.342562947692
 30
0.0
 41
1.0
 10
117.0621914095789
 20
1744.466487983394
 30
0.0
 41
0.9999872810101988
 10
117.286041600915
 20
1744.594377364297
 30
0.0
 41
0.9999999999455588
  0
SPLINE
  5
E6
330
1F
100
AcDbEntity
  8
Linee visibili 2D
100
AcDbSpline
210
0.0
220
0.0
230
1.0
 70
    12
 71
     2
 72
     6
 73
     3
 74
     0
 42
0.0000000001
 43
0.0000000001
 40
0.0
 40
0.0
 40
0.0
 40
1.360984424547577
 40
1.360984424547577
 40
1.360984424547577
 10
117.286041600915
 20
1744.594377364297
 30
0.0
 41
0.9999999998105242
 10
117.87781070636
 20
1744.930434441962
 30
0.0
 41
0.9999101219073049
 10
118.4611894618522
 20
1745.280855732733
 30
0.0
 41
1.0
  0
SPLINE
  5
E7
330
1F
100
AcDbEntity
  8
Linee visibili 2D
100
AcDbSpline
210
0.0
220
0.0
230
1.0
 70
    12
 71
     2
 72
     6
 73
     3
 74
     0
 42
0.0000000001
 43
0.0000000001
 40
0.0
 40
0.0
 40
0.0
 40
1.093984782968551
 40
1.093984782968551
 40
1.093984782968551
 10
118.4611894618522
 20
1745.280855732733
 30
0.0
 41
1.0
 10
118.9300711202763
 20
1745.562590684181
 30
0.0
 41
0.9999404872547623
 10
119.3920878180335
 20
1745.85544595747
 30
0.0
 41
0.9999999998051057
  0
SPLINE
  5
E8
330
1F
100
AcDbEntity
  8
Linee visibili 2D
100
AcDbSpline
210
0.0
220
0.0
230
1.0
 70
    12
 71
     2
 72
     6
 73
     3
 74
     0
 42
0.0000000001
 43
0.0000000001
 40
0.0
 40
0.0
 40
0.0
 40
1.133843232681883
 40
1.133843232681883
 40
1.133843232681883
 10
119.3920878180335
 20
1745.85544595747
 30
0.0
 41
0.9999999997734326
 10
119.8710972552101
 20
1746.158722234697
 30
0.0
 41
0.9999361535667838
 10
120.3434433122987
 20
1746.472289920244
 30
0.0
 41
1.0
  0
SPLINE
  5
E9
330
1F
100
AcDbEntity
  8
Linee visibili 2D
100
AcDbSpline
210
0.0
220
0.0
230
1.0
 70
    12
 71
     2
 72
     6
 73
     3
 74
     0
 42
0.0000000001
 43
0.0000000001
 40
0.0
 40
0.0
 40
0.0
 40
1.314442203661011
 40
1.314442203661011
 40
1.314442203661011
 10
120.3434433122987
 20
1746.472289920244
 30
0.0
 41
1.0
 10
120.8907651723611
 20
1746.836210880741
 30
0.0
 41
0.9999108430468968
 10
121.4283418759823
 20
1747.214365123309
 30
0.0
 41
0.9999999996381376
  0
SPLINE
  5
EA
330
1F
100
AcDbEntity
  8
Linee visibili 2D
100
AcDbSpline
210
0.0
220
0.0
230
1.0
 70
    12
 71
     2
 72
     6
 73
     3
 74
     0
 42
0.0000000001
 43
0.0000000001
 40
0.0
 40
0.0
 40
0.0
 40
0.9354039599678806
 40
0.9354039599678806
 40
0.9354039599678806
 10
121.4283418759823
 20
1747.214365123309
 30
0.0
 41
0.9999999997629306
 10
121.811134151653
 20
1747.483117319746
 30
0.0
 41
0.9999537765439073
 10
122.1880378206315
 20
1747.760073241059
 30
0.0
 41
1.0
  0
SPLINE
  5
EB
330
1F
100
AcDbEntity
  8
Linee visibili 2D
100
AcDbSpline
210
0.0
220
0.0
230
1.0
 70
    12
 71
     2
 72
     6
 73
     3
 74
     0
 42
0.0000000001
 43
0.0000000001
 40
0.0
 40
0.0
 40
0.0
 40
1.502241223954224
 40
1.502241223954224
 40
1.502241223954224
 10
122.1880378206315
 20
1747.760073241059
 30
0.0
 41
1.0
 10
122.7933829060154
 20
1748.204858235522
 30
0.0
 41
0.9998801840407007
 10
123.3857887227865
 20
1748.666731783256
 30
0.0
 41
0.9999999996263113
  0
SPLINE
  5
EC
330
1F
100
AcDbEntity
  8
Linee visibili 2D
100
AcDbSpline
210
0.0
220
0.0
230
1.0
 70
    12
 71
     2
 72
     6
 73
     3
 74
     0
 42
0.0000000001
 43
0.0000000001
 40
0.0
 40
0.0
 40
0.0
 40
0.7082638790369541
 40
0.7082638790369541
 40
0.7082638790369541
 10
123.3857887227865
 20
1748.666731783256
 30
0.0
 41
0.9999999998749725
 10
123.665572160778
 20
1748.883839597039
 30
0.0
 41
0.9999733016655872
 10
123.9406134200044
 20
1749.106932658797
 30
0.0
 41
1.0
  0
SPLINE
  5
ED
330
1F
100
AcDbEntity
  8
Linee visibili 2D
100
AcDbSpline
210
0.0
220
0.0
230
1.0
 70
    12
 71
     2
 72
     6
 73
     3
 74
     0
 42
0.0000000001
 43
0.0000000001
 40
0.0
 40
0.0
 40
0.0
 40
1.714965333272514
 40
1.714965333272514
 40
1.714965333272514
 10
123.9406134200044
 20
1749.106932658797
 30
0.0
 41
1.0
 10
124.607540114647
 20
1749.646053349177
 30
0.0
 41
0.9998390961010366
 10
125.2568182584128
 20
1750.206297294822
 30
0.0
 41
0.9999999994419292
  0
SPLINE
  5
EE
330
1F
100
AcDbEntity
  8
Linee visibili 2D
100
AcDbSpline
210
0.0
220
0.0
230
1.0
 70
    12
 71
     2
 72
     6
 73
     3
 74
     0
 42
0.0000000001
 43
0.0000000001
 40
0.0
 40
0.0
 40
0.0
 40
0.5682783002199895
 40
0.5682783002199895
 40
0.5682783002199895
 10
125.2568182584128
 20
1750.206297294822
 30
0.0
 41
0.9999999998968401
 10
125.4729100626334
 20
1750.39080879521
 30
0.0
 41
0.9999820417380649
 10
125.6840981077254
 20
1750.580918464075
 30
0.0
 41
1.0
  0
SPLINE
  5
EF
330
1F
100
AcDbEntity
  8
Linee visibili 2D
100
AcDbSpline
210
0.0
220
0.0
230
1.0
 70
    12
 71
     2
 72
     6
 73
     3
 74
     0
 42
0.0000000001
 43
0.0000000001
 40
0.0
 40
0.0
 40
0.0
 40
3.021752892217197
 40
3.021752892217197
 40
3.021752892217197
 10
125.6840981077254
 20
1750.580918464075
 30
0.0
 41
1.0
 10
126.8129368156677
 20
1751.585964529222
 30
0.0
 41
0.999463885558866
 10
127.8774785582472
 20
1752.658878686152
 30
0.0
 41
1.0
  0
SPLINE
  5
F0
330
1F
100
AcDbEntity
  8
Linee visibili 2D
100
AcDbSpline
210
0.0
220
0.0
230
1.0
 70
    12
 71
     2
 72
     6
 73
     3
 74
     0
 42
0.0000000001
 43
0.0000000001
 40
0.0
 40
0.0
 40
0.0
 40
0.3500718051768211
 40
0.3500718051768211
 40
0.3500718051768211
 10
127.8774785582472
 20
1752.658878686152
 30
0.0
 41
1.0
 10
128.0029188907284
 20
1752.78100368767
 30
0.0
 41
0.9999927214897378
 10
128.1225379683035
 20
1752.908837742214
 30
0.0
 41
1.0
  0
SPLINE
  5
F1
330
1F
100
AcDbEntity
  8
Linee visibili 2D
100
AcDbSpline
210
0.0
220
0.0
230
1.0
 70
    12
 71
     2
 72
     6
 73
     3
 74
     0
 42
0.0000000001
 43
0.0000000001
 40
0.0
 40
0.0
 40
0.0
 40
1.898253178545132
 40
1.898253178545132
 40
1.898253178545132
 10
128.1225379683035
 20
1752.908837742214
 30
0.0
 41
1.0
 10
128.7818064162988
 20
1753.591841513738
 30
0.0
 41
0.9997757822368926
 10
129.4173452936082
 20
1754.296979697181
 30
0.0
 41
1.0
  0
SPLINE
  5
F2
330
1F
100
AcDbEntity
  8
Linee visibili 2D
100
AcDbSpline
210
0.0
220
0.0
230
1.0
 70
    12
 71
     2
 72
     6
 73
     3
 74
     0
 42
0.0000000001
 43
0.0000000001
 40
0.0
 40
0.0
 40
0.0
 40
0.5152893116915289
 40
0.5152893116915289
 40
0.5152893116915289
 10
129.4173452936082
 20
1754.296979697181
 30
0.0
 41
1.0
 10
129.5923496011491
 20
1754.486125966351
 30
0.0
 41
0.9999831760451812
 10
129.7584978908572
 20
1754.683099838814
 30
0.0
 41
1.0
  0
SPLINE
  5
F3
330
1F
100
AcDbEntity
  8
Linee visibili 2D
100
AcDbSpline
210
0.0
220
0.0
230
1.0
 70
    12
 71
     2
 72
     6
 73
     3
 74
     0
 42
0.0000000001
 43
0.0000000001
 40
0.0
 40
0.0
 40
0.0
 40
1.713560934964756
 40
1.713560934964756
 40
1.713560934964756
 10
129.7584978908572
 20
1754.683099838814
 30
0.0
 41
1.0
 10
130.3184191904385
 20
1755.331774406291
 30
0.0
 41
0.9998097529516904
 10
130.8603246687643
 20
1755.995571625353
 30
0.0
 41
1.0
  0
SPLINE
  5
F4
330
1F
100
AcDbEntity
  8
Linee visibili 2D
100
AcDbSpline
210
0.0
220
0.0
230
1.0
 70
    12
 71
     2
 72
     6
 73
     3
 74
     0
 42
0.0000000001
 43
0.0000000001
 40
0.0
 40
0.0
 40
0.0
 40
0.6629824317743069
 40
0.6629824317743069
 40
0.6629824317743069
 10
130.8603246687643
 20
1755.995571625353
 30
0.0
 41
1.0
 10
131.0727555564586
 20
1756.250122078267
 30
0.0
 41
0.9999707579450791
 10
131.2725779062253
 20
1756.514687915135
 30
0.0
 41
1.0
  0
SPLINE
  5
F5
330
1F
100
AcDbEntity
  8
Linee visibili 2D
100
AcDbSpline
210
0.0
220
0.0
230
1.0
 70
    12
 71
     2
 72
     6
 73
     3
 74
     0
 42
0.0000000001
 43
0.0000000001
 40
0.0
 40
0.0
 40
0.0
 40
1.552097605108395
 40
1.552097605108395
 40
1.552097605108395
 10
131.2725779062253
 20
1756.514687915135
 30
0.0
 41
1.0
 10
131.7458859715969
 20
1757.129833987653
 30
0.0
 41
0.9998368826345033
 10
132.2063879708651
 20
1757.754623025304
 30
0.0
 41
1.0
  0
SPLINE
  5
F6
330
1F
100
AcDbEntity
  8
Linee visibili 2D
100
AcDbSpline
210
0.0
220
0.0
230
1.0
 70
    12
 71
     2
 72
     6
 73
     3
 74
     0
 42
0.0000000001
 43
0.0000000001
 40
0.0
 40
0.0
 40
0.0
 40
0.7849750856193627
 40
0.7849750856193627
 40
0.7849750856193627
 10
132.2063879708651
 20
1757.754623025304
 30
0.0
 41
1.0
 10
132.442074052072
 20
1758.068552745964
 30
0.0
 41
0.9999576685219056
 10
132.6612469591344
 20
1758.394228397335
 30
0.0
 41
1.0
  0
SPLINE
  5
F7
330
1F
100
AcDbEntity
  8
Linee visibili 2D
100
AcDbSpline
210
0.0
220
0.0
230
1.0
 70
    12
 71
     2
 72
     6
 73
     3
 74
     0
 42
0.0000000001
 43
0.0000000001
 40
0.0
 40
0.0
 40
0.0
 40
1.422164474808846
 40
1.422164474808846
 40
1.422164474808846
 10
132.6612469591344
 20
1758.394228397335
 30
0.0
 41
1.0
 10
133.062275773651
 20
1758.981567121012
 30
0.0
 41
0.9998564396786908
 10
133.4550901915316
 20
1759.574431571747
 30
0.0
 41
1.0
  0
SPLINE
  5
F8
330
1F
100
AcDbEntity
  8
Linee visibili 2D
100
AcDbSpline
210
0.0
220
0.0
230
1.0
 70
    12
 71
     2
 72
     6
 73
     3
 74
     0
 42
0.0000000001
 43
0.0000000001
 40
0.0
 40
0.0
 40
0.0
 40
0.8702931985300628
 40
0.8702931985300628
 40
0.8702931985300628
 10
133.4550901915316
 20
1759.574431571747
 30
0.0
 41
1.0
 10
133.6983768969332
 20
1759.935323745766
 30
0.0
 41
0.9999444678685128
 10
133.9207877507628
 20
1760.309443677793
 30
0.0
 41
1.0
  0
SPLINE
  5
F9
330
1F
100
AcDbEntity
  8
Linee visibili 2D
100
AcDbSpline
210
0.0
220
0.0
230
1.0
 70
    12
 71
     2
 72
     6
 73
     3
 74
     0
 42
0.0000000001
 43
0.0000000001
 40
0.0
 40
0.0
 40
0.0
 40
1.33081816199794
 40
1.33081816199794
 40
1.33081816199794
 10
133.9207877507628
 20
1760.309443677793
 30
0.0
 41
1.0
 10
134.2638771453343
 20
1760.879718944794
 30
0.0
 41
0.9998705211724268
 10
134.5954054242666
 20
1761.45672388169
 30
0.0
 41
1.0
  0
SPLINE
  5
FA
330
1F
100
AcDbEntity
  8
Linee visibili 2D
100
AcDbSpline
210
0.0
220
0.0
230
1.0
 70
    12
 71
     2
 72
     6
 73
     3
 74
     0
 42
0.0000000001
 43
0.0000000001
 40
0.0
 40
0.0
 40
0.0
 40
6.001604139439966
 40
6.001604139439966
 40
6.001604139439966
 10
138.1619952341207
 20
1769.665940014828
 30
0.0
 41
1.0
 10
139.0387876418242
 20
1772.542328986113
 30
0.0
 41
0.9968838968135582
 10
139.4575113984129
 20
1775.558848168359
 30
0.0
 41
1.0
  0
SPLINE
  5
FB
330
1F
100
AcDbEntity
  8
Linee visibili 2D
100
AcDbSpline
210
0.0
220
0.0
230
1.0
 70
     8
 71
     3
 72
    14
 73
    10
 74
     0
 42
0.0000000001
 43
0.0000000001
 40
0.0
 40
0.0
 40
0.0
 40
0.0
 40
17.24887651216242
 40
34.54628854393936
 40
53.11678576706793
 40
72.32394874438597
 40
110.7883916502381
 40
129.0113430501046
 40
146.0418944039372
 40
146.0418944039372
 40
146.0418944039372
 40
146.0418944039372
 10
139.4575113984129
 20
1775.558848168359
 30
0.0
 10
140.2576275419937
 20
1781.290034755636
 30
0.0
 10
139.071830382176
 20
1793.066939608136
 30
0.0
 10
129.6661283717122
 20
1808.527458650015
 30
0.0
 10
114.4600107821372
 20
1819.424455137924
 30
0.0
 10
89.65170633604396
 20
1826.242855909268
 30
0.0
 10
63.49235619494009
 20
1820.291423636407
 30
0.0
 10
45.61247202624531
 20
1802.60961406304
 30
0.0
 10
41.32706292491613
 20
1791.391196855546
 30
0.0
 10
40.54678012765285
 20
1785.759679048511
 30
0.0
  0
SPLINE
  5
FC
330
1F
100
AcDbEntity
  8
Linee visibili 2D
100
AcDbSpline
210
0.0
220
0.0
230
1.0
 70
    12
 71
     2
 72
     6
 73
     3
 74
     0
 42
0.0000000001
 43
0.0000000001
 40
0.0
 40
0.0
 40
0.0
 40
5.406439496304735
 40
5.406439496304735
 40
5.406439496304735
 10
40.54678012765285
 20
1785.759679048511
 30
0.0
 41
1.0
 10
40.17672780381854
 20
1783.076808226661
 30
0.0
 41
0.9974016053392687
 10
40.19606807599775
 20
1780.368963064628
 30
0.0
 41
1.0
  0
SPLINE
  5
FD
330
1F
100
AcDbEntity
  8
Linee visibili 2D
100
AcDbSpline
210
0.0
220
0.0
230
1.0
 70
    12
 71
     2
 72
     6
 73
     3
 74
     0
 42
0.0000000001
 43
0.0000000001
 40
0.0
 40
0.0
 40
0.0
 40
1.581535069707203
 40
1.581535069707203
 40
1.581535069707203
 10
137.56478800837
 20
1767.864319112083
 30
0.0
 41
1.0
 10
137.8319855235553
 20
1768.608693419219
 30
0.0
 41
0.9997909691451264
 10
138.0685278212624
 20
1769.363369086405
 30
0.0
 41
1.0
  0
SPLINE
  5
FE
330
1F
100
AcDbEntity
  8
Linee visibili 2D
100
AcDbSpline
210
0.0
220
0.0
230
1.0
 70
    12
 71
     2
 72
     6
 73
     3
 74
     0
 42
0.0000000001
 43
0.0000000001
 40
0.0
 40
0.0
 40
0.0
 40
1.543208055937199
 40
1.543208055937199
 40
1.543208055937199
 10
136.8033643814634
 20
1765.909789862944
 30
0.0
 41
1.0
 10
137.1026629980074
 20
1766.621089684829
 30
0.0
 41
0.9998056467505314
 10
137.373688308367
 20
1767.343635447826
 30
0.0
 41
1.0
  0
SPLINE
  5
FF
330
1F
100
AcDbEntity
  8
Linee visibili 2D
100
AcDbSpline
210
0.0
220
0.0
230
1.0
 70
    12
 71
     2
 72
     6
 73
     3
 74
     0
 42
0.0000000001
 43
0.0000000001
 40
0.0
 40
0.0
 40
0.0
 40
1.375571366912625
 40
1.375571366912625
 40
1.375571366912625
 10
135.9878776764931
 20
1764.099496982755
 30
0.0
 41
1.0
 10
136.2859112491384
 20
1764.719431343707
 30
0.0
 41
0.999851826273157
 10
136.5624281208881
 20
1765.349257543504
 30
0.0
 41
1.0
  0
SPLINE
  5
100
330
1F
100
AcDbEntity
  8
Linee visibili 2D
100
AcDbSpline
210
0.0
220
0.0
230
1.0
 70
    12
 71
     2
 72
     6
 73
     3
 74
     0
 42
0.0000000001
 43
0.0000000001
 40
0.0
 40
0.0
 40
0.0
 40
1.279158609343296
 40
1.279158609343296
 40
1.279158609343296
 10
135.0401897577008
 20
1762.251135348822
 30
0.0
 41
1.0
 10
135.3464681328578
 20
1762.812671267383
 30
0.0
 41
0.9998765470722243
 10
135.6349509013535
 20
1763.383553674892
 30
0.0
 41
1.0
  0
SPLINE
  5
101
330
1F
100
AcDbEntity
  8
Linee visibili 2D
100
AcDbSpline
210
0.0
220
0.0
230
1.0
 70
    12
 71
     2
 72
     6
 73
     3
 74
     0
 42
0.0000000001
 43
0.0000000001
 40
0.0
 40
0.0
 40
0.0
 40
0.8628241049077567
 40
0.8628241049077567
 40
0.8628241049077567
 10
43.57643960891335
 20
1765.035829403469
 30
0.0
 41
1.0
 10
43.75323691364925
 20
1764.642289651955
 30
0.0
 41
0.9999417183758607
 10
43.93849004581115
 20
1764.252658929338
 30
0.0
 41
1.0
  0
SPLINE
  5
102
330
1F
100
AcDbEntity
  8
Linee visibili 2D
100
AcDbSpline
210
0.0
220
0.0
230
1.0
 70
    12
 71
     2
 72
     6
 73
     3
 74
     0
 42
0.0000000001
 43
0.0000000001
 40
0.0
 40
0.0
 40
0.0
 40
0.9837561266326715
 40
0.9837561266326715
 40
0.9837561266326715
 10
42.7430309212068
 20
1767.035532941661
 30
0.0
 41
1.0
 10
42.9197197561195
 20
1766.576457464898
 30
0.0
 41
0.9999218641111441
 10
43.10782993592452
 20
1766.121942560849
 30
0.0
 41
1.0
  0
SPLINE
  5
103
330
1F
100
AcDbEntity
  8
Linee visibili 2D
100
AcDbSpline
210
0.0
220
0.0
230
1.0
 70
    12
 71
     2
 72
     6
 73
     3
 74
     0
 42
0.0000000001
 43
0.0000000001
 40
0.0
 40
0.0
 40
0.0
 40
1.050064611765166
 40
1.050064611765166
 40
1.050064611765166
 10
42.02495834858497
 20
1769.067025456708
 30
0.0
 41
1.0
 10
42.18613879772798
 20
1768.567312006476
 30
0.0
 41
0.9999081928477793
 10
42.36080117523134
 20
1768.072149686207
 30
0.0
 41
1.0
  0
SPLINE
  5
104
330
1F
100
AcDbEntity
  8
Linee visibili 2D
100
AcDbSpline
210
0.0
220
0.0
230
1.0
 70
    12
 71
     2
 72
     6
 73
     3
 74
     0
 42
0.0000000001
 43
0.0000000001
 40
0.0
 40
0.0
 40
0.0
 40
0.2464967600199156
 40
0.2464967600199156
 40
0.2464967600199156
 10
41.42552549971067
 20
1771.11917285956
 30
0.0
 41
1.0
 10
41.45676978578687
 20
1770.999950114059
 30
0.0
 41
0.9999948018262615
 10
41.4887822457757
 20
1770.880931330404
 30
0.0
 41
1.0
  0
SPLINE
  5
105
330
1F
100
AcDbEntity
  8
Linee visibili 2D
100
AcDbSpline
210
0.0
220
0.0
230
1.0
 70
    12
 71
     2
 72
     6
 73
     3
 74
     0
 42
0.0000000001
 43
0.0000000001
 40
0.0
 40
0.0
 40
0.0
 40
7.572166995731545
 40
7.572166995731545
 40
7.572166995731545
 10
40.21287177798759
 20
1779.484327958274
 30
0.0
 41
1.0
 10
40.33023183738844
 20
1775.68709668261
 30
0.0
 41
0.9948903949565916
 10
41.2080253381568
 20
1771.990853006331
 30
0.0
 41
1.0
  0
SPLINE
  5
106
330
1F
100
AcDbEntity
  8
Linee visibili 2D
100
AcDbSpline
210
0.0
220
0.0
230
1.0
 70
    12
 71
     2
 72
     6
 73
     3
 74
     0
 42
0.0000000001
 43
0.0000000001
 40
0.0
 40
0.0
 40
0.0
 40
0.8080347964977648
 40
0.8080347964977648
 40
0.8080347964977648
 10
11.06977654745203
 20
1661.356461091241
 30
0.0
 41
1.0
 10
11.23285146960402
 20
1660.962718903159
 30
0.0
 41
0.9238016543129621
 10
11.62664696134066
 20
1660.799772741503
 30
0.0
 41
1.0
  0
SPLINE
  5
107
330
1F
100
AcDbEntity
  8
Linee visibili 2D
100
AcDbSpline
210
0.0
220
0.0
230
1.0
 70
    12
 71
     2
 72
     6
 73
     3
 74
     0
 42
0.0000000001
 43
0.0000000001
 40
0.0
 40
0.0
 40
0.0
 40
0.8070830325738304
 40
0.8070830325738304
 40
0.8070830325738304
 10
168.3736590183455
 20
1660.799898517595
 30
0.0
 41
1.0
 10
168.7668855219383
 20
1660.962759698222
 30
0.0
 41
0.9239810030883122
 10
168.9299869731109
 20
1661.355886603825
 30
0.0
 41
1.0
  0
SPLINE
  5
108
330
1F
100
AcDbEntity
  8
Linee visibili 2D
100
AcDbSpline
210
0.0
220
0.0
230
1.0
 70
    12
 71
     2
 72
     6
 73
     3
 74
     0
 42
0.0000000001
 43
0.0000000001
 40
0.0
 40
0.0
 40
0.0
 40
0.8077033422138652
 40
0.8077033422138652
 40
0.8077033422138652
 10
11.62633750264915
 20
1917.642916755587
 30
0.0
 41
1.0
 10
11.23277517412081
 20
1917.479915684669
 30
0.0
 41
0.9238641423409537
 10
11.06977539872702
 20
1917.086352819578
 30
0.0
 41
1.0
  0
SPLINE
  5
109
330
1F
100
AcDbEntity
  8
Linee visibili 2D
100
AcDbSpline
210
0.0
220
0.0
230
1.0
 70
    12
 71
     2
 72
     6
 73
     3
 74
     0
 42
0.0000000001
 43
0.0000000001
 40
0.0
 40
0.0
 40
0.0
 40
0.8071008027496508
 40
0.8071008027496508
 40
0.8071008027496508
 10
168.9299868469747
 20
1917.086930406264
 30
0.0
 41
1.0
 10
168.7668812974065
 20
1917.480066893396
 30
0.0
 41
0.9239776559927017
 10
168.3736422720083
 20
1917.642925073168
 30
0.0
 41
1.0
  0
SPLINE
  5
10A
330
1F
100
AcDbEntity
  8
Linee visibili 2D
100
AcDbSpline
210
0.0
220
0.0
230
1.0
 70
     8
 71
     3
 72
    12
 73
     8
 74
     0
 42
0.0000000001
 43
0.0000000001
 40
0.0
 40
0.0
 40
0.0
 40
0.0
 40
12.59922961781224
 40
26.08955135736148
 40
53.69219417314793
 40
81.16497205695201
 40
106.8549418904064
 40
106.8549418904064
 40
106.8549418904064
 40
106.8549418904064
 10
134.2852218233916
 20
1800.569253549875
 30
0.0
 10
132.1230450487801
 20
1804.177710226634
 30
0.0
 10
126.5490544683824
 20
1810.944645697933
 30
0.0
 10
111.5987013485733
 20
1821.154868666384
 30
0.0
 10
88.6122346604763
 20
1826.090652611206
 30
0.0
 10
61.80974944059788
 20
1819.015050486584
 30
0.0
 10
48.59659455108017
 20
1806.233296269221
 30
0.0
 10
44.61761241560801
 20
1798.614529688737
 30
0.0
  0
SPLINE
  5
10B
330
1F
100
AcDbEntity
  8
Linee visibili 2D
100
AcDbSpline
210
0.0
220
0.0
230
1.0
 70
    12
 71
     2
 72
     6
 73
     3
 74
     0
 42
0.0000000001
 43
0.0000000001
 40
0.0
 40
0.0
 40
0.0
 40
12.32508867215962
 40
12.32508867215962
 40
12.32508867215962
 10
141.764345758577
 20
628.1534635114494
 30
0.0
 41
1.0
 10
146.6891445650803
 20
624.4488941345197
 30
0.0
 41
0.9999896347963059
 10
151.647473045017
 20
620.7893236353941
 30
0.0
 41
1.0
  0
SPLINE
  5
10C
330
1F
100
AcDbEntity
  8
Linee visibili 2D
100
AcDbSpline
210
0.0
220
0.0
230
1.0
 70
    24
 71
     2
 72
     6
 73
     3
 74
     0
 42
0.0000000001
 43
0.0000000001
 40
0.0
 40
0.0
 40
0.0
 40
0.2346487581750994
 40
0.2346487581750994
 40
0.2346487581750994
 10
110.6840599607935
 20
703.128197825618
 30
0.0
 10
110.8008370554504
 20
703.116878811006
 30
0.0
 10
110.9176141501072
 20
703.1055597963939
 30
0.0
  0
SPLINE
  5
10D
330
1F
100
AcDbEntity
  8
Linee visibili 2D
100
AcDbSpline
210
0.0
220
0.0
230
1.0
 70
    24
 71
     2
 72
     6
 73
     3
 74
     0
 42
0.0000000001
 43
0.0000000001
 40
0.0
 40
0.0
 40
0.0
 40
39.62674844253087
 40
39.62674844253087
 40
39.62674844253087
 10
39.27684573062904
 20
30.45723587587433
 30
0.0
 10
19.63842286531449
 20
27.83004243134148
 30
0.0
 10
-0.0000000000000593
 20
25.20284898680863
 30
0.0
  0
POLYLINE
  5
10E
330
1F
100
AcDbEntity
  8
Predefinito
100
AcDb2dPolyline
 66
     1
 10
0.0
 20
0.0
 30
0.0
  0
VERTEX
  5
10F
330
10E
100
AcDbEntity
  8
Predefinito
100
AcDbVertex
100
AcDb2dVertex
 10
404.3101693642432
 20
167.9999999999545
 30
0.0
  0
VERTEX
  5
110
330
10E
100
AcDbEntity
  8
Predefinito
100
AcDbVertex
100
AcDb2dVertex
 10
404.3570360695342
 20
164.8602938804781
 30
0.0
  0
SEQEND
  5
111
330
10E
100
AcDbEntity
  8
Predefinito
  0
SPLINE
  5
112
330
1F
100
AcDbEntity
  8
Predefinito
100
AcDbSpline
210
0.0
220
0.0
230
1.0
 70
     8
 71
     3
 72
    14
 73
    10
 74
     0
 42
0.0000000001
 43
0.0000000001
 40
0.0
 40
0.0
 40
0.0
 40
0.0
 40
4.166740950074065
 40
9.828374920335532
 40
20.33308075614213
 40
25.61335662606342
 40
31.83667150281077
 40
36.69804624186286
 40
47.3313712061822
 40
47.3313712061822
 40
47.3313712061822
 40
47.3313712061822
 10
404.3570360695342
 20
164.8602938804781
 30
0.0
 10
404.4177929498359
 20
163.4561422187276
 30
0.0
 10
405.3917297610453
 20
160.3047438106377
 30
0.0
 10
408.9173060497869
 20
154.4476141682099
 30
0.0
 10
414.6677784785793
 20
149.8994799960703
 30
0.0
 10
421.5311486394718
 20
147.2718834502728
 30
0.0
 10
426.8645616529239
 20
146.0312352185319
 30
0.0
 10
434.0606959454796
 20
145.2457596792835
 30
0.0
 10
439.2373355624109
 20
145.1879327328234
 30
0.0
 10
442.7740018348691
 20
145.0092039228615
 30
0.0
  0
SPLINE
  5
113
330
1F
100
AcDbEntity
  8
Predefinito
100
AcDbSpline
210
0.0
220
0.0
230
1.0
 70
     8
 71
     3
 72
    12
 73
     8
 74
     0
 42
0.0000000001
 43
0.0000000001
 40
0.0
 40
0.0
 40
0.0
 40
0.0
 40
5.533906133331531
 40
11.59539449670349
 40
26.38820202587229
 40
45.40342995029687
 40
66.36915009158096
 40
66.36915009158096
 40
66.36915009158096
 40
66.36915009158096
 10
442.7740018348691
 20
145.0092039228615
 30
0.0
 10
444.6175816056223
 20
144.9288717183448
 30
0.0
 10
448.4433388174003
 20
144.0648278738931
 30
0.0
 10
455.8860477503785
 20
139.0928632552222
 30
0.0
 10
463.414383201743
 20
127.8650526308603
 30
0.0
 10
468.8645623038637
 20
110.3241788936404
 30
0.0
 10
470.1297978726988
 20
96.98675980885045
 30
0.0
 10
470.12715692718
 20
90.00000000000114
 30
0.0
  0
SPLINE
  5
114
330
1F
100
AcDbEntity
  8
Predefinito
100
AcDbSpline
210
0.0
220
0.0
230
1.0
 70
     8
 71
     3
 72
    13
 73
     9
 74
     0
 42
0.0000000001
 43
0.0000000001
 40
0.0
 40
0.0
 40
0.0
 40
0.0
 40
10.89910347663015
 40
21.07299387248626
 40
39.6347359842968
 40
54.67521727985043
 40
60.84081863896995
 40
66.35993794136296
 40
66.35993794136296
 40
66.35993794136296
 40
66.35993794136296
 10
470.12715692718
 20
90.00000000000114
 30
0.0
 10
470.124194468634
 20
86.36550660241298
 30
0.0
 10
469.7854073736858
 20
79.34567952324616
 30
0.0
 10
467.787849840645
 20
66.26112401103238
 30
0.0
 10
463.4422078479569
 20
52.25109090397114
 30
0.0
 10
456.001369637883
 20
41.00726002994001
 30
0.0
 10
448.4783017460448
 20
35.93399026691996
 30
0.0
 10
444.6208998831239
 20
35.07474271889282
 30
0.0
 10
442.7818687164867
 20
34.99097273821983
 30
0.0
  0
SPLINE
  5
115
330
1F
100
AcDbEntity
  8
Predefinito
100
AcDbSpline
210
0.0
220
0.0
230
1.0
 70
     8
 71
     3
 72
    14
 73
    10
 74
     0
 42
0.0000000001
 43
0.0000000001
 40
0.0
 40
0.0
 40
0.0
 40
0.0
 40
10.64012817182814
 40
15.501932254047
 40
21.70564419816301
 40
27.00505218810018
 40
37.48801898221414
 40
43.17012588956283
 40
47.33513354798294
 40
47.33513354798294
 40
47.33513354798294
 40
47.33513354798294
 10
442.7818687164867
 20
34.99097273821983
 30
0.0
 10
439.2412242735836
 20
34.81200656625628
 30
0.0
 10
434.0642053413416
 20
34.75102883980849
 30
0.0
 10
426.8690850729332
 20
33.97297053999455
 30
0.0
 10
421.5403195592206
 20
32.7235375066645
 30
0.0
 10
414.6780426011066
 20
30.10643388846287
 30
0.0
 10
408.9277155979877
 20
25.5561870672058
 30
0.0
 10
405.391001124404
 20
19.70531935747825
 30
0.0
 10
404.4191485944759
 20
16.54582396328443
 30
0.0
 10
404.3573382505609
 20
15.14277108968683
 30
0.0
  0
POLYLINE
  5
116
330
1F
100
AcDbEntity
  8
Predefinito
100
AcDb2dPolyline
 66
     1
 10
0.0
 20
0.0
 30
0.0
  0
VERTEX
  5
117
330
116
100
AcDbEntity
  8
Predefinito
100
AcDbVertex
100
AcDb2dVertex
 10
404.3573382505609
 20
15.14277108968683
 30
0.0
  0
VERTEX
  5
118
330
116
100
AcDbEntity
  8
Predefinito
100
AcDbVertex
100
AcDb2dVertex
 10
404.3101693642432
 20
12.00000000004786
 30
0.0
  0
SEQEND
  5
119
330
116
100
AcDbEntity
  8
Predefinito
  0
POLYLINE
  5
11A
330
1F
100
AcDbEntity
  8
Predefinito
100
AcDb2dPolyline
 66
     1
 10
0.0
 20
0.0
 30
0.0
  0
VERTEX
  5
11B
330
11A
100
AcDbEntity
  8
Predefinito
100
AcDbVertex
100
AcDb2dVertex
 10
357.063105537918
 20
11.74782780267328
 30
0.0
  0
VERTEX
  5
11C
330
11A
100
AcDbEntity
  8
Predefinito
100
AcDbVertex
100
AcDb2dVertex
 10
357.0142322060492
 20
15.14274985761098
 30
0.0
  0
SEQEND
  5
11D
330
11A
100
AcDbEntity
  8
Predefinito
  0
SPLINE
  5
11E
330
1F
100
AcDbEntity
  8
Predefinito
100
AcDbSpline
210
0.0
220
0.0
230
1.0
 70
     8
 71
     3
 72
    14
 73
    10
 74
     0
 42
0.0000000001
 43
0.0000000001
 40
0.0
 40
0.0
 40
0.0
 40
0.0
 40
4.163473944832381
 40
9.825107915075012
 40
20.32981375087813
 40
25.61008962079559
 40
31.83340449755128
 40
36.69477923660308
 40
47.33492788925738
 40
47.33492788925738
 40
47.33492788925738
 40
47.33492788925738
 10
357.0142322060492
 20
15.14274985761098
 30
0.0
 10
356.9553379918916
 20
16.54601905874649
 30
0.0
 10
355.9807772622903
 20
19.69617183628129
 30
0.0
 10
352.4560924183775
 20
25.55239914551374
 30
0.0
 10
346.7054295900708
 20
30.10051608792046
 30
0.0
 10
339.8421591399392
 20
32.72811460246717
 30
0.0
 10
334.5086977675893
 20
33.96878176989595
 30
0.0
 10
327.3103269883986
 20
34.75444126641254
 30
0.0
 10
322.1313821057532
 20
34.81222390681084
 30
0.0
 10
318.5914061856744
 20
34.99097273821984
 30
0.0
  0
SPLINE
  5
11F
330
1F
100
AcDbEntity
  8
Predefinito
100
AcDbSpline
210
0.0
220
0.0
230
1.0
 70
     8
 71
     3
 72
    12
 73
     8
 74
     0
 42
0.0000000001
 43
0.0000000001
 40
0.0
 40
0.0
 40
0.0
 40
0.0
 40
5.443657596669692
 40
11.51635245856282
 40
26.61377585066826
 40
45.15678188361125
 40
66.3601523302619
 40
66.3601523302619
 40
66.3601523302619
 40
66.3601523302619
 10
318.5914061856744
 20
34.99097273821984
 30
0.0
 10
316.7771362401983
 20
35.07209213832534
 30
0.0
 10
312.9757098410226
 20
35.91317169122792
 30
0.0
 10
305.4516375235653
 20
40.91174983674723
 30
0.0
 10
297.9840437524239
 20
52.12450287567368
 30
0.0
 10
292.5130609117265
 20
69.66631856992849
 30
0.0
 10
291.2455349355657
 20
82.93891615786247
 30
0.0
 10
291.2461179749812
 20
90.0000000000011
 30
0.0
  0
SPLINE
  5
120
330
1F
100
AcDbEntity
  8
Predefinito
100
AcDbSpline
210
0.0
220
0.0
230
1.0
 70
     8
 71
     3
 72
    12
 73
     8
 74
     0
 42
0.0000000001
 43
0.0000000001
 40
0.0
 40
0.0
 40
0.0
 40
0.0
 40
10.51721976237173
 40
21.03107795841986
 40
39.81759459658703
 40
54.77136544729026
 40
66.3687889110323
 40
66.3687889110323
 40
66.3687889110323
 40
66.3687889110323
 10
291.2461179749812
 20
90.0000000000011
 30
0.0
 10
291.2488587840135
 20
93.51120700604795
 30
0.0
 10
291.5795000713345
 20
100.50974134657
 30
0.0
 10
293.5463485710123
 20
113.6699769255349
 30
0.0
 10
297.9646282304258
 20
127.8102851576977
 30
0.0
 10
306.4626790921902
 20
140.6576715889489
 30
0.0
 10
314.663056456487
 20
144.9296872470264
 30
0.0
 10
318.5992730672924
 20
145.0092039228615
 30
0.0
  0
SPLINE
  5
121
330
1F
100
AcDbEntity
  8
Predefinito
100
AcDbSpline
210
0.0
220
0.0
230
1.0
 70
     8
 71
     3
 72
    14
 73
    10
 74
     0
 42
0.0000000001
 43
0.0000000001
 40
0.0
 40
0.0
 40
0.0
 40
0.0
 40
10.63330448349266
 40
15.49510856571032
 40
21.69882050984058
 40
26.99822849976651
 40
37.4811952938779
 40
43.16330220119703
 40
47.33138885561479
 40
47.33138885561479
 40
47.33138885561479
 40
47.33138885561479
 10
318.5992730672924
 20
145.0092039228615
 30
0.0
 10
322.1365997847746
 20
145.188153887697
 30
0.0
 10
327.3113343347613
 20
145.2491658865432
 30
0.0
 10
334.5041901759645
 20
146.0270486235175
 30
0.0
 10
339.8329517917437
 20
147.2764570405559
 30
0.0
 10
346.695241688752
 20
149.8935672267664
 30
0.0
 10
352.445540418156
 20
154.4438168374959
 30
0.0
 10
355.9828362513622
 20
160.2955587184822
 30
0.0
 10
356.95467852607
 20
163.4561710174704
 30
0.0
 10
357.016190249051
 20
164.8602974742043
 30
0.0
  0
POLYLINE
  5
122
330
1F
100
AcDbEntity
  8
Predefinito
100
AcDb2dPolyline
 66
     1
 10
0.0
 20
0.0
 30
0.0
  0
VERTEX
  5
123
330
122
100
AcDbEntity
  8
Predefinito
100
AcDbVertex
100
AcDb2dVertex
 10
357.016190249051
 20
164.8602974742043
 30
0.0
  0
VERTEX
  5
124
330
122
100
AcDbEntity
  8
Predefinito
100
AcDbVertex
100
AcDb2dVertex
 10
357.063105537918
 20
167.9999999999545
 30
0.0
  0
SEQEND
  5
125
330
122
100
AcDbEntity
  8
Predefinito
  0
SPLINE
  5
126
330
1F
100
AcDbEntity
  8
Linee visibili 2D
100
AcDbSpline
210
0.0
220
0.0
230
1.0
 70
    24
 71
     2
 72
     6
 73
     3
 74
     0
 42
0.0000000001
 43
0.0000000001
 40
0.0
 40
0.0
 40
0.0
 40
55.99107607634215
 40
55.99107607634215
 40
55.99107607634215
 10
464.1866374510805
 20
124.0089239236579
 30
0.0
 10
464.1866374510805
 20
152.004461961829
 30
0.0
 10
464.1866374510804
 20
180.0000000000001
 30
0.0
  0
SPLINE
  5
127
330
1F
100
AcDbEntity
  8
Linee visibili 2D
100
AcDbSpline
210
0.0
220
0.0
230
1.0
 70
    24
 71
     2
 72
     6
 73
     3
 74
     0
 42
0.0000000001
 43
0.0000000001
 40
0.0
 40
0.0
 40
0.0
 40
167.0
 40
167.0
 40
167.0
 10
464.1866374510804
 20
180.0000000000001
 30
0.0
 10
380.6866374510804
 20
180.0000000000002
 30
0.0
 10
297.1866374510804
 20
180.0000000000004
 30
0.0
  0
SPLINE
  5
128
330
1F
100
AcDbEntity
  8
Linee visibili 2D
100
AcDbSpline
210
0.0
220
0.0
230
1.0
 70
    24
 71
     2
 72
     6
 73
     3
 74
     0
 42
0.0000000001
 43
0.0000000001
 40
-55.99159706552247
 40
-55.99159706552247
 40
-55.99159706552247
 40
0.0
 40
0.0
 40
0.0
 10
297.1866374510804
 20
180.0000000000004
 30
0.0
 10
297.1866374510805
 20
152.0042014672392
 30
0.0
 10
297.1866374510805
 20
124.0084029344779
 30
0.0
  0
SPLINE
  5
129
330
1F
100
AcDbEntity
  8
Linee visibili 2D
100
AcDbSpline
210
0.0
220
0.0
230
1.0
 70
    24
 71
     2
 72
     6
 73
     3
 74
     0
 42
0.0000000001
 43
0.0000000001
 40
-55.99134185035327
 40
-55.99134185035327
 40
-55.99134185035327
 40
0.0
 40
0.0
 40
0.0
 10
297.1866374510806
 20
55.99134185035362
 30
0.0
 10
297.1866374510807
 20
27.99567092517699
 30
0.0
 10
297.1866374510807
 20
0.0000000000003553
 30
0.0
  0
SPLINE
  5
12A
330
1F
100
AcDbEntity
  8
Linee visibili 2D
100
AcDbSpline
210
0.0
220
0.0
230
1.0
 70
    24
 71
     2
 72
     6
 73
     3
 74
     0
 42
0.0000000001
 43
0.0000000001
 40
0.0
 40
0.0
 40
0.0
 40
167.0
 40
167.0
 40
167.0
 10
297.1866374510807
 20
0.0000000000003553
 30
0.0
 10
380.6866374510807
 20
0.0000000000001776
 30
0.0
 10
464.1866374510807
 20
0.0
 30
0.0
  0
SPLINE
  5
12B
330
1F
100
AcDbEntity
  8
Linee visibili 2D
100
AcDbSpline
210
0.0
220
0.0
230
1.0
 70
    24
 71
     2
 72
     6
 73
     3
 74
     0
 42
0.0000000001
 43
0.0000000001
 40
0.0
 40
0.0
 40
0.0
 40
55.9914805651828
 40
55.9914805651828
 40
55.9914805651828
 10
464.1866374510807
 20
0.0
 30
0.0
 10
464.1866374510807
 20
27.9957402825914
 30
0.0
 10
464.1866374510806
 20
55.9914805651828
 30
0.0
  0
SPLINE
  5
12C
330
1F
100
AcDbEntity
  8
Linee visibili 2D
100
AcDbSpline
210
0.0
220
0.0
230
1.0
 70
    12
 71
     2
 72
     6
 73
     3
 74
     0
 42
0.0000000001
 43
0.0000000001
 40
0.0
 40
0.0
 40
0.0
 40
0.5202016891531623
 40
0.5202016891531623
 40
0.5202016891531623
 10
357.3101693674674
 20
11.0643514276261
 30
0.0
 41
1.0
 10
357.063105537918
 20
11.20924077054951
 30
0.0
 41
0.8677189466933879
 10
357.063105537918
 20
11.49565560529869
 30
0.0
 41
1.0
  0
SPLINE
  5
12D
330
1F
100
AcDbEntity
  8
Linee visibili 2D
100
AcDbSpline
210
0.0
220
0.0
230
1.0
 70
    24
 71
     2
 72
     6
 73
     3
 74
     0
 42
0.0000000001
 43
0.0000000001
 40
-0.5043443947491681
 40
-0.5043443947491681
 40
-0.5043443947491681
 40
0.0
 40
0.0
 40
0.0
 10
357.063105537918
 20
11.49565560529869
 30
0.0
 10
357.063105537918
 20
11.74782780267328
 30
0.0
 10
357.063105537918
 20
12.00000000004786
 30
0.0
  0
SPLINE
  5
12E
330
1F
100
AcDbEntity
  8
Linee visibili 2D
100
AcDbSpline
210
0.0
220
0.0
230
1.0
 70
    24
 71
     2
 72
     6
 73
     3
 74
     0
 42
0.0000000001
 43
0.0000000001
 40
0.0
 40
0.0
 40
0.0
 40
155.9999999999067
 40
155.9999999999067
 40
155.9999999999067
 10
357.063105537918
 20
12.00000000004786
 30
0.0
 10
357.063105537918
 20
90.0000000000012
 30
0.0
 10
357.063105537918
 20
167.9999999999545
 30
0.0
  0
SPLINE
  5
12F
330
1F
100
AcDbEntity
  8
Linee visibili 2D
100
AcDbSpline
210
0.0
220
0.0
230
1.0
 70
    24
 71
     2
 72
     6
 73
     3
 74
     0
 42
0.0000000001
 43
0.0000000001
 40
-0.504344394749694
 40
-0.504344394749694
 40
-0.504344394749694
 40
0.0
 40
0.0
 40
0.0
 10
357.063105537918
 20
167.9999999999545
 30
0.0
 10
357.063105537918
 20
168.2521721973294
 30
0.0
 10
357.063105537918
 20
168.5043443947042
 30
0.0
  0
SPLINE
  5
130
330
1F
100
AcDbEntity
  8
Linee visibili 2D
100
AcDbSpline
210
0.0
220
0.0
230
1.0
 70
    12
 71
     2
 72
     6
 73
     3
 74
     0
 42
0.0000000001
 43
0.0000000001
 40
0.0
 40
0.0
 40
0.0
 40
0.5202016878589272
 40
0.5202016878589272
 40
0.5202016878589272
 10
357.063105537918
 20
168.5043443947042
 30
0.0
 41
1.0
 10
357.0631055379179
 20
168.7907592285941
 30
0.0
 41
0.8677189473363193
 10
357.3101693663511
 20
168.9356485717219
 30
0.0
 41
1.0
  0
SPLINE
  5
131
330
1F
100
AcDbEntity
  8
Linee visibili 2D
100
AcDbSpline
210
0.0
220
0.0
230
1.0
 70
    12
 71
     2
 72
     6
 73
     3
 74
     0
 42
0.0000000001
 43
0.0000000001
 40
0.0
 40
0.0
 40
0.0
 40
0.5202016891537797
 40
0.5202016891537797
 40
0.5202016891537797
 10
404.0631055346932
 20
11.0643514276258
 30
0.0
 41
1.0
 10
404.3101693642432
 20
11.20924077054909
 30
0.0
 41
0.8677189466930016
 10
404.3101693642432
 20
11.49565560529869
 30
0.0
 41
1.0
  0
SPLINE
  5
132
330
1F
100
AcDbEntity
  8
Linee visibili 2D
100
AcDbSpline
210
0.0
220
0.0
230
1.0
 70
    24
 71
     2
 72
     6
 73
     3
 74
     0
 42
0.0000000001
 43
0.0000000001
 40
-0.5043443947491681
 40
-0.5043443947491681
 40
-0.5043443947491681
 40
0.0
 40
0.0
 40
0.0
 10
404.3101693642432
 20
11.49565560529869
 30
0.0
 10
404.3101693642432
 20
11.74782780267328
 30
0.0
 10
404.3101693642432
 20
12.00000000004786
 30
0.0
  0
SPLINE
  5
133
330
1F
100
AcDbEntity
  8
Linee visibili 2D
100
AcDbSpline
210
0.0
220
0.0
230
1.0
 70
    24
 71
     2
 72
     6
 73
     3
 74
     0
 42
0.0000000001
 43
0.0000000001
 40
0.0
 40
0.0
 40
0.0
 40
155.9999999999067
 40
155.9999999999067
 40
155.9999999999067
 10
404.3101693642432
 20
12.00000000004786
 30
0.0
 10
404.3101693642432
 20
90.0000000000012
 30
0.0
 10
404.3101693642432
 20
167.9999999999545
 30
0.0
  0
SPLINE
  5
134
330
1F
100
AcDbEntity
  8
Linee visibili 2D
100
AcDbSpline
210
0.0
220
0.0
230
1.0
 70
    24
 71
     2
 72
     6
 73
     3
 74
     0
 42
0.0000000001
 43
0.0000000001
 40
-0.504344394749694
 40
-0.504344394749694
 40
-0.504344394749694
 40
0.0
 40
0.0
 40
0.0
 10
404.3101693642432
 20
167.9999999999545
 30
0.0
 10
404.3101693642432
 20
168.2521721973294
 30
0.0
 10
404.3101693642432
 20
168.5043443947042
 30
0.0
  0
SPLINE
  5
135
330
1F
100
AcDbEntity
  8
Linee visibili 2D
100
AcDbSpline
210
0.0
220
0.0
230
1.0
 70
    12
 71
     2
 72
     6
 73
     3
 74
     0
 42
0.0000000001
 43
0.0000000001
 40
0.0
 40
0.0
 40
0.0
 40
0.5202016878595034
 40
0.5202016878595034
 40
0.5202016878595034
 10
404.3101693642432
 20
168.5043443947042
 30
0.0
 41
1.0
 10
404.3101693642431
 20
168.7907592285944
 30
0.0
 41
0.8677189473362092
 10
404.0631055358095
 20
168.9356485717223
 30
0.0
 41
1.0
  0
ENDSEC
  0
SECTION
  2
OBJECTS
  0
DICTIONARY
  5
C
330
0
100
AcDbDictionary
281
     1
  3
ACAD_GROUP
350
D
  3
ACAD_LAYOUT
350
1A
  3
ACAD_MLEADERSTYLE
350
137
  3
ACAD_MLINESTYLE
350
17
  3
ACAD_PLOTSETTINGS
350
19
  3
ACAD_PLOTSTYLENAME
350
E
  3
ACAD_TABLESTYLE
350
136
  3
ACAD_VISUALSTYLE
350
2A
  0
DICTIONARY
  5
D
102
{ACAD_REACTORS
330
C
102
}
330
C
100
AcDbDictionary
281
     1
  0
DICTIONARY
  5
1A
102
{ACAD_REACTORS
330
C
102
}
330
C
100
AcDbDictionary
281
     1
  3
Layout1
350
1E
  3
Layout2
350
26
  3
Model
350
22
  0
DICTIONARY
  5
137
102
{ACAD_REACTORS
330
C
102
}
330
C
100
AcDbDictionary
281
     1
  0
DICTIONARY
  5
17
102
{ACAD_REACTORS
330
C
102
}
330
C
100
AcDbDictionary
281
     1
  3
Standard
350
18
  0
DICTIONARY
  5
19
102
{ACAD_REACTORS
330
C
102
}
330
C
100
AcDbDictionary
281
     1
  0
ACDBDICTIONARYWDFLT
  5
E
102
{ACAD_REACTORS
330
C
102
}
330
C
100
AcDbDictionary
281
     1
  3
Normal
350
F
100
AcDbDictionaryWithDefault
340
F
  0
DICTIONARY
  5
136
102
{ACAD_REACTORS
330
C
102
}
330
C
100
AcDbDictionary
281
     1
  0
DICTIONARY
  5
2A
102
{ACAD_REACTORS
330
C
102
}
330
C
100
AcDbDictionary
281
     1
  3
2dWireframe
350
2F
  3
3D Hidden
350
31
  3
3dWireframe
350
30
  3
Basic
350
32
  3
Brighten
350
36
  3
ColorChange
350
3A
  3
Conceptual
350
34
  3
Dim
350
35
  3
Facepattern
350
39
  3
Flat
350
2B
  3
FlatWithEdges
350
2C
  3
Gouraud
350
2D
  3
GouraudWithEdges
350
2E
  3
Linepattern
350
38
  3
Realistic
350
33
  3
Thicken
350
37
  0
LAYOUT
  5
1E
102
{ACAD_REACTORS
330
1A
102
}
330
1A
100
AcDbPlotSettings
  1

  2
none_device
  4

  6

 40
0.0
 41
0.0
 42
0.0
 43
0.0
 44
0.0
 45
0.0
 46
0.0
 47
0.0
 48
0.0
 49
0.0
140
0.0
141
0.0
142
1.0
143
1.0
 70
   688
 72
     0
 73
     0
 74
     5
  7

 75
    16
 76
     0
 77
     2
 78
   300
147
1.0
148
0.0
149
0.0
100
AcDbLayout
  1
Layout1
 70
     1
 71
     1
 10
0.0
 20
0.0
 11
12.0
 21
9.0
 12
0.0
 22
0.0
 32
0.0
 14
1.000000000000000E+20
 24
1.000000000000000E+20
 34
1.000000000000000E+20
 15
-1.000000000000000E+20
 25
-1.000000000000000E+20
 35
-1.000000000000000E+20
146
0.0
 13
0.0
 23
0.0
 33
0.0
 16
1.0
 26
0.0
 36
0.0
 17
0.0
 27
1.0
 37
0.0
 76
     0
330
1B
  0
LAYOUT
  5
26
102
{ACAD_REACTORS
330
1A
102
}
330
1A
100
AcDbPlotSettings
  1

  2
none_device
  4

  6

 40
0.0
 41
0.0
 42
0.0
 43
0.0
 44
0.0
 45
0.0
 46
0.0
 47
0.0
 48
0.0
 49
0.0
140
0.0
141
0.0
142
1.0
143
1.0
 70
   688
 72
     0
 73
     0
 74
     5
  7

 75
    16
 76
     0
 77
     2
 78
   300
147
1.0
148
0.0
149
0.0
100
AcDbLayout
  1
Layout2
 70
     1
 71
     2
 10
0.0
 20
0.0
 11
0.0
 21
0.0
 12
0.0
 22
0.0
 32
0.0
 14
0.0
 24
0.0
 34
0.0
 15
0.0
 25
0.0
 35
0.0
146
0.0
 13
0.0
 23
0.0
 33
0.0
 16
1.0
 26
0.0
 36
0.0
 17
0.0
 27
1.0
 37
0.0
 76
     0
330
23
  0
LAYOUT
  5
22
102
{ACAD_REACTORS
330
1A
102
}
330
1A
100
AcDbPlotSettings
  1

  2
none_device
  4

  6

 40
0.0
 41
0.0
 42
0.0
 43
0.0
 44
0.0
 45
0.0
 46
0.0
 47
0.0
 48
0.0
 49
0.0
140
0.0
141
0.0
142
1.0
143
1.0
 70
  1712
 72
     0
 73
     0
 74
     0
  7

 75
     0
 76
     0
 77
     2
 78
   300
147
1.0
148
0.0
149
0.0
100
AcDbLayout
  1
Model
 70
     1
 71
     0
 10
0.0
 20
0.0
 11
12.0
 21
9.0
 12
0.0
 22
0.0
 32
0.0
 14
-0.0000000000000593
 24
-0.0000000000000118
 34
0.0
 15
470.12715692718
 25
1922.246117974981
 35
0.0
146
0.0
 13
0.0
 23
0.0
 33
0.0
 16
1.0
 26
0.0
 36
0.0
 17
0.0
 27
1.0
 37
0.0
 76
     0
330
1F
331
29
  0
MLINESTYLE
  5
18
102
{ACAD_REACTORS
330
17
102
}
330
17
100
AcDbMlineStyle
  2
Standard
 70
     0
  3

 62
   256
 51
90.0
 52
90.0
 71
     2
 49
0.5
 62
   256
  6
BYLAYER
 49
-0.5
 62
   256
  6
BYLAYER
  0
ACDBPLACEHOLDER
  5
F
102
{ACAD_REACTORS
330
E
102
}
330
E
  0
VISUALSTYLE
  5
2F
102
{ACAD_REACTORS
330
2A
102
}
330
2A
100
AcDbVisualStyle
  2
2dWireframe
 70
     4
 71
     0
 72
     2
 73
     0
 90
        0
 40
-0.6
 41
-30.0
 62
     5
 63
     7
421
 16777215
 74
     1
 91
        4
 64
     7
 65
   257
 75
     1
175
     1
 42
1.0
 92
        0
 66
   257
 43
1.0
 76
     1
 77
     6
 78
     2
 67
     7
 79
     5
170
     0
171
     0
290
     0
174
     0
 93
        1
 44
0.0
173
     0
291
     0
 45
0.0
1001
ACAD
1000
AcDbSavedByObjectVersion
1070
     0
  0
VISUALSTYLE
  5
31
102
{ACAD_REACTORS
330
2A
102
}
330
2A
100
AcDbVisualStyle
  2
3D Hidden
 70
     6
 71
     1
 72
     2
 73
     2
 90
        0
 40
-0.6
 41
-30.0
 62
     5
 63
     7
421
 16777215
 74
     2
 91
        2
 64
     7
 65
   257
 75
     2
175
     1
 42
40.0
 92
        0
 66
   257
 43
1.0
 76
     1
 77
     6
 78
     2
 67
     7
 79
     3
170
     0
171
     0
290
     0
174
     0
 93
        1
 44
0.0
173
     0
291
     0
 45
0.0
1001
ACAD
1000
AcDbSavedByObjectVersion
1070
     0
  0
VISUALSTYLE
  5
30
102
{ACAD_REACTORS
330
2A
102
}
330
2A
100
AcDbVisualStyle
  2
3dWireframe
 70
     5
 71
     0
 72
     2
 73
     0
 90
        0
 40
-0.6
 41
-30.0
 62
     5
 63
     7
421
 16777215
 74
     1
 91
        4
 64
     7
 65
   257
 75
     1
175
     1
 42
1.0
 92
        0
 66
   257
 43
1.0
 76
     1
 77
     6
 78
     2
 67
     7
 79
     5
170
     0
171
     0
290
     0
174
     0
 93
        1
 44
0.0
173
     0
291
     0
 45
0.0
1001
ACAD
1000
AcDbSavedByObjectVersion
1070
     0
  0
VISUALSTYLE
  5
32
102
{ACAD_REACTORS
330
2A
102
}
330
2A
100
AcDbVisualStyle
  2
Basic
 70
     7
 71
     1
 72
     0
 73
     1
 90
        0
 40
-0.6
 41
-30.0
 62
     5
 63
     7
421
 16777215
 74
     0
 91
        4
 64
     7
 65
   257
 75
     1
175
     1
 42
1.0
 92
        8
 66
     7
 43
1.0
 76
     1
 77
     6
 78
     2
 67
     7
 79
     5
170
     0
171
     0
290
     0
174
     0
 93
        1
 44
0.0
173
     0
291
     1
 45
0.0
1001
ACAD
1000
AcDbSavedByObjectVersion
1070
     0
  0
VISUALSTYLE
  5
36
102
{ACAD_REACTORS
330
2A
102
}
330
2A
100
AcDbVisualStyle
  2
Brighten
 70
    12
 71
     2
 72
     2
 73
     0
 90
        0
 40
-0.6
 41
-30.0
 62
     5
 63
     7
421
 16777215
 74
     1
 91
        4
 64
     7
 65
   257
 75
     1
175
     1
 42
1.0
 92
        8
 66
     7
 43
1.0
 76
     1
 77
     6
 78
     2
 67
     7
 79
     5
170
     0
171
     0
290
     0
174
     0
 93
        1
 44
50.0
173
     0
291
     1
 45
0.0
1001
ACAD
1000
AcDbSavedByObjectVersion
1070
     0
  0
VISUALSTYLE
  5
3A
102
{ACAD_REACTORS
330
2A
102
}
330
2A
100
AcDbVisualStyle
  2
ColorChange
 70
    16
 71
     2
 72
     2
 73
     3
 90
        0
 40
-0.6
 41
-30.0
 62
     5
 63
     8
421
  8421504
 74
     1
 91
        4
 64
     7
 65
   257
 75
     1
175
     1
 42
1.0
 92
        8
 66
     8
424
  8421504
 43
1.0
 76
     1
 77
     6
 78
     2
 67
     7
 79
     5
170
     0
171
     0
290
     0
174
     0
 93
        1
 44
0.0
173
     0
291
     1
 45
0.0
1001
ACAD
1000
AcDbSavedByObjectVersion
1070
     0
  0
VISUALSTYLE
  5
34
102
{ACAD_REACTORS
330
2A
102
}
330
2A
100
AcDbVisualStyle
  2
Conceptual
 70
     9
 71
     3
 72
     2
 73
     0
 90
        0
 40
-0.6
 41
-30.0
 62
     5
 63
     7
421
 16777215
 74
     2
 91
        2
 64
     7
 65
   257
 75
     1
175
     1
 42
40.0
 92
        8
 66
     7
 43
1.0
 76
     1
 77
     6
 78
     2
 67
     7
 79
     3
170
     0
171
     0
290
     0
174
     0
 93
        1
 44
0.0
173
     0
291
     0
 45
0.0
1001
ACAD
1000
AcDbSavedByObjectVersion
1070
     0
  0
VISUALSTYLE
  5
35
102
{ACAD_REACTORS
330
2A
102
}
330
2A
100
AcDbVisualStyle
  2
Dim
 70
    11
 71
     2
 72
     2
 73
     0
 90
        0
 40
-0.6
 41
-30.0
 62
     5
 63
     7
421
 16777215
 74
     1
 91
        4
 64
     7
 65
   257
 75
     1
175
     1
 42
1.0
 92
        8
 66
     7
 43
1.0
 76
     1
 77
     6
 78
     2
 67
     7
 79
     5
170
     0
171
     0
290
     0
174
     0
 93
        1
 44
-50.0
173
     0
291
     1
 45
0.0
1001
ACAD
1000
AcDbSavedByObjectVersion
1070
     0
  0
VISUALSTYLE
  5
39
102
{ACAD_REACTORS
330
2A
102
}
330
2A
100
AcDbVisualStyle
  2
Facepattern
 70
    15
 71
     2
 72
     2
 73
     0
 90
        0
 40
-0.6
 41
-30.0
 62
     5
 63
     7
421
 16777215
 74
     1
 91
        4
 64
     7
 65
   257
 75
     1
175
     1
 42
1.0
 92
        8
 66
     7
 43
1.0
 76
     1
 77
     6
 78
     2
 67
     7
 79
     5
170
     0
171
     0
290
     0
174
     0
 93
        1
 44
0.0
173
     0
291
     1
 45
0.0
1001
ACAD
1000
AcDbSavedByObjectVersion
1070
     0
  0
VISUALSTYLE
  5
2B
102
{ACAD_REACTORS
330
2A
102
}
330
2A
100
AcDbVisualStyle
  2
Flat
 70
     0
 71
     2
 72
     1
 73
     1
 90
        2
 40
-0.6
 41
30.0
 62
     5
 63
     7
421
 16777215
 74
     0
 91
        4
 64
     7
 65
   257
 75
     1
175
     1
 42
1.0
 92
        8
 66
     7
 43
1.0
 76
     1
 77
     6
 78
     2
 67
     7
 79
     5
170
     0
171
     0
290
     0
174
     0
 93
       13
 44
0.0
173
     0
291
     1
 45
0.0
1001
ACAD
1000
AcDbSavedByObjectVersion
1070
     0
  0
VISUALSTYLE
  5
2C
102
{ACAD_REACTORS
330
2A
102
}
330
2A
100
AcDbVisualStyle
  2
FlatWithEdges
 70
     1
 71
     2
 72
     1
 73
     1
 90
        2
 40
-0.6
 41
30.0
 62
     5
 63
     7
421
 16777215
 74
     1
 91
        4
 64
     7
 65
   257
 75
     1
175
     1
 42
1.0
 92
        0
 66
   257
 43
1.0
 76
     1
 77
     6
 78
     2
 67
     7
 79
     5
170
     0
171
     0
290
     0
174
     0
 93
       13
 44
0.0
173
     0
291
     1
 45
0.0
1001
ACAD
1000
AcDbSavedByObjectVersion
1070
     0
  0
VISUALSTYLE
  5
2D
102
{ACAD_REACTORS
330
2A
102
}
330
2A
100
AcDbVisualStyle
  2
Gouraud
 70
     2
 71
     2
 72
     2
 73
     1
 90
        2
 40
-0.6
 41
30.0
 62
     5
 63
     7
421
 16777215
 74
     0
 91
        4
 64
     7
 65
   257
 75
     1
175
     1
 42
1.0
 92
        0
 66
     7
 43
1.0
 76
     1
 77
     6
 78
     2
 67
     7
 79
     5
170
     0
171
     0
290
     0
174
     0
 93
       13
 44
0.0
173
     0
291
     1
 45
0.0
1001
ACAD
1000
AcDbSavedByObjectVersion
1070
     0
  0
VISUALSTYLE
  5
2E
102
{ACAD_REACTORS
330
2A
102
}
330
2A
100
AcDbVisualStyle
  2
GouraudWithEdges
 70
     3
 71
     2
 72
     2
 73
     1
 90
        2
 40
-0.6
 41
30.0
 62
     5
 63
     7
421
 16777215
 74
     1
 91
        4
 64
     7
 65
   257
 75
     1
175
     1
 42
1.0
 92
        0
 66
   257
 43
1.0
 76
     1
 77
     6
 78
     2
 67
     7
 79
     5
170
     0
171
     0
290
     0
174
     0
 93
       13
 44
0.0
173
     0
291
     1
 45
0.0
1001
ACAD
1000
AcDbSavedByObjectVersion
1070
     0
  0
VISUALSTYLE
  5
38
102
{ACAD_REACTORS
330
2A
102
}
330
2A
100
AcDbVisualStyle
  2
Linepattern
 70
    14
 71
     2
 72
     2
 73
     0
 90
        0
 40
-0.6
 41
-30.0
 62
     5
 63
     7
421
 16777215
 74
     1
 91
        4
 64
     7
 65
   257
 75
     7
175
     7
 42
1.0
 92
        8
 66
     7
 43
1.0
 76
     1
 77
     6
 78
     2
 67
     7
 79
     5
170
     0
171
     0
290
     0
174
     0
 93
        1
 44
0.0
173
     0
291
     1
 45
0.0
1001
ACAD
1000
AcDbSavedByObjectVersion
1070
     0
  0
VISUALSTYLE
  5
33
102
{ACAD_REACTORS
330
2A
102
}
330
2A
100
AcDbVisualStyle
  2
Realistic
 70
     8
 71
     2
 72
     2
 73
     0
 90
        0
 40
-0.6
 41
-30.0
 62
     5
 63
     7
421
 16777215
 74
     1
 91
        0
 64
     7
 65
   257
 75
     1
175
     1
 42
1.0
 92
        8
 66
     8
424
  7895160
 43
1.0
 76
     1
 77
     6
 78
     2
 67
     7
 79
     5
170
     0
171
     0
290
     0
174
     0
 93
       13
 44
0.0
173
     0
291
     0
 45
0.0
1001
ACAD
1000
AcDbSavedByObjectVersion
1070
     0
  0
VISUALSTYLE
  5
37
102
{ACAD_REACTORS
330
2A
102
}
330
2A
100
AcDbVisualStyle
  2
Thicken
 70
    13
 71
     2
 72
     2
 73
     0
 90
        0
 40
-0.6
 41
-30.0
 62
     5
 63
     7
421
 16777215
 74
     1
 91
        4
 64
     7
 65
   257
 75
     1
175
     1
 42
1.0
 92
       12
 66
     7
 43
1.0
 76
     1
 77
     6
 78
     2
 67
     7
 79
     5
170
     0
171
     0
290
     0
174
     0
 93
        1
 44
0.0
173
     0
291
     1
 45
0.0
1001
ACAD
1000
AcDbSavedByObjectVersion
1070
     0
  0
ENDSEC
  0
EOF
