  0
SECTION
  2
HEADER
  9
$ACADVER
  1
AC1018
  9
$ACADMAINTVER
 70
     0
  9
$DWGCODEPAGE
  3
ANSI_1252
  9
$INSBASE
 10
0.0
 20
0.0
 30
0.0
  9
$EXTMIN
 10
-0.0000000000000033
 20
-0.0000000000000002
 30
0.0
  9
$EXTMAX
 10
471.2461179749811
 20
1122.246117974981
 30
0.0
  9
$LIMMIN
 10
0.0
 20
0.0
  9
$LIMMAX
 10
12.0
 20
9.0
  9
$ORTHOMODE
 70
     0
  9
$REGENMODE
 70
     1
  9
$FILLMODE
 70
     1
  9
$QTEXTMODE
 70
     0
  9
$MIRRTEXT
 70
     1
  9
$LTSCALE
 40
1.0
  9
$ATTMODE
 70
     1
  9
$TEXTSIZE
 40
0.2
  9
$TRACEWID
 40
0.05
  9
$TEXTSTYLE
  7
Standard
  9
$CLAYER
  8
Predefinito
  9
$CELTYPE
  6
ByLayer
  9
$CECOLOR
 62
   256
  9
$CELTSCALE
 40
1.0
  9
$DISPSILH
 70
     0
  9
$DIMSCALE
 40
1.0
  9
$DIMASZ
 40
0.18
  9
$DIMEXO
 40
0.0625
  9
$DIMDLI
 40
0.38
  9
$DIMRND
 40
0.0
  9
$DIMDLE
 40
0.0
  9
$DIMEXE
 40
0.18
  9
$DIMTP
 40
0.0
  9
$DIMTM
 40
0.0
  9
$DIMTXT
 40
0.18
  9
$DIMCEN
 40
0.09
  9
$DIMTSZ
 40
0.0
  9
$DIMTOL
 70
     0
  9
$DIMLIM
 70
     0
  9
$DIMTIH
 70
     1
  9
$DIMTOH
 70
     1
  9
$DIMSE1
 70
     0
  9
$DIMSE2
 70
     0
  9
$DIMTAD
 70
     0
  9
$DIMZIN
 70
     0
  9
$DIMBLK
  1

  9
$DIMASO
 70
     1
  9
$DIMSHO
 70
     1
  9
$DIMPOST
  1

  9
$DIMAPOST
  1

  9
$DIMALT
 70
     0
  9
$DIMALTD
 70
     2
  9
$DIMALTF
 40
25.4
  9
$DIMLFAC
 40
1.0
  9
$DIMTOFL
 70
     0
  9
$DIMTVP
 40
0.0
  9
$DIMTIX
 70
     0
  9
$DIMSOXD
 70
     0
  9
$DIMSAH
 70
     0
  9
$DIMBLK1
  1

  9
$DIMBLK2
  1

  9
$DIMSTYLE
  2
Standard
  9
$DIMCLRD
 70
     0
  9
$DIMCLRE
 70
     0
  9
$DIMCLRT
 70
     0
  9
$DIMTFAC
 40
1.0
  9
$DIMGAP
 40
0.09
  9
$DIMJUST
 70
     0
  9
$DIMSD1
 70
     0
  9
$DIMSD2
 70
     0
  9
$DIMTOLJ
 70
     1
  9
$DIMTZIN
 70
     0
  9
$DIMALTZ
 70
     0
  9
$DIMALTTZ
 70
     0
  9
$DIMUPT
 70
     0
  9
$DIMDEC
 70
     4
  9
$DIMTDEC
 70
     4
  9
$DIMALTU
 70
     2
  9
$DIMALTTD
 70
     2
  9
$DIMTXSTY
  7
Standard
  9
$DIMAUNIT
 70
     0
  9
$DIMADEC
 70
     0
  9
$DIMALTRND
 40
0.0
  9
$DIMAZIN
 70
     0
  9
$DIMDSEP
 70
    46
  9
$DIMATFIT
 70
     3
  9
$DIMFRAC
 70
     0
  9
$DIMLDRBLK
  1

  9
$DIMLUNIT
 70
     2
  9
$DIMLWD
 70
    -2
  9
$DIMLWE
 70
    -2
  9
$DIMTMOVE
 70
     2
  9
$LUNITS
 70
     2
  9
$LUPREC
 70
     3
  9
$SKETCHINC
 40
0.1
  9
$FILLETRAD
 40
0.5
  9
$AUNITS
 70
     0
  9
$AUPREC
 70
     0
  9
$MENU
  1
.
  9
$ELEVATION
 40
0.0
  9
$PELEVATION
 40
0.0
  9
$THICKNESS
 40
0.0
  9
$LIMCHECK
 70
     0
  9
$CHAMFERA
 40
0.5
  9
$CHAMFERB
 40
0.5
  9
$CHAMFERC
 40
1.0
  9
$CHAMFERD
 40
0.0
  9
$SKPOLY
 70
     0
  9
$TDCREATE
 40
2455883.606719826
  9
$TDUCREATE
 40
2455883.56505316
  9
$TDUPDATE
 40
2455883.606719838
  9
$TDUUPDATE
 40
2455883.565053171
  9
$TDINDWG
 40
0.0000000116
  9
$TDUSRTIMER
 40
0.0000000116
  9
$USRTIMER
 70
     1
  9
$ANGBASE
 50
0.0
  9
$ANGDIR
 70
     0
  9
$PDMODE
 70
     0
  9
$PDSIZE
 40
0.0
  9
$PLINEWID
 40
0.0
  9
$SPLFRAME
 70
     0
  9
$SPLINETYPE
 70
     6
  9
$SPLINESEGS
 70
     8
  9
$HANDSEED
  5
CB
  9
$SURFTAB1
 70
     6
  9
$SURFTAB2
 70
     6
  9
$SURFTYPE
 70
     6
  9
$SURFU
 70
     6
  9
$SURFV
 70
     6
  9
$UCSBASE
  2

  9
$UCSNAME
  2

  9
$UCSORG
 10
0.0
 20
0.0
 30
0.0
  9
$UCSXDIR
 10
1.0
 20
0.0
 30
0.0
  9
$UCSYDIR
 10
0.0
 20
1.0
 30
0.0
  9
$UCSORTHOREF
  2

  9
$UCSORTHOVIEW
 70
     0
  9
$UCSORGTOP
 10
0.0
 20
0.0
 30
0.0
  9
$UCSORGBOTTOM
 10
0.0
 20
0.0
 30
0.0
  9
$UCSORGLEFT
 10
0.0
 20
0.0
 30
0.0
  9
$UCSORGRIGHT
 10
0.0
 20
0.0
 30
0.0
  9
$UCSORGFRONT
 10
0.0
 20
0.0
 30
0.0
  9
$UCSORGBACK
 10
0.0
 20
0.0
 30
0.0
  9
$PUCSBASE
  2

  9
$PUCSNAME
  2

  9
$PUCSORG
 10
0.0
 20
0.0
 30
0.0
  9
$PUCSXDIR
 10
1.0
 20
0.0
 30
0.0
  9
$PUCSYDIR
 10
0.0
 20
1.0
 30
0.0
  9
$PUCSORTHOREF
  2

  9
$PUCSORTHOVIEW
 70
     0
  9
$PUCSORGTOP
 10
0.0
 20
0.0
 30
0.0
  9
$PUCSORGBOTTOM
 10
0.0
 20
0.0
 30
0.0
  9
$PUCSORGLEFT
 10
0.0
 20
0.0
 30
0.0
  9
$PUCSORGRIGHT
 10
0.0
 20
0.0
 30
0.0
  9
$PUCSORGFRONT
 10
0.0
 20
0.0
 30
0.0
  9
$PUCSORGBACK
 10
0.0
 20
0.0
 30
0.0
  9
$USERI1
 70
     0
  9
$USERI2
 70
     0
  9
$USERI3
 70
     0
  9
$USERI4
 70
     0
  9
$USERI5
 70
     0
  9
$USERR1
 40
0.0
  9
$USERR2
 40
0.0
  9
$USERR3
 40
0.0
  9
$USERR4
 40
0.0
  9
$USERR5
 40
0.0
  9
$WORLDVIEW
 70
     1
  9
$SHADEDGE
 70
     3
  9
$SHADEDIF
 70
    70
  9
$TILEMODE
 70
     1
  9
$MAXACTVP
 70
    64
  9
$PINSBASE
 10
0.0
 20
0.0
 30
0.0
  9
$PLIMCHECK
 70
     0
  9
$PEXTMIN
 10
1.000000000000000E+20
 20
1.000000000000000E+20
 30
1.000000000000000E+20
  9
$PEXTMAX
 10
-1.000000000000000E+20
 20
-1.000000000000000E+20
 30
-1.000000000000000E+20
  9
$PLIMMIN
 10
0.0
 20
0.0
  9
$PLIMMAX
 10
12.0
 20
9.0
  9
$UNITMODE
 70
     0
  9
$VISRETAIN
 70
     1
  9
$PLINEGEN
 70
     0
  9
$PSLTSCALE
 70
     1
  9
$TREEDEPTH
 70
  3020
  9
$CMLSTYLE
  2
Standard
  9
$CMLJUST
 70
     0
  9
$CMLSCALE
 40
1.0
  9
$PROXYGRAPHICS
 70
     1
  9
$MEASUREMENT
 70
     0
  9
$CELWEIGHT
370
    -1
  9
$ENDCAPS
280
     0
  9
$JOINSTYLE
280
     0
  9
$LWDISPLAY
290
     0
  9
$INSUNITS
 70
     4
  9
$HYPERLINKBASE
  1

  9
$STYLESHEET
  1

  9
$XEDIT
290
     1
  9
$CEPSNTYPE
380
     0
  9
$PSTYLEMODE
290
     1
  9
$FINGERPRINTGUID
  2
{7EB23599-0FA1-468E-9977-C0F616BF5DAF}
  9
$VERSIONGUID
  2
{FAEB1C32-E019-11D5-929B-00C0DF256EC4}
  9
$EXTNAMES
290
     1
  9
$PSVPSCALE
 40
0.0
  9
$OLESTARTUP
290
     0
  9
$SORTENTS
280
   127
  9
$INDEXCTL
280
     0
  9
$HIDETEXT
280
     1
  9
$XCLIPFRAME
290
     0
  9
$HALOGAP
280
     0
  9
$OBSCOLOR
 70
   257
  9
$OBSLTYPE
280
     0
  9
$INTERSECTIONDISPLAY
280
     0
  9
$INTERSECTIONCOLOR
 70
   257
  9
$DIMASSOC
280
     2
  9
$PROJECTNAME
  1

  0
ENDSEC
  0
SECTION
  2
CLASSES
  0
CLASS
  1
ACDBDICTIONARYWDFLT
  2
AcDbDictionaryWithDefault
  3
ObjectDBX Classes
 90
        0
 91
        4
280
     0
281
     0
  0
CLASS
  1
VISUALSTYLE
  2
AcDbVisualStyle
  3
ObjectDBX Classes
 90
     4095
 91
        4
280
     0
281
     0
  0
ENDSEC
  0
SECTION
  2
TABLES
  0
TABLE
  2
VPORT
  5
8
330
0
100
AcDbSymbolTable
 70
     1
  0
VPORT
  5
29
330
8
100
AcDbSymbolTableRecord
100
AcDbViewportTableRecord
  2
*Active
 70
     0
 10
0.0
 20
0.0
 11
1.0
 21
1.0
 12
235.6230589874905
 22
561.1230589874906
 13
0.0
 23
0.0
 14
0.5
 24
0.5
 15
0.5
 25
0.5
 16
0.0
 26
0.0
 36
1.0
 17
0.0
 27
0.0
 37
0.0
 40
1144.691040334481
 41
0.4199133420263582
 42
50.0
 43
0.0
 44
0.0
 50
0.0
 51
0.0
 71
     0
 72
   100
 73
     1
 74
     3
 75
     0
 76
     0
 77
     0
 78
     0
281
     0
 65
     1
110
0.0
120
0.0
130
0.0
111
1.0
121
0.0
131
0.0
112
0.0
122
1.0
132
0.0
 79
     0
146
0.0
  0
ENDTAB
  0
TABLE
  2
LTYPE
  5
5
330
0
100
AcDbSymbolTable
 70
     1
  0
LTYPE
  5
14
330
5
100
AcDbSymbolTableRecord
100
AcDbLinetypeTableRecord
  2
ByBlock
 70
     0
  3

 72
    65
 73
     0
 40
0.0
  0
LTYPE
  5
15
330
5
100
AcDbSymbolTableRecord
100
AcDbLinetypeTableRecord
  2
ByLayer
 70
     0
  3

 72
    65
 73
     0
 40
0.0
  0
LTYPE
  5
16
330
5
100
AcDbSymbolTableRecord
100
AcDbLinetypeTableRecord
  2
Continuous
 70
     0
  3
Solid line
 72
    65
 73
     0
 40
0.0
  0
ENDTAB
  0
TABLE
  2
LAYER
  5
2
330
0
100
AcDbSymbolTable
 70
     3
  0
LAYER
  5
10
330
2
100
AcDbSymbolTableRecord
100
AcDbLayerTableRecord
  2
0
 70
     0
 62
     7
  6
Continuous
370
    -3
390
F
  0
LAYER
  5
3B
330
2
100
AcDbSymbolTableRecord
100
AcDbLayerTableRecord
  2
Linee visibili 2D
 70
     0
 62
     7
  6
Continuous
370
    -3
390
F
  0
LAYER
  5
49
330
2
100
AcDbSymbolTableRecord
100
AcDbLayerTableRecord
  2
Predefinito
 70
     0
 62
     7
  6
Continuous
370
    -3
390
F
  0
ENDTAB
  0
TABLE
  2
STYLE
  5
3
330
0
100
AcDbSymbolTable
 70
     1
  0
STYLE
  5
11
330
3
100
AcDbSymbolTableRecord
100
AcDbTextStyleTableRecord
  2
Standard
 70
     0
 40
0.0
 41
1.0
 50
0.0
 71
     0
 42
0.2
  3
txt
  4

  0
ENDTAB
  0
TABLE
  2
VIEW
  5
6
330
0
100
AcDbSymbolTable
 70
     0
  0
ENDTAB
  0
TABLE
  2
UCS
  5
7
330
0
100
AcDbSymbolTable
 70
     0
  0
ENDTAB
  0
TABLE
  2
APPID
  5
9
330
0
100
AcDbSymbolTable
 70
     1
  0
APPID
  5
12
330
9
100
AcDbSymbolTableRecord
100
AcDbRegAppTableRecord
  2
ACAD
 70
     0
  0
ENDTAB
  0
TABLE
  2
DIMSTYLE
  5
A
330
0
100
AcDbSymbolTable
 70
     1
100
AcDbDimStyleTable
  0
DIMSTYLE
105
27
330
A
100
AcDbSymbolTableRecord
100
AcDbDimStyleTableRecord
  2
Standard
 70
     0
340
11
  0
ENDTAB
  0
TABLE
  2
BLOCK_RECORD
  5
1
330
0
100
AcDbSymbolTable
 70
     1
  0
BLOCK_RECORD
  5
1F
330
1
100
AcDbSymbolTableRecord
100
AcDbBlockTableRecord
  2
*Model_Space
340
22
  0
BLOCK_RECORD
  5
1B
330
1
100
AcDbSymbolTableRecord
100
AcDbBlockTableRecord
  2
*Paper_Space
340
1E
  0
BLOCK_RECORD
  5
23
330
1
100
AcDbSymbolTableRecord
100
AcDbBlockTableRecord
  2
*Paper_Space0
340
26
  0
ENDTAB
  0
ENDSEC
  0
SECTION
  2
BLOCKS
  0
BLOCK
  5
20
330
1F
100
AcDbEntity
  8
0
100
AcDbBlockBegin
  2
*Model_Space
 70
     0
 10
0.0
 20
0.0
 30
0.0
  3
*Model_Space
  1

  0
ENDBLK
  5
21
330
1F
100
AcDbEntity
  8
0
100
AcDbBlockEnd
  0
BLOCK
  5
1C
330
1B
100
AcDbEntity
 67
     1
  8
0
100
AcDbBlockBegin
  2
*Paper_Space
 70
     0
 10
0.0
 20
0.0
 30
0.0
  3
*Paper_Space
  1

  0
ENDBLK
  5
1D
330
1B
100
AcDbEntity
 67
     1
  8
0
100
AcDbBlockEnd
  0
BLOCK
  5
24
330
23
100
AcDbEntity
  8
0
100
AcDbBlockBegin
  2
*Paper_Space0
 70
     0
 10
0.0
 20
0.0
 30
0.0
  3
*Paper_Space0
  1

  0
ENDBLK
  5
25
330
23
100
AcDbEntity
  8
0
100
AcDbBlockEnd
  0
ENDSEC
  0
SECTION
  2
ENTITIES
  0
SPLINE
  5
3C
330
1F
100
AcDbEntity
  8
Linee visibili 2D
100
AcDbSpline
210
0.0
220
0.0
230
1.0
 70
    12
 71
     3
 72
    21
 73
    17
 74
     0
 42
0.0000000001
 43
0.0000000001
 40
81.62985553080934
 40
81.62985553080934
 40
81.62985553080934
 40
81.62985553080934
 40
116.3533996936048
 40
134.5763510934714
 40
151.6069024473032
 40
151.6069024473032
 40
151.6069024473032
 40
156.8157985882218
 40
156.8157985882218
 40
156.8157985882218
 40
162.0246947291404
 40
162.0246947291404
 40
162.0246947291404
 40
179.0552460829721
 40
197.2781974828388
 40
229.9729583808781
 40
229.9729583808781
 40
229.9729583808781
 40
229.9729583808781
 10
83.52828418634235
 20
937.5215129995047
 30
0.0
 41
1.0
 10
92.96860163274886
 20
937.6021820891301
 30
0.0
 41
1.0
 10
110.8013925587926
 20
941.5842205571166
 30
0.0
 41
1.0
 10
127.9139330274444
 20
958.5308295058734
 30
0.0
 41
1.0
 10
132.2146917391192
 20
969.7433711584666
 30
0.0
 41
1.0
 10
133.0026811500958
 20
975.3738157894729
 30
0.0
 41
1.0
 10
133.2425046709691
 20
977.0951239366423
 30
0.0
 41
0.998392007075631
 10
133.3622686478377
 20
978.8288078853062
 30
0.0
 41
0.998392007075631
 10
133.3613953418193
 20
980.5665043808973
 30
0.0
 41
1.0
 10
133.3646468736291
 20
982.3041980538424
 30
0.0
 41
0.998392007075631
 10
133.2472557439274
 20
984.0380442888581
 30
0.0
 41
0.998392007075631
 10
133.0097882450321
 20
985.7596790485106
 30
0.0
 41
1.0
 10
132.2295054477688
 20
991.391196855544
 30
0.0
 41
1.0
 10
127.9440963464397
 20
1002.60961406304
 30
0.0
 41
1.0
 10
111.4636169640141
 20
1018.907521553294
 30
0.0
 41
1.0
 10
94.44260231711216
 20
1023.73699728081
 30
0.0
 41
1.0
 10
83.52828418634236
 20
1023.73699728081
 30
0.0
 41
1.0
  0
SPLINE
  5
3D
330
1F
100
AcDbEntity
  8
Linee visibili 2D
100
AcDbSpline
210
0.0
220
0.0
230
1.0
 70
    12
 71
     3
 72
    21
 73
    17
 74
     0
 42
0.0000000001
 43
0.0000000001
 40
-229.9729583808781
 40
-229.9729583808781
 40
-229.9729583808781
 40
-229.9729583808781
 40
-197.2781974828388
 40
-179.0552460829721
 40
-162.0246947291404
 40
-162.0246947291404
 40
-162.0246947291404
 40
-156.8157985882218
 40
-156.8157985882218
 40
-156.8157985882218
 40
-151.6069024473032
 40
-151.6069024473032
 40
-151.6069024473032
 40
-134.5763510934714
 40
-116.3533996936048
 40
-81.62985553080934
 40
-81.62985553080934
 40
-81.62985553080934
 40
-81.62985553080934
 10
83.52828418634236
 20
1023.73699728081
 30
0.0
 41
1.0
 10
72.61396605557256
 20
1023.73699728081
 30
0.0
 41
1.0
 10
55.59295140867067
 20
1018.907521553294
 30
0.0
 41
1.0
 10
39.11247202624499
 20
1002.60961406304
 30
0.0
 41
1.0
 10
34.82706292491591
 20
991.391196855544
 30
0.0
 41
1.0
 10
34.04678012765265
 20
985.7596790485106
 30
0.0
 41
1.0
 10
33.8093126287573
 20
984.0380442888581
 30
0.0
 41
0.998392007075631
 10
33.69192149905562
 20
982.3041980538424
 30
0.0
 41
0.998392007075631
 10
33.69517303086541
 20
980.5665043808973
 30
0.0
 41
1.0
 10
33.69429972484699
 20
978.8288078853062
 30
0.0
 41
0.998392007075631
 10
33.81406370171558
 20
977.0951239366423
 30
0.0
 41
0.998392007075631
 10
34.05388722258895
 20
975.3738157894729
 30
0.0
 41
1.0
 10
34.84187663356547
 20
969.7433711584666
 30
0.0
 41
1.0
 10
39.14263534524034
 20
958.5308295058734
 30
0.0
 41
1.0
 10
56.25517581389212
 20
941.5842205571166
 30
0.0
 41
1.0
 10
74.08796673993587
 20
937.6021820891301
 30
0.0
 41
1.0
 10
83.52828418634235
 20
937.5215129995047
 30
0.0
 41
1.0
  0
SPLINE
  5
3E
330
1F
100
AcDbEntity
  8
Linee visibili 2D
100
AcDbSpline
210
0.0
220
0.0
230
1.0
 70
    24
 71
     2
 72
     6
 73
     3
 74
     0
 42
0.0000000001
 43
0.0000000001
 40
0.0
 40
0.0
 40
0.0
 40
167.0
 40
167.0
 40
167.0
 10
0.0
 20
621.7461179749811
 30
0.0
 10
83.5
 20
621.7461179749811
 30
0.0
 10
167.0
 20
621.7461179749811
 30
0.0
  0
SPLINE
  5
3F
330
1F
100
AcDbEntity
  8
Linee visibili 2D
100
AcDbSpline
210
0.0
220
0.0
230
1.0
 70
    24
 71
     2
 72
     6
 73
     3
 74
     0
 42
0.0000000001
 43
0.0000000001
 40
0.0
 40
0.0
 40
0.0
 40
5.0
 40
5.0
 40
5.0
 10
167.0
 20
621.7461179749811
 30
0.0
 10
167.0
 20
619.2461179749811
 30
0.0
 10
167.0
 20
616.7461179749811
 30
0.0
  0
SPLINE
  5
40
330
1F
100
AcDbEntity
  8
Linee visibili 2D
100
AcDbSpline
210
0.0
220
0.0
230
1.0
 70
    24
 71
     2
 72
     6
 73
     3
 74
     0
 42
0.0000000001
 43
0.0000000001
 40
0.0
 40
0.0
 40
0.0
 40
167.0
 40
167.0
 40
167.0
 10
167.0
 20
616.7461179749811
 30
0.0
 10
83.5
 20
616.7461179749811
 30
0.0
 10
0.0
 20
616.7461179749811
 30
0.0
  0
SPLINE
  5
41
330
1F
100
AcDbEntity
  8
Linee visibili 2D
100
AcDbSpline
210
0.0
220
0.0
230
1.0
 70
    24
 71
     2
 72
     6
 73
     3
 74
     0
 42
0.0000000001
 43
0.0000000001
 40
-5.0
 40
-5.0
 40
-5.0
 40
0.0
 40
0.0
 40
0.0
 10
0.0
 20
616.7461179749811
 30
0.0
 10
0.0
 20
619.2461179749811
 30
0.0
 10
0.0
 20
621.7461179749811
 30
0.0
  0
SPLINE
  5
42
330
1F
100
AcDbEntity
  8
Linee visibili 2D
100
AcDbSpline
210
0.0
220
0.0
230
1.0
 70
    24
 71
     2
 72
     6
 73
     3
 74
     0
 42
0.0000000001
 43
0.0000000001
 40
0.0
 40
0.0
 40
0.0
 40
500.5000000000001
 40
500.5000000000001
 40
500.5000000000001
 10
0.0
 20
621.7461179749811
 30
0.0
 10
0.0
 20
871.9961179749812
 30
0.0
 10
0.0
 20
1122.246117974981
 30
0.0
  0
SPLINE
  5
43
330
1F
100
AcDbEntity
  8
Linee visibili 2D
100
AcDbSpline
210
0.0
220
0.0
230
1.0
 70
    24
 71
     2
 72
     6
 73
     3
 74
     0
 42
0.0000000001
 43
0.0000000001
 40
0.0
 40
0.0
 40
0.0
 40
167.0
 40
167.0
 40
167.0
 10
0.0
 20
1122.246117974981
 30
0.0
 10
83.5
 20
1122.246117974981
 30
0.0
 10
167.0
 20
1122.246117974981
 30
0.0
  0
SPLINE
  5
44
330
1F
100
AcDbEntity
  8
Linee visibili 2D
100
AcDbSpline
210
0.0
220
0.0
230
1.0
 70
    24
 71
     2
 72
     6
 73
     3
 74
     0
 42
0.0000000001
 43
0.0000000001
 40
0.0
 40
0.0
 40
0.0
 40
500.5000000000001
 40
500.5000000000001
 40
500.5000000000001
 10
167.0
 20
1122.246117974981
 30
0.0
 10
167.0
 20
871.9961179749812
 30
0.0
 10
167.0
 20
621.7461179749811
 30
0.0
  0
SPLINE
  5
45
330
1F
100
AcDbEntity
  8
Linee visibili 2D
100
AcDbSpline
210
0.0
220
0.0
230
1.0
 70
    12
 71
     2
 72
     6
 73
     3
 74
     0
 42
0.0000000001
 43
0.0000000001
 40
0.0
 40
0.0
 40
0.0
 40
0.8074017945183067
 40
0.8074017945183067
 40
0.8074017945183067
 10
161.8736742113446
 20
1117.642911938025
 30
0.0
 41
1.0
 10
162.2670709652039
 20
1117.479973296447
 30
0.0
 41
0.9239209635555851
 10
162.4301146465447
 20
1117.086620064808
 30
0.0
 41
1.0
  0
SPLINE
  5
46
330
1F
100
AcDbEntity
  8
Linee visibili 2D
100
AcDbSpline
210
0.0
220
0.0
230
1.0
 70
    12
 71
     2
 72
     6
 73
     3
 74
     0
 42
0.0000000001
 43
0.0000000001
 40
0.0
 40
0.0
 40
0.0
 40
0.8076708564720095
 40
0.8076708564720095
 40
0.8076708564720095
 10
4.569775398726867
 20
1117.086352819578
 30
0.0
 41
1.0
 10
4.732767923475769
 20
1117.479898063453
 30
0.0
 41
0.9238702652973306
 10
5.126307448739407
 20
1117.642904395098
 30
0.0
 41
1.0
  0
SPLINE
  5
47
330
1F
100
AcDbEntity
  8
Linee visibili 2D
100
AcDbSpline
210
0.0
220
0.0
230
1.0
 70
    12
 71
     2
 72
     6
 73
     3
 74
     0
 42
0.0000000001
 43
0.0000000001
 40
0.0
 40
0.0
 40
0.0
 40
0.8077273637078182
 40
0.8077273637078182
 40
0.8077273637078182
 10
162.4301142794373
 20
861.3561957472357
 30
0.0
 41
1.0
 10
162.2669975164919
 20
860.9626660993948
 30
0.0
 41
0.923859606599982
 10
161.8733721010882
 20
860.7997805738501
 30
0.0
 41
1.0
  0
SPLINE
  5
48
330
1F
100
AcDbEntity
  8
Linee visibili 2D
100
AcDbSpline
210
0.0
220
0.0
230
1.0
 70
    12
 71
     2
 72
     6
 73
     3
 74
     0
 42
0.0000000001
 43
0.0000000001
 40
0.0
 40
0.0
 40
0.0
 40
0.8076721183818061
 40
0.8076721183818061
 40
0.8076721183818061
 10
5.126308616184427
 20
860.7999118286815
 30
0.0
 41
1.0
 10
4.732768205129725
 20
860.9629179559892
 30
0.0
 41
0.9238700274541
 10
4.569775398726853
 20
861.3564638843558
 30
0.0
 41
1.0
  0
SPLINE
  5
4A
330
1F
100
AcDbEntity
  8
Predefinito
100
AcDbSpline
210
0.0
220
0.0
230
1.0
 70
     8
 71
     3
 72
    16
 73
    12
 74
     0
 42
0.0000000001
 43
0.0000000001
 40
0.0
 40
0.0
 40
0.0
 40
0.0
 40
8.217208052829648
 40
16.5836679464925
 40
34.0636054464203
 40
40.33850404088656
 40
50.49790057282699
 40
55.27870881619337
 40
56.02572217696341
 40
63.9440367096842
 40
95.1172797094268
 40
95.1172797094268
 40
95.1172797094268
 40
95.1172797094268
 10
404.8696498881441
 20
1090.530135219251
 30
0.0
 10
404.870487273602
 20
1087.799932572222
 30
0.0
 10
405.4684553741087
 20
1082.246795321975
 30
0.0
 10
409.2579245108672
 20
1071.50745557148
 30
0.0
 10
415.4527785473187
 20
1062.525101627019
 30
0.0
 10
424.2852942441381
 20
1055.402857276872
 30
0.0
 10
430.3116190022298
 20
1051.696410283008
 30
0.0
 10
434.7609818125051
 20
1048.950263137526
 30
0.0
 10
438.656667950732
 20
1046.732365085725
 30
0.0
 10
450.1479632248493
 20
1040.077631799827
 30
0.0
 10
461.4409076407957
 20
1033.575858726243
 30
0.0
 10
470.4366383593632
 20
1028.375017387535
 30
0.0
  0
SPLINE
  5
4B
330
1F
100
AcDbEntity
  8
Predefinito
100
AcDbSpline
210
0.0
220
0.0
230
1.0
 70
    12
 71
     2
 72
     6
 73
     3
 74
     0
 42
0.0000000001
 43
0.0000000001
 40
0.0
 40
0.0
 40
0.0
 40
0.7853971145988666
 40
0.7853971145988666
 40
0.7853971145988666
 10
470.4366383593632
 20
1028.375017387535
 30
0.0
 41
1.0
 10
470.8696496285725
 20
1028.125017003653
 30
0.0
 41
0.7071075227993783
 10
470.6196501529752
 20
1027.692005210044
 30
0.0
 41
1.0
  0
SPLINE
  5
4C
330
1F
100
AcDbEntity
  8
Predefinito
100
AcDbSpline
210
0.0
220
0.0
230
1.0
 70
    24
 71
     2
 72
     6
 73
     3
 74
     0
 42
0.0000000001
 43
0.0000000001
 40
0.0
 40
0.0
 40
0.0
 40
109.2134279761321
 40
109.2134279761321
 40
109.2134279761321
 10
470.6196501529752
 20
1027.692005210044
 30
0.0
 10
443.3162931590417
 20
980.4012036791305
 30
0.0
 10
416.0129361651082
 20
933.1104021482167
 30
0.0
  0
SPLINE
  5
4D
330
1F
100
AcDbEntity
  8
Predefinito
100
AcDbSpline
210
0.0
220
0.0
230
1.0
 70
    12
 71
     2
 72
     6
 73
     3
 74
     0
 42
0.0000000001
 43
0.0000000001
 40
-0.5173241023604768
 40
-0.5173241023604768
 40
-0.5173241023604768
 40
0.0
 40
0.0
 40
0.0
 10
416.0129361651082
 20
933.1104021482167
 30
0.0
 41
1.0
 10
415.8706826344547
 20
932.8640118015957
 30
0.0
 41
0.8691456682221929
 10
415.586197972344
 20
932.8604415193658
 30
0.0
 41
1.0
  0
SPLINE
  5
4E
330
1F
100
AcDbEntity
  8
Predefinito
100
AcDbSpline
210
0.0
220
0.0
230
1.0
 70
     8
 71
     3
 72
    12
 73
     8
 74
     0
 42
0.0000000001
 43
0.0000000001
 40
0.0
 40
0.0
 40
0.0
 40
0.0
 40
2.191616117897186
 40
4.303025613100735
 40
7.384636538804866
 40
10.95174085313354
 40
14.28011324192942
 40
14.28011324192942
 40
14.28011324192942
 40
14.28011324192942
 10
415.586197972344
 20
932.8604415193658
 30
0.0
 10
414.8530959316553
 20
932.8667181819227
 30
0.0
 10
413.4275548287408
 20
932.7359954100033
 30
0.0
 10
410.9757712499599
 20
932.4504743261292
 30
0.0
 10
408.2392238561371
 20
931.2732581715647
 30
0.0
 10
405.9522535145176
 20
928.7573028840911
 30
0.0
 10
405.0680093488406
 20
926.6048513278901
 30
0.0
 10
404.9323377515371
 20
925.4941187181115
 30
0.0
  0
POLYLINE
  5
4F
330
1F
100
AcDbEntity
  8
Predefinito
100
AcDb2dPolyline
 66
     1
 10
0.0
 20
0.0
 30
0.0
  0
VERTEX
  5
50
330
4F
100
AcDbEntity
  8
Predefinito
100
AcDbVertex
100
AcDb2dVertex
 10
404.9323377515371
 20
925.4941187181115
 30
0.0
  0
VERTEX
  5
51
330
4F
100
AcDbEntity
  8
Predefinito
100
AcDbVertex
100
AcDb2dVertex
 10
404.8696498881442
 20
924.5415011709342
 30
0.0
  0
SEQEND
  5
52
330
4F
100
AcDbEntity
  8
Predefinito
  0
SPLINE
  5
53
330
1F
100
AcDbEntity
  8
Predefinito
100
AcDbSpline
210
0.0
220
0.0
230
1.0
 70
     8
 71
     3
 72
    16
 73
    12
 74
     0
 42
0.0000000001
 43
0.0000000001
 40
0.0
 40
0.0
 40
0.0
 40
0.0
 40
8.217208052829639
 40
16.58366794649249
 40
34.06360544642038
 40
40.33850404088658
 40
50.49790057282693
 40
55.27870881619336
 40
56.02572217696334
 40
63.94403670968423
 40
95.1172797094268
 40
95.1172797094268
 40
95.1172797094268
 40
95.1172797094268
 10
357.622586061818
 20
1090.530135219251
 30
0.0
 10
357.6217486763607
 20
1087.799932572219
 30
0.0
 10
357.0237805758547
 20
1082.246795321975
 30
0.0
 10
353.2343114390961
 20
1071.507455571479
 30
0.0
 10
347.0394574026444
 20
1062.525101627021
 30
0.0
 10
338.2069417058244
 20
1055.402857276873
 30
0.0
 10
332.180616947733
 20
1051.696410283009
 30
0.0
 10
327.7312541374572
 20
1048.950263137525
 30
0.0
 10
323.8355679992293
 20
1046.732365085724
 30
0.0
 10
312.3442727251126
 20
1040.077631799826
 30
0.0
 10
301.0513283091665
 20
1033.575858726243
 30
0.0
 10
292.0555975905989
 20
1028.375017387535
 30
0.0
  0
SPLINE
  5
54
330
1F
100
AcDbEntity
  8
Predefinito
100
AcDbSpline
210
0.0
220
0.0
230
1.0
 70
    12
 71
     2
 72
     6
 73
     3
 74
     0
 42
0.0000000001
 43
0.0000000001
 40
0.0
 40
0.0
 40
0.0
 40
0.7853971145989047
 40
0.7853971145989047
 40
0.7853971145989047
 10
292.0555975905989
 20
1028.375017387535
 30
0.0
 41
1.0
 10
291.6225863213892
 20
1028.125017003653
 30
0.0
 41
0.7071075227988802
 10
291.8725857969871
 20
1027.692005210044
 30
0.0
 41
1.0
  0
SPLINE
  5
55
330
1F
100
AcDbEntity
  8
Predefinito
100
AcDbSpline
210
0.0
220
0.0
230
1.0
 70
    24
 71
     2
 72
     6
 73
     3
 74
     0
 42
0.0000000001
 43
0.0000000001
 40
0.0
 40
0.0
 40
0.0
 40
109.2134279761321
 40
109.2134279761321
 40
109.2134279761321
 10
291.8725857969871
 20
1027.692005210044
 30
0.0
 10
319.1759427909205
 20
980.4012036791305
 30
0.0
 10
346.4792997848539
 20
933.1104021482167
 30
0.0
  0
SPLINE
  5
56
330
1F
100
AcDbEntity
  8
Predefinito
100
AcDbSpline
210
0.0
220
0.0
230
1.0
 70
    12
 71
     2
 72
     6
 73
     3
 74
     0
 42
0.0000000001
 43
0.0000000001
 40
-0.5173241023605037
 40
-0.5173241023605037
 40
-0.5173241023605037
 40
0.0
 40
0.0
 40
0.0
 10
346.4792997848539
 20
933.1104021482167
 30
0.0
 41
1.0
 10
346.6215533155074
 20
932.8640118015956
 30
0.0
 41
0.8691456682221788
 10
346.9060379776181
 20
932.8604415193658
 30
0.0
 41
1.0
  0
SPLINE
  5
57
330
1F
100
AcDbEntity
  8
Predefinito
100
AcDbSpline
210
0.0
220
0.0
230
1.0
 70
     8
 71
     3
 72
    12
 73
     8
 74
     0
 42
0.0000000001
 43
0.0000000001
 40
0.0
 40
0.0
 40
0.0
 40
0.0
 40
2.191616117897186
 40
4.30302561310079
 40
7.384636538804961
 40
10.95174085313363
 40
14.28011324192959
 40
14.28011324192959
 40
14.28011324192959
 40
14.28011324192959
 10
346.9060379776181
 20
932.8604415193658
 30
0.0
 10
347.6391400183061
 20
932.8667181819211
 30
0.0
 10
349.0646811212225
 20
932.7359954100042
 30
0.0
 10
351.5164647000022
 20
932.4504743261275
 30
0.0
 10
354.2530120938247
 20
931.2732581715647
 30
0.0
 10
356.5399824354439
 20
928.7573028840885
 30
0.0
 10
357.4242266011216
 20
926.6048513278903
 30
0.0
 10
357.559898198425
 20
925.4941187181114
 30
0.0
  0
POLYLINE
  5
58
330
1F
100
AcDbEntity
  8
Predefinito
100
AcDb2dPolyline
 66
     1
 10
0.0
 20
0.0
 30
0.0
  0
VERTEX
  5
59
330
58
100
AcDbEntity
  8
Predefinito
100
AcDbVertex
100
AcDb2dVertex
 10
357.559898198425
 20
925.4941187181114
 30
0.0
  0
VERTEX
  5
5A
330
58
100
AcDbEntity
  8
Predefinito
100
AcDbVertex
100
AcDb2dVertex
 10
357.622586061818
 20
924.5415011709342
 30
0.0
  0
SEQEND
  5
5B
330
58
100
AcDbEntity
  8
Predefinito
  0
SPLINE
  5
5C
330
1F
100
AcDbEntity
  8
Linee visibili 2D
100
AcDbSpline
210
0.0
220
0.0
230
1.0
 70
    24
 71
     2
 72
     6
 73
     3
 74
     0
 42
0.0000000001
 43
0.0000000001
 40
0.0
 40
0.0
 40
0.0
 40
500.5000000000001
 40
500.5000000000001
 40
500.5000000000001
 10
404.6225860618185
 20
621.7461179749811
 30
0.0
 10
404.6225860618185
 20
871.9961179749812
 30
0.0
 10
404.6225860618185
 20
1122.246117974981
 30
0.0
  0
SPLINE
  5
5D
330
1F
100
AcDbEntity
  8
Linee visibili 2D
100
AcDbSpline
210
0.0
220
0.0
230
1.0
 70
    24
 71
     2
 72
     6
 73
     3
 74
     0
 42
0.0000000001
 43
0.0000000001
 40
0.0
 40
0.0
 40
0.0
 40
46.75293617367532
 40
46.75293617367532
 40
46.75293617367532
 10
404.6225860618185
 20
1122.246117974981
 30
0.0
 10
381.2461179749808
 20
1122.246117974981
 30
0.0
 10
357.8696498881432
 20
1122.246117974981
 30
0.0
  0
SPLINE
  5
5E
330
1F
100
AcDbEntity
  8
Linee visibili 2D
100
AcDbSpline
210
0.0
220
0.0
230
1.0
 70
    24
 71
     2
 72
     6
 73
     3
 74
     0
 42
0.0000000001
 43
0.0000000001
 40
0.0
 40
0.0
 40
0.0
 40
500.5000000000001
 40
500.5000000000001
 40
500.5000000000001
 10
357.8696498881432
 20
1122.246117974981
 30
0.0
 10
357.8696498881432
 20
871.9961179749812
 30
0.0
 10
357.8696498881432
 20
621.7461179749811
 30
0.0
  0
SPLINE
  5
5F
330
1F
100
AcDbEntity
  8
Linee visibili 2D
100
AcDbSpline
210
0.0
220
0.0
230
1.0
 70
    24
 71
     2
 72
     6
 73
     3
 74
     0
 42
0.0000000001
 43
0.0000000001
 40
0.0
 40
0.0
 40
0.0
 40
256.991196976887
 40
256.991196976887
 40
256.991196976887
 10
162.5
 20
1117.717006840412
 30
0.0
 10
162.5000000000001
 20
989.2214083519686
 30
0.0
 10
162.5000000000001
 20
860.7258098635251
 30
0.0
  0
SPLINE
  5
60
330
1F
100
AcDbEntity
  8
Linee visibili 2D
100
AcDbSpline
210
0.0
220
0.0
230
1.0
 70
    24
 71
     2
 72
     6
 73
     3
 74
     0
 42
0.0000000001
 43
0.0000000001
 40
0.0
 40
0.0
 40
0.0
 40
158.0043253562337
 40
158.0043253562337
 40
158.0043253562337
 10
162.5000000000001
 20
860.7258098635251
 30
0.0
 10
83.49783732188325
 20
860.7258098635251
 30
0.0
 10
4.495674643766407
 20
860.7258098635251
 30
0.0
  0
SPLINE
  5
61
330
1F
100
AcDbEntity
  8
Linee visibili 2D
100
AcDbSpline
210
0.0
220
0.0
230
1.0
 70
    24
 71
     2
 72
     6
 73
     3
 74
     0
 42
0.0000000001
 43
0.0000000001
 40
0.0
 40
0.0
 40
0.0
 40
256.991196976887
 40
256.991196976887
 40
256.991196976887
 10
4.495674643766407
 20
860.7258098635251
 30
0.0
 10
4.495674643766407
 20
989.2214083519686
 30
0.0
 10
4.495674643766407
 20
1117.717006840412
 30
0.0
  0
SPLINE
  5
62
330
1F
100
AcDbEntity
  8
Linee visibili 2D
100
AcDbSpline
210
0.0
220
0.0
230
1.0
 70
    24
 71
     2
 72
     6
 73
     3
 74
     0
 42
0.0000000001
 43
0.0000000001
 40
0.0
 40
0.0
 40
0.0
 40
158.0043253562336
 40
158.0043253562336
 40
158.0043253562336
 10
4.495674643766407
 20
1117.717006840412
 30
0.0
 10
83.4978373218832
 20
1117.717006840412
 30
0.0
 10
162.5
 20
1117.717006840412
 30
0.0
  0
SPLINE
  5
63
330
1F
100
AcDbEntity
  8
Linee visibili 2D
100
AcDbSpline
210
0.0
220
0.0
230
1.0
 70
    24
 71
     2
 72
     6
 73
     3
 74
     0
 42
0.0000000001
 43
0.0000000001
 40
0.0
 40
0.0
 40
0.0
 40
24.0
 40
24.0
 40
24.0
 10
71.50000000000101
 20
875.2217315080594
 30
0.0
 10
83.50000000000101
 20
875.2217315080594
 30
0.0
 10
95.50000000000101
 20
875.2217315080594
 30
0.0
  0
SPLINE
  5
64
330
1F
100
AcDbEntity
  8
Linee visibili 2D
100
AcDbSpline
210
0.0
220
0.0
230
1.0
 70
    12
 71
     2
 72
     8
 73
     5
 74
     0
 42
0.0000000001
 43
0.0000000001
 40
0.0
 40
0.0
 40
0.0
 40
7.055382951107299
 40
7.055382951107299
 40
14.11076590221481
 40
14.11076590221481
 40
14.11076590221481
 10
95.50000000000101
 20
875.2217315080594
 30
0.0
 41
1.0
 10
99.99159628830114
 20
875.2217315080595
 30
0.0
 41
0.7071067811865285
 10
99.99159628830103
 20
870.7301352197594
 30
0.0
 41
1.0
 10
99.99159628830158
 20
866.2385389314588
 30
0.0
 41
0.7071067811864659
 10
95.50000000000101
 20
866.2385389314594
 30
0.0
 41
1.0
  0
SPLINE
  5
65
330
1F
100
AcDbEntity
  8
Linee visibili 2D
100
AcDbSpline
210
0.0
220
0.0
230
1.0
 70
    24
 71
     2
 72
     6
 73
     3
 74
     0
 42
0.0000000001
 43
0.0000000001
 40
0.0
 40
0.0
 40
0.0
 40
24.0
 40
24.0
 40
24.0
 10
95.50000000000101
 20
866.2385389314594
 30
0.0
 10
83.50000000000101
 20
866.2385389314594
 30
0.0
 10
71.50000000000101
 20
866.2385389314594
 30
0.0
  0
SPLINE
  5
66
330
1F
100
AcDbEntity
  8
Linee visibili 2D
100
AcDbSpline
210
0.0
220
0.0
230
1.0
 70
    12
 71
     2
 72
     8
 73
     5
 74
     0
 42
0.0000000001
 43
0.0000000001
 40
-14.11076590221448
 40
-14.11076590221448
 40
-14.11076590221448
 40
-7.055382951107186
 40
-7.055382951107186
 40
0.0
 40
0.0
 40
0.0
 10
71.50000000000101
 20
866.2385389314594
 30
0.0
 41
1.0
 10
67.0084037117009
 20
866.2385389314593
 30
0.0
 41
0.7071067811865307
 10
67.008403711701
 20
870.7301352197594
 30
0.0
 41
1.0
 10
67.0084037117011
 20
875.2217315080593
 30
0.0
 41
0.7071067811865654
 10
71.50000000000101
 20
875.2217315080594
 30
0.0
 41
1.0
  0
SPLINE
  5
67
330
1F
100
AcDbEntity
  8
Linee visibili 2D
100
AcDbSpline
210
0.0
220
0.0
230
1.0
 70
    12
 71
     2
 72
     6
 73
     3
 74
     0
 42
0.0000000001
 43
0.0000000001
 40
0.0
 40
0.0
 40
0.0
 40
0.5202016891536521
 40
0.5202016891536521
 40
0.5202016891536521
 10
357.8696498913679
 20
860.7944866473845
 30
0.0
 41
1.0
 10
357.6225860618179
 20
860.9393759903076
 30
0.0
 41
0.867718946692706
 10
357.622586061818
 20
861.2257908250572
 30
0.0
 41
1.0
  0
SPLINE
  5
68
330
1F
100
AcDbEntity
  8
Linee visibili 2D
100
AcDbSpline
210
0.0
220
0.0
230
1.0
 70
    24
 71
     2
 72
     6
 73
     3
 74
     0
 42
0.0000000001
 43
0.0000000001
 40
0.0
 40
0.0
 40
0.0
 40
0.504382473169585
 40
0.504382473169585
 40
0.504382473169585
 10
357.622586061818
 20
861.2257908250572
 30
0.0
 10
357.622586061818
 20
861.477982061642
 30
0.0
 10
357.622586061818
 20
861.7301732982268
 30
0.0
  0
SPLINE
  5
69
330
1F
100
AcDbEntity
  8
Linee visibili 2D
100
AcDbSpline
210
0.0
220
0.0
230
1.0
 70
    24
 71
     2
 72
     6
 73
     3
 74
     0
 42
0.0000000001
 43
0.0000000001
 40
0.0
 40
0.0
 40
0.0
 40
254.9824701074832
 40
254.9824701074832
 40
254.9824701074832
 10
357.622586061818
 20
861.7301732982268
 30
0.0
 10
357.622586061818
 20
989.2214083519684
 30
0.0
 10
357.622586061818
 20
1116.71264340571
 30
0.0
  0
SPLINE
  5
6A
330
1F
100
AcDbEntity
  8
Linee visibili 2D
100
AcDbSpline
210
0.0
220
0.0
230
1.0
 70
    24
 71
     2
 72
     6
 73
     3
 74
     0
 42
0.0000000001
 43
0.0000000001
 40
0.0
 40
0.0
 40
0.0
 40
0.5043824731710629
 40
0.5043824731710629
 40
0.5043824731710629
 10
357.622586061818
 20
1116.71264340571
 30
0.0
 10
357.622586061818
 20
1116.964834642296
 30
0.0
 10
357.622586061818
 20
1117.217025878881
 30
0.0
  0
SPLINE
  5
6B
330
1F
100
AcDbEntity
  8
Linee visibili 2D
100
AcDbSpline
210
0.0
220
0.0
230
1.0
 70
    12
 71
     2
 72
     6
 73
     3
 74
     0
 42
0.0000000001
 43
0.0000000001
 40
0.0
 40
0.0
 40
0.0
 40
0.5202016891529495
 40
0.5202016891529495
 40
0.5202016891529495
 10
357.622586061818
 20
1117.217025878881
 30
0.0
 41
1.0
 10
357.6225860618182
 20
1117.50344071363
 30
0.0
 41
0.8677189466929718
 10
357.869649891368
 20
1117.648330056553
 30
0.0
 41
1.0
  0
SPLINE
  5
6C
330
1F
100
AcDbEntity
  8
Linee visibili 2D
100
AcDbSpline
210
0.0
220
0.0
230
1.0
 70
    24
 71
     2
 72
     6
 73
     3
 74
     0
 42
0.0000000001
 43
0.0000000001
 40
0.0
 40
0.0
 40
0.0
 40
5.0
 40
5.0
 40
5.0
 10
471.2461179749811
 20
621.7461179749811
 30
0.0
 10
471.2461179749811
 20
619.2461179749811
 30
0.0
 10
471.2461179749811
 20
616.7461179749811
 30
0.0
  0
SPLINE
  5
6D
330
1F
100
AcDbEntity
  8
Linee visibili 2D
100
AcDbSpline
210
0.0
220
0.0
230
1.0
 70
    24
 71
     2
 72
     6
 73
     3
 74
     0
 42
0.0000000001
 43
0.0000000001
 40
0.0
 40
0.0
 40
0.0
 40
180.0
 40
180.0
 40
180.0
 10
471.2461179749811
 20
616.7461179749811
 30
0.0
 10
381.2461179749811
 20
616.7461179749811
 30
0.0
 10
291.2461179749811
 20
616.7461179749811
 30
0.0
  0
SPLINE
  5
6E
330
1F
100
AcDbEntity
  8
Linee visibili 2D
100
AcDbSpline
210
0.0
220
0.0
230
1.0
 70
    24
 71
     2
 72
     6
 73
     3
 74
     0
 42
0.0000000001
 43
0.0000000001
 40
0.0
 40
0.0
 40
0.0
 40
5.0
 40
5.0
 40
5.0
 10
291.2461179749811
 20
616.7461179749811
 30
0.0
 10
291.2461179749811
 20
619.2461179749811
 30
0.0
 10
291.2461179749811
 20
621.7461179749811
 30
0.0
  0
SPLINE
  5
6F
330
1F
100
AcDbEntity
  8
Linee visibili 2D
100
AcDbSpline
210
0.0
220
0.0
230
1.0
 70
    24
 71
     2
 72
     6
 73
     3
 74
     0
 42
0.0000000001
 43
0.0000000001
 40
0.0
 40
0.0
 40
0.0
 40
66.62353191316208
 40
66.62353191316208
 40
66.62353191316208
 10
291.2461179749811
 20
621.7461179749811
 30
0.0
 10
324.5578839315621
 20
621.7461179749811
 30
0.0
 10
357.8696498881432
 20
621.7461179749811
 30
0.0
  0
SPLINE
  5
70
330
1F
100
AcDbEntity
  8
Linee visibili 2D
100
AcDbSpline
210
0.0
220
0.0
230
1.0
 70
    24
 71
     2
 72
     6
 73
     3
 74
     0
 42
0.0000000001
 43
0.0000000001
 40
0.0
 40
0.0
 40
0.0
 40
46.75293617367532
 40
46.75293617367532
 40
46.75293617367532
 10
357.8696498881432
 20
621.7461179749811
 30
0.0
 10
381.2461179749808
 20
621.7461179749811
 30
0.0
 10
404.6225860618185
 20
621.7461179749811
 30
0.0
  0
SPLINE
  5
71
330
1F
100
AcDbEntity
  8
Linee visibili 2D
100
AcDbSpline
210
0.0
220
0.0
230
1.0
 70
    24
 71
     2
 72
     6
 73
     3
 74
     0
 42
0.0000000001
 43
0.0000000001
 40
0.0
 40
0.0
 40
0.0
 40
66.6235319131626
 40
66.6235319131626
 40
66.6235319131626
 10
404.6225860618185
 20
621.7461179749811
 30
0.0
 10
437.9343520183997
 20
621.7461179749811
 30
0.0
 10
471.2461179749811
 20
621.7461179749811
 30
0.0
  0
SPLINE
  5
72
330
1F
100
AcDbEntity
  8
Linee visibili 2D
100
AcDbSpline
210
0.0
220
0.0
230
1.0
 70
    12
 71
     2
 72
     6
 73
     3
 74
     0
 42
0.0000000001
 43
0.0000000001
 40
0.0
 40
0.0
 40
0.0
 40
0.520201689154127
 40
0.520201689154127
 40
0.520201689154127
 10
404.6225860585938
 20
860.7944866473841
 30
0.0
 41
1.0
 10
404.8696498881441
 20
860.9393759903073
 30
0.0
 41
0.8677189466927978
 10
404.8696498881441
 20
861.2257908250572
 30
0.0
 41
1.0
  0
SPLINE
  5
73
330
1F
100
AcDbEntity
  8
Linee visibili 2D
100
AcDbSpline
210
0.0
220
0.0
230
1.0
 70
    24
 71
     2
 72
     6
 73
     3
 74
     0
 42
0.0000000001
 43
0.0000000001
 40
0.0
 40
0.0
 40
0.0
 40
0.504382473169585
 40
0.504382473169585
 40
0.504382473169585
 10
404.8696498881441
 20
861.2257908250572
 30
0.0
 10
404.8696498881442
 20
861.477982061642
 30
0.0
 10
404.8696498881442
 20
861.7301732982268
 30
0.0
  0
SPLINE
  5
74
330
1F
100
AcDbEntity
  8
Linee visibili 2D
100
AcDbSpline
210
0.0
220
0.0
230
1.0
 70
    24
 71
     2
 72
     6
 73
     3
 74
     0
 42
0.0000000001
 43
0.0000000001
 40
0.0
 40
0.0
 40
0.0
 40
254.9824701074832
 40
254.9824701074832
 40
254.9824701074832
 10
404.8696498881442
 20
861.7301732982268
 30
0.0
 10
404.8696498881442
 20
989.2214083519684
 30
0.0
 10
404.8696498881442
 20
1116.71264340571
 30
0.0
  0
SPLINE
  5
75
330
1F
100
AcDbEntity
  8
Linee visibili 2D
100
AcDbSpline
210
0.0
220
0.0
230
1.0
 70
    24
 71
     2
 72
     6
 73
     3
 74
     0
 42
0.0000000001
 43
0.0000000001
 40
0.0
 40
0.0
 40
0.0
 40
0.5043824731710629
 40
0.5043824731710629
 40
0.5043824731710629
 10
404.8696498881442
 20
1116.71264340571
 30
0.0
 10
404.8696498881442
 20
1116.964834642296
 30
0.0
 10
404.8696498881442
 20
1117.217025878881
 30
0.0
  0
SPLINE
  5
76
330
1F
100
AcDbEntity
  8
Linee visibili 2D
100
AcDbSpline
210
0.0
220
0.0
230
1.0
 70
    12
 71
     2
 72
     6
 73
     3
 74
     0
 42
0.0000000001
 43
0.0000000001
 40
0.0
 40
0.0
 40
0.0
 40
0.5202016891535562
 40
0.5202016891535562
 40
0.5202016891535562
 10
404.8696498881442
 20
1117.217025878881
 30
0.0
 41
1.0
 10
404.869649888144
 20
1117.503440713631
 30
0.0
 41
0.8677189466928172
 10
404.6225860585938
 20
1117.648330056553
 30
0.0
 41
1.0
  0
SPLINE
  5
77
330
1F
100
AcDbEntity
  8
Linee visibili 2D
100
AcDbSpline
210
0.0
220
0.0
230
1.0
 70
    24
 71
     2
 72
     6
 73
     3
 74
     0
 42
0.0000000001
 43
0.0000000001
 40
0.0
 40
0.0
 40
0.0
 40
43.90263504128227
 40
43.90263504128227
 40
43.90263504128227
 10
180.0
 20
25.61491807416302
 30
0.0
 10
159.3706634126964
 20
33.11763843812066
 30
0.0
 10
138.7413268253929
 20
40.62035880207829
 30
0.0
  0
SPLINE
  5
78
330
1F
100
AcDbEntity
  8
Linee visibili 2D
100
AcDbSpline
210
0.0
220
0.0
230
1.0
 70
    24
 71
     2
 72
     6
 73
     3
 74
     0
 42
0.0000000001
 43
0.0000000001
 40
0.0
 40
0.0
 40
0.0
 40
43.22762040403875
 40
43.22762040403875
 40
43.22762040403875
 10
42.71055920095607
 20
40.49670663013858
 30
0.0
 10
21.35527960047803
 20
37.16371628596961
 30
0.0
 10
-0.0000000000000033
 20
33.83072594180064
 30
0.0
  0
SPLINE
  5
79
330
1F
100
AcDbEntity
  8
Linee visibili 2D
100
AcDbSpline
210
0.0
220
0.0
230
1.0
 70
    12
 71
     2
 72
     8
 73
     5
 74
     0
 42
0.0000000001
 43
0.0000000001
 40
180.2454237583091
 40
180.2454237583091
 40
180.2454237583091
 40
227.678086394038
 40
227.678086394038
 40
301.1991351254468
 40
301.1991351254468
 40
301.1991351254468
 10
51.00108195709874
 20
271.2309629426051
 30
0.0
 41
1045.634250054084
 10
37.85250593993586
 20
280.866263058313
 30
0.0
 41
1001.655538721281
 10
29.0894228881999
 20
298.6542747084774
 30
0.0
 41
1217.293031823078
 10
13.28290962674853
 20
330.7396081902226
 30
0.0
 41
860.7428689961536
 10
30.05361690795407
 20
334.2604248618378
 30
0.0
 41
1140.588358736498
  0
SPLINE
  5
7A
330
1F
100
AcDbEntity
  8
Linee visibili 2D
100
AcDbSpline
210
0.0
220
0.0
230
1.0
 70
    24
 71
     2
 72
     6
 73
     3
 74
     0
 42
0.0000000001
 43
0.0000000001
 40
0.0
 40
0.0
 40
0.0
 40
0.206009532697858
 40
0.206009532697858
 40
0.206009532697858
 10
106.0626633257806
 20
413.8400359044795
 30
0.0
 10
106.1652593528686
 20
413.8308687284501
 30
0.0
 10
106.2678553799566
 20
413.8217015524207
 30
0.0
  0
SPLINE
  5
7B
330
1F
100
AcDbEntity
  8
Linee visibili 2D
100
AcDbSpline
210
0.0
220
0.0
230
1.0
 70
    12
 71
     2
 72
     6
 73
     3
 74
     0
 42
0.0000000001
 43
0.0000000001
 40
0.0
 40
0.0
 40
0.0
 40
3.826394131499914
 40
3.826394131499914
 40
3.826394131499914
 10
48.71848918687223
 20
272.8871466470632
 30
0.0
 41
1.0
 10
47.27965980306138
 20
274.1489520180049
 30
0.0
 41
0.9995781831312599
 10
45.91651816879655
 20
275.4921674418251
 30
0.0
 41
1.0
  0
SPLINE
  5
7C
330
1F
100
AcDbEntity
  8
Predefinito
100
AcDbSpline
210
0.0
220
0.0
230
1.0
 70
    24
 71
     2
 72
     6
 73
     3
 74
     0
 42
0.0000000001
 43
0.0000000001
 40
-1.0
 40
-1.0
 40
-1.0
 40
0.0
 40
0.0
 40
0.0
 10
404.8696498881441
 20
159.525993443803
 30
0.0
 10
404.8939635017879
 20
158.9431563285981
 30
0.0
 10
404.9182771154316
 20
158.3603192133932
 30
0.0
  0
SPLINE
  5
7D
330
1F
100
AcDbEntity
  8
Predefinito
100
AcDbSpline
210
0.0
220
0.0
230
1.0
 70
     8
 71
     3
 72
    14
 73
    10
 74
     0
 42
0.0000000001
 43
0.0000000001
 40
0.0
 40
0.0
 40
0.0
 40
0.0
 40
4.166552842005202
 40
9.828186812248005
 40
20.33289264805117
 40
25.61316851796862
 40
31.83648339472384
 40
36.69785813377585
 40
47.33118309809478
 40
47.33118309809478
 40
47.33118309809478
 40
47.33118309809478
 10
404.9182771154316
 20
158.3603192133932
 30
0.0
 10
404.9768607066389
 20
156.9559746433962
 30
0.0
 10
405.9514203070451
 20
153.804707741719
 30
0.0
 10
409.4766780771854
 20
147.9476031591144
 30
0.0
 10
415.2273178876558
 20
143.3994859574627
 30
0.0
 10
422.0905998458065
 20
140.7718804833479
 30
0.0
 10
427.4240574672442
 20
139.5312367656949
 30
0.0
 10
434.62016425705
 20
138.745758443599
 30
0.0
 10
439.796823781081
 20
138.6879335113966
 30
0.0
 10
443.3334823587696
 20
138.5092039228613
 30
0.0
  0
SPLINE
  5
7E
330
1F
100
AcDbEntity
  8
Predefinito
100
AcDbSpline
210
0.0
220
0.0
230
1.0
 70
     8
 71
     3
 72
    12
 73
     8
 74
     0
 42
0.0000000001
 43
0.0000000001
 40
0.0
 40
0.0
 40
0.0
 40
0.0
 40
5.533906133331607
 40
11.59539449670329
 40
26.38820202587215
 40
45.4034299502965
 40
66.36915009158146
 40
66.36915009158146
 40
66.36915009158146
 40
66.36915009158146
 10
443.3334823587696
 20
138.5092039228613
 30
0.0
 10
445.1770621295234
 20
138.4288717183448
 30
0.0
 10
449.0028193413007
 20
137.5648278738931
 30
0.0
 10
456.4455282742787
 20
132.5928632552225
 30
0.0
 10
463.9738637256438
 20
121.3650526308611
 30
0.0
 10
469.424042827765
 20
103.8241788936405
 30
0.0
 10
470.6892783965993
 20
90.48675980885054
 30
0.0
 10
470.686637451081
 20
83.50000000000091
 30
0.0
  0
SPLINE
  5
7F
330
1F
100
AcDbEntity
  8
Predefinito
100
AcDbSpline
210
0.0
220
0.0
230
1.0
 70
     8
 71
     3
 72
    13
 73
     9
 74
     0
 42
0.0000000001
 43
0.0000000001
 40
0.0
 40
0.0
 40
0.0
 40
0.0
 40
10.89910347663077
 40
21.07299387248685
 40
39.63473598429724
 40
54.67521727985088
 40
60.8408186389705
 40
66.3599379413633
 40
66.3599379413633
 40
66.3599379413633
 40
66.3599379413633
 10
470.686637451081
 20
83.50000000000091
 30
0.0
 10
470.6836749925337
 20
79.86550660241241
 30
0.0
 10
470.3448878975867
 20
72.84567952324534
 30
0.0
 10
468.3473303645455
 20
59.76112401103165
 30
0.0
 10
464.0016883718567
 20
45.75109090397051
 30
0.0
 10
456.5608501617831
 20
34.50726002993964
 30
0.0
 10
449.0377822699443
 20
29.43399026691959
 30
0.0
 10
445.1803804070243
 20
28.57474271889247
 30
0.0
 10
443.3413492403876
 20
28.49097273821964
 30
0.0
  0
SPLINE
  5
80
330
1F
100
AcDbEntity
  8
Predefinito
100
AcDbSpline
210
0.0
220
0.0
230
1.0
 70
     8
 71
     3
 72
    14
 73
    10
 74
     0
 42
0.0000000001
 43
0.0000000001
 40
0.0
 40
0.0
 40
0.0
 40
0.0
 40
10.64012817182808
 40
15.50193225404544
 40
21.7056441981761
 40
27.00505218810202
 40
37.48801898221305
 40
43.17012588953219
 40
47.33513355334517
 40
47.33513355334517
 40
47.33513355334517
 40
47.33513355334517
 10
443.3413492403876
 20
28.49097273821964
 30
0.0
 10
439.8007047980261
 20
28.31200656612713
 30
0.0
 10
434.6236858644143
 20
28.25102884000636
 30
0.0
 10
427.4285655978483
 20
27.47297053975107
 30
0.0
 10
422.0998000811427
 20
26.2235375071351
 30
0.0
 10
415.2375231296475
 20
23.60643388735051
 30
0.0
 10
409.487196112745
 20
19.05618706940151
 30
0.0
 10
405.9504816606492
 20
13.20531935275337
 30
0.0
 10
404.9786290859876
 20
10.04582396758587
 30
0.0
 10
404.9168187487076
 20
8.64277109338907
 30
0.0
  0
SPLINE
  5
81
330
1F
100
AcDbEntity
  8
Predefinito
100
AcDbSpline
210
0.0
220
0.0
230
1.0
 70
    24
 71
     2
 72
     6
 73
     3
 74
     0
 42
0.0000000001
 43
0.0000000001
 40
0.0
 40
0.0
 40
0.0
 40
1.0
 40
1.0
 40
1.0
 10
404.9168187487076
 20
8.64277109338907
 30
0.0
 10
404.8932343184259
 20
8.101377191671148
 30
0.0
 10
404.8696498881442
 20
7.559983289953225
 30
0.0
  0
SPLINE
  5
82
330
1F
100
AcDbEntity
  8
Linee visibili 2D
100
AcDbSpline
210
0.0
220
0.0
230
1.0
 70
    12
 71
     2
 72
     6
 73
     3
 74
     0
 42
0.0000000001
 43
0.0000000001
 40
0.0
 40
0.0
 40
0.0
 40
0.520201687860119
 40
0.520201687860119
 40
0.520201687860119
 10
404.6225860597099
 20
162.4356485717223
 30
0.0
 41
1.0
 10
404.8696498881442
 20
162.2907592285946
 30
0.0
 41
0.8677189473356991
 10
404.8696498881441
 20
162.004344394704
 30
0.0
 41
1.0
  0
SPLINE
  5
83
330
1F
100
AcDbEntity
  8
Linee visibili 2D
100
AcDbSpline
210
0.0
220
0.0
230
1.0
 70
    24
 71
     2
 72
     6
 73
     3
 74
     0
 42
0.0000000001
 43
0.0000000001
 40
-0.5043443947496655
 40
-0.5043443947496655
 40
-0.5043443947496655
 40
0.0
 40
0.0
 40
0.0
 10
404.8696498881441
 20
162.004344394704
 30
0.0
 10
404.8696498881441
 20
161.7521721973292
 30
0.0
 10
404.8696498881441
 20
161.4999999999543
 30
0.0
  0
SPLINE
  5
84
330
1F
100
AcDbEntity
  8
Linee visibili 2D
100
AcDbSpline
210
0.0
220
0.0
230
1.0
 70
    24
 71
     2
 72
     6
 73
     3
 74
     0
 42
0.0000000001
 43
0.0000000001
 40
0.0
 40
0.0
 40
0.0
 40
155.9999999999067
 40
155.9999999999067
 40
155.9999999999067
 10
404.8696498881441
 20
161.4999999999543
 30
0.0
 10
404.8696498881442
 20
83.500000000001
 30
0.0
 10
404.8696498881442
 20
5.500000000047663
 30
0.0
  0
SPLINE
  5
85
330
1F
100
AcDbEntity
  8
Linee visibili 2D
100
AcDbSpline
210
0.0
220
0.0
230
1.0
 70
    24
 71
     2
 72
     6
 73
     3
 74
     0
 42
0.0000000001
 43
0.0000000001
 40
-0.5043443947491681
 40
-0.5043443947491681
 40
-0.5043443947491681
 40
0.0
 40
0.0
 40
0.0
 10
404.8696498881442
 20
5.500000000047663
 30
0.0
 10
404.8696498881442
 20
5.247827802673079
 30
0.0
 10
404.8696498881442
 20
4.995655605298495
 30
0.0
  0
SPLINE
  5
86
330
1F
100
AcDbEntity
  8
Linee visibili 2D
100
AcDbSpline
210
0.0
220
0.0
230
1.0
 70
    12
 71
     2
 72
     6
 73
     3
 74
     0
 42
0.0000000001
 43
0.0000000001
 40
0.0
 40
0.0
 40
0.0
 40
0.5202016891543491
 40
0.5202016891543491
 40
0.5202016891543491
 10
404.8696498881442
 20
4.995655605298495
 30
0.0
 41
1.0
 10
404.8696498881441
 20
4.70924077054852
 30
0.0
 41
0.8677189466927758
 10
404.6225860585937
 20
4.564351427625311
 30
0.0
 41
1.0
  0
SPLINE
  5
87
330
1F
100
AcDbEntity
  8
Linee visibili 2D
100
AcDbSpline
210
0.0
220
0.0
230
1.0
 70
    12
 71
     2
 72
     6
 73
     3
 74
     0
 42
0.0000000001
 43
0.0000000001
 40
0.0
 40
0.0
 40
0.0
 40
0.5202016878595268
 40
0.5202016878595268
 40
0.5202016878595268
 10
357.8696498902517
 20
162.4356485717221
 30
0.0
 41
1.0
 10
357.622586061818
 20
162.2907592285942
 30
0.0
 41
0.8677189473362336
 10
357.622586061818
 20
162.004344394704
 30
0.0
 41
1.0
  0
SPLINE
  5
88
330
1F
100
AcDbEntity
  8
Linee visibili 2D
100
AcDbSpline
210
0.0
220
0.0
230
1.0
 70
    24
 71
     2
 72
     6
 73
     3
 74
     0
 42
0.0000000001
 43
0.0000000001
 40
-0.5043443947496655
 40
-0.5043443947496655
 40
-0.5043443947496655
 40
0.0
 40
0.0
 40
0.0
 10
357.622586061818
 20
162.004344394704
 30
0.0
 10
357.622586061818
 20
161.7521721973292
 30
0.0
 10
357.622586061818
 20
161.4999999999543
 30
0.0
  0
SPLINE
  5
89
330
1F
100
AcDbEntity
  8
Linee visibili 2D
100
AcDbSpline
210
0.0
220
0.0
230
1.0
 70
    24
 71
     2
 72
     6
 73
     3
 74
     0
 42
0.0000000001
 43
0.0000000001
 40
0.0
 40
0.0
 40
0.0
 40
155.9999999999067
 40
155.9999999999067
 40
155.9999999999067
 10
357.622586061818
 20
161.4999999999543
 30
0.0
 10
357.622586061818
 20
83.500000000001
 30
0.0
 10
357.622586061818
 20
5.500000000047663
 30
0.0
  0
SPLINE
  5
8A
330
1F
100
AcDbEntity
  8
Linee visibili 2D
100
AcDbSpline
210
0.0
220
0.0
230
1.0
 70
    24
 71
     2
 72
     6
 73
     3
 74
     0
 42
0.0000000001
 43
0.0000000001
 40
-0.5043443947491681
 40
-0.5043443947491681
 40
-0.5043443947491681
 40
0.0
 40
0.0
 40
0.0
 10
357.622586061818
 20
5.500000000047663
 30
0.0
 10
357.622586061818
 20
5.247827802673079
 30
0.0
 10
357.622586061818
 20
4.995655605298495
 30
0.0
  0
SPLINE
  5
8B
330
1F
100
AcDbEntity
  8
Linee visibili 2D
100
AcDbSpline
210
0.0
220
0.0
230
1.0
 70
    12
 71
     2
 72
     6
 73
     3
 74
     0
 42
0.0000000001
 43
0.0000000001
 40
0.0
 40
0.0
 40
0.0
 40
0.5202016891538173
 40
0.5202016891538173
 40
0.5202016891538173
 10
357.622586061818
 20
4.995655605298495
 30
0.0
 41
1.0
 10
357.622586061818
 20
4.709240770548841
 30
0.0
 41
0.8677189466928933
 10
357.869649891368
 20
4.564351427625616
 30
0.0
 41
1.0
  0
SPLINE
  5
8C
330
1F
100
AcDbEntity
  8
Linee visibili 2D
100
AcDbSpline
210
0.0
220
0.0
230
1.0
 70
    24
 71
     2
 72
     6
 73
     3
 74
     0
 42
0.0000000001
 43
0.0000000001
 40
0.0
 40
0.0
 40
0.0
 40
167.0
 40
167.0
 40
167.0
 10
357.8696498881432
 20
0.0
 30
0.0
 10
357.8696498881432
 20
83.5
 30
0.0
 10
357.8696498881432
 20
167.0
 30
0.0
  0
SPLINE
  5
8D
330
1F
100
AcDbEntity
  8
Linee visibili 2D
100
AcDbSpline
210
0.0
220
0.0
230
1.0
 70
    24
 71
     2
 72
     6
 73
     3
 74
     0
 42
0.0000000001
 43
0.0000000001
 40
0.0
 40
0.0
 40
0.0
 40
46.75293617367532
 40
46.75293617367532
 40
46.75293617367532
 10
357.8696498881432
 20
167.0
 30
0.0
 10
381.2461179749808
 20
167.0
 30
0.0
 10
404.6225860618185
 20
167.0
 30
0.0
  0
SPLINE
  5
8E
330
1F
100
AcDbEntity
  8
Linee visibili 2D
100
AcDbSpline
210
0.0
220
0.0
230
1.0
 70
    24
 71
     2
 72
     6
 73
     3
 74
     0
 42
0.0000000001
 43
0.0000000001
 40
-167.0
 40
-167.0
 40
-167.0
 40
0.0
 40
0.0
 40
0.0
 10
404.6225860618185
 20
167.0
 30
0.0
 10
404.6225860618185
 20
83.5
 30
0.0
 10
404.6225860618185
 20
0.0
 30
0.0
  0
SPLINE
  5
8F
330
1F
100
AcDbEntity
  8
Linee visibili 2D
100
AcDbSpline
210
0.0
220
0.0
230
1.0
 70
    24
 71
     2
 72
     6
 73
     3
 74
     0
 42
0.0000000001
 43
0.0000000001
 40
0.0
 40
0.0
 40
0.0
 40
46.75293617367532
 40
46.75293617367532
 40
46.75293617367532
 10
404.6225860618185
 20
0.0
 30
0.0
 10
381.2461179749808
 20
0.0
 30
0.0
 10
357.8696498881432
 20
0.0
 30
0.0
  0
SPLINE
  5
90
330
1F
100
AcDbEntity
  8
Linee visibili 2D
100
AcDbSpline
210
0.0
220
0.0
230
1.0
 70
    24
 71
     2
 72
     6
 73
     3
 74
     0
 42
0.0000000001
 43
0.0000000001
 40
-66.62353191316208
 40
-66.62353191316208
 40
-66.62353191316208
 40
0.0
 40
0.0
 40
0.0
 10
357.8696498881432
 20
0.0
 30
0.0
 10
324.5578839315621
 20
0.0
 30
0.0
 10
291.2461179749811
 20
0.0
 30
0.0
  0
SPLINE
  5
91
330
1F
100
AcDbEntity
  8
Linee visibili 2D
100
AcDbSpline
210
0.0
220
0.0
230
1.0
 70
    24
 71
     2
 72
     6
 73
     3
 74
     0
 42
0.0000000001
 43
0.0000000001
 40
0.0
 40
0.0
 40
0.0
 40
167.0
 40
167.0
 40
167.0
 10
291.2461179749811
 20
0.0
 30
0.0
 10
291.2461179749811
 20
83.5
 30
0.0
 10
291.2461179749811
 20
167.0
 30
0.0
  0
SPLINE
  5
92
330
1F
100
AcDbEntity
  8
Linee visibili 2D
100
AcDbSpline
210
0.0
220
0.0
230
1.0
 70
    24
 71
     2
 72
     6
 73
     3
 74
     0
 42
0.0000000001
 43
0.0000000001
 40
-66.62353191316208
 40
-66.62353191316208
 40
-66.62353191316208
 40
0.0
 40
0.0
 40
0.0
 10
291.2461179749811
 20
167.0
 30
0.0
 10
324.5578839315621
 20
167.0
 30
0.0
 10
357.8696498881432
 20
167.0
 30
0.0
  0
SPLINE
  5
93
330
1F
100
AcDbEntity
  8
Linee visibili 2D
100
AcDbSpline
210
0.0
220
0.0
230
1.0
 70
    24
 71
     2
 72
     6
 73
     3
 74
     0
 42
0.0000000001
 43
0.0000000001
 40
0.0
 40
0.0
 40
0.0
 40
66.6235319131626
 40
66.6235319131626
 40
66.6235319131626
 10
404.6225860618185
 20
0.0
 30
0.0
 10
437.9343520183997
 20
0.0
 30
0.0
 10
471.2461179749811
 20
0.0
 30
0.0
  0
SPLINE
  5
94
330
1F
100
AcDbEntity
  8
Linee visibili 2D
100
AcDbSpline
210
0.0
220
0.0
230
1.0
 70
    24
 71
     2
 72
     6
 73
     3
 74
     0
 42
0.0000000001
 43
0.0000000001
 40
0.0
 40
0.0
 40
0.0
 40
167.0
 40
167.0
 40
167.0
 10
471.2461179749811
 20
0.0
 30
0.0
 10
471.2461179749811
 20
83.5
 30
0.0
 10
471.2461179749811
 20
167.0
 30
0.0
  0
SPLINE
  5
95
330
1F
100
AcDbEntity
  8
Linee visibili 2D
100
AcDbSpline
210
0.0
220
0.0
230
1.0
 70
    24
 71
     2
 72
     6
 73
     3
 74
     0
 42
0.0000000001
 43
0.0000000001
 40
0.0
 40
0.0
 40
0.0
 40
66.6235319131626
 40
66.6235319131626
 40
66.6235319131626
 10
471.2461179749811
 20
167.0
 30
0.0
 10
437.9343520183997
 20
167.0
 30
0.0
 10
404.6225860618185
 20
167.0
 30
0.0
  0
SPLINE
  5
96
330
1F
100
AcDbEntity
  8
Predefinito
100
AcDbSpline
210
0.0
220
0.0
230
1.0
 70
    24
 71
     2
 72
     6
 73
     3
 74
     0
 42
0.0000000001
 43
0.0000000001
 40
-1.0
 40
-1.0
 40
-1.0
 40
0.0
 40
0.0
 40
0.0
 10
357.622586061818
 20
7.559983289953225
 30
0.0
 10
357.5990258964067
 20
8.101378993735349
 30
0.0
 10
357.5754657309955
 20
8.642774697517472
 30
0.0
  0
SPLINE
  5
97
330
1F
100
AcDbEntity
  8
Predefinito
100
AcDbSpline
210
0.0
220
0.0
230
1.0
 70
     8
 71
     3
 72
    14
 73
    10
 74
     0
 42
0.0000000001
 43
0.0000000001
 40
0.0
 40
0.0
 40
0.0
 40
0.0
 40
4.163661932966098
 40
9.825295903228518
 40
20.33000173903485
 40
25.61027760895649
 40
31.83359248570414
 40
36.69496722475571
 40
47.33511587741022
 40
47.33511587741022
 40
47.33511587741022
 40
47.33511587741022
 10
357.5754657309955
 20
8.642774697517472
 30
0.0
 10
357.5144073879362
 20
10.04585162993018
 30
0.0
 10
356.5404671935512
 20
13.19613578510731
 30
0.0
 10
353.0154647939416
 20
19.0523881445997
 30
0.0
 10
347.2649688075159
 20
23.60052204470208
 30
0.0
 10
340.4016104424413
 20
26.22811163790762
 30
0.0
 10
335.0681935293271
 20
27.46878331558104
 30
0.0
 10
327.8697953381263
 20
28.25444003151907
 30
0.0
 10
322.6908703012753
 20
28.31222468497665
 30
0.0
 10
319.1508867095746
 20
28.49097273821963
 30
0.0
  0
SPLINE
  5
98
330
1F
100
AcDbEntity
  8
Predefinito
100
AcDbSpline
210
0.0
220
0.0
230
1.0
 70
     8
 71
     3
 72
    12
 73
     8
 74
     0
 42
0.0000000001
 43
0.0000000001
 40
0.0
 40
0.0
 40
0.0
 40
0.0
 40
5.443657596669564
 40
11.51635245856287
 40
26.61377585066868
 40
45.15678188361106
 40
66.36015233026207
 40
66.36015233026207
 40
66.36015233026207
 40
66.36015233026207
 10
319.1508867095746
 20
28.49097273821963
 30
0.0
 10
317.3366167640981
 20
28.57209213832502
 30
0.0
 10
313.5351903649229
 20
29.41317169122764
 30
0.0
 10
306.0111180474648
 20
34.41174983674679
 30
0.0
 10
298.5435242763239
 20
45.6245028756734
 30
0.0
 10
293.0725414356269
 20
63.16631856992819
 30
0.0
 10
291.8050154594654
 20
76.43891615786212
 30
0.0
 10
291.8055984988812
 20
83.50000000000085
 30
0.0
  0
SPLINE
  5
99
330
1F
100
AcDbEntity
  8
Predefinito
100
AcDbSpline
210
0.0
220
0.0
230
1.0
 70
     8
 71
     3
 72
    12
 73
     8
 74
     0
 42
0.0000000001
 43
0.0000000001
 40
0.0
 40
0.0
 40
0.0
 40
0.0
 40
10.5172197623716
 40
21.03107795841969
 40
39.8175945965871
 40
54.77136544729048
 40
66.36878891103221
 40
66.36878891103221
 40
66.36878891103221
 40
66.36878891103221
 10
291.8055984988812
 20
83.50000000000085
 30
0.0
 10
291.8083393079137
 20
87.0112070060479
 30
0.0
 10
292.1389805952338
 20
94.00974134656975
 30
0.0
 10
294.1058290949121
 20
107.1699769255348
 30
0.0
 10
298.5241087543253
 20
121.3102851576977
 30
0.0
 10
307.0221596160894
 20
134.1576715889489
 30
0.0
 10
315.222536980387
 20
138.4296872470261
 30
0.0
 10
319.1587535911923
 20
138.5092039228613
 30
0.0
  0
SPLINE
  5
9A
330
1F
100
AcDbEntity
  8
Predefinito
100
AcDbSpline
210
0.0
220
0.0
230
1.0
 70
     8
 71
     3
 72
    14
 73
    10
 74
     0
 42
0.0000000001
 43
0.0000000001
 40
0.0
 40
0.0
 40
0.0
 40
0.0
 40
10.63330448349278
 40
15.49510856571187
 40
21.69882050982767
 40
26.99822849976467
 40
37.48119529387895
 40
43.16330220123518
 40
47.33138885571739
 40
47.33138885571739
 40
47.33138885571739
 40
47.33138885571739
 10
319.1587535911923
 20
138.5092039228613
 30
0.0
 10
322.6960803086644
 20
138.6881538876997
 30
0.0
 10
327.870814858678
 20
138.7491658865393
 30
0.0
 10
335.0636706998417
 20
139.5270486235221
 30
0.0
 10
340.3924323156788
 20
140.7764570405453
 30
0.0
 10
347.2547222125582
 20
143.3935672267847
 30
0.0
 10
353.0050209422439
 20
147.9438168374606
 30
0.0
 10
356.5423167750268
 20
153.7955587185864
 30
0.0
 10
357.5141590506062
 20
156.9561710173958
 30
0.0
 10
357.5756707734163
 20
158.360297474136
 30
0.0
  0
SPLINE
  5
9B
330
1F
100
AcDbEntity
  8
Predefinito
100
AcDbSpline
210
0.0
220
0.0
230
1.0
 70
    24
 71
     2
 72
     6
 73
     3
 74
     0
 42
0.0000000001
 43
0.0000000001
 40
0.0
 40
0.0
 40
0.0
 40
1.0
 40
1.0
 40
1.0
 10
357.5756707734163
 20
158.360297474136
 30
0.0
 10
357.5991284176171
 20
158.8957644929499
 30
0.0
 10
357.622586061818
 20
159.4312315117638
 30
0.0
  0
SPLINE
  5
9C
330
1F
100
AcDbEntity
  8
Linee visibili 2D
100
AcDbSpline
210
0.0
220
0.0
230
1.0
 70
    12
 71
     2
 72
     6
 73
     3
 74
     0
 42
0.0000000001
 43
0.0000000001
 40
0.0
 40
0.0
 40
0.0
 40
0.9791787141881695
 40
0.9791787141881695
 40
0.9791787141881695
 10
43.95490762899869
 20
210.271814273999
 30
0.0
 41
1.0
 10
43.3816159136368
 20
210.4261629860621
 30
0.0
 41
0.756563174137613
 10
43.45133978960827
 20
211.0157611435835
 30
0.0
 41
1.0
  0
SPLINE
  5
9D
330
1F
100
AcDbEntity
  8
Linee visibili 2D
100
AcDbSpline
210
0.0
220
0.0
230
1.0
 70
    24
 71
     2
 72
     6
 73
     3
 74
     0
 42
0.0000000001
 43
0.0000000001
 40
0.0
 40
0.0
 40
0.0
 40
64.08840820425823
 40
64.08840820425823
 40
64.08840820425823
 10
43.45133978960827
 20
211.0157611435835
 30
0.0
 10
43.29980286085467
 20
243.0596071429729
 30
0.0
 10
43.14826593210108
 20
275.1034531423623
 30
0.0
  0
SPLINE
  5
9E
330
1F
100
AcDbEntity
  8
Linee visibili 2D
100
AcDbSpline
210
0.0
220
0.0
230
1.0
 70
    12
 71
     2
 72
     6
 73
     3
 74
     0
 42
0.0000000001
 43
0.0000000001
 40
0.0
 40
0.0
 40
0.0
 40
0.1222825518338952
 40
0.1222825518338952
 40
0.1222825518338952
 10
65.86897128919034
 20
262.1368385639904
 30
0.0
 41
1.0
 10
65.8078315419414
 20
262.1373283942289
 30
0.0
 41
0.9999893650270735
 10
65.74669891362741
 20
262.1383821412336
 30
0.0
 41
0.9999999999999929
  0
SPLINE
  5
9F
330
1F
100
AcDbEntity
  8
Linee visibili 2D
100
AcDbSpline
210
0.0
220
0.0
230
1.0
 70
     8
 71
     3
 72
    15
 73
    11
 74
     0
 42
0.0000000001
 43
0.0000000001
 40
0.0
 40
0.0
 40
0.0
 40
0.0
 40
9.462962367791741
 40
21.90732324324798
 40
36.44607584949979
 40
51.99389430659425
 40
66.97225830311618
 40
79.6708410542704
 40
89.55157538054917
 40
96.8285307296492
 40
96.8285307296492
 40
96.8285307296492
 40
96.8285307296492
 10
65.74669891362741
 20
262.1383821412336
 30
0.0
 10
62.56499731977467
 20
262.2249960932031
 30
0.0
 10
55.56046811659792
 20
264.696722334371
 30
0.0
 10
45.75774170317426
 20
272.0068894529557
 30
0.0
 10
36.16048894598516
 20
282.5079598788066
 30
0.0
 10
27.8594548339631
 20
295.0718050668248
 30
0.0
 10
21.82829346221184
 20
308.2259490339159
 30
0.0
 10
18.80003485869204
 20
320.4216943851312
 30
0.0
 10
19.06870515251414
 20
330.5497330008415
 30
0.0
 10
22.22438159004188
 20
335.6636520373989
 30
0.0
 10
24.37609079782545
 20
336.895093163842
 30
0.0
  0
SPLINE
  5
A0
330
1F
100
AcDbEntity
  8
Linee visibili 2D
100
AcDbSpline
210
0.0
220
0.0
230
1.0
 70
     8
 71
     3
 72
    13
 73
     9
 74
     0
 42
0.0000000001
 43
0.0000000001
 40
0.0
 40
0.0
 40
0.0
 40
0.0
 40
16.8763719178991
 40
28.88901855027732
 40
33.27821649568848
 40
35.62526411708101
 40
36.50573583810581
 40
36.94184781014174
 40
36.94184781014174
 40
36.94184781014174
 40
36.94184781014174
 10
24.37609079782545
 20
336.895093163842
 30
0.0
 10
29.20595980681049
 20
339.7797529988447
 30
0.0
 10
37.44596916977835
 20
344.7617098800242
 30
0.0
 10
46.93707600907035
 20
350.5052092283874
 30
0.0
 10
52.19701059839321
 20
353.8808747036309
 30
0.0
 10
54.23242929884838
 20
355.4036183394912
 30
0.0
 10
55.21140311147715
 20
356.1310360334926
 30
0.0
 10
55.54899111132798
 20
356.4132716510946
 30
0.0
 10
55.65288606825851
 20
356.5146355650388
 30
0.0
  0
SPLINE
  5
A1
330
1F
100
AcDbEntity
  8
Linee visibili 2D
100
AcDbSpline
210
0.0
220
0.0
230
1.0
 70
    24
 71
     2
 72
     6
 73
     3
 74
     0
 42
0.0000000001
 43
0.0000000001
 40
0.0
 40
0.0
 40
0.0
 40
0.3911055958871291
 40
0.3911055958871291
 40
0.3911055958871291
 10
42.59155780477509
 20
398.5646235963041
 30
0.0
 10
42.59063345305503
 20
398.7601742095925
 30
0.0
 10
42.58970910133499
 20
398.9557248228808
 30
0.0
  0
SPLINE
  5
A2
330
1F
100
AcDbEntity
  8
Linee visibili 2D
100
AcDbSpline
210
0.0
220
0.0
230
1.0
 70
    24
 71
     2
 72
     6
 73
     3
 74
     0
 42
0.0000000001
 43
0.0000000001
 40
0.0
 40
0.0
 40
0.0
 40
65.4215558181554
 40
65.4215558181554
 40
65.4215558181554
 10
42.58970910133499
 20
398.9557248228808
 30
0.0
 10
74.42880079307743
 20
406.4568735123698
 30
0.0
 10
106.2678924848199
 20
413.9580222018589
 30
0.0
  0
SPLINE
  5
A3
330
1F
100
AcDbEntity
  8
Linee visibili 2D
100
AcDbSpline
210
0.0
220
0.0
230
1.0
 70
    24
 71
     2
 72
     6
 73
     3
 74
     0
 42
0.0000000001
 43
0.0000000001
 40
0.0
 40
0.0
 40
0.0
 40
210.7949732788557
 40
210.7949732788557
 40
210.7949732788557
 10
106.2678924848199
 20
413.9580222018589
 30
0.0
 10
106.2392045406492
 20
308.56053946669
 30
0.0
 10
106.2105165964785
 20
203.163056731521
 30
0.0
  0
SPLINE
  5
A4
330
1F
100
AcDbEntity
  8
Linee visibili 2D
100
AcDbSpline
210
0.0
220
0.0
230
1.0
 70
    24
 71
     2
 72
     6
 73
     3
 74
     0
 42
0.0000000001
 43
0.0000000001
 40
0.0
 40
0.0
 40
0.0
 40
63.13423183614463
 40
63.13423183614463
 40
63.13423183614463
 10
106.2105165964785
 20
203.163056731521
 30
0.0
 10
74.8459830865844
 20
206.7336092226276
 30
0.0
 10
43.48144957669035
 20
210.3041617137343
 30
0.0
  0
SPLINE
  5
A5
330
1F
100
AcDbEntity
  8
Linee visibili 2D
100
AcDbSpline
210
0.0
220
0.0
230
1.0
 70
    24
 71
     2
 72
     6
 73
     3
 74
     0
 42
0.0000000001
 43
0.0000000001
 40
0.0
 40
0.0
 40
0.0
 40
0.4286081823714829
 40
0.4286081823714829
 40
0.4286081823714829
 10
43.48144957669035
 20
210.3041617137343
 30
0.0
 10
43.48043659013437
 20
210.5184634107812
 30
0.0
 10
43.4794236035784
 20
210.7327651078281
 30
0.0
  0
SPLINE
  5
A6
330
1F
100
AcDbEntity
  8
Predefinito
100
AcDbSpline
210
0.0
220
0.0
230
1.0
 70
    12
 71
     2
 72
     6
 73
     3
 74
     0
 42
0.0000000001
 43
0.0000000001
 40
0.0
 40
0.0
 40
0.0
 40
14.44131468980676
 40
14.44131468980676
 40
14.44131468980676
 10
139.6094285851258
 20
339.5827393883326
 30
0.0
 41
1.0
 10
145.4804790142691
 20
335.3792317604834
 30
0.0
 41
0.9999882473106206
 10
151.3920120259843
 20
331.2328493649086
 30
0.0
 41
1.0
  0
SPLINE
  5
A7
330
1F
100
AcDbEntity
  8
Predefinito
100
AcDbSpline
210
0.0
220
0.0
230
1.0
 70
     8
 71
     3
 72
     9
 73
     5
 74
     0
 42
0.0000000001
 43
0.0000000001
 40
0.0
 40
0.0
 40
0.0
 40
0.0
 40
1.0
 40
2.0
 40
2.0
 40
2.0
 40
2.0
 10
151.3920120259843
 20
331.2328493649086
 30
0.0
 10
155.2099399657021
 20
324.2957922273613
 30
0.0
 10
152.8567027394248
 20
312.7106243441497
 30
0.0
 10
150.6844837613226
 20
297.3240732492592
 30
0.0
 10
139.4457395618109
 20
283.2104771075956
 30
0.0
  0
SPLINE
  5
A8
330
1F
100
AcDbEntity
  8
Linee visibili 2D
100
AcDbSpline
210
0.0
220
0.0
230
1.0
 70
    12
 71
     2
 72
     6
 73
     3
 74
     0
 42
0.0000000001
 43
0.0000000001
 40
0.0
 40
0.0
 40
0.0
 40
0.0689296640669071
 40
0.0689296640669071
 40
0.0689296640669071
 10
68.52182591516524
 20
218.4454059982936
 30
0.0
 41
1.0
 10
68.47244965174784
 20
218.4500848051966
 30
0.0
 41
0.9984813160844486
 10
68.4379534733649
 20
218.4495463428066
 30
0.0
 41
1.0
  0
SPLINE
  5
A9
330
1F
100
AcDbEntity
  8
Linee visibili 2D
100
AcDbSpline
210
0.0
220
0.0
230
1.0
 70
    12
 71
     2
 72
     8
 73
     5
 74
     0
 42
0.0000000001
 43
0.0000000001
 40
-23.16499753721983
 40
-23.16499753721983
 40
-23.16499753721983
 40
-15.6499118473825
 40
-15.6499118473825
 40
-7.82495592369126
 40
-7.82495592369126
 40
-7.82495592369126
 10
68.4379534733649
 20
218.4495463428066
 30
0.0
 41
1187.013590325577
 10
66.79264891863586
 20
218.4234449183594
 30
0.0
 41
875.1122515227909
 10
66.80183803199526
 20
215.2187226692763
 30
0.0
 41
1217.933835785349
 10
66.81155787720016
 20
211.8289065937234
 30
0.0
 41
861.4418916899695
 10
68.55557363014073
 20
211.6432990476172
 30
0.0
 41
1214.505984962663
  0
SPLINE
  5
AA
330
1F
100
AcDbEntity
  8
Linee visibili 2D
100
AcDbSpline
210
0.0
220
0.0
230
1.0
 70
    24
 71
     2
 72
     6
 73
     3
 74
     0
 42
0.0000000001
 43
0.0000000001
 40
0.0
 40
0.0
 40
0.0
 40
9.558419965883125
 40
9.558419965883125
 40
9.558419965883125
 10
68.55557363014073
 20
211.6432990476172
 30
0.0
 10
73.30794584780045
 20
211.1375260097194
 30
0.0
 10
78.06031806546017
 20
210.6317529718217
 30
0.0
  0
SPLINE
  5
AB
330
1F
100
AcDbEntity
  8
Linee visibili 2D
100
AcDbSpline
210
0.0
220
0.0
230
1.0
 70
    12
 71
     2
 72
     6
 73
     3
 74
     0
 42
0.0000000001
 43
0.0000000001
 40
-0.1597615355321433
 40
-0.1597615355321433
 40
-0.1597615355321433
 40
0.0
 40
0.0
 40
0.0
 10
78.06031806546017
 20
210.6317529718217
 30
0.0
 41
1.0
 10
78.13993602431235
 20
210.6232451561304
 30
0.0
 41
0.996435776547804
 10
78.21987327832605
 20
210.6282442578434
 30
0.0
 41
1.0
  0
SPLINE
  5
AC
330
1F
100
AcDbEntity
  8
Linee visibili 2D
100
AcDbSpline
210
0.0
220
0.0
230
1.0
 70
     8
 71
     3
 72
    13
 73
     9
 74
     0
 42
0.0000000001
 43
0.0000000001
 40
0.0
 40
0.0
 40
0.0
 40
0.0
 40
0.6710361416860029
 40
1.569734493592802
 40
3.969381972727227
 40
6.396934465594414
 40
7.361488284428578
 40
8.086441804528622
 40
8.086441804528622
 40
8.086441804528622
 40
8.086441804528622
 10
78.21987327832605
 20
210.6282442578434
 30
0.0
 10
78.44848435636206
 20
210.6437859364652
 30
0.0
 10
78.90540414296764
 20
210.9426127973537
 30
0.0
 10
79.56482279818485
 20
212.1171852703364
 30
0.0
 10
79.81378838261237
 20
214.0412059307309
 30
0.0
 10
79.47058941989629
 20
215.9692178951536
 30
0.0
 10
78.76416816497155
 20
217.1702117419449
 30
0.0
 10
78.28977936722092
 20
217.5077869463178
 30
0.0
 10
78.03126077777702
 20
217.5473505167952
 30
0.0
  0
SPLINE
  5
AD
330
1F
100
AcDbEntity
  8
Linee visibili 2D
100
AcDbSpline
210
0.0
220
0.0
230
1.0
 70
    24
 71
     2
 72
     6
 73
     3
 74
     0
 42
0.0000000001
 43
0.0000000001
 40
0.0
 40
0.0
 40
0.0
 40
9.521449604299926
 40
9.521449604299926
 40
9.521449604299926
 10
78.03126077777702
 20
217.5473505167952
 30
0.0
 10
73.27654334647113
 20
217.9963782575444
 30
0.0
 10
68.52182591516524
 20
218.4454059982936
 30
0.0
  0
SPLINE
  5
AE
330
1F
100
AcDbEntity
  8
Predefinito
100
AcDbSpline
210
0.0
220
0.0
230
1.0
 70
    24
 71
     2
 72
     6
 73
     3
 74
     0
 42
0.0000000001
 43
0.0000000001
 40
0.0
 40
0.0
 40
0.0
 40
50.22426581139432
 40
50.22426581139432
 40
50.22426581139432
 10
42.8034639763202
 20
348.0149266839059
 30
0.0
 10
42.68470878709836
 20
373.12677913077
 30
0.0
 10
42.56595359787653
 20
398.2386315776342
 30
0.0
  0
SPLINE
  5
AF
330
1F
100
AcDbEntity
  8
Predefinito
100
AcDbSpline
210
0.0
220
0.0
230
1.0
 70
    12
 71
     2
 72
     6
 73
     3
 74
     0
 42
0.0000000001
 43
0.0000000001
 40
0.0
 40
0.0
 40
0.0
 40
0.9758465594112292
 40
0.9758465594112292
 40
0.9758465594112292
 10
42.56595359787653
 20
398.2386315776342
 30
0.0
 41
1.0
 10
42.49751914221824
 20
398.8061182643511
 30
0.0
 41
0.7942143192250848
 10
43.02735127539097
 20
399.0205979945088
 30
0.0
 41
1.0
  0
SPLINE
  5
B0
330
1F
100
AcDbEntity
  8
Predefinito
100
AcDbSpline
210
0.0
220
0.0
230
1.0
 70
     8
 71
     2
 72
     6
 73
     3
 74
     0
 42
0.0000000001
 43
0.0000000001
 40
0.0
 40
0.0
 40
0.0
 40
1.0
 40
1.0
 40
1.0
 10
43.02735127539097
 20
399.0205979945088
 30
0.0
 10
43.13336046632408
 20
399.0838066715563
 30
0.0
 10
43.40336732609509
 20
399.147419089333
 30
0.0
  0
SPLINE
  5
B1
330
1F
100
AcDbEntity
  8
Linee visibili 2D
100
AcDbSpline
210
0.0
220
0.0
230
1.0
 70
    24
 71
     2
 72
     6
 73
     3
 74
     0
 42
0.0000000001
 43
0.0000000001
 40
0.0
 40
0.0
 40
0.0
 40
69.28762724396512
 40
69.28762724396512
 40
69.28762724396512
 10
108.3019996302253
 20
418.2282675349851
 30
0.0
 10
74.62904971200817
 20
410.0841735964365
 30
0.0
 10
40.95609979379104
 20
401.9400796578878
 30
0.0
  0
SPLINE
  5
B2
330
1F
100
AcDbEntity
  8
Linee visibili 2D
100
AcDbSpline
210
0.0
220
0.0
230
1.0
 70
    24
 71
     2
 72
     6
 73
     3
 74
     0
 42
0.0000000001
 43
0.0000000001
 40
0.0
 40
0.0
 40
0.0
 40
54.8897056776695
 40
54.8897056776695
 40
54.8897056776695
 10
40.95609979379104
 20
401.9400796578878
 30
0.0
 10
41.08931654802392
 20
374.4955501366574
 30
0.0
 10
41.2225333022568
 20
347.051020615427
 30
0.0
  0
SPLINE
  5
B3
330
1F
100
AcDbEntity
  8
Linee visibili 2D
100
AcDbSpline
210
0.0
220
0.0
230
1.0
 70
    24
 71
     2
 72
     6
 73
     3
 74
     0
 42
0.0000000001
 43
0.0000000001
 40
0.0
 40
0.0
 40
0.0
 40
46.69777092412437
 40
46.69777092412437
 40
46.69777092412437
 10
62.19251138166435
 20
4.047870655453059
 30
0.0
 10
85.15969918027423
 20
8.252479667464048
 30
0.0
 10
108.1268869788841
 20
12.45708867947504
 30
0.0
  0
SPLINE
  5
B4
330
1F
100
AcDbEntity
  8
Linee visibili 2D
100
AcDbSpline
210
0.0
220
0.0
230
1.0
 70
    24
 71
     2
 72
     6
 73
     3
 74
     0
 42
0.0000000001
 43
0.0000000001
 40
0.0
 40
0.0
 40
0.0
 40
31.05660114940606
 40
31.05660114940606
 40
31.05660114940606
 10
108.1268869788841
 20
12.45708867947504
 30
0.0
 10
123.4013374905347
 20
15.25338628621508
 30
0.0
 10
138.6757880021852
 20
18.04968389295512
 30
0.0
  0
SPLINE
  5
B5
330
1F
100
AcDbEntity
  8
Linee visibili 2D
100
AcDbSpline
210
0.0
220
0.0
230
1.0
 70
    24
 71
     2
 72
     6
 73
     3
 74
     0
 42
0.0000000001
 43
0.0000000001
 40
0.0
 40
0.0
 40
0.0
 40
396.922293027034
 40
396.922293027034
 40
396.922293027034
 10
138.6757880021852
 20
18.04968389295512
 30
0.0
 10
139.2520603207288
 20
216.5099937427448
 30
0.0
 10
139.8283326392723
 20
414.9703035925345
 30
0.0
  0
SPLINE
  5
B6
330
1F
100
AcDbEntity
  8
Linee visibili 2D
100
AcDbSpline
210
0.0
220
0.0
230
1.0
 70
    24
 71
     2
 72
     6
 73
     3
 74
     0
 42
0.0000000001
 43
0.0000000001
 40
0.0
 40
0.0
 40
0.0
 40
31.69422663589749
 40
31.69422663589749
 40
31.69422663589749
 10
139.8283326392723
 20
414.9703035925345
 30
0.0
 10
124.0651661347488
 20
416.5992855637598
 30
0.0
 10
108.3019996302253
 20
418.2282675349851
 30
0.0
  0
SPLINE
  5
B7
330
1F
100
AcDbEntity
  8
Linee visibili 2D
100
AcDbSpline
210
0.0
220
0.0
230
1.0
 70
    24
 71
     2
 72
     6
 73
     3
 74
     0
 42
0.0000000001
 43
0.0000000001
 40
0.0
 40
0.0
 40
0.0
 40
405.7712166408936
 40
405.7712166408936
 40
405.7712166408936
 10
108.3019996302253
 20
418.2282675349851
 30
0.0
 10
108.2144433045547
 20
215.3426781072301
 30
0.0
 10
108.1268869788841
 20
12.45708867947503
 30
0.0
  0
SPLINE
  5
B8
330
1F
100
AcDbEntity
  8
Linee visibili 2D
100
AcDbSpline
210
0.0
220
0.0
230
1.0
 70
    24
 71
     2
 72
     6
 73
     3
 74
     0
 42
0.0000000001
 43
0.0000000001
 40
-71.17243929196535
 40
-71.17243929196535
 40
-71.17243929196535
 40
0.0
 40
0.0
 40
0.0
 10
108.1268869788841
 20
12.45708867947503
 30
0.0
 10
75.41872308992009
 20
26.47689765480681
 30
0.0
 10
42.71055920095607
 20
40.49670663013859
 30
0.0
  0
SPLINE
  5
B9
330
1F
100
AcDbEntity
  8
Linee visibili 2D
100
AcDbSpline
210
0.0
220
0.0
230
1.0
 70
    24
 71
     2
 72
     6
 73
     3
 74
     0
 42
0.0000000001
 43
0.0000000001
 40
-236.2630590848279
 40
-236.2630590848279
 40
-236.2630590848279
 40
0.0
 40
0.0
 40
0.0
 10
42.71055920095607
 20
40.49670663013859
 30
0.0
 10
42.13715117320604
 20
158.626844508937
 30
0.0
 10
41.56374314545602
 20
276.7569823877354
 30
0.0
  0
SPLINE
  5
BA
330
1F
100
AcDbEntity
  8
Linee visibili 2D
100
AcDbSpline
210
0.0
220
0.0
230
1.0
 70
    24
 71
     2
 72
     6
 73
     3
 74
     0
 42
0.0000000001
 43
0.0000000001
 40
0.0
 40
0.0
 40
0.0
 40
42.01098981762811
 40
42.01098981762811
 40
42.01098981762811
 10
138.6757880021853
 20
18.04968389295512
 30
0.0
 10
159.3378940010926
 20
21.83230098355907
 30
0.0
 10
180.0
 20
25.61491807416302
 30
0.0
  0
SPLINE
  5
BB
330
1F
100
AcDbEntity
  8
Linee visibili 2D
100
AcDbSpline
210
0.0
220
0.0
230
1.0
 70
    24
 71
     2
 72
     6
 73
     3
 74
     0
 42
0.0000000001
 43
0.0000000001
 40
0.0
 40
0.0
 40
0.0
 40
3.728534508117376
 40
3.728534508117376
 40
3.728534508117376
 10
180.0
 20
25.61491807416302
 30
0.0
 10
179.9883591716077
 20
23.75068716419777
 30
0.0
 10
179.9767183432153
 20
21.88645625423252
 30
0.0
  0
SPLINE
  5
BC
330
1F
100
AcDbEntity
  8
Linee visibili 2D
100
AcDbSpline
210
0.0
220
0.0
230
1.0
 70
    24
 71
     2
 72
     6
 73
     3
 74
     0
 42
0.0000000001
 43
0.0000000001
 40
0.0
 40
0.0
 40
0.0
 40
119.7873093474696
 40
119.7873093474696
 40
119.7873093474696
 10
179.9767183432153
 20
21.88645625423252
 30
0.0
 10
121.09127338154
 20
10.94322812711626
 30
0.0
 10
62.20582841986474
 20
-0.0000000000000002
 30
0.0
  0
SPLINE
  5
BD
330
1F
100
AcDbEntity
  8
Linee visibili 2D
100
AcDbSpline
210
0.0
220
0.0
230
1.0
 70
    24
 71
     2
 72
     6
 73
     3
 74
     0
 42
0.0000000001
 43
0.0000000001
 40
0.0
 40
0.0
 40
0.0
 40
4.04789256117111
 40
4.04789256117111
 40
4.04789256117111
 10
62.20582841986474
 20
-0.0000000000000002
 30
0.0
 10
62.19916990076455
 20
2.023935327726529
 30
0.0
 10
62.19251138166435
 20
4.047870655453059
 30
0.0
  0
SPLINE
  5
BE
330
1F
100
AcDbEntity
  8
Linee visibili 2D
100
AcDbSpline
210
0.0
220
0.0
230
1.0
 70
    24
 71
     2
 72
     6
 73
     3
 74
     0
 42
0.0000000001
 43
0.0000000001
 40
0.0
 40
0.0
 40
0.0
 40
68.95597828300292
 40
68.95597828300292
 40
68.95597828300292
 10
62.19251138166435
 20
4.047870655453059
 30
0.0
 10
31.09625569083217
 20
18.93929829862685
 30
0.0
 10
-0.0000000000000033
 20
33.83072594180064
 30
0.0
  0
SPLINE
  5
BF
330
1F
100
AcDbEntity
  8
Linee visibili 2D
100
AcDbSpline
210
0.0
220
0.0
230
1.0
 70
    24
 71
     2
 72
     6
 73
     3
 74
     0
 42
0.0000000001
 43
0.0000000001
 40
0.0
 40
0.0
 40
0.0
 40
3.606605729760724
 40
3.606605729760724
 40
3.606605729760724
 10
-0.0000000000000033
 20
33.83072594180064
 30
0.0
 10
0.0149828650387883
 20
32.02748532107334
 30
0.0
 10
0.0299657300775799
 20
30.22424470034605
 30
0.0
  0
SPLINE
  5
C0
330
1F
100
AcDbEntity
  8
Linee visibili 2D
100
AcDbSpline
210
0.0
220
0.0
230
1.0
 70
    24
 71
     2
 72
     6
 73
     3
 74
     0
 42
0.0000000001
 43
0.0000000001
 40
-69.13279156034177
 40
-69.13279156034177
 40
-69.13279156034177
 40
0.0
 40
0.0
 40
0.0
 10
0.0299657300775799
 20
30.22424470034605
 30
0.0
 10
31.11789707497116
 20
15.11212235017303
 30
0.0
 10
62.20582841986474
 20
-0.0000000000000002
 30
0.0
  0
SPLINE
  5
C1
330
1F
100
AcDbEntity
  8
Predefinito
100
AcDbSpline
210
0.0
220
0.0
230
1.0
 70
     8
 71
     3
 72
    16
 73
    12
 74
     0
 42
0.0000000001
 43
0.0000000001
 40
0.0
 40
0.0
 40
0.0
 40
0.0
 40
1.0
 40
2.0
 40
3.0
 40
4.0
 40
5.0
 40
6.0
 40
7.0
 40
8.0
 40
9.0
 40
9.0
 40
9.0
 40
9.0
 10
63.03336323886865
 20
265.8312413335144
 30
0.0
 10
63.71465405847047
 20
265.7471122476371
 30
0.0
 10
64.4789168959221
 20
265.7566557860026
 30
0.0
 10
65.2975939037651
 20
265.8127961988465
 30
0.0
 10
65.51379286197333
 20
265.8350694671389
 30
0.0
 10
65.98702773936284
 20
265.8973247947423
 30
0.0
 10
66.68380248134858
 20
266.0637355909153
 30
0.0
 10
67.2944373718102
 20
266.2517983315908
 30
0.0
 10
67.56163214994828
 20
266.3457513795627
 30
0.0
 10
68.00718749483804
 20
266.5422506512205
 30
0.0
 10
68.23337499850484
 20
266.6478244010249
 30
0.0
 10
68.75174153137934
 20
266.9420658708441
 30
0.0
  0
SPLINE
  5
C2
330
1F
100
AcDbEntity
  8
Predefinito
100
AcDbSpline
210
0.0
220
0.0
230
1.0
 70
     8
 71
     3
 72
    12
 73
     8
 74
     0
 42
0.0000000001
 43
0.0000000001
 40
0.0
 40
0.0
 40
0.0
 40
0.0
 40
3.161514459750909
 40
6.71200793689539
 40
15.65781451883607
 40
27.29436765563807
 40
40.79107301592015
 40
40.79107301592015
 40
40.79107301592015
 40
40.79107301592015
 10
68.75174153137934
 20
266.9420658708441
 30
0.0
 10
69.64459028408838
 20
267.499047570271
 30
0.0
 10
71.29964921607007
 20
269.0723001062154
 30
0.0
 10
73.39381839122701
 20
273.9622988291684
 30
0.0
 10
73.42273778598674
 20
282.1433834803494
 30
0.0
 10
70.52393949943323
 20
293.1593689624823
 30
0.0
 10
66.94475620205172
 20
300.7872785969126
 30
0.0
 10
64.73911062265836
 20
304.7003110349607
 30
0.0
  0
SPLINE
  5
C3
330
1F
100
AcDbEntity
  8
Predefinito
100
AcDbSpline
210
0.0
220
0.0
230
1.0
 70
     8
 71
     3
 72
    14
 73
    10
 74
     0
 42
0.0000000001
 43
0.0000000001
 40
0.0
 40
0.0
 40
0.0
 40
0.0
 40
10.16549143648511
 40
19.93005550080382
 40
36.84064324961993
 40
43.37485795576497
 40
48.58045122856889
 40
53.00577906657298
 40
57.76047749293679
 40
57.76047749293679
 40
57.76047749293679
 40
57.76047749293679
 10
64.73911062265836
 20
304.7003110349607
 30
0.0
 10
63.07220026943878
 20
307.6378472100453
 30
0.0
 10
59.48625130686717
 20
313.2788872703948
 30
0.0
 10
51.72603315263785
 20
322.7589336049795
 30
0.0
 10
43.3499504993066
 20
330.2313123862221
 30
0.0
 10
34.5737867966492
 20
334.1720891909289
 30
0.0
 10
29.07096587135842
 20
334.6830401131089
 30
0.0
 10
24.57194537411022
 20
332.499755543601
 30
0.0
 10
23.08333516403331
 20
329.6245642584541
 30
0.0
 10
22.58681092004327
 20
328.155612578054
 30
0.0
  0
SPLINE
  5
C4
330
1F
100
AcDbEntity
  8
Predefinito
100
AcDbSpline
210
0.0
220
0.0
230
1.0
 70
     8
 71
     3
 72
    11
 73
     7
 74
     0
 42
0.0000000001
 43
0.0000000001
 40
0.0
 40
0.0
 40
0.0
 40
0.0
 40
3.139969175514731
 40
6.718909945601151
 40
15.04694812566644
 40
35.21864643154671
 40
35.21864643154671
 40
35.21864643154671
 40
35.21864643154671
 10
22.58681092004327
 20
328.155612578054
 30
0.0
 10
22.26069548104038
 20
327.1592136203479
 30
0.0
 10
21.8074175608118
 20
324.9597104767467
 30
0.0
 10
21.62775172582189
 20
319.9268802147034
 30
0.0
 10
23.39652460014764
 20
309.3213442499805
 30
0.0
 10
27.32904090385347
 20
300.5541010572446
 30
0.0
 10
30.65504574117416
 20
294.7246925610326
 30
0.0
  0
SPLINE
  5
C5
330
1F
100
AcDbEntity
  8
Predefinito
100
AcDbSpline
210
0.0
220
0.0
230
1.0
 70
     8
 71
     3
 72
    12
 73
     8
 74
     0
 42
0.0000000001
 43
0.0000000001
 40
0.0
 40
0.0
 40
0.0
 40
0.0
 40
6.322772615266442
 40
12.61150268421526
 40
24.57675352811001
 40
35.02866083746786
 40
43.16104697757184
 40
43.16104697757184
 40
43.16104697757184
 40
43.16104697757184
 10
30.65504574117416
 20
294.7246925610326
 30
0.0
 10
31.70723546403491
 20
292.8984835726354
 30
0.0
 10
33.93632397658494
 20
289.331266008543
 30
0.0
 10
38.75754151016508
 20
282.7018638271491
 30
0.0
 10
45.18508859638468
 20
275.5784530796363
 30
0.0
 10
53.20726616831319
 20
269.2290095768032
 30
0.0
 10
58.89466111565734
 20
266.6168297713342
 30
0.0
 10
61.55814310517374
 20
266.0594792992197
 30
0.0
  0
SPLINE
  5
C6
330
1F
100
AcDbEntity
  8
Predefinito
100
AcDbSpline
210
0.0
220
0.0
230
1.0
 70
    12
 71
     2
 72
     6
 73
     3
 74
     0
 42
0.0000000001
 43
0.0000000001
 40
-0.7912982760787459
 40
-0.7912982760787459
 40
-0.7912982760787459
 40
0.0
 40
0.0
 40
0.0
 10
61.55814310517375
 20
266.0594792992197
 30
0.0
 41
0.999999999686335
 10
61.94586259079855
 20
265.9802197982243
 30
0.0
 41
0.9996667255264924
 10
62.3369634145356
 20
265.9198070245423
 30
0.0
 41
1.0
  0
SPLINE
  5
C7
330
1F
100
AcDbEntity
  8
Predefinito
100
AcDbSpline
210
0.0
220
0.0
230
1.0
 70
    12
 71
     2
 72
     6
 73
     3
 74
     0
 42
0.0000000001
 43
0.0000000001
 40
0.0
 40
0.0
 40
0.0
 40
0.2647676007121804
 40
0.2647676007121804
 40
0.2647676007121804
 10
62.3369634145356
 20
265.9198070245423
 30
0.0
 41
1.0
 10
62.46778900715521
 20
265.8995165194368
 30
0.0
 41
0.9999578893671713
 10
62.59905191567708
 20
265.8822932949442
 30
0.0
 41
1.0
  0
SPLINE
  5
C8
330
1F
100
AcDbEntity
  8
Predefinito
100
AcDbSpline
210
0.0
220
0.0
230
1.0
 70
    12
 71
     2
 72
     6
 73
     3
 74
     0
 42
0.0000000001
 43
0.0000000001
 40
-0.4373156550279758
 40
-0.4373156550279758
 40
-0.4373156550279758
 40
0.0
 40
0.0
 40
0.0
 10
62.59905191567708
 20
265.8822932949442
 30
0.0
 41
0.9999999999774083
 10
62.81581720642468
 20
265.8534456261621
 30
0.0
 41
0.9998734316750756
 10
63.03336323886865
 20
265.8312413335144
 30
0.0
 41
1.0
  0
ENDSEC
  0
SECTION
  2
OBJECTS
  0
DICTIONARY
  5
C
330
0
100
AcDbDictionary
281
     1
  3
ACAD_GROUP
350
D
  3
ACAD_LAYOUT
350
1A
  3
ACAD_MLEADERSTYLE
350
CA
  3
ACAD_MLINESTYLE
350
17
  3
ACAD_PLOTSETTINGS
350
19
  3
ACAD_PLOTSTYLENAME
350
E
  3
ACAD_TABLESTYLE
350
C9
  3
ACAD_VISUALSTYLE
350
2A
  0
DICTIONARY
  5
D
102
{ACAD_REACTORS
330
C
102
}
330
C
100
AcDbDictionary
281
     1
  0
DICTIONARY
  5
1A
102
{ACAD_REACTORS
330
C
102
}
330
C
100
AcDbDictionary
281
     1
  3
Layout1
350
1E
  3
Layout2
350
26
  3
Model
350
22
  0
DICTIONARY
  5
CA
102
{ACAD_REACTORS
330
C
102
}
330
C
100
AcDbDictionary
281
     1
  0
DICTIONARY
  5
17
102
{ACAD_REACTORS
330
C
102
}
330
C
100
AcDbDictionary
281
     1
  3
Standard
350
18
  0
DICTIONARY
  5
19
102
{ACAD_REACTORS
330
C
102
}
330
C
100
AcDbDictionary
281
     1
  0
ACDBDICTIONARYWDFLT
  5
E
102
{ACAD_REACTORS
330
C
102
}
330
C
100
AcDbDictionary
281
     1
  3
Normal
350
F
100
AcDbDictionaryWithDefault
340
F
  0
DICTIONARY
  5
C9
102
{ACAD_REACTORS
330
C
102
}
330
C
100
AcDbDictionary
281
     1
  0
DICTIONARY
  5
2A
102
{ACAD_REACTORS
330
C
102
}
330
C
100
AcDbDictionary
281
     1
  3
2dWireframe
350
2F
  3
3D Hidden
350
31
  3
3dWireframe
350
30
  3
Basic
350
32
  3
Brighten
350
36
  3
ColorChange
350
3A
  3
Conceptual
350
34
  3
Dim
350
35
  3
Facepattern
350
39
  3
Flat
350
2B
  3
FlatWithEdges
350
2C
  3
Gouraud
350
2D
  3
GouraudWithEdges
350
2E
  3
Linepattern
350
38
  3
Realistic
350
33
  3
Thicken
350
37
  0
LAYOUT
  5
1E
102
{ACAD_REACTORS
330
1A
102
}
330
1A
100
AcDbPlotSettings
  1

  2
none_device
  4

  6

 40
0.0
 41
0.0
 42
0.0
 43
0.0
 44
0.0
 45
0.0
 46
0.0
 47
0.0
 48
0.0
 49
0.0
140
0.0
141
0.0
142
1.0
143
1.0
 70
   688
 72
     0
 73
     0
 74
     5
  7

 75
    16
 76
     0
 77
     2
 78
   300
147
1.0
148
0.0
149
0.0
100
AcDbLayout
  1
Layout1
 70
     1
 71
     1
 10
0.0
 20
0.0
 11
12.0
 21
9.0
 12
0.0
 22
0.0
 32
0.0
 14
1.000000000000000E+20
 24
1.000000000000000E+20
 34
1.000000000000000E+20
 15
-1.000000000000000E+20
 25
-1.000000000000000E+20
 35
-1.000000000000000E+20
146
0.0
 13
0.0
 23
0.0
 33
0.0
 16
1.0
 26
0.0
 36
0.0
 17
0.0
 27
1.0
 37
0.0
 76
     0
330
1B
  0
LAYOUT
  5
26
102
{ACAD_REACTORS
330
1A
102
}
330
1A
100
AcDbPlotSettings
  1

  2
none_device
  4

  6

 40
0.0
 41
0.0
 42
0.0
 43
0.0
 44
0.0
 45
0.0
 46
0.0
 47
0.0
 48
0.0
 49
0.0
140
0.0
141
0.0
142
1.0
143
1.0
 70
   688
 72
     0
 73
     0
 74
     5
  7

 75
    16
 76
     0
 77
     2
 78
   300
147
1.0
148
0.0
149
0.0
100
AcDbLayout
  1
Layout2
 70
     1
 71
     2
 10
0.0
 20
0.0
 11
0.0
 21
0.0
 12
0.0
 22
0.0
 32
0.0
 14
0.0
 24
0.0
 34
0.0
 15
0.0
 25
0.0
 35
0.0
146
0.0
 13
0.0
 23
0.0
 33
0.0
 16
1.0
 26
0.0
 36
0.0
 17
0.0
 27
1.0
 37
0.0
 76
     0
330
23
  0
LAYOUT
  5
22
102
{ACAD_REACTORS
330
1A
102
}
330
1A
100
AcDbPlotSettings
  1

  2
none_device
  4

  6

 40
0.0
 41
0.0
 42
0.0
 43
0.0
 44
0.0
 45
0.0
 46
0.0
 47
0.0
 48
0.0
 49
0.0
140
0.0
141
0.0
142
1.0
143
1.0
 70
  1712
 72
     0
 73
     0
 74
     0
  7

 75
     0
 76
     0
 77
     2
 78
   300
147
1.0
148
0.0
149
0.0
100
AcDbLayout
  1
Model
 70
     1
 71
     0
 10
0.0
 20
0.0
 11
12.0
 21
9.0
 12
0.0
 22
0.0
 32
0.0
 14
-0.0000000000000033
 24
-0.0000000000000002
 34
0.0
 15
471.2461179749811
 25
1122.246117974981
 35
0.0
146
0.0
 13
0.0
 23
0.0
 33
0.0
 16
1.0
 26
0.0
 36
0.0
 17
0.0
 27
1.0
 37
0.0
 76
     0
330
1F
331
29
  0
MLINESTYLE
  5
18
102
{ACAD_REACTORS
330
17
102
}
330
17
100
AcDbMlineStyle
  2
Standard
 70
     0
  3

 62
   256
 51
90.0
 52
90.0
 71
     2
 49
0.5
 62
   256
  6
BYLAYER
 49
-0.5
 62
   256
  6
BYLAYER
  0
ACDBPLACEHOLDER
  5
F
102
{ACAD_REACTORS
330
E
102
}
330
E
  0
VISUALSTYLE
  5
2F
102
{ACAD_REACTORS
330
2A
102
}
330
2A
100
AcDbVisualStyle
  2
2dWireframe
 70
     4
 71
     0
 72
     2
 73
     0
 90
        0
 40
-0.6
 41
-30.0
 62
     5
 63
     7
421
 16777215
 74
     1
 91
        4
 64
     7
 65
   257
 75
     1
175
     1
 42
1.0
 92
        0
 66
   257
 43
1.0
 76
     1
 77
     6
 78
     2
 67
     7
 79
     5
170
     0
171
     0
290
     0
174
     0
 93
        1
 44
0.0
173
     0
291
     0
 45
0.0
1001
ACAD
1000
AcDbSavedByObjectVersion
1070
     0
  0
VISUALSTYLE
  5
31
102
{ACAD_REACTORS
330
2A
102
}
330
2A
100
AcDbVisualStyle
  2
3D Hidden
 70
     6
 71
     1
 72
     2
 73
     2
 90
        0
 40
-0.6
 41
-30.0
 62
     5
 63
     7
421
 16777215
 74
     2
 91
        2
 64
     7
 65
   257
 75
     2
175
     1
 42
40.0
 92
        0
 66
   257
 43
1.0
 76
     1
 77
     6
 78
     2
 67
     7
 79
     3
170
     0
171
     0
290
     0
174
     0
 93
        1
 44
0.0
173
     0
291
     0
 45
0.0
1001
ACAD
1000
AcDbSavedByObjectVersion
1070
     0
  0
VISUALSTYLE
  5
30
102
{ACAD_REACTORS
330
2A
102
}
330
2A
100
AcDbVisualStyle
  2
3dWireframe
 70
     5
 71
     0
 72
     2
 73
     0
 90
        0
 40
-0.6
 41
-30.0
 62
     5
 63
     7
421
 16777215
 74
     1
 91
        4
 64
     7
 65
   257
 75
     1
175
     1
 42
1.0
 92
        0
 66
   257
 43
1.0
 76
     1
 77
     6
 78
     2
 67
     7
 79
     5
170
     0
171
     0
290
     0
174
     0
 93
        1
 44
0.0
173
     0
291
     0
 45
0.0
1001
ACAD
1000
AcDbSavedByObjectVersion
1070
     0
  0
VISUALSTYLE
  5
32
102
{ACAD_REACTORS
330
2A
102
}
330
2A
100
AcDbVisualStyle
  2
Basic
 70
     7
 71
     1
 72
     0
 73
     1
 90
        0
 40
-0.6
 41
-30.0
 62
     5
 63
     7
421
 16777215
 74
     0
 91
        4
 64
     7
 65
   257
 75
     1
175
     1
 42
1.0
 92
        8
 66
     7
 43
1.0
 76
     1
 77
     6
 78
     2
 67
     7
 79
     5
170
     0
171
     0
290
     0
174
     0
 93
        1
 44
0.0
173
     0
291
     1
 45
0.0
1001
ACAD
1000
AcDbSavedByObjectVersion
1070
     0
  0
VISUALSTYLE
  5
36
102
{ACAD_REACTORS
330
2A
102
}
330
2A
100
AcDbVisualStyle
  2
Brighten
 70
    12
 71
     2
 72
     2
 73
     0
 90
        0
 40
-0.6
 41
-30.0
 62
     5
 63
     7
421
 16777215
 74
     1
 91
        4
 64
     7
 65
   257
 75
     1
175
     1
 42
1.0
 92
        8
 66
     7
 43
1.0
 76
     1
 77
     6
 78
     2
 67
     7
 79
     5
170
     0
171
     0
290
     0
174
     0
 93
        1
 44
50.0
173
     0
291
     1
 45
0.0
1001
ACAD
1000
AcDbSavedByObjectVersion
1070
     0
  0
VISUALSTYLE
  5
3A
102
{ACAD_REACTORS
330
2A
102
}
330
2A
100
AcDbVisualStyle
  2
ColorChange
 70
    16
 71
     2
 72
     2
 73
     3
 90
        0
 40
-0.6
 41
-30.0
 62
     5
 63
     8
421
  8421504
 74
     1
 91
        4
 64
     7
 65
   257
 75
     1
175
     1
 42
1.0
 92
        8
 66
     8
424
  8421504
 43
1.0
 76
     1
 77
     6
 78
     2
 67
     7
 79
     5
170
     0
171
     0
290
     0
174
     0
 93
        1
 44
0.0
173
     0
291
     1
 45
0.0
1001
ACAD
1000
AcDbSavedByObjectVersion
1070
     0
  0
VISUALSTYLE
  5
34
102
{ACAD_REACTORS
330
2A
102
}
330
2A
100
AcDbVisualStyle
  2
Conceptual
 70
     9
 71
     3
 72
     2
 73
     0
 90
        0
 40
-0.6
 41
-30.0
 62
     5
 63
     7
421
 16777215
 74
     2
 91
        2
 64
     7
 65
   257
 75
     1
175
     1
 42
40.0
 92
        8
 66
     7
 43
1.0
 76
     1
 77
     6
 78
     2
 67
     7
 79
     3
170
     0
171
     0
290
     0
174
     0
 93
        1
 44
0.0
173
     0
291
     0
 45
0.0
1001
ACAD
1000
AcDbSavedByObjectVersion
1070
     0
  0
VISUALSTYLE
  5
35
102
{ACAD_REACTORS
330
2A
102
}
330
2A
100
AcDbVisualStyle
  2
Dim
 70
    11
 71
     2
 72
     2
 73
     0
 90
        0
 40
-0.6
 41
-30.0
 62
     5
 63
     7
421
 16777215
 74
     1
 91
        4
 64
     7
 65
   257
 75
     1
175
     1
 42
1.0
 92
        8
 66
     7
 43
1.0
 76
     1
 77
     6
 78
     2
 67
     7
 79
     5
170
     0
171
     0
290
     0
174
     0
 93
        1
 44
-50.0
173
     0
291
     1
 45
0.0
1001
ACAD
1000
AcDbSavedByObjectVersion
1070
     0
  0
VISUALSTYLE
  5
39
102
{ACAD_REACTORS
330
2A
102
}
330
2A
100
AcDbVisualStyle
  2
Facepattern
 70
    15
 71
     2
 72
     2
 73
     0
 90
        0
 40
-0.6
 41
-30.0
 62
     5
 63
     7
421
 16777215
 74
     1
 91
        4
 64
     7
 65
   257
 75
     1
175
     1
 42
1.0
 92
        8
 66
     7
 43
1.0
 76
     1
 77
     6
 78
     2
 67
     7
 79
     5
170
     0
171
     0
290
     0
174
     0
 93
        1
 44
0.0
173
     0
291
     1
 45
0.0
1001
ACAD
1000
AcDbSavedByObjectVersion
1070
     0
  0
VISUALSTYLE
  5
2B
102
{ACAD_REACTORS
330
2A
102
}
330
2A
100
AcDbVisualStyle
  2
Flat
 70
     0
 71
     2
 72
     1
 73
     1
 90
        2
 40
-0.6
 41
30.0
 62
     5
 63
     7
421
 16777215
 74
     0
 91
        4
 64
     7
 65
   257
 75
     1
175
     1
 42
1.0
 92
        8
 66
     7
 43
1.0
 76
     1
 77
     6
 78
     2
 67
     7
 79
     5
170
     0
171
     0
290
     0
174
     0
 93
       13
 44
0.0
173
     0
291
     1
 45
0.0
1001
ACAD
1000
AcDbSavedByObjectVersion
1070
     0
  0
VISUALSTYLE
  5
2C
102
{ACAD_REACTORS
330
2A
102
}
330
2A
100
AcDbVisualStyle
  2
FlatWithEdges
 70
     1
 71
     2
 72
     1
 73
     1
 90
        2
 40
-0.6
 41
30.0
 62
     5
 63
     7
421
 16777215
 74
     1
 91
        4
 64
     7
 65
   257
 75
     1
175
     1
 42
1.0
 92
        0
 66
   257
 43
1.0
 76
     1
 77
     6
 78
     2
 67
     7
 79
     5
170
     0
171
     0
290
     0
174
     0
 93
       13
 44
0.0
173
     0
291
     1
 45
0.0
1001
ACAD
1000
AcDbSavedByObjectVersion
1070
     0
  0
VISUALSTYLE
  5
2D
102
{ACAD_REACTORS
330
2A
102
}
330
2A
100
AcDbVisualStyle
  2
Gouraud
 70
     2
 71
     2
 72
     2
 73
     1
 90
        2
 40
-0.6
 41
30.0
 62
     5
 63
     7
421
 16777215
 74
     0
 91
        4
 64
     7
 65
   257
 75
     1
175
     1
 42
1.0
 92
        0
 66
     7
 43
1.0
 76
     1
 77
     6
 78
     2
 67
     7
 79
     5
170
     0
171
     0
290
     0
174
     0
 93
       13
 44
0.0
173
     0
291
     1
 45
0.0
1001
ACAD
1000
AcDbSavedByObjectVersion
1070
     0
  0
VISUALSTYLE
  5
2E
102
{ACAD_REACTORS
330
2A
102
}
330
2A
100
AcDbVisualStyle
  2
GouraudWithEdges
 70
     3
 71
     2
 72
     2
 73
     1
 90
        2
 40
-0.6
 41
30.0
 62
     5
 63
     7
421
 16777215
 74
     1
 91
        4
 64
     7
 65
   257
 75
     1
175
     1
 42
1.0
 92
        0
 66
   257
 43
1.0
 76
     1
 77
     6
 78
     2
 67
     7
 79
     5
170
     0
171
     0
290
     0
174
     0
 93
       13
 44
0.0
173
     0
291
     1
 45
0.0
1001
ACAD
1000
AcDbSavedByObjectVersion
1070
     0
  0
VISUALSTYLE
  5
38
102
{ACAD_REACTORS
330
2A
102
}
330
2A
100
AcDbVisualStyle
  2
Linepattern
 70
    14
 71
     2
 72
     2
 73
     0
 90
        0
 40
-0.6
 41
-30.0
 62
     5
 63
     7
421
 16777215
 74
     1
 91
        4
 64
     7
 65
   257
 75
     7
175
     7
 42
1.0
 92
        8
 66
     7
 43
1.0
 76
     1
 77
     6
 78
     2
 67
     7
 79
     5
170
     0
171
     0
290
     0
174
     0
 93
        1
 44
0.0
173
     0
291
     1
 45
0.0
1001
ACAD
1000
AcDbSavedByObjectVersion
1070
     0
  0
VISUALSTYLE
  5
33
102
{ACAD_REACTORS
330
2A
102
}
330
2A
100
AcDbVisualStyle
  2
Realistic
 70
     8
 71
     2
 72
     2
 73
     0
 90
        0
 40
-0.6
 41
-30.0
 62
     5
 63
     7
421
 16777215
 74
     1
 91
        0
 64
     7
 65
   257
 75
     1
175
     1
 42
1.0
 92
        8
 66
     8
424
  7895160
 43
1.0
 76
     1
 77
     6
 78
     2
 67
     7
 79
     5
170
     0
171
     0
290
     0
174
     0
 93
       13
 44
0.0
173
     0
291
     0
 45
0.0
1001
ACAD
1000
AcDbSavedByObjectVersion
1070
     0
  0
VISUALSTYLE
  5
37
102
{ACAD_REACTORS
330
2A
102
}
330
2A
100
AcDbVisualStyle
  2
Thicken
 70
    13
 71
     2
 72
     2
 73
     0
 90
        0
 40
-0.6
 41
-30.0
 62
     5
 63
     7
421
 16777215
 74
     1
 91
        4
 64
     7
 65
   257
 75
     1
175
     1
 42
1.0
 92
       12
 66
     7
 43
1.0
 76
     1
 77
     6
 78
     2
 67
     7
 79
     5
170
     0
171
     0
290
     0
174
     0
 93
        1
 44
0.0
173
     0
291
     1
 45
0.0
1001
ACAD
1000
AcDbSavedByObjectVersion
1070
     0
  0
ENDSEC
  0
EOF
