  0
SECTION
  2
HEADER
  9
$ACADVER
  1
AC1018
  9
$ACADMAINTVER
 70
     0
  9
$DWGCODEPAGE
  3
ANSI_1252
  9
$INSBASE
 10
0.0
 20
0.0
 30
0.0
  9
$EXTMIN
 10
0.0
 20
0.0
 30
0.0
  9
$EXTMAX
 10
464.1866374510806
 20
1922.246117974981
 30
0.0
  9
$LIMMIN
 10
0.0
 20
0.0
  9
$LIMMAX
 10
12.0
 20
9.0
  9
$ORTHOMODE
 70
     0
  9
$REGENMODE
 70
     1
  9
$FILLMODE
 70
     1
  9
$QTEXTMODE
 70
     0
  9
$MIRRTEXT
 70
     1
  9
$LTSCALE
 40
1.0
  9
$ATTMODE
 70
     1
  9
$TEXTSIZE
 40
0.2
  9
$TRACEWID
 40
0.05
  9
$TEXTSTYLE
  7
Standard
  9
$CLAYER
  8
Predefinito
  9
$CELTYPE
  6
ByLayer
  9
$CECOLOR
 62
   256
  9
$CELTSCALE
 40
1.0
  9
$DISPSILH
 70
     0
  9
$DIMSCALE
 40
1.0
  9
$DIMASZ
 40
0.18
  9
$DIMEXO
 40
0.0625
  9
$DIMDLI
 40
0.38
  9
$DIMRND
 40
0.0
  9
$DIMDLE
 40
0.0
  9
$DIMEXE
 40
0.18
  9
$DIMTP
 40
0.0
  9
$DIMTM
 40
0.0
  9
$DIMTXT
 40
0.18
  9
$DIMCEN
 40
0.09
  9
$DIMTSZ
 40
0.0
  9
$DIMTOL
 70
     0
  9
$DIMLIM
 70
     0
  9
$DIMTIH
 70
     1
  9
$DIMTOH
 70
     1
  9
$DIMSE1
 70
     0
  9
$DIMSE2
 70
     0
  9
$DIMTAD
 70
     0
  9
$DIMZIN
 70
     0
  9
$DIMBLK
  1

  9
$DIMASO
 70
     1
  9
$DIMSHO
 70
     1
  9
$DIMPOST
  1

  9
$DIMAPOST
  1

  9
$DIMALT
 70
     0
  9
$DIMALTD
 70
     2
  9
$DIMALTF
 40
25.4
  9
$DIMLFAC
 40
1.0
  9
$DIMTOFL
 70
     0
  9
$DIMTVP
 40
0.0
  9
$DIMTIX
 70
     0
  9
$DIMSOXD
 70
     0
  9
$DIMSAH
 70
     0
  9
$DIMBLK1
  1

  9
$DIMBLK2
  1

  9
$DIMSTYLE
  2
Standard
  9
$DIMCLRD
 70
     0
  9
$DIMCLRE
 70
     0
  9
$DIMCLRT
 70
     0
  9
$DIMTFAC
 40
1.0
  9
$DIMGAP
 40
0.09
  9
$DIMJUST
 70
     0
  9
$DIMSD1
 70
     0
  9
$DIMSD2
 70
     0
  9
$DIMTOLJ
 70
     1
  9
$DIMTZIN
 70
     0
  9
$DIMALTZ
 70
     0
  9
$DIMALTTZ
 70
     0
  9
$DIMUPT
 70
     0
  9
$DIMDEC
 70
     4
  9
$DIMTDEC
 70
     4
  9
$DIMALTU
 70
     2
  9
$DIMALTTD
 70
     2
  9
$DIMTXSTY
  7
Standard
  9
$DIMAUNIT
 70
     0
  9
$DIMADEC
 70
     0
  9
$DIMALTRND
 40
0.0
  9
$DIMAZIN
 70
     0
  9
$DIMDSEP
 70
    46
  9
$DIMATFIT
 70
     3
  9
$DIMFRAC
 70
     0
  9
$DIMLDRBLK
  1

  9
$DIMLUNIT
 70
     2
  9
$DIMLWD
 70
    -2
  9
$DIMLWE
 70
    -2
  9
$DIMTMOVE
 70
     2
  9
$LUNITS
 70
     2
  9
$LUPREC
 70
     3
  9
$SKETCHINC
 40
0.1
  9
$FILLETRAD
 40
0.5
  9
$AUNITS
 70
     0
  9
$AUPREC
 70
     0
  9
$MENU
  1
.
  9
$ELEVATION
 40
0.0
  9
$PELEVATION
 40
0.0
  9
$THICKNESS
 40
0.0
  9
$LIMCHECK
 70
     0
  9
$CHAMFERA
 40
0.5
  9
$CHAMFERB
 40
0.5
  9
$CHAMFERC
 40
1.0
  9
$CHAMFERD
 40
0.0
  9
$SKPOLY
 70
     0
  9
$TDCREATE
 40
2455883.618346111
  9
$TDUCREATE
 40
2455883.576679444
  9
$TDUPDATE
 40
2455883.618346123
  9
$TDUUPDATE
 40
2455883.576679456
  9
$TDINDWG
 40
0.0000000116
  9
$TDUSRTIMER
 40
0.0000000116
  9
$USRTIMER
 70
     1
  9
$ANGBASE
 50
0.0
  9
$ANGDIR
 70
     0
  9
$PDMODE
 70
     0
  9
$PDSIZE
 40
0.0
  9
$PLINEWID
 40
0.0
  9
$SPLFRAME
 70
     0
  9
$SPLINETYPE
 70
     6
  9
$SPLINESEGS
 70
     8
  9
$HANDSEED
  5
C1
  9
$SURFTAB1
 70
     6
  9
$SURFTAB2
 70
     6
  9
$SURFTYPE
 70
     6
  9
$SURFU
 70
     6
  9
$SURFV
 70
     6
  9
$UCSBASE
  2

  9
$UCSNAME
  2

  9
$UCSORG
 10
0.0
 20
0.0
 30
0.0
  9
$UCSXDIR
 10
1.0
 20
0.0
 30
0.0
  9
$UCSYDIR
 10
0.0
 20
1.0
 30
0.0
  9
$UCSORTHOREF
  2

  9
$UCSORTHOVIEW
 70
     0
  9
$UCSORGTOP
 10
0.0
 20
0.0
 30
0.0
  9
$UCSORGBOTTOM
 10
0.0
 20
0.0
 30
0.0
  9
$UCSORGLEFT
 10
0.0
 20
0.0
 30
0.0
  9
$UCSORGRIGHT
 10
0.0
 20
0.0
 30
0.0
  9
$UCSORGFRONT
 10
0.0
 20
0.0
 30
0.0
  9
$UCSORGBACK
 10
0.0
 20
0.0
 30
0.0
  9
$PUCSBASE
  2

  9
$PUCSNAME
  2

  9
$PUCSORG
 10
0.0
 20
0.0
 30
0.0
  9
$PUCSXDIR
 10
1.0
 20
0.0
 30
0.0
  9
$PUCSYDIR
 10
0.0
 20
1.0
 30
0.0
  9
$PUCSORTHOREF
  2

  9
$PUCSORTHOVIEW
 70
     0
  9
$PUCSORGTOP
 10
0.0
 20
0.0
 30
0.0
  9
$PUCSORGBOTTOM
 10
0.0
 20
0.0
 30
0.0
  9
$PUCSORGLEFT
 10
0.0
 20
0.0
 30
0.0
  9
$PUCSORGRIGHT
 10
0.0
 20
0.0
 30
0.0
  9
$PUCSORGFRONT
 10
0.0
 20
0.0
 30
0.0
  9
$PUCSORGBACK
 10
0.0
 20
0.0
 30
0.0
  9
$USERI1
 70
     0
  9
$USERI2
 70
     0
  9
$USERI3
 70
     0
  9
$USERI4
 70
     0
  9
$USERI5
 70
     0
  9
$USERR1
 40
0.0
  9
$USERR2
 40
0.0
  9
$USERR3
 40
0.0
  9
$USERR4
 40
0.0
  9
$USERR5
 40
0.0
  9
$WORLDVIEW
 70
     1
  9
$SHADEDGE
 70
     3
  9
$SHADEDIF
 70
    70
  9
$TILEMODE
 70
     1
  9
$MAXACTVP
 70
    64
  9
$PINSBASE
 10
0.0
 20
0.0
 30
0.0
  9
$PLIMCHECK
 70
     0
  9
$PEXTMIN
 10
1.000000000000000E+20
 20
1.000000000000000E+20
 30
1.000000000000000E+20
  9
$PEXTMAX
 10
-1.000000000000000E+20
 20
-1.000000000000000E+20
 30
-1.000000000000000E+20
  9
$PLIMMIN
 10
0.0
 20
0.0
  9
$PLIMMAX
 10
12.0
 20
9.0
  9
$UNITMODE
 70
     0
  9
$VISRETAIN
 70
     1
  9
$PLINEGEN
 70
     0
  9
$PSLTSCALE
 70
     1
  9
$TREEDEPTH
 70
  3020
  9
$CMLSTYLE
  2
Standard
  9
$CMLJUST
 70
     0
  9
$CMLSCALE
 40
1.0
  9
$PROXYGRAPHICS
 70
     1
  9
$MEASUREMENT
 70
     0
  9
$CELWEIGHT
370
    -1
  9
$ENDCAPS
280
     0
  9
$JOINSTYLE
280
     0
  9
$LWDISPLAY
290
     0
  9
$INSUNITS
 70
     4
  9
$HYPERLINKBASE
  1

  9
$STYLESHEET
  1

  9
$XEDIT
290
     1
  9
$CEPSNTYPE
380
     0
  9
$PSTYLEMODE
290
     1
  9
$FINGERPRINTGUID
  2
{BAB639A7-A14E-4D58-8A11-A8E1E2104FB9}
  9
$VERSIONGUID
  2
{FAEB1C32-E019-11D5-929B-00C0DF256EC4}
  9
$EXTNAMES
290
     1
  9
$PSVPSCALE
 40
0.0
  9
$OLESTARTUP
290
     0
  9
$SORTENTS
280
   127
  9
$INDEXCTL
280
     0
  9
$HIDETEXT
280
     1
  9
$XCLIPFRAME
290
     0
  9
$HALOGAP
280
     0
  9
$OBSCOLOR
 70
   257
  9
$OBSLTYPE
280
     0
  9
$INTERSECTIONDISPLAY
280
     0
  9
$INTERSECTIONCOLOR
 70
   257
  9
$DIMASSOC
280
     2
  9
$PROJECTNAME
  1

  0
ENDSEC
  0
SECTION
  2
CLASSES
  0
CLASS
  1
ACDBDICTIONARYWDFLT
  2
AcDbDictionaryWithDefault
  3
ObjectDBX Classes
 90
        0
 91
        4
280
     0
281
     0
  0
CLASS
  1
VISUALSTYLE
  2
AcDbVisualStyle
  3
ObjectDBX Classes
 90
     4095
 91
        4
280
     0
281
     0
  0
ENDSEC
  0
SECTION
  2
TABLES
  0
TABLE
  2
VPORT
  5
8
330
0
100
AcDbSymbolTable
 70
     1
  0
VPORT
  5
29
330
8
100
AcDbSymbolTableRecord
100
AcDbViewportTableRecord
  2
*Active
 70
     0
 10
0.0
 20
0.0
 11
1.0
 21
1.0
 12
232.0933187255403
 22
961.1230589874905
 13
0.0
 23
0.0
 14
0.5
 24
0.5
 15
0.5
 25
0.5
 16
0.0
 26
0.0
 36
1.0
 17
0.0
 27
0.0
 37
0.0
 40
1960.691040334481
 41
0.2414813759333196
 42
50.0
 43
0.0
 44
0.0
 50
0.0
 51
0.0
 71
     0
 72
   100
 73
     1
 74
     3
 75
     0
 76
     0
 77
     0
 78
     0
281
     0
 65
     1
110
0.0
120
0.0
130
0.0
111
1.0
121
0.0
131
0.0
112
0.0
122
1.0
132
0.0
 79
     0
146
0.0
  0
ENDTAB
  0
TABLE
  2
LTYPE
  5
5
330
0
100
AcDbSymbolTable
 70
     1
  0
LTYPE
  5
14
330
5
100
AcDbSymbolTableRecord
100
AcDbLinetypeTableRecord
  2
ByBlock
 70
     0
  3

 72
    65
 73
     0
 40
0.0
  0
LTYPE
  5
15
330
5
100
AcDbSymbolTableRecord
100
AcDbLinetypeTableRecord
  2
ByLayer
 70
     0
  3

 72
    65
 73
     0
 40
0.0
  0
LTYPE
  5
16
330
5
100
AcDbSymbolTableRecord
100
AcDbLinetypeTableRecord
  2
Continuous
 70
     0
  3
Solid line
 72
    65
 73
     0
 40
0.0
  0
ENDTAB
  0
TABLE
  2
LAYER
  5
2
330
0
100
AcDbSymbolTable
 70
     3
  0
LAYER
  5
10
330
2
100
AcDbSymbolTableRecord
100
AcDbLayerTableRecord
  2
0
 70
     0
 62
     7
  6
Continuous
370
    -3
390
F
  0
LAYER
  5
3B
330
2
100
AcDbSymbolTableRecord
100
AcDbLayerTableRecord
  2
Linee visibili 2D
 70
     0
 62
     7
  6
Continuous
370
    -3
390
F
  0
LAYER
  5
54
330
2
100
AcDbSymbolTableRecord
100
AcDbLayerTableRecord
  2
Predefinito
 70
     0
 62
     7
  6
Continuous
370
    -3
390
F
  0
ENDTAB
  0
TABLE
  2
STYLE
  5
3
330
0
100
AcDbSymbolTable
 70
     1
  0
STYLE
  5
11
330
3
100
AcDbSymbolTableRecord
100
AcDbTextStyleTableRecord
  2
Standard
 70
     0
 40
0.0
 41
1.0
 50
0.0
 71
     0
 42
0.2
  3
txt
  4

  0
ENDTAB
  0
TABLE
  2
VIEW
  5
6
330
0
100
AcDbSymbolTable
 70
     0
  0
ENDTAB
  0
TABLE
  2
UCS
  5
7
330
0
100
AcDbSymbolTable
 70
     0
  0
ENDTAB
  0
TABLE
  2
APPID
  5
9
330
0
100
AcDbSymbolTable
 70
     1
  0
APPID
  5
12
330
9
100
AcDbSymbolTableRecord
100
AcDbRegAppTableRecord
  2
ACAD
 70
     0
  0
ENDTAB
  0
TABLE
  2
DIMSTYLE
  5
A
330
0
100
AcDbSymbolTable
 70
     1
100
AcDbDimStyleTable
  0
DIMSTYLE
105
27
330
A
100
AcDbSymbolTableRecord
100
AcDbDimStyleTableRecord
  2
Standard
 70
     0
340
11
  0
ENDTAB
  0
TABLE
  2
BLOCK_RECORD
  5
1
330
0
100
AcDbSymbolTable
 70
     1
  0
BLOCK_RECORD
  5
1F
330
1
100
AcDbSymbolTableRecord
100
AcDbBlockTableRecord
  2
*Model_Space
340
22
  0
BLOCK_RECORD
  5
1B
330
1
100
AcDbSymbolTableRecord
100
AcDbBlockTableRecord
  2
*Paper_Space
340
1E
  0
BLOCK_RECORD
  5
23
330
1
100
AcDbSymbolTableRecord
100
AcDbBlockTableRecord
  2
*Paper_Space0
340
26
  0
ENDTAB
  0
ENDSEC
  0
SECTION
  2
BLOCKS
  0
BLOCK
  5
20
330
1F
100
AcDbEntity
  8
0
100
AcDbBlockBegin
  2
*Model_Space
 70
     0
 10
0.0
 20
0.0
 30
0.0
  3
*Model_Space
  1

  0
ENDBLK
  5
21
330
1F
100
AcDbEntity
  8
0
100
AcDbBlockEnd
  0
BLOCK
  5
1C
330
1B
100
AcDbEntity
 67
     1
  8
0
100
AcDbBlockBegin
  2
*Paper_Space
 70
     0
 10
0.0
 20
0.0
 30
0.0
  3
*Paper_Space
  1

  0
ENDBLK
  5
1D
330
1B
100
AcDbEntity
 67
     1
  8
0
100
AcDbBlockEnd
  0
BLOCK
  5
24
330
23
100
AcDbEntity
  8
0
100
AcDbBlockBegin
  2
*Paper_Space0
 70
     0
 10
0.0
 20
0.0
 30
0.0
  3
*Paper_Space0
  1

  0
ENDBLK
  5
25
330
23
100
AcDbEntity
  8
0
100
AcDbBlockEnd
  0
ENDSEC
  0
SECTION
  2
ENTITIES
  0
SPLINE
  5
3C
330
1F
100
AcDbEntity
  8
Linee visibili 2D
100
AcDbSpline
210
0.0
220
0.0
230
1.0
 70
    24
 71
     2
 72
     6
 73
     3
 74
     0
 42
0.0000000001
 43
0.0000000001
 40
0.0
 40
0.0
 40
0.0
 40
41.53177119257647
 40
41.53177119257647
 40
41.53177119257647
 10
40.33784448751563
 20
55.01574342423646
 30
0.0
 10
20.16892224375784
 20
50.07240648211089
 30
0.0
 10
0.0000000000000446
 20
45.12906953998532
 30
0.0
  0
SPLINE
  5
3D
330
1F
100
AcDbEntity
  8
Linee visibili 2D
100
AcDbSpline
210
0.0
220
0.0
230
1.0
 70
    24
 71
     2
 72
     6
 73
     3
 74
     0
 42
0.0000000001
 43
0.0000000001
 40
0.0
 40
0.0
 40
0.0
 40
85.21896874655404
 40
85.21896874655404
 40
85.21896874655404
 10
0.0000000000000446
 20
45.12906953998532
 30
0.0
 10
37.24575573905496
 20
24.43313182305167
 30
0.0
 10
74.49151147810987
 20
3.737194106118018
 30
0.0
  0
SPLINE
  5
3E
330
1F
100
AcDbEntity
  8
Linee visibili 2D
100
AcDbSpline
210
0.0
220
0.0
230
1.0
 70
    24
 71
     2
 72
     6
 73
     3
 74
     0
 42
0.0000000001
 43
0.0000000001
 40
0.0
 40
0.0
 40
0.0
 40
109.1909491767668
 40
109.1909491767668
 40
109.1909491767668
 10
74.49151147810987
 20
3.737194106118018
 30
0.0
 10
127.2457557390549
 20
17.79619684412749
 30
0.0
 10
180.0
 20
31.85519958213697
 30
0.0
  0
SPLINE
  5
3F
330
1F
100
AcDbEntity
  8
Linee visibili 2D
100
AcDbSpline
210
0.0
220
0.0
230
1.0
 70
    24
 71
     2
 72
     6
 73
     3
 74
     0
 42
0.0000000001
 43
0.0000000001
 40
-44.61096375917251
 40
-44.61096375917251
 40
-44.61096375917251
 40
0.0
 40
0.0
 40
0.0
 10
180.0
 20
31.85519958213697
 30
0.0
 10
160.013600911372
 20
41.75865217962234
 30
0.0
 10
140.027201822744
 20
51.66210477710771
 30
0.0
  0
SPLINE
  5
40
330
1F
100
AcDbEntity
  8
Linee visibili 2D
100
AcDbSpline
210
0.0
220
0.0
230
1.0
 70
    24
 71
     2
 72
     6
 73
     3
 74
     0
 42
0.0000000001
 43
0.0000000001
 40
0.0
 40
0.0
 40
0.0
 40
3.605608329543204
 40
3.605608329543204
 40
3.605608329543204
 10
180.0
 20
31.85519958213697
 30
0.0
 10
179.9933724137346
 20
30.052407599789
 30
0.0
 10
179.9867448274692
 20
28.24961561744103
 30
0.0
  0
SPLINE
  5
41
330
1F
100
AcDbEntity
  8
Linee visibili 2D
100
AcDbSpline
210
0.0
220
0.0
230
1.0
 70
    24
 71
     2
 72
     6
 73
     3
 74
     0
 42
0.0000000001
 43
0.0000000001
 40
0.0
 40
0.0
 40
0.0
 40
109.1884103347181
 40
109.1884103347181
 40
109.1884103347181
 10
179.9867448274692
 20
28.24961561744103
 30
0.0
 10
127.2513957509494
 20
14.12480780872052
 30
0.0
 10
74.51604667442953
 20
0.0000000000000098
 30
0.0
  0
SPLINE
  5
42
330
1F
100
AcDbEntity
  8
Linee visibili 2D
100
AcDbSpline
210
0.0
220
0.0
230
1.0
 70
    24
 71
     2
 72
     6
 73
     3
 74
     0
 42
0.0000000001
 43
0.0000000001
 40
-3.737274643729254
 40
-3.737274643729254
 40
-3.737274643729254
 40
0.0
 40
0.0
 40
0.0
 10
74.51604667442953
 20
0.0000000000000098
 30
0.0
 10
74.5037790762697
 20
1.868597053059014
 30
0.0
 10
74.49151147810987
 20
3.737194106118018
 30
0.0
  0
SPLINE
  5
43
330
1F
100
AcDbEntity
  8
Linee visibili 2D
100
AcDbSpline
210
0.0
220
0.0
230
1.0
 70
    24
 71
     2
 72
     6
 73
     3
 74
     0
 42
0.0000000001
 43
0.0000000001
 40
-400.0
 40
-400.0
 40
-400.0
 40
0.0
 40
0.0
 40
0.0
 10
6.500000000000171
 20
1021.746117974981
 30
0.0
 10
6.500000000000185
 20
1221.746117974981
 30
0.0
 10
6.500000000000199
 20
1421.746117974981
 30
0.0
  0
SPLINE
  5
44
330
1F
100
AcDbEntity
  8
Linee visibili 2D
100
AcDbSpline
210
0.0
220
0.0
230
1.0
 70
    24
 71
     2
 72
     6
 73
     3
 74
     0
 42
0.0000000001
 43
0.0000000001
 40
0.0
 40
0.0
 40
0.0
 40
500.5
 40
500.5
 40
500.5
 10
6.500000000000199
 20
1421.746117974981
 30
0.0
 10
6.500000000000199
 20
1671.996117974981
 30
0.0
 10
6.500000000000199
 20
1922.246117974981
 30
0.0
  0
SPLINE
  5
45
330
1F
100
AcDbEntity
  8
Linee visibili 2D
100
AcDbSpline
210
0.0
220
0.0
230
1.0
 70
    24
 71
     2
 72
     6
 73
     3
 74
     0
 42
0.0000000001
 43
0.0000000001
 40
0.0
 40
0.0
 40
0.0
 40
167.0
 40
167.0
 40
167.0
 10
6.500000000000199
 20
1922.246117974981
 30
0.0
 10
90.0000000000002
 20
1922.246117974981
 30
0.0
 10
173.5000000000002
 20
1922.246117974981
 30
0.0
  0
SPLINE
  5
46
330
1F
100
AcDbEntity
  8
Linee visibili 2D
100
AcDbSpline
210
0.0
220
0.0
230
1.0
 70
    24
 71
     2
 72
     6
 73
     3
 74
     0
 42
0.0000000001
 43
0.0000000001
 40
0.0
 40
0.0
 40
0.0
 40
500.5
 40
500.5
 40
500.5
 10
173.5000000000002
 20
1922.246117974981
 30
0.0
 10
173.5000000000002
 20
1671.996117974981
 30
0.0
 10
173.5000000000002
 20
1421.746117974981
 30
0.0
  0
SPLINE
  5
47
330
1F
100
AcDbEntity
  8
Linee visibili 2D
100
AcDbSpline
210
0.0
220
0.0
230
1.0
 70
    24
 71
     2
 72
     6
 73
     3
 74
     0
 42
0.0000000001
 43
0.0000000001
 40
-400.0
 40
-400.0
 40
-400.0
 40
0.0
 40
0.0
 40
0.0
 10
173.5000000000002
 20
1421.746117974981
 30
0.0
 10
173.5000000000002
 20
1221.746117974981
 30
0.0
 10
173.5000000000002
 20
1021.746117974981
 30
0.0
  0
SPLINE
  5
48
330
1F
100
AcDbEntity
  8
Linee visibili 2D
100
AcDbSpline
210
0.0
220
0.0
230
1.0
 70
    24
 71
     2
 72
     6
 73
     3
 74
     0
 42
0.0000000001
 43
0.0000000001
 40
0.0
 40
0.0
 40
0.0
 40
69.42080527131641
 40
69.42080527131641
 40
69.42080527131641
 10
34.42407477190618
 20
656.3388557432244
 30
0.0
 10
34.08272850112738
 20
691.0475799181769
 30
0.0
 10
33.74138223034859
 20
725.7563040931294
 30
0.0
  0
SPLINE
  5
49
330
1F
100
AcDbEntity
  8
Linee visibili 2D
100
AcDbSpline
210
0.0
220
0.0
230
1.0
 70
    24
 71
     2
 72
     6
 73
     3
 74
     0
 42
0.0000000001
 43
0.0000000001
 40
0.0
 40
0.0
 40
0.0
 40
30.63977169439674
 40
30.63977169439674
 40
30.63977169439674
 10
33.74138223034859
 20
725.7563040931294
 30
0.0
 10
49.06085756790448
 20
725.868454675855
 30
0.0
 10
64.38033290546038
 20
725.9806052585806
 30
0.0
  0
SPLINE
  5
4A
330
1F
100
AcDbEntity
  8
Linee visibili 2D
100
AcDbSpline
210
0.0
220
0.0
230
1.0
 70
    24
 71
     2
 72
     6
 73
     3
 74
     0
 42
0.0000000001
 43
0.0000000001
 40
-75.52351702896054
 40
-75.52351702896054
 40
-75.52351702896054
 40
0.0
 40
0.0
 40
0.0
 10
64.38033290546038
 20
725.9806052585806
 30
0.0
 10
102.1375933791501
 20
725.3977779875366
 30
0.0
 10
139.8948538528398
 20
724.8149507164927
 30
0.0
  0
SPLINE
  5
4B
330
1F
100
AcDbEntity
  8
Linee visibili 2D
100
AcDbSpline
210
0.0
220
0.0
230
1.0
 70
    24
 71
     2
 72
     6
 73
     3
 74
     0
 42
0.0000000001
 43
0.0000000001
 40
0.0
 40
0.0
 40
0.0
 40
30.52062038579656
 40
30.52062038579656
 40
30.52062038579656
 10
110.5352884884879
 20
15.6474102823278
 30
0.0
 10
125.2840152141819
 20
19.56558934335532
 30
0.0
 10
140.0327419398759
 20
23.48376840438284
 30
0.0
  0
SPLINE
  5
4C
330
1F
100
AcDbEntity
  8
Linee visibili 2D
100
AcDbSpline
210
0.0
220
0.0
230
1.0
 70
    24
 71
     2
 72
     6
 73
     3
 74
     0
 42
0.0000000001
 43
0.0000000001
 40
0.0
 40
0.0
 40
0.0
 40
300.1823172923071
 40
300.1823172923071
 40
300.1823172923071
 10
140.0327419398759
 20
23.48376840438284
 30
0.0
 10
140.0032326540082
 20
173.5749241496394
 30
0.0
 10
139.9737233681405
 20
323.666079894896
 30
0.0
  0
SPLINE
  5
4D
330
1F
100
AcDbEntity
  8
Linee visibili 2D
100
AcDbSpline
210
0.0
220
0.0
230
1.0
 70
    24
 71
     2
 72
     6
 73
     3
 74
     0
 42
0.0000000001
 43
0.0000000001
 40
-401.1488785748285
 40
-401.1488785748285
 40
-401.1488785748285
 40
0.0
 40
0.0
 40
0.0
 10
139.9737233681405
 20
323.666079894896
 30
0.0
 10
139.9342886104902
 20
524.2405153056943
 30
0.0
 10
139.8948538528398
 20
724.8149507164927
 30
0.0
  0
SPLINE
  5
4E
330
1F
100
AcDbEntity
  8
Linee visibili 2D
100
AcDbSpline
210
0.0
220
0.0
230
1.0
 70
    24
 71
     2
 72
     6
 73
     3
 74
     0
 42
0.0000000001
 43
0.0000000001
 40
0.0
 40
0.0
 40
0.0
 40
31.52948836620258
 40
31.52948836620258
 40
31.52948836620258
 10
139.8948538528398
 20
724.8149507164927
 30
0.0
 10
124.1306081101975
 20
724.6895899402906
 30
0.0
 10
108.3663623675552
 20
724.5642291640885
 30
0.0
  0
SPLINE
  5
4F
330
1F
100
AcDbEntity
  8
Linee visibili 2D
100
AcDbSpline
210
0.0
220
0.0
230
1.0
 70
    24
 71
     2
 72
     6
 73
     3
 74
     0
 42
0.0000000001
 43
0.0000000001
 40
0.0
 40
0.0
 40
0.0
 40
405.6176021387263
 40
405.6176021387263
 40
405.6176021387263
 10
108.3663623675552
 20
724.5642291640885
 30
0.0
 10
108.986851592465
 20
521.7563772837575
 30
0.0
 10
109.6073408173748
 20
318.9485254034265
 30
0.0
  0
SPLINE
  5
50
330
1F
100
AcDbEntity
  8
Linee visibili 2D
100
AcDbSpline
210
0.0
220
0.0
230
1.0
 70
    24
 71
     2
 72
     6
 73
     3
 74
     0
 42
0.0000000001
 43
0.0000000001
 40
-303.3025346425287
 40
-303.3025346425287
 40
-303.3025346425287
 40
0.0
 40
0.0
 40
0.0
 10
109.6073408173748
 20
318.9485254034265
 30
0.0
 10
110.0713146529313
 20
167.2979678428771
 30
0.0
 10
110.5352884884879
 20
15.6474102823278
 30
0.0
  0
SPLINE
  5
51
330
1F
100
AcDbEntity
  8
Linee visibili 2D
100
AcDbSpline
210
0.0
220
0.0
230
1.0
 70
    24
 71
     2
 72
     6
 73
     3
 74
     0
 42
0.0000000001
 43
0.0000000001
 40
-79.50367738682812
 40
-79.50367738682812
 40
-79.50367738682812
 40
0.0
 40
0.0
 40
0.0
 10
110.5352884884879
 20
15.6474102823278
 30
0.0
 10
75.44643194577169
 20
34.32843878805777
 30
0.0
 10
40.35757540305553
 20
53.00946729378774
 30
0.0
  0
SPLINE
  5
52
330
1F
100
AcDbEntity
  8
Linee visibili 2D
100
AcDbSpline
210
0.0
220
0.0
230
1.0
 70
    24
 71
     2
 72
     6
 73
     3
 74
     0
 42
0.0000000001
 43
0.0000000001
 40
-288.4185738807672
 40
-288.4185738807672
 40
-288.4185738807672
 40
0.0
 40
0.0
 40
0.0
 10
40.35757540305553
 20
53.00946729378774
 30
0.0
 10
38.93940394519403
 20
197.2117808312966
 30
0.0
 10
37.52123248733253
 20
341.4140943688054
 30
0.0
  0
SPLINE
  5
53
330
1F
100
AcDbEntity
  8
Linee visibili 2D
100
AcDbSpline
210
0.0
220
0.0
230
1.0
 70
    24
 71
     2
 72
     6
 73
     3
 74
     0
 42
0.0000000001
 43
0.0000000001
 40
0.0
 40
0.0
 40
0.0
 40
249.9687910136408
 40
249.9687910136408
 40
249.9687910136408
 10
37.52123248733253
 20
341.4140943688054
 30
0.0
 10
36.29212092214524
 20
466.3924461140801
 30
0.0
 10
35.06300935695795
 20
591.370797859355
 30
0.0
  0
SPLINE
  5
55
330
1F
100
AcDbEntity
  8
Predefinito
100
AcDbSpline
210
0.0
220
0.0
230
1.0
 70
    24
 71
     2
 72
     6
 73
     3
 74
     0
 42
0.0000000001
 43
0.0000000001
 40
0.0
 40
0.0
 40
0.0
 40
155.9999999999067
 40
155.9999999999067
 40
155.9999999999067
 10
398.3696498881438
 20
12.00000000004786
 30
0.0
 10
398.3696498881438
 20
90.0000000000012
 30
0.0
 10
398.3696498881438
 20
167.9999999999545
 30
0.0
  0
POLYLINE
  5
56
330
1F
100
AcDbEntity
  8
Predefinito
100
AcDb2dPolyline
 66
     1
 10
0.0
 20
0.0
 30
0.0
  0
VERTEX
  5
57
330
56
100
AcDbEntity
  8
Predefinito
100
AcDbVertex
100
AcDb2dVertex
 10
398.3696498881438
 20
167.9999999999545
 30
0.0
  0
VERTEX
  5
58
330
56
100
AcDbEntity
  8
Predefinito
100
AcDbVertex
100
AcDb2dVertex
 10
398.4165165934349
 20
164.8602938804781
 30
0.0
  0
SEQEND
  5
59
330
56
100
AcDbEntity
  8
Predefinito
  0
SPLINE
  5
5A
330
1F
100
AcDbEntity
  8
Predefinito
100
AcDbSpline
210
0.0
220
0.0
230
1.0
 70
     8
 71
     3
 72
    14
 73
    10
 74
     0
 42
0.0000000001
 43
0.0000000001
 40
0.0
 40
0.0
 40
0.0
 40
0.0
 40
4.166740950074072
 40
9.828374920335538
 40
20.33308075614215
 40
25.61335662606343
 40
31.83667150281084
 40
36.69804624186284
 40
47.33137120618223
 40
47.33137120618223
 40
47.33137120618223
 40
47.33137120618223
 10
398.4165165934349
 20
164.8602938804781
 30
0.0
 10
398.4772734737362
 20
163.4561422187274
 30
0.0
 10
399.4512102849451
 20
160.3047438106375
 30
0.0
 10
402.9767865736877
 20
154.44761416821
 30
0.0
 10
408.7272590024801
 20
149.8994799960702
 30
0.0
 10
415.5906291633739
 20
147.2718834502732
 30
0.0
 10
420.9240421768251
 20
146.0312352185321
 30
0.0
 10
428.1201764693805
 20
145.2457596792836
 30
0.0
 10
433.2968160863114
 20
145.1879327328233
 30
0.0
 10
436.8334823587697
 20
145.0092039228615
 30
0.0
  0
SPLINE
  5
5B
330
1F
100
AcDbEntity
  8
Predefinito
100
AcDbSpline
210
0.0
220
0.0
230
1.0
 70
     8
 71
     3
 72
    12
 73
     8
 74
     0
 42
0.0000000001
 43
0.0000000001
 40
0.0
 40
0.0
 40
0.0
 40
0.0
 40
5.53390613333164
 40
11.59539449670354
 40
26.38820202587236
 40
45.4034299502969
 40
66.369150091581
 40
66.369150091581
 40
66.369150091581
 40
66.369150091581
 10
436.8334823587697
 20
145.0092039228615
 30
0.0
 10
438.6770621295231
 20
144.9288717183448
 30
0.0
 10
442.5028193413015
 20
144.0648278738933
 30
0.0
 10
449.9455282742798
 20
139.0928632552221
 30
0.0
 10
457.4738637256433
 20
127.8650526308605
 30
0.0
 10
462.9240428277649
 20
110.3241788936405
 30
0.0
 10
464.1892783965993
 20
96.98675980885037
 30
0.0
 10
464.1866374510806
 20
90.00000000000114
 30
0.0
  0
SPLINE
  5
5C
330
1F
100
AcDbEntity
  8
Predefinito
100
AcDbSpline
210
0.0
220
0.0
230
1.0
 70
     8
 71
     3
 72
    13
 73
     9
 74
     0
 42
0.0000000001
 43
0.0000000001
 40
0.0
 40
0.0
 40
0.0
 40
0.0
 40
10.89910347663016
 40
21.07299387248625
 40
39.63473598429682
 40
54.67521727985052
 40
60.84081863897003
 40
66.35993794136299
 40
66.35993794136299
 40
66.35993794136299
 40
66.35993794136299
 10
464.1866374510806
 20
90.00000000000114
 30
0.0
 10
464.1836749925343
 20
86.36550660241285
 30
0.0
 10
463.8448878975868
 20
79.34567952324608
 30
0.0
 10
461.8473303645453
 20
66.26112401103238
 30
0.0
 10
457.5016883718566
 20
52.25109090397113
 30
0.0
 10
450.0608501617837
 20
41.00726002993996
 30
0.0
 10
442.5377822699451
 20
35.93399026692001
 30
0.0
 10
438.6803804070242
 20
35.07474271889289
 30
0.0
 10
436.8413492403874
 20
34.99097273821983
 30
0.0
  0
SPLINE
  5
5D
330
1F
100
AcDbEntity
  8
Predefinito
100
AcDbSpline
210
0.0
220
0.0
230
1.0
 70
     8
 71
     3
 72
    14
 73
    10
 74
     0
 42
0.0000000001
 43
0.0000000001
 40
0.0
 40
0.0
 40
0.0
 40
0.0
 40
10.64012817182826
 40
15.50193225404706
 40
21.70564419816307
 40
27.00505218810028
 40
37.48801898221423
 40
43.17012588956287
 40
47.33513354798297
 40
47.33513354798297
 40
47.33513354798297
 40
47.33513354798297
 10
436.8413492403874
 20
34.99097273821983
 30
0.0
 10
433.3007047974848
 20
34.81200656625626
 30
0.0
 10
428.1236858652432
 20
34.75102883980855
 30
0.0
 10
420.9285655968335
 20
33.97297053999447
 30
0.0
 10
415.599800083122
 20
32.72353750666459
 30
0.0
 10
408.737523125008
 20
30.10643388846292
 30
0.0
 10
402.9871961218885
 20
25.55618706720578
 30
0.0
 10
399.4504816483039
 20
19.7053193574782
 30
0.0
 10
398.4786291183767
 20
16.54582396328445
 30
0.0
 10
398.4168187744616
 20
15.14277108968683
 30
0.0
  0
POLYLINE
  5
5E
330
1F
100
AcDbEntity
  8
Predefinito
100
AcDb2dPolyline
 66
     1
 10
0.0
 20
0.0
 30
0.0
  0
VERTEX
  5
5F
330
5E
100
AcDbEntity
  8
Predefinito
100
AcDbVertex
100
AcDb2dVertex
 10
398.4168187744616
 20
15.14277108968683
 30
0.0
  0
VERTEX
  5
60
330
5E
100
AcDbEntity
  8
Predefinito
100
AcDbVertex
100
AcDb2dVertex
 10
398.3696498881438
 20
12.00000000004786
 30
0.0
  0
SEQEND
  5
61
330
5E
100
AcDbEntity
  8
Predefinito
  0
SPLINE
  5
62
330
1F
100
AcDbEntity
  8
Predefinito
100
AcDbSpline
210
0.0
220
0.0
230
1.0
 70
    24
 71
     2
 72
     6
 73
     3
 74
     0
 42
0.0000000001
 43
0.0000000001
 40
0.0
 40
0.0
 40
0.0
 40
0.5043443947491681
 40
0.5043443947491681
 40
0.5043443947491681
 10
398.3696498881438
 20
12.00000000004786
 30
0.0
 10
398.3696498881438
 20
11.74782780267328
 30
0.0
 10
398.3696498881439
 20
11.49565560529869
 30
0.0
  0
SPLINE
  5
63
330
1F
100
AcDbEntity
  8
Predefinito
100
AcDbSpline
210
0.0
220
0.0
230
1.0
 70
    12
 71
     2
 72
     6
 73
     3
 74
     0
 42
0.0000000001
 43
0.0000000001
 40
-0.5202016854245951
 40
-0.5202016854245951
 40
-0.5202016854245951
 40
0.0
 40
0.0
 40
0.0
 10
398.3696498881439
 20
11.49565560529869
 30
0.0
 41
1.0
 10
398.3696498881438
 20
11.20924077302552
 30
0.0
 41
0.8677189485466398
 10
398.1225860618108
 20
11.06435142951228
 30
0.0
 41
1.0
  0
SPLINE
  5
64
330
1F
100
AcDbEntity
  8
Linee visibili 2D
100
AcDbSpline
210
0.0
220
0.0
230
1.0
 70
    24
 71
     2
 72
     6
 73
     3
 74
     0
 42
0.0000000001
 43
0.0000000001
 40
0.0
 40
0.0
 40
0.0
 40
0.8025328451472574
 40
0.8025328451472574
 40
0.8025328451472574
 10
35.68631700927619
 20
721.315588912362
 30
0.0
 10
35.68244019232751
 20
721.716836606655
 30
0.0
 10
35.67856337537883
 20
722.1180843009479
 30
0.0
  0
SPLINE
  5
65
330
1F
100
AcDbEntity
  8
Linee visibili 2D
100
AcDbSpline
210
0.0
220
0.0
230
1.0
 70
    24
 71
     2
 72
     6
 73
     3
 74
     0
 42
0.0000000001
 43
0.0000000001
 40
0.0
 40
0.0
 40
0.0
 40
70.58922532258701
 40
70.58922532258701
 40
70.58922532258701
 10
35.67856337537883
 20
722.1180843009479
 30
0.0
 10
70.96697111673686
 20
721.45629733341
 30
0.0
 10
106.2553788580949
 20
720.794510365872
 30
0.0
  0
SPLINE
  5
66
330
1F
100
AcDbEntity
  8
Linee visibili 2D
100
AcDbSpline
210
0.0
220
0.0
230
1.0
 70
    24
 71
     2
 72
     6
 73
     3
 74
     0
 42
0.0000000001
 43
0.0000000001
 40
0.0
 40
0.0
 40
0.0
 40
211.6059528015328
 40
211.6059528015328
 40
211.6059528015328
 10
106.2553788580949
 20
720.794510365872
 30
0.0
 10
106.5994789863864
 20
614.9920935203063
 30
0.0
 10
106.9435791146778
 20
509.1896766747407
 30
0.0
  0
SPLINE
  5
67
330
1F
100
AcDbEntity
  8
Linee visibili 2D
100
AcDbSpline
210
0.0
220
0.0
230
1.0
 70
    24
 71
     2
 72
     6
 73
     3
 74
     0
 42
0.0000000001
 43
0.0000000001
 40
0.0
 40
0.0
 40
0.0
 40
70.35711839820533
 40
70.35711839820533
 40
70.35711839820533
 10
106.9435791146778
 20
509.1896766747407
 30
0.0
 10
72.28167941718851
 20
515.1966506788431
 30
0.0
 10
37.61977971969921
 20
521.2036246829454
 30
0.0
  0
SPLINE
  5
68
330
1F
100
AcDbEntity
  8
Linee visibili 2D
100
AcDbSpline
210
0.0
220
0.0
230
1.0
 70
    24
 71
     2
 72
     6
 73
     3
 74
     0
 42
0.0000000001
 43
0.0000000001
 40
0.0
 40
0.0
 40
0.0
 40
0.569127547333583
 40
0.569127547333583
 40
0.569127547333583
 10
37.61977971969921
 20
521.2036246829454
 30
0.0
 10
37.61703041998543
 20
521.4881751751864
 30
0.0
 10
37.61428112027165
 20
521.7727256674273
 30
0.0
  0
SPLINE
  5
69
330
1F
100
AcDbEntity
  8
Linee visibili 2D
100
AcDbSpline
210
0.0
220
0.0
230
1.0
 70
    24
 71
     2
 72
     6
 73
     3
 74
     0
 42
0.0000000001
 43
0.0000000001
 40
0.0
 40
0.0
 40
0.0
 40
55.99107606032564
 40
55.99107606032564
 40
55.99107606032564
 10
458.2461179749812
 20
124.0089239396744
 30
0.0
 10
458.2461179749812
 20
152.0044619698372
 30
0.0
 10
458.2461179749811
 20
180.0
 30
0.0
  0
SPLINE
  5
6A
330
1F
100
AcDbEntity
  8
Linee visibili 2D
100
AcDbSpline
210
0.0
220
0.0
230
1.0
 70
    24
 71
     2
 72
     6
 73
     3
 74
     0
 42
0.0000000001
 43
0.0000000001
 40
0.0
 40
0.0
 40
0.0
 40
167.0
 40
167.0
 40
167.0
 10
458.2461179749811
 20
180.0
 30
0.0
 10
374.7461179749811
 20
180.0000000000002
 30
0.0
 10
291.2461179749811
 20
180.0000000000004
 30
0.0
  0
SPLINE
  5
6B
330
1F
100
AcDbEntity
  8
Linee visibili 2D
100
AcDbSpline
210
0.0
220
0.0
230
1.0
 70
    24
 71
     2
 72
     6
 73
     3
 74
     0
 42
0.0000000001
 43
0.0000000001
 40
-180.0000000000001
 40
-180.0000000000001
 40
-180.0000000000001
 40
0.0
 40
0.0
 40
0.0
 10
291.2461179749811
 20
180.0000000000004
 30
0.0
 10
291.2461179749813
 20
90.00000000000037
 30
0.0
 10
291.2461179749815
 20
0.0000000000003553
 30
0.0
  0
SPLINE
  5
6C
330
1F
100
AcDbEntity
  8
Linee visibili 2D
100
AcDbSpline
210
0.0
220
0.0
230
1.0
 70
    24
 71
     2
 72
     6
 73
     3
 74
     0
 42
0.0000000001
 43
0.0000000001
 40
0.0
 40
0.0
 40
0.0
 40
167.0
 40
167.0
 40
167.0
 10
291.2461179749815
 20
0.0000000000003553
 30
0.0
 10
374.7461179749815
 20
0.0000000000001776
 30
0.0
 10
458.2461179749815
 20
0.0
 30
0.0
  0
SPLINE
  5
6D
330
1F
100
AcDbEntity
  8
Linee visibili 2D
100
AcDbSpline
210
0.0
220
0.0
230
1.0
 70
    24
 71
     2
 72
     6
 73
     3
 74
     0
 42
0.0000000001
 43
0.0000000001
 40
0.0
 40
0.0
 40
0.0
 40
55.99148056388547
 40
55.99148056388547
 40
55.99148056388547
 10
458.2461179749815
 20
0.0
 30
0.0
 10
458.2461179749814
 20
27.99574028194274
 30
0.0
 10
458.2461179749814
 20
55.99148056388547
 30
0.0
  0
SPLINE
  5
6E
330
1F
100
AcDbEntity
  8
Linee visibili 2D
100
AcDbSpline
210
0.0
220
0.0
230
1.0
 70
    24
 71
     2
 72
     6
 73
     3
 74
     0
 42
0.0000000001
 43
0.0000000001
 40
-0.5043443947496655
 40
-0.5043443947496655
 40
-0.5043443947496655
 40
0.0
 40
0.0
 40
0.0
 10
398.3696498881438
 20
167.9999999999545
 30
0.0
 10
398.3696498881438
 20
168.2521721973293
 30
0.0
 10
398.3696498881439
 20
168.5043443947042
 30
0.0
  0
SPLINE
  5
6F
330
1F
100
AcDbEntity
  8
Linee visibili 2D
100
AcDbSpline
210
0.0
220
0.0
230
1.0
 70
    12
 71
     2
 72
     6
 73
     3
 74
     0
 42
0.0000000001
 43
0.0000000001
 40
0.0
 40
0.0
 40
0.0
 40
0.5202016854244799
 40
0.5202016854244799
 40
0.5202016854244799
 10
398.3696498881439
 20
168.5043443947042
 30
0.0
 41
1.0
 10
398.369649888144
 20
168.7907592269774
 30
0.0
 41
0.8677189485464033
 10
398.1225860618108
 20
168.9356485704904
 30
0.0
 41
1.0
  0
SPLINE
  5
70
330
1F
100
AcDbEntity
  8
Linee visibili 2D
100
AcDbSpline
210
0.0
220
0.0
230
1.0
 70
    24
 71
     2
 72
     6
 73
     3
 74
     0
 42
0.0000000001
 43
0.0000000001
 40
0.0
 40
0.0
 40
0.0
 40
3.543518746179713
 40
3.543518746179713
 40
3.543518746179713
 10
0.0000000000000446
 20
45.12906953998532
 30
0.0
 10
0.0243551961256835
 20
43.35747757213453
 30
0.0
 10
0.0487103922513225
 20
41.58588560428374
 30
0.0
  0
SPLINE
  5
71
330
1F
100
AcDbEntity
  8
Linee visibili 2D
100
AcDbSpline
210
0.0
220
0.0
230
1.0
 70
    24
 71
     2
 72
     6
 73
     3
 74
     0
 42
0.0000000001
 43
0.0000000001
 40
-85.2922625708545
 40
-85.2922625708545
 40
-85.2922625708545
 40
0.0
 40
0.0
 40
0.0
 10
0.0487103922513225
 20
41.58588560428374
 30
0.0
 10
37.28237853334043
 20
20.79294280214187
 30
0.0
 10
74.51604667442953
 20
0.0000000000000098
 30
0.0
  0
SPLINE
  5
72
330
1F
100
AcDbEntity
  8
Linee visibili 2D
100
AcDbSpline
210
0.0
220
0.0
230
1.0
 70
    12
 71
     2
 72
     6
 73
     3
 74
     0
 42
0.0000000001
 43
0.0000000001
 40
0.0
 40
0.0
 40
0.0
 40
0.124126622835355
 40
0.124126622835355
 40
0.124126622835355
 10
66.35850791664109
 20
571.8425210570908
 30
0.0
 41
1.0
 10
66.2964341735002
 20
571.8434790832968
 30
0.0
 41
0.9995693881611075
 10
66.20351763061988
 20
571.8412384957057
 30
0.0
 41
1.0
  0
SPLINE
  5
73
330
1F
100
AcDbEntity
  8
Linee visibili 2D
100
AcDbSpline
210
0.0
220
0.0
230
1.0
 70
    12
 71
     2
 72
     6
 73
     3
 74
     0
 42
0.0000000001
 43
0.0000000001
 40
0.0
 40
0.0
 40
0.0
 40
2.504364008554715
 40
2.504364008554715
 40
2.504364008554715
 10
66.20351763061988
 20
571.8412384957057
 30
0.0
 41
1.0
 10
64.91817954437523
 20
571.8048856847471
 30
0.0
 41
0.9966541202032372
 10
63.6745006599431
 20
571.972957383413
 30
0.0
 41
1.0
  0
SPLINE
  5
74
330
1F
100
AcDbEntity
  8
Linee visibili 2D
100
AcDbSpline
210
0.0
220
0.0
230
1.0
 70
     8
 71
     3
 72
    14
 73
    10
 74
     0
 42
0.0000000001
 43
0.0000000001
 40
0.0
 40
0.0
 40
0.0
 40
0.0
 40
10.1234590359546
 40
22.88479761364542
 40
53.0611685733592
 40
67.56220553202579
 40
79.86455864434626
 40
89.3294747801723
 40
96.56487600919655
 40
96.56487600919655
 40
96.56487600919655
 40
96.56487600919655
 10
63.6745006599431
 20
571.972957383413
 30
0.0
 10
60.3238855076706
 20
572.4512611937669
 30
0.0
 10
53.14161384162839
 20
575.3118984295285
 30
0.0
 10
38.90485752642348
 20
585.9431599191801
 30
0.0
 10
26.6543438141621
 20
600.9442230972104
 30
0.0
 10
17.96157988105861
 20
617.882484503489
 30
0.0
 10
14.5027097839679
 20
629.5346812655459
 30
0.0
 10
14.25374054841667
 20
639.3586808045892
 30
0.0
 10
17.05430640158011
 20
644.5042784026575
 30
0.0
 10
19.12271489957399
 20
645.8440702785056
 30
0.0
  0
SPLINE
  5
75
330
1F
100
AcDbEntity
  8
Linee visibili 2D
100
AcDbSpline
210
0.0
220
0.0
230
1.0
 70
     8
 71
     3
 72
    11
 73
     7
 74
     0
 42
0.0000000001
 43
0.0000000001
 40
0.0
 40
0.0
 40
0.0
 40
0.0
 40
15.51679894645691
 40
24.9055943397375
 40
31.10660120934709
 40
35.98618367929542
 40
35.98618367929542
 40
35.98618367929542
 40
35.98618367929542
 10
19.12271489957399
 20
645.8440702785056
 30
0.0
 10
23.39579911661197
 20
648.7578627719226
 30
0.0
 10
30.27426801719892
 20
653.4078949389368
 30
0.0
 10
38.75109564777001
 20
659.3786504157043
 30
0.0
 10
44.26849264939757
 20
663.3950889614414
 30
0.0
 10
47.09800408690728
 20
665.7746686603991
 30
0.0
 10
48.27134680799811
 20
666.9017729202658
 30
0.0
  0
SPLINE
  5
76
330
1F
100
AcDbEntity
  8
Linee visibili 2D
100
AcDbSpline
210
0.0
220
0.0
230
1.0
 70
    24
 71
     2
 72
     6
 73
     3
 74
     0
 42
0.0000000001
 43
0.0000000001
 40
0.0
 40
0.0
 40
0.0
 40
63.66841400166021
 40
63.66841400166021
 40
63.66841400166021
 10
36.28764418372533
 20
657.6500131460946
 30
0.0
 10
35.98003932844512
 20
689.4827339667003
 30
0.0
 10
35.67243447316491
 20
721.315454787306
 30
0.0
  0
SPLINE
  5
77
330
1F
100
AcDbEntity
  8
Linee visibili 2D
100
AcDbSpline
210
0.0
220
0.0
230
1.0
 70
    12
 71
     2
 72
     6
 73
     3
 74
     0
 42
0.0000000001
 43
0.0000000001
 40
0.0
 40
0.0
 40
0.0
 40
1.095969377434231
 40
1.095969377434231
 40
1.095969377434231
 10
35.67243447316491
 20
721.315454787306
 30
0.0
 41
1.0
 10
35.57717198513497
 20
722.0010369478962
 30
0.0
 41
0.7149254851656568
 10
36.2604662724121
 20
722.111521101155
 30
0.0
 41
1.0
  0
SPLINE
  5
78
330
1F
100
AcDbEntity
  8
Linee visibili 2D
100
AcDbSpline
210
0.0
220
0.0
230
1.0
 70
    24
 71
     2
 72
     6
 73
     3
 74
     0
 42
0.0000000001
 43
0.0000000001
 40
0.0
 40
0.0
 40
0.0
 40
0.2319618189634875
 40
0.2319618189634875
 40
0.2319618189634875
 10
106.9432255732563
 20
509.2983820136721
 30
0.0
 10
106.8275751641076
 20
509.2896324526106
 30
0.0
 10
106.7119247549589
 20
509.2808828915491
 30
0.0
  0
SPLINE
  5
79
330
1F
100
AcDbEntity
  8
Linee visibili 2D
100
AcDbSpline
210
0.0
220
0.0
230
1.0
 70
    12
 71
     2
 72
     6
 73
     3
 74
     0
 42
0.0000000001
 43
0.0000000001
 40
0.0
 40
0.0
 40
0.0
 40
0.132021561195161
 40
0.132021561195161
 40
0.132021561195161
 10
106.7119247549589
 20
509.2808828915491
 30
0.0
 41
0.9999999974196889
 10
106.6457660419449
 20
509.2758735227101
 30
0.0
 41
0.9923916527787343
 10
106.5803971410372
 20
509.2872309863184
 30
0.0
 41
1.0
  0
SPLINE
  5
7A
330
1F
100
AcDbEntity
  8
Linee visibili 2D
100
AcDbSpline
210
0.0
220
0.0
230
1.0
 70
    24
 71
     2
 72
     6
 73
     3
 74
     0
 42
0.0000000001
 43
0.0000000001
 40
0.0
 40
0.0
 40
0.0
 40
69.46594348183197
 40
69.46594348183197
 40
69.46594348183197
 10
106.5803971410372
 20
509.2872309863184
 30
0.0
 10
72.3573949210809
 20
515.217277741232
 30
0.0
 10
38.13439270112457
 20
521.1473244961455
 30
0.0
  0
SPLINE
  5
7B
330
1F
100
AcDbEntity
  8
Linee visibili 2D
100
AcDbSpline
210
0.0
220
0.0
230
1.0
 70
    12
 71
     2
 72
     6
 73
     3
 74
     0
 42
0.0000000001
 43
0.0000000001
 40
0.0
 40
0.0
 40
0.0
 40
1.041212136412171
 40
1.041212136412171
 40
1.041212136412171
 10
38.13439270112457
 20
521.1473244961455
 30
0.0
 41
1.0
 10
37.54669056086532
 20
521.3346348977384
 30
0.0
 41
0.7816212064045731
 10
37.59894316592306
 20
521.9492473873196
 30
0.0
 41
1.0
  0
SPLINE
  5
7C
330
1F
100
AcDbEntity
  8
Linee visibili 2D
100
AcDbSpline
210
0.0
220
0.0
230
1.0
 70
    24
 71
     2
 72
     6
 73
     3
 74
     0
 42
0.0000000001
 43
0.0000000001
 40
0.0
 40
0.0
 40
0.0
 40
67.33173162482946
 40
67.33173162482946
 40
67.33173162482946
 10
37.59894316592306
 20
521.9492473873196
 30
0.0
 10
37.27363951434602
 20
555.6135415127849
 30
0.0
 10
36.94833586276898
 20
589.2778356382502
 30
0.0
  0
SPLINE
  5
7D
330
1F
100
AcDbEntity
  8
Linee visibili 2D
100
AcDbSpline
210
0.0
220
0.0
230
1.0
 70
    12
 71
     2
 72
     6
 73
     3
 74
     0
 42
0.0000000001
 43
0.0000000001
 40
0.0
 40
0.0
 40
0.0
 40
0.7772499882952324
 40
0.7772499882952324
 40
0.7772499882952324
 10
11.07566890001825
 20
1661.342438136813
 30
0.0
 41
1.0
 10
11.2375044496755
 20
1660.967657005775
 30
0.0
 41
0.9294962728643943
 10
11.61227942095812
 20
1660.805807192012
 30
0.0
 41
1.0
  0
SPLINE
  5
7E
330
1F
100
AcDbEntity
  8
Linee visibili 2D
100
AcDbSpline
210
0.0
220
0.0
230
1.0
 70
    12
 71
     2
 72
     6
 73
     3
 74
     0
 42
0.0000000001
 43
0.0000000001
 40
0.0
 40
0.0
 40
0.0
 40
0.7772499882966817
 40
0.7772499882966817
 40
0.7772499882966817
 10
168.3877205790437
 20
1660.805807192012
 30
0.0
 41
1.0
 10
168.7624955503268
 20
1660.967657005775
 30
0.0
 41
0.929496272864834
 10
168.9243310999853
 20
1661.342438136814
 30
0.0
 41
1.0
  0
SPLINE
  5
7F
330
1F
100
AcDbEntity
  8
Linee visibili 2D
100
AcDbSpline
210
0.0
220
0.0
230
1.0
 70
    12
 71
     2
 72
     6
 73
     3
 74
     0
 42
0.0000000001
 43
0.0000000001
 40
0.0
 40
0.0
 40
0.0
 40
0.7772499883030786
 40
0.7772499883030786
 40
0.7772499883030786
 10
11.612279420958
 20
1917.637009511933
 30
0.0
 41
1.0
 10
11.23750444967368
 20
1917.475159698163
 30
0.0
 41
0.9294962728649732
 10
11.07566890001816
 20
1917.10037856712
 30
0.0
 41
1.0
  0
SPLINE
  5
80
330
1F
100
AcDbEntity
  8
Linee visibili 2D
100
AcDbSpline
210
0.0
220
0.0
230
1.0
 70
    12
 71
     2
 72
     6
 73
     3
 74
     0
 42
0.0000000001
 43
0.0000000001
 40
0.0
 40
0.0
 40
0.0
 40
0.777249988303686
 40
0.777249988303686
 40
0.777249988303686
 10
168.9243310999846
 20
1917.10037856712
 30
0.0
 41
1.0
 10
168.7624955503286
 20
1917.475159698163
 30
0.0
 41
0.9294962728652381
 10
168.3877205790442
 20
1917.637009511933
 30
0.0
 41
1.0
  0
SPLINE
  5
81
330
1F
100
AcDbEntity
  8
Linee visibili 2D
100
AcDbSpline
210
0.0
220
0.0
230
1.0
 70
     8
 71
     3
 72
    12
 73
     8
 74
     0
 42
0.0000000001
 43
0.0000000001
 40
0.0
 40
0.0
 40
0.0
 40
0.0
 40
12.95933139311339
 40
25.97785563546853
 40
53.56089602539662
 40
81.05529115185452
 40
107.2149443482973
 40
107.2149443482973
 40
107.2149443482973
 40
107.2149443482973
 10
134.4685680848328
 20
1800.259317984297
 30
0.0
 10
132.27677895848
 20
1803.990897581809
 30
0.0
 10
126.7503935817292
 20
1810.752310240992
 30
0.0
 10
111.8960008207871
 20
1821.008017016311
 30
0.0
 10
89.1075043154702
 20
1826.099270382415
 30
0.0
 10
62.09175724778153
 20
1819.210916688408
 30
0.0
 10
48.67066237120857
 20
1806.374893106279
 30
0.0
 10
44.61765861923339
 20
1798.614617604754
 30
0.0
  0
SPLINE
  5
82
330
1F
100
AcDbEntity
  8
Linee visibili 2D
100
AcDbSpline
210
0.0
220
0.0
230
1.0
 70
    12
 71
     2
 72
     6
 73
     3
 74
     0
 42
0.0000000001
 43
0.0000000001
 40
0.0
 40
0.0
 40
0.0
 40
0.5155065743749073
 40
0.5155065743749073
 40
0.5155065743749073
 10
398.3696498881436
 20
1665.748613560833
 30
0.0
 41
1.0
 10
398.3696498881437
 20
1666.03310393948
 30
0.0
 41
0.8648086810163709
 10
398.1225860618101
 20
1666.174150886486
 30
0.0
 41
1.0
  0
SPLINE
  5
83
330
1F
100
AcDbEntity
  8
Linee visibili 2D
100
AcDbSpline
210
0.0
220
0.0
230
1.0
 70
    24
 71
     2
 72
     6
 73
     3
 74
     0
 42
0.0000000001
 43
0.0000000001
 40
0.0
 40
0.0
 40
0.0
 40
74.63450075611766
 40
74.63450075611766
 40
74.63450075611766
 10
33.74138223034859
 20
725.7563040931294
 30
0.0
 10
71.05387229895189
 20
725.160266628609
 30
0.0
 10
108.3663623675552
 20
724.5642291640885
 30
0.0
  0
SPLINE
  5
84
330
1F
100
AcDbEntity
  8
Linee visibili 2D
100
AcDbSpline
210
0.0
220
0.0
230
1.0
 70
    24
 71
     2
 72
     6
 73
     3
 74
     0
 42
0.0000000001
 43
0.0000000001
 40
0.0
 40
0.0
 40
0.0
 40
0.0336262991106131
 40
0.0336262991106131
 40
0.0336262991106131
 10
65.85883054212522
 20
516.3433271289986
 30
0.0
 10
65.85894911637837
 20
516.3265143975692
 30
0.0
 10
65.8590676906315
 20
516.3097016661399
 30
0.0
  0
SPLINE
  5
85
330
1F
100
AcDbEntity
  8
Linee visibili 2D
100
AcDbSpline
210
0.0
220
0.0
230
1.0
 70
    12
 71
     2
 72
     8
 73
     5
 74
     0
 42
0.0000000001
 43
0.0000000001
 40
-135.1838637964603
 40
-135.1838637964603
 40
-135.1838637964603
 40
-75.8926954646794
 40
-75.8926954646794
 40
-8.714196767782754
 40
-8.714196767782754
 40
-8.714196767782754
 10
54.23581677843242
 20
578.3000521576814
 30
0.0
 41
2178.890906684901
 10
35.93658834067835
 20
587.7783125648149
 30
0.0
 41
1884.258806865081
 10
24.13101667182766
 20
611.6660295409387
 30
0.0
 41
2427.937613752878
 10
10.01113575223695
 20
640.2365832256628
 30
0.0
 41
1784.994275126224
 10
25.3962143576074
 20
643.6272654021138
 30
0.0
 41
2232.202185785282
  0
POLYLINE
  5
86
330
1F
100
AcDbEntity
  8
Predefinito
100
AcDb2dPolyline
 66
     1
 10
0.0
 20
0.0
 30
0.0
  0
VERTEX
  5
87
330
86
100
AcDbEntity
  8
Predefinito
100
AcDbVertex
100
AcDb2dVertex
 10
398.3696498881436
 20
1724.949427351283
 30
0.0
  0
VERTEX
  5
88
330
86
100
AcDbEntity
  8
Predefinito
100
AcDbVertex
100
AcDb2dVertex
 10
398.4158930471769
 20
1725.358943035181
 30
0.0
  0
SEQEND
  5
89
330
86
100
AcDbEntity
  8
Predefinito
  0
SPLINE
  5
8A
330
1F
100
AcDbEntity
  8
Predefinito
100
AcDbSpline
210
0.0
220
0.0
230
1.0
 70
     8
 71
     3
 72
    12
 73
     8
 74
     0
 42
0.0000000001
 43
0.0000000001
 40
0.0
 40
0.0
 40
0.0
 40
0.0
 40
1.644319258056552
 40
3.36745883187611
 40
6.983136188805192
 40
10.08899062485683
 40
14.41628748262735
 40
14.41628748262735
 40
14.41628748262735
 40
14.41628748262735
 10
398.4158930471769
 20
1725.358943035181
 30
0.0
 10
398.4768065726275
 20
1725.898375127521
 30
0.0
 10
398.7284943373844
 20
1727.015818288254
 30
0.0
 10
399.7739410999602
 20
1729.083865710227
 30
0.0
 10
401.6863438325439
 20
1731.257179665941
 30
0.0
 10
405.1400914998213
 20
1732.718523861591
 30
0.0
 10
407.6556568208299
 20
1732.784005764925
 30
0.0
 10
409.0861979723434
 20
1732.860441519366
 30
0.0
  0
SPLINE
  5
8B
330
1F
100
AcDbEntity
  8
Predefinito
100
AcDbSpline
210
0.0
220
0.0
230
1.0
 70
    12
 71
     2
 72
     6
 73
     3
 74
     0
 42
0.0000000001
 43
0.0000000001
 40
-0.5173241023606189
 40
-0.5173241023606189
 40
-0.5173241023606189
 40
0.0
 40
0.0
 40
0.0
 10
409.0861979723434
 20
1732.860441519366
 30
0.0
 41
1.0
 10
409.3706826344542
 20
1732.864011801595
 30
0.0
 41
0.8691456682218405
 10
409.5129361651076
 20
1733.110402148217
 30
0.0
 41
1.0
  0
SPLINE
  5
8C
330
1F
100
AcDbEntity
  8
Predefinito
100
AcDbSpline
210
0.0
220
0.0
230
1.0
 70
    24
 71
     2
 72
     6
 73
     3
 74
     0
 42
0.0000000001
 43
0.0000000001
 40
0.0
 40
0.0
 40
0.0
 40
109.2134279761319
 40
109.2134279761319
 40
109.2134279761319
 10
409.5129361651076
 20
1733.110402148217
 30
0.0
 10
436.816293159041
 20
1780.401203679131
 30
0.0
 10
464.1196501529744
 20
1827.692005210044
 30
0.0
  0
SPLINE
  5
8D
330
1F
100
AcDbEntity
  8
Predefinito
100
AcDbSpline
210
0.0
220
0.0
230
1.0
 70
    12
 71
     2
 72
     6
 73
     3
 74
     0
 42
0.0000000001
 43
0.0000000001
 40
0.0
 40
0.0
 40
0.0
 40
0.7853971145991486
 40
0.7853971145991486
 40
0.7853971145991486
 10
464.1196501529744
 20
1827.692005210044
 30
0.0
 41
1.0
 10
464.3696496285727
 20
1828.125017003653
 30
0.0
 41
0.7071075227985213
 10
463.9366383593626
 20
1828.375017387535
 30
0.0
 41
1.0
  0
SPLINE
  5
8E
330
1F
100
AcDbEntity
  8
Predefinito
100
AcDbSpline
210
0.0
220
0.0
230
1.0
 70
     8
 71
     3
 72
    15
 73
    11
 74
     0
 42
0.0000000001
 43
0.0000000001
 40
0.0
 40
0.0
 40
0.0
 40
0.0
 40
30.87443891493219
 40
39.09155753246325
 40
39.68916882432889
 40
44.32057407212928
 40
60.45605348321384
 40
77.18901174698078
 40
85.40602376517349
 40
93.31504723359829
 40
93.31504723359829
 40
93.31504723359829
 40
93.31504723359829
 10
463.9366383593626
 20
1828.375017387535
 30
0.0
 10
455.030855444393
 20
1833.524917724356
 30
0.0
 10
443.7280121287008
 20
1840.02969099254
 30
0.0
 10
432.2914907254253
 20
1846.656057706216
 30
0.0
 10
428.3780197912646
 20
1848.879804715932
 30
0.0
 10
422.3695278023907
 20
1852.592573151614
 30
0.0
 10
411.5494790762888
 20
1859.194219319316
 30
0.0
 10
403.3354678721946
 20
1870.512203372685
 30
0.0
 10
399.3930969488037
 20
1880.744364554562
 30
0.0
 10
398.5214755543833
 20
1886.100112696366
 30
0.0
 10
398.4126965840252
 20
1888.728578244755
 30
0.0
  0
POLYLINE
  5
8F
330
1F
100
AcDbEntity
  8
Predefinito
100
AcDb2dPolyline
 66
     1
 10
0.0
 20
0.0
 30
0.0
  0
VERTEX
  5
90
330
8F
100
AcDbEntity
  8
Predefinito
100
AcDbVertex
100
AcDb2dVertex
 10
398.4126965840252
 20
1888.728578244755
 30
0.0
  0
VERTEX
  5
91
330
8F
100
AcDbEntity
  8
Predefinito
100
AcDbVertex
100
AcDb2dVertex
 10
398.3696498881436
 20
1890.746088992615
 30
0.0
  0
SEQEND
  5
92
330
8F
100
AcDbEntity
  8
Predefinito
  0
SPLINE
  5
93
330
1F
100
AcDbEntity
  8
Linee visibili 2D
100
AcDbSpline
210
0.0
220
0.0
230
1.0
 70
    12
 71
     2
 72
     6
 73
     3
 74
     0
 42
0.0000000001
 43
0.0000000001
 40
0.0
 40
0.0
 40
0.0
 40
0.5202016854233656
 40
0.5202016854233656
 40
0.5202016854233656
 10
398.1225860618104
 20
1917.648330054666
 30
0.0
 41
1.0
 10
398.369649888143
 20
1917.503440711153
 30
0.0
 41
0.8677189485469705
 10
398.3696498881434
 20
1917.217025878881
 30
0.0
 41
1.0
  0
SPLINE
  5
94
330
1F
100
AcDbEntity
  8
Linee visibili 2D
100
AcDbSpline
210
0.0
220
0.0
230
1.0
 70
    24
 71
     2
 72
     6
 73
     3
 74
     0
 42
0.0000000001
 43
0.0000000001
 40
0.0
 40
0.0
 40
0.0
 40
0.5043824731710629
 40
0.5043824731710629
 40
0.5043824731710629
 10
398.3696498881434
 20
1917.217025878881
 30
0.0
 10
398.3696498881435
 20
1916.964834642296
 30
0.0
 10
398.3696498881436
 20
1916.71264340571
 30
0.0
  0
SPLINE
  5
95
330
1F
100
AcDbEntity
  8
Linee visibili 2D
100
AcDbSpline
210
0.0
220
0.0
230
1.0
 70
    24
 71
     2
 72
     6
 73
     3
 74
     0
 42
0.0000000001
 43
0.0000000001
 40
0.0
 40
0.0
 40
0.0
 40
254.9824701074833
 40
254.9824701074833
 40
254.9824701074833
 10
398.3696498881436
 20
1916.71264340571
 30
0.0
 10
398.3696498881436
 20
1789.221408351968
 30
0.0
 10
398.3696498881436
 20
1661.730173298227
 30
0.0
  0
SPLINE
  5
96
330
1F
100
AcDbEntity
  8
Linee visibili 2D
100
AcDbSpline
210
0.0
220
0.0
230
1.0
 70
    24
 71
     2
 72
     6
 73
     3
 74
     0
 42
0.0000000001
 43
0.0000000001
 40
0.0
 40
0.0
 40
0.0
 40
0.5043824731696986
 40
0.5043824731696986
 40
0.5043824731696986
 10
398.3696498881436
 20
1661.730173298227
 30
0.0
 10
398.3696498881436
 20
1661.477982061642
 30
0.0
 10
398.3696498881436
 20
1661.225790825057
 30
0.0
  0
SPLINE
  5
97
330
1F
100
AcDbEntity
  8
Linee visibili 2D
100
AcDbSpline
210
0.0
220
0.0
230
1.0
 70
    12
 71
     2
 72
     6
 73
     3
 74
     0
 42
0.0000000001
 43
0.0000000001
 40
0.0
 40
0.0
 40
0.0
 40
0.5202016854243251
 40
0.5202016854243251
 40
0.5202016854243251
 10
398.3696498881436
 20
1661.225790825057
 30
0.0
 41
1.0
 10
398.3696498881436
 20
1660.939375992784
 30
0.0
 41
0.8677189485465095
 10
398.1225860618105
 20
1660.794486649271
 30
0.0
 41
1.0
  0
SPLINE
  5
98
330
1F
100
AcDbEntity
  8
Linee visibili 2D
100
AcDbSpline
210
0.0
220
0.0
230
1.0
 70
    24
 71
     2
 72
     6
 73
     3
 74
     0
 42
0.0000000001
 43
0.0000000001
 40
-400.0
 40
-400.0
 40
-400.0
 40
0.0
 40
0.0
 40
0.0
 10
398.1225860618184
 20
1021.746117974981
 30
0.0
 10
398.1225860618184
 20
1221.746117974981
 30
0.0
 10
398.1225860618184
 20
1421.746117974981
 30
0.0
  0
SPLINE
  5
99
330
1F
100
AcDbEntity
  8
Linee visibili 2D
100
AcDbSpline
210
0.0
220
0.0
230
1.0
 70
    24
 71
     2
 72
     6
 73
     3
 74
     0
 42
0.0000000001
 43
0.0000000001
 40
0.0
 40
0.0
 40
0.0
 40
500.5
 40
500.5
 40
500.5
 10
398.1225860618184
 20
1421.746117974981
 30
0.0
 10
398.1225860618184
 20
1671.996117974981
 30
0.0
 10
398.1225860618184
 20
1922.246117974981
 30
0.0
  0
SPLINE
  5
9A
330
1F
100
AcDbEntity
  8
Linee visibili 2D
100
AcDbSpline
210
0.0
220
0.0
230
1.0
 70
    24
 71
     2
 72
     6
 73
     3
 74
     0
 42
0.0000000001
 43
0.0000000001
 40
0.0
 40
0.0
 40
0.0
 40
46.75293617367532
 40
46.75293617367532
 40
46.75293617367532
 10
398.1225860618184
 20
1922.246117974981
 30
0.0
 10
374.7461179749807
 20
1922.246117974981
 30
0.0
 10
351.369649888143
 20
1922.246117974981
 30
0.0
  0
SPLINE
  5
9B
330
1F
100
AcDbEntity
  8
Linee visibili 2D
100
AcDbSpline
210
0.0
220
0.0
230
1.0
 70
    24
 71
     2
 72
     6
 73
     3
 74
     0
 42
0.0000000001
 43
0.0000000001
 40
0.0
 40
0.0
 40
0.0
 40
500.5
 40
500.5
 40
500.5
 10
351.369649888143
 20
1922.246117974981
 30
0.0
 10
351.369649888143
 20
1671.996117974981
 30
0.0
 10
351.369649888143
 20
1421.746117974981
 30
0.0
  0
SPLINE
  5
9C
330
1F
100
AcDbEntity
  8
Linee visibili 2D
100
AcDbSpline
210
0.0
220
0.0
230
1.0
 70
    24
 71
     2
 72
     6
 73
     3
 74
     0
 42
0.0000000001
 43
0.0000000001
 40
-400.0
 40
-400.0
 40
-400.0
 40
0.0
 40
0.0
 40
0.0
 10
351.369649888143
 20
1421.746117974981
 30
0.0
 10
351.369649888143
 20
1221.746117974981
 30
0.0
 10
351.369649888143
 20
1021.746117974981
 30
0.0
  0
SPLINE
  5
9D
330
1F
100
AcDbEntity
  8
Linee visibili 2D
100
AcDbSpline
210
0.0
220
0.0
230
1.0
 70
     8
 71
     3
 72
    14
 73
    10
 74
     0
 42
0.0000000001
 43
0.0000000001
 40
0.0
 40
0.0
 40
0.0
 40
0.0
 40
17.0997599779342
 40
34.49270907068437
 40
52.91057508085151
 40
72.1456214633659
 40
110.8613515301802
 40
129.0576109379372
 40
146.1060546639511
 40
146.1060546639511
 40
146.1060546639511
 40
146.1060546639511
 10
40.54680570474935
 20
1785.759864110053
 30
0.0
 10
39.74844809445872
 20
1780.117091687608
 30
0.0
 10
40.88418882354657
 20
1768.35978411638
 30
0.0
 10
50.1917910375634
 20
1752.917301705829
 30
0.0
 10
65.34440460687595
 20
1741.963271187836
 30
0.0
 10
90.15527587837089
 20
1735.015041606859
 30
0.0
 10
116.4436212974571
 20
1740.936033285416
 30
0.0
 10
134.3829420083722
 20
1758.670561987244
 30
0.0
 10
138.6694621593055
 20
1769.882845969588
 30
0.0
 10
139.4575090540819
 20
1775.558830973725
 30
0.0
  0
SPLINE
  5
9E
330
1F
100
AcDbEntity
  8
Linee visibili 2D
100
AcDbSpline
210
0.0
220
0.0
230
1.0
 70
     8
 71
     3
 72
    14
 73
    10
 74
     0
 42
0.0000000001
 43
0.0000000001
 40
0.0
 40
0.0
 40
0.0
 40
0.0
 40
17.24891121953869
 40
34.54632325131564
 40
53.11682047444432
 40
72.32398345176227
 40
110.7884263576144
 40
129.011377757481
 40
146.0419291113136
 40
146.0419291113136
 40
146.0419291113136
 40
146.0419291113136
 10
139.4575090540819
 20
1775.558830973725
 30
0.0
 10
140.2576298438669
 20
1781.290011112141
 30
0.0
 10
139.071836575913
 20
1793.066929493468
 30
0.0
 10
129.6661283482131
 20
1808.527458656208
 30
0.0
 10
114.4600107945109
 20
1819.424455134656
 30
0.0
 10
89.6517063285156
 20
1826.242855911253
 30
0.0
 10
63.49235619944591
 20
1820.291423635216
 30
0.0
 10
45.61247202354861
 20
1802.609614063752
 30
0.0
 10
41.32706292617399
 20
1791.391196855213
 30
0.0
 10
40.54680570474935
 20
1785.759864110053
 30
0.0
  0
SPLINE
  5
9F
330
1F
100
AcDbEntity
  8
Linee visibili 2D
100
AcDbSpline
210
0.0
220
0.0
230
1.0
 70
     8
 71
     3
 72
    12
 73
     8
 74
     0
 42
0.0000000001
 43
0.0000000001
 40
0.0
 40
0.0
 40
0.0
 40
0.0
 40
3.363003776798482
 40
6.427419583128972
 40
13.05307762067607
 40
22.01834864093037
 40
33.49319891557181
 40
33.49319891557181
 40
33.49319891557181
 40
33.49319891557181
 10
63.27557600487932
 20
575.5124427171418
 30
0.0
 10
64.41825515478192
 20
575.4707218353457
 30
0.0
 10
66.51396377080289
 20
575.6017342282239
 30
0.0
 10
70.6239506853439
 20
577.623765133288
 30
0.0
 10
73.29213915144206
 20
583.6194316717409
 30
0.0
 10
72.48666942237813
 20
592.7366021631668
 30
0.0
 10
70.42862077954295
 20
599.2275527108411
 30
0.0
 10
68.89838569367268
 20
602.749993371043
 30
0.0
  0
SPLINE
  5
A0
330
1F
100
AcDbEntity
  8
Linee visibili 2D
100
AcDbSpline
210
0.0
220
0.0
230
1.0
 70
     8
 71
     3
 72
    14
 73
    10
 74
     0
 42
0.0000000001
 43
0.0000000001
 40
0.0
 40
0.0
 40
0.0
 40
0.0
 40
11.49964257076314
 40
23.6940547635033
 40
46.13062455966088
 40
55.19172487055016
 40
61.96216419346764
 40
67.44363634414384
 40
73.11325920130882
 40
73.11325920130882
 40
73.11325920130882
 40
73.11325920130882
 10
68.89838569367268
 20
602.749993371043
 30
0.0
 10
67.39366463001912
 20
606.2628652225275
 30
0.0
 10
63.73411217908607
 20
613.3245507742378
 30
0.0
 10
54.84615883251246
 20
625.8349770639918
 30
0.0
 10
44.43505860841475
 20
636.294441037695
 30
0.0
 10
33.2585041780934
 20
642.5684547352348
 30
0.0
 10
26.2065099389818
 20
644.2245040545257
 30
0.0
 10
20.20197624187474
 20
642.3785213360284
 30
0.0
 10
18.37811580375836
 20
638.6935007052673
 30
0.0
 10
17.93901031770486
 20
636.9209783569409
 30
0.0
  0
SPLINE
  5
A1
330
1F
100
AcDbEntity
  8
Linee visibili 2D
100
AcDbSpline
210
0.0
220
0.0
230
1.0
 70
     8
 71
     3
 72
    11
 73
     7
 74
     0
 42
0.0000000001
 43
0.0000000001
 40
0.0
 40
0.0
 40
0.0
 40
0.0
 40
2.029074140390579
 40
4.299621091763967
 40
9.374509089926933
 40
21.99242099662039
 40
21.99242099662039
 40
21.99242099662039
 40
21.99242099662039
 10
17.93901031770486
 20
636.9209783569409
 30
0.0
 10
17.77155453718369
 20
636.265238222305
 30
0.0
 10
17.52297573927248
 20
634.8514938827037
 30
0.0
 10
17.35310440844371
 20
631.7250433466529
 30
0.0
 10
18.05219972182748
 20
625.0792380795144
 30
0.0
 10
20.00284302260783
 20
619.4569284546852
 30
0.0
 10
21.67741439646523
 20
615.6065308170687
 30
0.0
  0
SPLINE
  5
A2
330
1F
100
AcDbEntity
  8
Linee visibili 2D
100
AcDbSpline
210
0.0
220
0.0
230
1.0
 70
     8
 71
     3
 72
    13
 73
     9
 74
     0
 42
0.0000000001
 43
0.0000000001
 40
0.0
 40
0.0
 40
0.0
 40
0.0
 40
7.747891736102243
 40
16.19164946024417
 40
32.73815093956395
 40
47.42796651307145
 40
53.66947190452794
 40
58.70695651203093
 40
58.70695651203093
 40
58.70695651203093
 40
58.70695651203093
 10
21.67741439646523
 20
615.6065308170687
 30
0.0
 10
22.7179452031026
 20
613.2413778213418
 30
0.0
 10
25.15129791370848
 20
608.4203702125682
 30
0.0
 10
30.97878001918908
 20
599.1737969235456
 30
0.0
 10
39.45589843439562
 20
588.9673873653672
 30
0.0
 10
49.10582043588344
 20
580.9132096048622
 30
0.0
 10
56.8115861819467
 20
576.8809478479391
 30
0.0
 10
60.44831183019543
 20
575.8447826909993
 30
0.0
 10
62.114753160227
 20
575.6230768357414
 30
0.0
  0
SPLINE
  5
A3
330
1F
100
AcDbEntity
  8
Linee visibili 2D
100
AcDbSpline
210
0.0
220
0.0
230
1.0
 70
    12
 71
     2
 72
     6
 73
     3
 74
     0
 42
0.0000000001
 43
0.0000000001
 40
-0.834597038288678
 40
-0.834597038288678
 40
-0.834597038288678
 40
0.0
 40
0.0
 40
0.0
 10
62.114753160227
 20
575.6230768357414
 30
0.0
 41
1.0
 10
62.52870489680117
 20
575.5694720870603
 30
0.0
 41
0.9996061395470434
 10
62.9450053890495
 20
575.5390842933156
 30
0.0
 41
0.9999999999101404
  0
SPLINE
  5
A4
330
1F
100
AcDbEntity
  8
Linee visibili 2D
100
AcDbSpline
210
0.0
220
0.0
230
1.0
 70
    12
 71
     2
 72
     6
 73
     3
 74
     0
 42
0.0000000001
 43
0.0000000001
 40
0.0
 40
0.0
 40
0.0
 40
0.3314195400028814
 40
0.3314195400028814
 40
0.3314195400028814
 10
62.94500538904949
 20
575.5390842933156
 30
0.0
 41
0.9999999999476461
 10
63.11028257024208
 20
575.527009134644
 30
0.0
 41
0.9999279123551479
 10
63.27557600487932
 20
575.5124427171418
 30
0.0
 41
1.0
  0
SPLINE
  5
A5
330
1F
100
AcDbEntity
  8
Linee visibili 2D
100
AcDbSpline
210
0.0
220
0.0
230
1.0
 70
    24
 71
     2
 72
     6
 73
     3
 74
     0
 42
0.0000000001
 43
0.0000000001
 40
-5.0
 40
-5.0
 40
-5.0
 40
0.0
 40
0.0
 40
0.0
 10
0.0
 20
1016.746117974981
 30
0.0
 10
0.0
 20
1019.246117974981
 30
0.0
 10
0.0
 20
1021.746117974981
 30
0.0
  0
SPLINE
  5
A6
330
1F
100
AcDbEntity
  8
Linee visibili 2D
100
AcDbSpline
210
0.0
220
0.0
230
1.0
 70
    24
 71
     2
 72
     6
 73
     3
 74
     0
 42
0.0000000001
 43
0.0000000001
 40
0.0
 40
0.0
 40
0.0
 40
180.0
 40
180.0
 40
180.0
 10
0.0
 20
1021.746117974981
 30
0.0
 10
90.00000000000001
 20
1021.746117974981
 30
0.0
 10
180.0
 20
1021.746117974981
 30
0.0
  0
SPLINE
  5
A7
330
1F
100
AcDbEntity
  8
Linee visibili 2D
100
AcDbSpline
210
0.0
220
0.0
230
1.0
 70
    24
 71
     2
 72
     6
 73
     3
 74
     0
 42
0.0000000001
 43
0.0000000001
 40
0.0
 40
0.0
 40
0.0
 40
5.0
 40
5.0
 40
5.0
 10
180.0
 20
1021.746117974981
 30
0.0
 10
180.0
 20
1019.246117974981
 30
0.0
 10
180.0
 20
1016.746117974981
 30
0.0
  0
SPLINE
  5
A8
330
1F
100
AcDbEntity
  8
Linee visibili 2D
100
AcDbSpline
210
0.0
220
0.0
230
1.0
 70
    24
 71
     2
 72
     6
 73
     3
 74
     0
 42
0.0000000001
 43
0.0000000001
 40
0.0
 40
0.0
 40
0.0
 40
180.0
 40
180.0
 40
180.0
 10
180.0
 20
1016.746117974981
 30
0.0
 10
90.00000000000001
 20
1016.746117974981
 30
0.0
 10
0.0
 20
1016.746117974981
 30
0.0
  0
SPLINE
  5
A9
330
1F
100
AcDbEntity
  8
Linee visibili 2D
100
AcDbSpline
210
0.0
220
0.0
230
1.0
 70
    24
 71
     2
 72
     6
 73
     3
 74
     0
 42
0.0000000001
 43
0.0000000001
 40
0.0
 40
0.0
 40
0.0
 40
46.75293617367532
 40
46.75293617367532
 40
46.75293617367532
 10
398.1225860618187
 20
6.500000000000199
 30
0.0
 10
374.7461179749811
 20
6.500000000000199
 30
0.0
 10
351.3696498881434
 20
6.500000000000199
 30
0.0
  0
SPLINE
  5
AA
330
1F
100
AcDbEntity
  8
Linee visibili 2D
100
AcDbSpline
210
0.0
220
0.0
230
1.0
 70
    24
 71
     2
 72
     6
 73
     3
 74
     0
 42
0.0000000001
 43
0.0000000001
 40
-167.0
 40
-167.0
 40
-167.0
 40
0.0
 40
0.0
 40
0.0
 10
351.3696498881434
 20
6.500000000000199
 30
0.0
 10
351.3696498881434
 20
90.0000000000002
 30
0.0
 10
351.3696498881434
 20
173.5000000000002
 30
0.0
  0
SPLINE
  5
AB
330
1F
100
AcDbEntity
  8
Linee visibili 2D
100
AcDbSpline
210
0.0
220
0.0
230
1.0
 70
    24
 71
     2
 72
     6
 73
     3
 74
     0
 42
0.0000000001
 43
0.0000000001
 40
0.0
 40
0.0
 40
0.0
 40
46.75293617367532
 40
46.75293617367532
 40
46.75293617367532
 10
351.3696498881434
 20
173.5000000000002
 30
0.0
 10
374.7461179749811
 20
173.5000000000002
 30
0.0
 10
398.1225860618187
 20
173.5000000000002
 30
0.0
  0
SPLINE
  5
AC
330
1F
100
AcDbEntity
  8
Linee visibili 2D
100
AcDbSpline
210
0.0
220
0.0
230
1.0
 70
    24
 71
     2
 72
     6
 73
     3
 74
     0
 42
0.0000000001
 43
0.0000000001
 40
-167.0
 40
-167.0
 40
-167.0
 40
0.0
 40
0.0
 40
0.0
 10
398.1225860618187
 20
173.5000000000002
 30
0.0
 10
398.1225860618187
 20
90.0000000000002
 30
0.0
 10
398.1225860618187
 20
6.500000000000199
 30
0.0
  0
SPLINE
  5
AD
330
1F
100
AcDbEntity
  8
Linee visibili 2D
100
AcDbSpline
210
0.0
220
0.0
230
1.0
 70
     8
 71
     3
 72
    12
 73
     8
 74
     0
 42
0.0000000001
 43
0.0000000001
 40
0.0
 40
0.0
 40
0.0
 40
0.0
 40
0.7250161752567557
 40
1.691532570580162
 40
4.120136037570022
 40
6.633537651459267
 40
8.422139453424428
 40
8.422139453424428
 40
8.422139453424428
 40
8.422139453424428
 10
77.09236194336275
 20
518.796764717046
 30
0.0
 10
77.33763180031325
 20
518.8192678158302
 30
0.0
 10
77.83232918468735
 20
519.1406003874445
 30
0.0
 10
78.50844581860541
 20
520.3617577030747
 30
0.0
 10
78.7143789116223
 20
522.3690465263322
 30
0.0
 10
78.217131463032
 20
524.5682703227801
 30
0.0
 10
77.29538864956953
 20
525.7726189793381
 30
0.0
 10
76.69098821380138
 20
525.9176976366803
 30
0.0
  0
SPLINE
  5
AE
330
1F
100
AcDbEntity
  8
Linee visibili 2D
100
AcDbSpline
210
0.0
220
0.0
230
1.0
 70
    24
 71
     2
 72
     6
 73
     3
 74
     0
 42
0.0000000001
 43
0.0000000001
 40
0.0
 40
0.0
 40
0.0
 40
10.6758758419245
 40
10.6758758419245
 40
10.6758758419245
 10
76.69098821380138
 20
525.9176976366803
 30
0.0
 10
71.42401058034237
 20
526.7852926669538
 30
0.0
 10
66.15703294688336
 20
527.6528876972272
 30
0.0
  0
SPLINE
  5
AF
330
1F
100
AcDbEntity
  8
Linee visibili 2D
100
AcDbSpline
210
0.0
220
0.0
230
1.0
 70
    12
 71
     2
 72
     6
 73
     3
 74
     0
 42
0.0000000001
 43
0.0000000001
 40
0.0
 40
0.0
 40
0.0
 40
0.18017202742361
 40
0.18017202742361
 40
0.18017202742361
 10
66.15703294688336
 20
527.6528876972272
 30
0.0
 41
1.0
 10
66.06777869880365
 20
527.66781757532
 30
0.0
 41
0.9938410435987292
 10
65.97746412625199
 20
527.6627233068036
 30
0.0
 41
1.0
  0
SPLINE
  5
B0
330
1F
100
AcDbEntity
  8
Linee visibili 2D
100
AcDbSpline
210
0.0
220
0.0
230
1.0
 70
    12
 71
     2
 72
     8
 73
     5
 74
     0
 42
0.0000000001
 43
0.0000000001
 40
0.5960537432856061
 40
0.5960537432856061
 40
0.5960537432856061
 40
7.05538295110733
 40
7.05538295110733
 40
14.1107659022147
 40
14.1107659022147
 40
14.1107659022147
 10
65.97746412625199
 20
527.6627233068036
 30
0.0
 41
2327.995044880297
 10
64.26580505021175
 20
527.564754724306
 30
0.0
 41
1786.970992691215
 10
64.28821529730878
 20
524.4490248597814
 30
0.0
 41
2442.417731504057
 10
64.31353455462056
 20
520.9288509941034
 30
0.0
 41
1727.61257826155
 10
66.26541434876943
 20
520.596989345892
 30
0.0
 41
2439.623269497765
  0
SPLINE
  5
B1
330
1F
100
AcDbEntity
  8
Linee visibili 2D
100
AcDbSpline
210
0.0
220
0.0
230
1.0
 70
    24
 71
     2
 72
     6
 73
     3
 74
     0
 42
0.0000000001
 43
0.0000000001
 40
0.0
 40
0.0
 40
0.0
 40
10.67870268151741
 40
10.67870268151741
 40
10.67870268151741
 10
66.26541434876943
 20
520.596989345892
 30
0.0
 10
71.52922633300386
 20
519.7020278189582
 30
0.0
 10
76.7930383172383
 20
518.8070662920244
 30
0.0
  0
SPLINE
  5
B2
330
1F
100
AcDbEntity
  8
Linee visibili 2D
100
AcDbSpline
210
0.0
220
0.0
230
1.0
 70
    12
 71
     2
 72
     6
 73
     3
 74
     0
 42
0.0000000001
 43
0.0000000001
 40
0.0
 40
0.0
 40
0.0
 40
0.30042470173376
 40
0.30042470173376
 40
0.30042470173376
 10
76.7930383172383
 20
518.8070662920244
 30
0.0
 41
1.0
 10
76.94199580326564
 20
518.7814506332894
 30
0.0
 41
0.9907800773617689
 10
77.09236194336275
 20
518.796764717046
 30
0.0
 41
1.0
  0
SPLINE
  5
B3
330
1F
100
AcDbEntity
  8
Linee visibili 2D
100
AcDbSpline
210
0.0
220
0.0
230
1.0
 70
    24
 71
     2
 72
     6
 73
     3
 74
     0
 42
0.0000000001
 43
0.0000000001
 40
0.0
 40
0.0
 40
0.0
 40
256.9911969768871
 40
256.9911969768871
 40
256.9911969768871
 10
169.0000000000002
 20
1917.717006840412
 30
0.0
 10
169.0000000000003
 20
1789.221408351968
 30
0.0
 10
169.0000000000003
 20
1660.725809863525
 30
0.0
  0
SPLINE
  5
B4
330
1F
100
AcDbEntity
  8
Linee visibili 2D
100
AcDbSpline
210
0.0
220
0.0
230
1.0
 70
    24
 71
     2
 72
     6
 73
     3
 74
     0
 42
0.0000000001
 43
0.0000000001
 40
0.0
 40
0.0
 40
0.0
 40
158.0043253562337
 40
158.0043253562337
 40
158.0043253562337
 10
169.0000000000003
 20
1660.725809863525
 30
0.0
 10
89.99783732188345
 20
1660.725809863525
 30
0.0
 10
10.99567464376661
 20
1660.725809863525
 30
0.0
  0
SPLINE
  5
B5
330
1F
100
AcDbEntity
  8
Linee visibili 2D
100
AcDbSpline
210
0.0
220
0.0
230
1.0
 70
    24
 71
     2
 72
     6
 73
     3
 74
     0
 42
0.0000000001
 43
0.0000000001
 40
0.0
 40
0.0
 40
0.0
 40
256.9911969768871
 40
256.9911969768871
 40
256.9911969768871
 10
10.99567464376661
 20
1660.725809863525
 30
0.0
 10
10.99567464376661
 20
1789.221408351968
 30
0.0
 10
10.99567464376661
 20
1917.717006840412
 30
0.0
  0
SPLINE
  5
B6
330
1F
100
AcDbEntity
  8
Linee visibili 2D
100
AcDbSpline
210
0.0
220
0.0
230
1.0
 70
    24
 71
     2
 72
     6
 73
     3
 74
     0
 42
0.0000000001
 43
0.0000000001
 40
0.0
 40
0.0
 40
0.0
 40
158.0043253562336
 40
158.0043253562336
 40
158.0043253562336
 10
10.99567464376661
 20
1917.717006840412
 30
0.0
 10
89.9978373218834
 20
1917.717006840412
 30
0.0
 10
169.0000000000002
 20
1917.717006840412
 30
0.0
  0
SPLINE
  5
B7
330
1F
100
AcDbEntity
  8
Linee visibili 2D
100
AcDbSpline
210
0.0
220
0.0
230
1.0
 70
    24
 71
     2
 72
     6
 73
     3
 74
     0
 42
0.0000000001
 43
0.0000000001
 40
0.0
 40
0.0
 40
0.0
 40
5.0
 40
5.0
 40
5.0
 10
458.2461179749811
 20
1021.746117974981
 30
0.0
 10
458.2461179749811
 20
1019.246117974981
 30
0.0
 10
458.2461179749811
 20
1016.746117974981
 30
0.0
  0
SPLINE
  5
B8
330
1F
100
AcDbEntity
  8
Linee visibili 2D
100
AcDbSpline
210
0.0
220
0.0
230
1.0
 70
    24
 71
     2
 72
     6
 73
     3
 74
     0
 42
0.0000000001
 43
0.0000000001
 40
0.0
 40
0.0
 40
0.0
 40
167.0
 40
167.0
 40
167.0
 10
458.2461179749811
 20
1016.746117974981
 30
0.0
 10
374.7461179749811
 20
1016.746117974981
 30
0.0
 10
291.2461179749811
 20
1016.746117974981
 30
0.0
  0
SPLINE
  5
B9
330
1F
100
AcDbEntity
  8
Linee visibili 2D
100
AcDbSpline
210
0.0
220
0.0
230
1.0
 70
    24
 71
     2
 72
     6
 73
     3
 74
     0
 42
0.0000000001
 43
0.0000000001
 40
0.0
 40
0.0
 40
0.0
 40
5.0
 40
5.0
 40
5.0
 10
291.2461179749811
 20
1016.746117974981
 30
0.0
 10
291.2461179749811
 20
1019.246117974981
 30
0.0
 10
291.2461179749811
 20
1021.746117974981
 30
0.0
  0
SPLINE
  5
BA
330
1F
100
AcDbEntity
  8
Linee visibili 2D
100
AcDbSpline
210
0.0
220
0.0
230
1.0
 70
    24
 71
     2
 72
     6
 73
     3
 74
     0
 42
0.0000000001
 43
0.0000000001
 40
0.0
 40
0.0
 40
0.0
 40
167.0
 40
167.0
 40
167.0
 10
291.2461179749811
 20
1021.746117974981
 30
0.0
 10
374.7461179749811
 20
1021.746117974981
 30
0.0
 10
458.2461179749811
 20
1021.746117974981
 30
0.0
  0
SPLINE
  5
BB
330
1F
100
AcDbEntity
  8
Linee visibili 2D
100
AcDbSpline
210
0.0
220
0.0
230
1.0
 70
    12
 71
     2
 72
     8
 73
     5
 74
     0
 42
0.0000000001
 43
0.0000000001
 40
-14.11076590221421
 40
-14.11076590221421
 40
-14.11076590221421
 40
-7.055382951107315
 40
-7.055382951107315
 40
0.0
 40
0.0
 40
0.0
 10
78.0000000000012
 20
1675.221731508059
 30
0.0
 41
1.0
 10
73.50840371170165
 20
1675.221731508059
 30
0.0
 41
0.707106781186599
 10
73.50840371170108
 20
1670.730135219759
 30
0.0
 41
1.0
 10
73.50840371170132
 20
1666.238538931459
 30
0.0
 41
0.7071067811865833
 10
78.0000000000012
 20
1666.238538931459
 30
0.0
 41
1.0
  0
SPLINE
  5
BC
330
1F
100
AcDbEntity
  8
Linee visibili 2D
100
AcDbSpline
210
0.0
220
0.0
230
1.0
 70
    24
 71
     2
 72
     6
 73
     3
 74
     0
 42
0.0000000001
 43
0.0000000001
 40
0.0
 40
0.0
 40
0.0
 40
24.0
 40
24.0
 40
24.0
 10
78.0000000000012
 20
1666.238538931459
 30
0.0
 10
90.0000000000012
 20
1666.238538931459
 30
0.0
 10
102.0000000000012
 20
1666.238538931459
 30
0.0
  0
SPLINE
  5
BD
330
1F
100
AcDbEntity
  8
Linee visibili 2D
100
AcDbSpline
210
0.0
220
0.0
230
1.0
 70
    12
 71
     2
 72
     8
 73
     5
 74
     0
 42
0.0000000001
 43
0.0000000001
 40
0.0
 40
0.0
 40
0.0
 40
7.055382951107523
 40
7.055382951107523
 40
14.11076590221503
 40
14.11076590221503
 40
14.11076590221503
 10
102.0000000000012
 20
1666.238538931459
 30
0.0
 41
1.0
 10
106.4915962883017
 20
1666.238538931459
 30
0.0
 41
0.7071067811864826
 10
106.4915962883012
 20
1670.730135219759
 30
0.0
 41
1.0
 10
106.4915962883018
 20
1675.22173150806
 30
0.0
 41
0.7071067811864648
 10
102.0000000000012
 20
1675.221731508059
 30
0.0
 41
1.0
  0
SPLINE
  5
BE
330
1F
100
AcDbEntity
  8
Linee visibili 2D
100
AcDbSpline
210
0.0
220
0.0
230
1.0
 70
    24
 71
     2
 72
     6
 73
     3
 74
     0
 42
0.0000000001
 43
0.0000000001
 40
0.0
 40
0.0
 40
0.0
 40
24.0
 40
24.0
 40
24.0
 10
102.0000000000012
 20
1675.221731508059
 30
0.0
 10
90.0000000000012
 20
1675.221731508059
 30
0.0
 10
78.0000000000012
 20
1675.221731508059
 30
0.0
  0
ENDSEC
  0
SECTION
  2
OBJECTS
  0
DICTIONARY
  5
C
330
0
100
AcDbDictionary
281
     1
  3
ACAD_GROUP
350
D
  3
ACAD_LAYOUT
350
1A
  3
ACAD_MLEADERSTYLE
350
C0
  3
ACAD_MLINESTYLE
350
17
  3
ACAD_PLOTSETTINGS
350
19
  3
ACAD_PLOTSTYLENAME
350
E
  3
ACAD_TABLESTYLE
350
BF
  3
ACAD_VISUALSTYLE
350
2A
  0
DICTIONARY
  5
D
102
{ACAD_REACTORS
330
C
102
}
330
C
100
AcDbDictionary
281
     1
  0
DICTIONARY
  5
1A
102
{ACAD_REACTORS
330
C
102
}
330
C
100
AcDbDictionary
281
     1
  3
Layout1
350
1E
  3
Layout2
350
26
  3
Model
350
22
  0
DICTIONARY
  5
C0
102
{ACAD_REACTORS
330
C
102
}
330
C
100
AcDbDictionary
281
     1
  0
DICTIONARY
  5
17
102
{ACAD_REACTORS
330
C
102
}
330
C
100
AcDbDictionary
281
     1
  3
Standard
350
18
  0
DICTIONARY
  5
19
102
{ACAD_REACTORS
330
C
102
}
330
C
100
AcDbDictionary
281
     1
  0
ACDBDICTIONARYWDFLT
  5
E
102
{ACAD_REACTORS
330
C
102
}
330
C
100
AcDbDictionary
281
     1
  3
Normal
350
F
100
AcDbDictionaryWithDefault
340
F
  0
DICTIONARY
  5
BF
102
{ACAD_REACTORS
330
C
102
}
330
C
100
AcDbDictionary
281
     1
  0
DICTIONARY
  5
2A
102
{ACAD_REACTORS
330
C
102
}
330
C
100
AcDbDictionary
281
     1
  3
2dWireframe
350
2F
  3
3D Hidden
350
31
  3
3dWireframe
350
30
  3
Basic
350
32
  3
Brighten
350
36
  3
ColorChange
350
3A
  3
Conceptual
350
34
  3
Dim
350
35
  3
Facepattern
350
39
  3
Flat
350
2B
  3
FlatWithEdges
350
2C
  3
Gouraud
350
2D
  3
GouraudWithEdges
350
2E
  3
Linepattern
350
38
  3
Realistic
350
33
  3
Thicken
350
37
  0
LAYOUT
  5
1E
102
{ACAD_REACTORS
330
1A
102
}
330
1A
100
AcDbPlotSettings
  1

  2
none_device
  4

  6

 40
0.0
 41
0.0
 42
0.0
 43
0.0
 44
0.0
 45
0.0
 46
0.0
 47
0.0
 48
0.0
 49
0.0
140
0.0
141
0.0
142
1.0
143
1.0
 70
   688
 72
     0
 73
     0
 74
     5
  7

 75
    16
 76
     0
 77
     2
 78
   300
147
1.0
148
0.0
149
0.0
100
AcDbLayout
  1
Layout1
 70
     1
 71
     1
 10
0.0
 20
0.0
 11
12.0
 21
9.0
 12
0.0
 22
0.0
 32
0.0
 14
1.000000000000000E+20
 24
1.000000000000000E+20
 34
1.000000000000000E+20
 15
-1.000000000000000E+20
 25
-1.000000000000000E+20
 35
-1.000000000000000E+20
146
0.0
 13
0.0
 23
0.0
 33
0.0
 16
1.0
 26
0.0
 36
0.0
 17
0.0
 27
1.0
 37
0.0
 76
     0
330
1B
  0
LAYOUT
  5
26
102
{ACAD_REACTORS
330
1A
102
}
330
1A
100
AcDbPlotSettings
  1

  2
none_device
  4

  6

 40
0.0
 41
0.0
 42
0.0
 43
0.0
 44
0.0
 45
0.0
 46
0.0
 47
0.0
 48
0.0
 49
0.0
140
0.0
141
0.0
142
1.0
143
1.0
 70
   688
 72
     0
 73
     0
 74
     5
  7

 75
    16
 76
     0
 77
     2
 78
   300
147
1.0
148
0.0
149
0.0
100
AcDbLayout
  1
Layout2
 70
     1
 71
     2
 10
0.0
 20
0.0
 11
0.0
 21
0.0
 12
0.0
 22
0.0
 32
0.0
 14
0.0
 24
0.0
 34
0.0
 15
0.0
 25
0.0
 35
0.0
146
0.0
 13
0.0
 23
0.0
 33
0.0
 16
1.0
 26
0.0
 36
0.0
 17
0.0
 27
1.0
 37
0.0
 76
     0
330
23
  0
LAYOUT
  5
22
102
{ACAD_REACTORS
330
1A
102
}
330
1A
100
AcDbPlotSettings
  1

  2
none_device
  4

  6

 40
0.0
 41
0.0
 42
0.0
 43
0.0
 44
0.0
 45
0.0
 46
0.0
 47
0.0
 48
0.0
 49
0.0
140
0.0
141
0.0
142
1.0
143
1.0
 70
  1712
 72
     0
 73
     0
 74
     0
  7

 75
     0
 76
     0
 77
     2
 78
   300
147
1.0
148
0.0
149
0.0
100
AcDbLayout
  1
Model
 70
     1
 71
     0
 10
0.0
 20
0.0
 11
12.0
 21
9.0
 12
0.0
 22
0.0
 32
0.0
 14
0.0
 24
0.0
 34
0.0
 15
464.1866374510806
 25
1922.246117974981
 35
0.0
146
0.0
 13
0.0
 23
0.0
 33
0.0
 16
1.0
 26
0.0
 36
0.0
 17
0.0
 27
1.0
 37
0.0
 76
     0
330
1F
331
29
  0
MLINESTYLE
  5
18
102
{ACAD_REACTORS
330
17
102
}
330
17
100
AcDbMlineStyle
  2
Standard
 70
     0
  3

 62
   256
 51
90.0
 52
90.0
 71
     2
 49
0.5
 62
   256
  6
BYLAYER
 49
-0.5
 62
   256
  6
BYLAYER
  0
ACDBPLACEHOLDER
  5
F
102
{ACAD_REACTORS
330
E
102
}
330
E
  0
VISUALSTYLE
  5
2F
102
{ACAD_REACTORS
330
2A
102
}
330
2A
100
AcDbVisualStyle
  2
2dWireframe
 70
     4
 71
     0
 72
     2
 73
     0
 90
        0
 40
-0.6
 41
-30.0
 62
     5
 63
     7
421
 16777215
 74
     1
 91
        4
 64
     7
 65
   257
 75
     1
175
     1
 42
1.0
 92
        0
 66
   257
 43
1.0
 76
     1
 77
     6
 78
     2
 67
     7
 79
     5
170
     0
171
     0
290
     0
174
     0
 93
        1
 44
0.0
173
     0
291
     0
 45
0.0
1001
ACAD
1000
AcDbSavedByObjectVersion
1070
     0
  0
VISUALSTYLE
  5
31
102
{ACAD_REACTORS
330
2A
102
}
330
2A
100
AcDbVisualStyle
  2
3D Hidden
 70
     6
 71
     1
 72
     2
 73
     2
 90
        0
 40
-0.6
 41
-30.0
 62
     5
 63
     7
421
 16777215
 74
     2
 91
        2
 64
     7
 65
   257
 75
     2
175
     1
 42
40.0
 92
        0
 66
   257
 43
1.0
 76
     1
 77
     6
 78
     2
 67
     7
 79
     3
170
     0
171
     0
290
     0
174
     0
 93
        1
 44
0.0
173
     0
291
     0
 45
0.0
1001
ACAD
1000
AcDbSavedByObjectVersion
1070
     0
  0
VISUALSTYLE
  5
30
102
{ACAD_REACTORS
330
2A
102
}
330
2A
100
AcDbVisualStyle
  2
3dWireframe
 70
     5
 71
     0
 72
     2
 73
     0
 90
        0
 40
-0.6
 41
-30.0
 62
     5
 63
     7
421
 16777215
 74
     1
 91
        4
 64
     7
 65
   257
 75
     1
175
     1
 42
1.0
 92
        0
 66
   257
 43
1.0
 76
     1
 77
     6
 78
     2
 67
     7
 79
     5
170
     0
171
     0
290
     0
174
     0
 93
        1
 44
0.0
173
     0
291
     0
 45
0.0
1001
ACAD
1000
AcDbSavedByObjectVersion
1070
     0
  0
VISUALSTYLE
  5
32
102
{ACAD_REACTORS
330
2A
102
}
330
2A
100
AcDbVisualStyle
  2
Basic
 70
     7
 71
     1
 72
     0
 73
     1
 90
        0
 40
-0.6
 41
-30.0
 62
     5
 63
     7
421
 16777215
 74
     0
 91
        4
 64
     7
 65
   257
 75
     1
175
     1
 42
1.0
 92
        8
 66
     7
 43
1.0
 76
     1
 77
     6
 78
     2
 67
     7
 79
     5
170
     0
171
     0
290
     0
174
     0
 93
        1
 44
0.0
173
     0
291
     1
 45
0.0
1001
ACAD
1000
AcDbSavedByObjectVersion
1070
     0
  0
VISUALSTYLE
  5
36
102
{ACAD_REACTORS
330
2A
102
}
330
2A
100
AcDbVisualStyle
  2
Brighten
 70
    12
 71
     2
 72
     2
 73
     0
 90
        0
 40
-0.6
 41
-30.0
 62
     5
 63
     7
421
 16777215
 74
     1
 91
        4
 64
     7
 65
   257
 75
     1
175
     1
 42
1.0
 92
        8
 66
     7
 43
1.0
 76
     1
 77
     6
 78
     2
 67
     7
 79
     5
170
     0
171
     0
290
     0
174
     0
 93
        1
 44
50.0
173
     0
291
     1
 45
0.0
1001
ACAD
1000
AcDbSavedByObjectVersion
1070
     0
  0
VISUALSTYLE
  5
3A
102
{ACAD_REACTORS
330
2A
102
}
330
2A
100
AcDbVisualStyle
  2
ColorChange
 70
    16
 71
     2
 72
     2
 73
     3
 90
        0
 40
-0.6
 41
-30.0
 62
     5
 63
     8
421
  8421504
 74
     1
 91
        4
 64
     7
 65
   257
 75
     1
175
     1
 42
1.0
 92
        8
 66
     8
424
  8421504
 43
1.0
 76
     1
 77
     6
 78
     2
 67
     7
 79
     5
170
     0
171
     0
290
     0
174
     0
 93
        1
 44
0.0
173
     0
291
     1
 45
0.0
1001
ACAD
1000
AcDbSavedByObjectVersion
1070
     0
  0
VISUALSTYLE
  5
34
102
{ACAD_REACTORS
330
2A
102
}
330
2A
100
AcDbVisualStyle
  2
Conceptual
 70
     9
 71
     3
 72
     2
 73
     0
 90
        0
 40
-0.6
 41
-30.0
 62
     5
 63
     7
421
 16777215
 74
     2
 91
        2
 64
     7
 65
   257
 75
     1
175
     1
 42
40.0
 92
        8
 66
     7
 43
1.0
 76
     1
 77
     6
 78
     2
 67
     7
 79
     3
170
     0
171
     0
290
     0
174
     0
 93
        1
 44
0.0
173
     0
291
     0
 45
0.0
1001
ACAD
1000
AcDbSavedByObjectVersion
1070
     0
  0
VISUALSTYLE
  5
35
102
{ACAD_REACTORS
330
2A
102
}
330
2A
100
AcDbVisualStyle
  2
Dim
 70
    11
 71
     2
 72
     2
 73
     0
 90
        0
 40
-0.6
 41
-30.0
 62
     5
 63
     7
421
 16777215
 74
     1
 91
        4
 64
     7
 65
   257
 75
     1
175
     1
 42
1.0
 92
        8
 66
     7
 43
1.0
 76
     1
 77
     6
 78
     2
 67
     7
 79
     5
170
     0
171
     0
290
     0
174
     0
 93
        1
 44
-50.0
173
     0
291
     1
 45
0.0
1001
ACAD
1000
AcDbSavedByObjectVersion
1070
     0
  0
VISUALSTYLE
  5
39
102
{ACAD_REACTORS
330
2A
102
}
330
2A
100
AcDbVisualStyle
  2
Facepattern
 70
    15
 71
     2
 72
     2
 73
     0
 90
        0
 40
-0.6
 41
-30.0
 62
     5
 63
     7
421
 16777215
 74
     1
 91
        4
 64
     7
 65
   257
 75
     1
175
     1
 42
1.0
 92
        8
 66
     7
 43
1.0
 76
     1
 77
     6
 78
     2
 67
     7
 79
     5
170
     0
171
     0
290
     0
174
     0
 93
        1
 44
0.0
173
     0
291
     1
 45
0.0
1001
ACAD
1000
AcDbSavedByObjectVersion
1070
     0
  0
VISUALSTYLE
  5
2B
102
{ACAD_REACTORS
330
2A
102
}
330
2A
100
AcDbVisualStyle
  2
Flat
 70
     0
 71
     2
 72
     1
 73
     1
 90
        2
 40
-0.6
 41
30.0
 62
     5
 63
     7
421
 16777215
 74
     0
 91
        4
 64
     7
 65
   257
 75
     1
175
     1
 42
1.0
 92
        8
 66
     7
 43
1.0
 76
     1
 77
     6
 78
     2
 67
     7
 79
     5
170
     0
171
     0
290
     0
174
     0
 93
       13
 44
0.0
173
     0
291
     1
 45
0.0
1001
ACAD
1000
AcDbSavedByObjectVersion
1070
     0
  0
VISUALSTYLE
  5
2C
102
{ACAD_REACTORS
330
2A
102
}
330
2A
100
AcDbVisualStyle
  2
FlatWithEdges
 70
     1
 71
     2
 72
     1
 73
     1
 90
        2
 40
-0.6
 41
30.0
 62
     5
 63
     7
421
 16777215
 74
     1
 91
        4
 64
     7
 65
   257
 75
     1
175
     1
 42
1.0
 92
        0
 66
   257
 43
1.0
 76
     1
 77
     6
 78
     2
 67
     7
 79
     5
170
     0
171
     0
290
     0
174
     0
 93
       13
 44
0.0
173
     0
291
     1
 45
0.0
1001
ACAD
1000
AcDbSavedByObjectVersion
1070
     0
  0
VISUALSTYLE
  5
2D
102
{ACAD_REACTORS
330
2A
102
}
330
2A
100
AcDbVisualStyle
  2
Gouraud
 70
     2
 71
     2
 72
     2
 73
     1
 90
        2
 40
-0.6
 41
30.0
 62
     5
 63
     7
421
 16777215
 74
     0
 91
        4
 64
     7
 65
   257
 75
     1
175
     1
 42
1.0
 92
        0
 66
     7
 43
1.0
 76
     1
 77
     6
 78
     2
 67
     7
 79
     5
170
     0
171
     0
290
     0
174
     0
 93
       13
 44
0.0
173
     0
291
     1
 45
0.0
1001
ACAD
1000
AcDbSavedByObjectVersion
1070
     0
  0
VISUALSTYLE
  5
2E
102
{ACAD_REACTORS
330
2A
102
}
330
2A
100
AcDbVisualStyle
  2
GouraudWithEdges
 70
     3
 71
     2
 72
     2
 73
     1
 90
        2
 40
-0.6
 41
30.0
 62
     5
 63
     7
421
 16777215
 74
     1
 91
        4
 64
     7
 65
   257
 75
     1
175
     1
 42
1.0
 92
        0
 66
   257
 43
1.0
 76
     1
 77
     6
 78
     2
 67
     7
 79
     5
170
     0
171
     0
290
     0
174
     0
 93
       13
 44
0.0
173
     0
291
     1
 45
0.0
1001
ACAD
1000
AcDbSavedByObjectVersion
1070
     0
  0
VISUALSTYLE
  5
38
102
{ACAD_REACTORS
330
2A
102
}
330
2A
100
AcDbVisualStyle
  2
Linepattern
 70
    14
 71
     2
 72
     2
 73
     0
 90
        0
 40
-0.6
 41
-30.0
 62
     5
 63
     7
421
 16777215
 74
     1
 91
        4
 64
     7
 65
   257
 75
     7
175
     7
 42
1.0
 92
        8
 66
     7
 43
1.0
 76
     1
 77
     6
 78
     2
 67
     7
 79
     5
170
     0
171
     0
290
     0
174
     0
 93
        1
 44
0.0
173
     0
291
     1
 45
0.0
1001
ACAD
1000
AcDbSavedByObjectVersion
1070
     0
  0
VISUALSTYLE
  5
33
102
{ACAD_REACTORS
330
2A
102
}
330
2A
100
AcDbVisualStyle
  2
Realistic
 70
     8
 71
     2
 72
     2
 73
     0
 90
        0
 40
-0.6
 41
-30.0
 62
     5
 63
     7
421
 16777215
 74
     1
 91
        0
 64
     7
 65
   257
 75
     1
175
     1
 42
1.0
 92
        8
 66
     8
424
  7895160
 43
1.0
 76
     1
 77
     6
 78
     2
 67
     7
 79
     5
170
     0
171
     0
290
     0
174
     0
 93
       13
 44
0.0
173
     0
291
     0
 45
0.0
1001
ACAD
1000
AcDbSavedByObjectVersion
1070
     0
  0
VISUALSTYLE
  5
37
102
{ACAD_REACTORS
330
2A
102
}
330
2A
100
AcDbVisualStyle
  2
Thicken
 70
    13
 71
     2
 72
     2
 73
     0
 90
        0
 40
-0.6
 41
-30.0
 62
     5
 63
     7
421
 16777215
 74
     1
 91
        4
 64
     7
 65
   257
 75
     1
175
     1
 42
1.0
 92
       12
 66
     7
 43
1.0
 76
     1
 77
     6
 78
     2
 67
     7
 79
     5
170
     0
171
     0
290
     0
174
     0
 93
        1
 44
0.0
173
     0
291
     1
 45
0.0
1001
ACAD
1000
AcDbSavedByObjectVersion
1070
     0
  0
ENDSEC
  0
EOF
