  0
SECTION
  2
HEADER
  9
$ACADVER
  1
AC1018
  9
$ACADMAINTVER
 70
     0
  9
$DWGCODEPAGE
  3
ANSI_1252
  9
$INSBASE
 10
0.0
 20
0.0
 30
0.0
  9
$EXTMIN
 10
-0.0000000000000025
 20
0.0
 30
0.0
  9
$EXTMAX
 10
471.2461179749824
 20
1122.246117974981
 30
0.0
  9
$LIMMIN
 10
0.0
 20
0.0
  9
$LIMMAX
 10
12.0
 20
9.0
  9
$ORTHOMODE
 70
     0
  9
$REGENMODE
 70
     1
  9
$FILLMODE
 70
     1
  9
$QTEXTMODE
 70
     0
  9
$MIRRTEXT
 70
     1
  9
$LTSCALE
 40
1.0
  9
$ATTMODE
 70
     1
  9
$TEXTSIZE
 40
0.2
  9
$TRACEWID
 40
0.05
  9
$TEXTSTYLE
  7
Standard
  9
$CLAYER
  8
Predefinito
  9
$CELTYPE
  6
ByLayer
  9
$CECOLOR
 62
   256
  9
$CELTSCALE
 40
1.0
  9
$DISPSILH
 70
     0
  9
$DIMSCALE
 40
1.0
  9
$DIMASZ
 40
0.18
  9
$DIMEXO
 40
0.0625
  9
$DIMDLI
 40
0.38
  9
$DIMRND
 40
0.0
  9
$DIMDLE
 40
0.0
  9
$DIMEXE
 40
0.18
  9
$DIMTP
 40
0.0
  9
$DIMTM
 40
0.0
  9
$DIMTXT
 40
0.18
  9
$DIMCEN
 40
0.09
  9
$DIMTSZ
 40
0.0
  9
$DIMTOL
 70
     0
  9
$DIMLIM
 70
     0
  9
$DIMTIH
 70
     1
  9
$DIMTOH
 70
     1
  9
$DIMSE1
 70
     0
  9
$DIMSE2
 70
     0
  9
$DIMTAD
 70
     0
  9
$DIMZIN
 70
     0
  9
$DIMBLK
  1

  9
$DIMASO
 70
     1
  9
$DIMSHO
 70
     1
  9
$DIMPOST
  1

  9
$DIMAPOST
  1

  9
$DIMALT
 70
     0
  9
$DIMALTD
 70
     2
  9
$DIMALTF
 40
25.4
  9
$DIMLFAC
 40
1.0
  9
$DIMTOFL
 70
     0
  9
$DIMTVP
 40
0.0
  9
$DIMTIX
 70
     0
  9
$DIMSOXD
 70
     0
  9
$DIMSAH
 70
     0
  9
$DIMBLK1
  1

  9
$DIMBLK2
  1

  9
$DIMSTYLE
  2
Standard
  9
$DIMCLRD
 70
     0
  9
$DIMCLRE
 70
     0
  9
$DIMCLRT
 70
     0
  9
$DIMTFAC
 40
1.0
  9
$DIMGAP
 40
0.09
  9
$DIMJUST
 70
     0
  9
$DIMSD1
 70
     0
  9
$DIMSD2
 70
     0
  9
$DIMTOLJ
 70
     1
  9
$DIMTZIN
 70
     0
  9
$DIMALTZ
 70
     0
  9
$DIMALTTZ
 70
     0
  9
$DIMUPT
 70
     0
  9
$DIMDEC
 70
     4
  9
$DIMTDEC
 70
     4
  9
$DIMALTU
 70
     2
  9
$DIMALTTD
 70
     2
  9
$DIMTXSTY
  7
Standard
  9
$DIMAUNIT
 70
     0
  9
$DIMADEC
 70
     0
  9
$DIMALTRND
 40
0.0
  9
$DIMAZIN
 70
     0
  9
$DIMDSEP
 70
    46
  9
$DIMATFIT
 70
     3
  9
$DIMFRAC
 70
     0
  9
$DIMLDRBLK
  1

  9
$DIMLUNIT
 70
     2
  9
$DIMLWD
 70
    -2
  9
$DIMLWE
 70
    -2
  9
$DIMTMOVE
 70
     2
  9
$LUNITS
 70
     2
  9
$LUPREC
 70
     3
  9
$SKETCHINC
 40
0.1
  9
$FILLETRAD
 40
0.5
  9
$AUNITS
 70
     0
  9
$AUPREC
 70
     0
  9
$MENU
  1
.
  9
$ELEVATION
 40
0.0
  9
$PELEVATION
 40
0.0
  9
$THICKNESS
 40
0.0
  9
$LIMCHECK
 70
     0
  9
$CHAMFERA
 40
0.5
  9
$CHAMFERB
 40
0.5
  9
$CHAMFERC
 40
1.0
  9
$CHAMFERD
 40
0.0
  9
$SKPOLY
 70
     0
  9
$TDCREATE
 40
2455883.615034583
  9
$TDUCREATE
 40
2455883.573367917
  9
$TDUPDATE
 40
2455883.615034595
  9
$TDUUPDATE
 40
2455883.573367928
  9
$TDINDWG
 40
0.0000000116
  9
$TDUSRTIMER
 40
0.0000000116
  9
$USRTIMER
 70
     1
  9
$ANGBASE
 50
0.0
  9
$ANGDIR
 70
     0
  9
$PDMODE
 70
     0
  9
$PDSIZE
 40
0.0
  9
$PLINEWID
 40
0.0
  9
$SPLFRAME
 70
     0
  9
$SPLINETYPE
 70
     6
  9
$SPLINESEGS
 70
     8
  9
$HANDSEED
  5
BD
  9
$SURFTAB1
 70
     6
  9
$SURFTAB2
 70
     6
  9
$SURFTYPE
 70
     6
  9
$SURFU
 70
     6
  9
$SURFV
 70
     6
  9
$UCSBASE
  2

  9
$UCSNAME
  2

  9
$UCSORG
 10
0.0
 20
0.0
 30
0.0
  9
$UCSXDIR
 10
1.0
 20
0.0
 30
0.0
  9
$UCSYDIR
 10
0.0
 20
1.0
 30
0.0
  9
$UCSORTHOREF
  2

  9
$UCSORTHOVIEW
 70
     0
  9
$UCSORGTOP
 10
0.0
 20
0.0
 30
0.0
  9
$UCSORGBOTTOM
 10
0.0
 20
0.0
 30
0.0
  9
$UCSORGLEFT
 10
0.0
 20
0.0
 30
0.0
  9
$UCSORGRIGHT
 10
0.0
 20
0.0
 30
0.0
  9
$UCSORGFRONT
 10
0.0
 20
0.0
 30
0.0
  9
$UCSORGBACK
 10
0.0
 20
0.0
 30
0.0
  9
$PUCSBASE
  2

  9
$PUCSNAME
  2

  9
$PUCSORG
 10
0.0
 20
0.0
 30
0.0
  9
$PUCSXDIR
 10
1.0
 20
0.0
 30
0.0
  9
$PUCSYDIR
 10
0.0
 20
1.0
 30
0.0
  9
$PUCSORTHOREF
  2

  9
$PUCSORTHOVIEW
 70
     0
  9
$PUCSORGTOP
 10
0.0
 20
0.0
 30
0.0
  9
$PUCSORGBOTTOM
 10
0.0
 20
0.0
 30
0.0
  9
$PUCSORGLEFT
 10
0.0
 20
0.0
 30
0.0
  9
$PUCSORGRIGHT
 10
0.0
 20
0.0
 30
0.0
  9
$PUCSORGFRONT
 10
0.0
 20
0.0
 30
0.0
  9
$PUCSORGBACK
 10
0.0
 20
0.0
 30
0.0
  9
$USERI1
 70
     0
  9
$USERI2
 70
     0
  9
$USERI3
 70
     0
  9
$USERI4
 70
     0
  9
$USERI5
 70
     0
  9
$USERR1
 40
0.0
  9
$USERR2
 40
0.0
  9
$USERR3
 40
0.0
  9
$USERR4
 40
0.0
  9
$USERR5
 40
0.0
  9
$WORLDVIEW
 70
     1
  9
$SHADEDGE
 70
     3
  9
$SHADEDIF
 70
    70
  9
$TILEMODE
 70
     1
  9
$MAXACTVP
 70
    64
  9
$PINSBASE
 10
0.0
 20
0.0
 30
0.0
  9
$PLIMCHECK
 70
     0
  9
$PEXTMIN
 10
1.000000000000000E+20
 20
1.000000000000000E+20
 30
1.000000000000000E+20
  9
$PEXTMAX
 10
-1.000000000000000E+20
 20
-1.000000000000000E+20
 30
-1.000000000000000E+20
  9
$PLIMMIN
 10
0.0
 20
0.0
  9
$PLIMMAX
 10
12.0
 20
9.0
  9
$UNITMODE
 70
     0
  9
$VISRETAIN
 70
     1
  9
$PLINEGEN
 70
     0
  9
$PSLTSCALE
 70
     1
  9
$TREEDEPTH
 70
  3020
  9
$CMLSTYLE
  2
Standard
  9
$CMLJUST
 70
     0
  9
$CMLSCALE
 40
1.0
  9
$PROXYGRAPHICS
 70
     1
  9
$MEASUREMENT
 70
     0
  9
$CELWEIGHT
370
    -1
  9
$ENDCAPS
280
     0
  9
$JOINSTYLE
280
     0
  9
$LWDISPLAY
290
     0
  9
$INSUNITS
 70
     4
  9
$HYPERLINKBASE
  1

  9
$STYLESHEET
  1

  9
$XEDIT
290
     1
  9
$CEPSNTYPE
380
     0
  9
$PSTYLEMODE
290
     1
  9
$FINGERPRINTGUID
  2
{4F43BB0A-714E-4CCB-89D3-AEC328C464AD}
  9
$VERSIONGUID
  2
{FAEB1C32-E019-11D5-929B-00C0DF256EC4}
  9
$EXTNAMES
290
     1
  9
$PSVPSCALE
 40
0.0
  9
$OLESTARTUP
290
     0
  9
$SORTENTS
280
   127
  9
$INDEXCTL
280
     0
  9
$HIDETEXT
280
     1
  9
$XCLIPFRAME
290
     0
  9
$HALOGAP
280
     0
  9
$OBSCOLOR
 70
   257
  9
$OBSLTYPE
280
     0
  9
$INTERSECTIONDISPLAY
280
     0
  9
$INTERSECTIONCOLOR
 70
   257
  9
$DIMASSOC
280
     2
  9
$PROJECTNAME
  1

  0
ENDSEC
  0
SECTION
  2
CLASSES
  0
CLASS
  1
ACDBDICTIONARYWDFLT
  2
AcDbDictionaryWithDefault
  3
ObjectDBX Classes
 90
        0
 91
        4
280
     0
281
     0
  0
CLASS
  1
VISUALSTYLE
  2
AcDbVisualStyle
  3
ObjectDBX Classes
 90
     4095
 91
        4
280
     0
281
     0
  0
ENDSEC
  0
SECTION
  2
TABLES
  0
TABLE
  2
VPORT
  5
8
330
0
100
AcDbSymbolTable
 70
     1
  0
VPORT
  5
29
330
8
100
AcDbSymbolTableRecord
100
AcDbViewportTableRecord
  2
*Active
 70
     0
 10
0.0
 20
0.0
 11
1.0
 21
1.0
 12
235.6230589874912
 22
561.1230589874907
 13
0.0
 23
0.0
 14
0.5
 24
0.5
 15
0.5
 25
0.5
 16
0.0
 26
0.0
 36
1.0
 17
0.0
 27
0.0
 37
0.0
 40
1144.691040334481
 41
0.4199133420263593
 42
50.0
 43
0.0
 44
0.0
 50
0.0
 51
0.0
 71
     0
 72
   100
 73
     1
 74
     3
 75
     0
 76
     0
 77
     0
 78
     0
281
     0
 65
     1
110
0.0
120
0.0
130
0.0
111
1.0
121
0.0
131
0.0
112
0.0
122
1.0
132
0.0
 79
     0
146
0.0
  0
ENDTAB
  0
TABLE
  2
LTYPE
  5
5
330
0
100
AcDbSymbolTable
 70
     1
  0
LTYPE
  5
14
330
5
100
AcDbSymbolTableRecord
100
AcDbLinetypeTableRecord
  2
ByBlock
 70
     0
  3

 72
    65
 73
     0
 40
0.0
  0
LTYPE
  5
15
330
5
100
AcDbSymbolTableRecord
100
AcDbLinetypeTableRecord
  2
ByLayer
 70
     0
  3

 72
    65
 73
     0
 40
0.0
  0
LTYPE
  5
16
330
5
100
AcDbSymbolTableRecord
100
AcDbLinetypeTableRecord
  2
Continuous
 70
     0
  3
Solid line
 72
    65
 73
     0
 40
0.0
  0
ENDTAB
  0
TABLE
  2
LAYER
  5
2
330
0
100
AcDbSymbolTable
 70
     3
  0
LAYER
  5
10
330
2
100
AcDbSymbolTableRecord
100
AcDbLayerTableRecord
  2
0
 70
     0
 62
     7
  6
Continuous
370
    -3
390
F
  0
LAYER
  5
3B
330
2
100
AcDbSymbolTableRecord
100
AcDbLayerTableRecord
  2
Linee visibili 2D
 70
     0
 62
     7
  6
Continuous
370
    -3
390
F
  0
LAYER
  5
59
330
2
100
AcDbSymbolTableRecord
100
AcDbLayerTableRecord
  2
Predefinito
 70
     0
 62
     7
  6
Continuous
370
    -3
390
F
  0
ENDTAB
  0
TABLE
  2
STYLE
  5
3
330
0
100
AcDbSymbolTable
 70
     1
  0
STYLE
  5
11
330
3
100
AcDbSymbolTableRecord
100
AcDbTextStyleTableRecord
  2
Standard
 70
     0
 40
0.0
 41
1.0
 50
0.0
 71
     0
 42
0.2
  3
txt
  4

  0
ENDTAB
  0
TABLE
  2
VIEW
  5
6
330
0
100
AcDbSymbolTable
 70
     0
  0
ENDTAB
  0
TABLE
  2
UCS
  5
7
330
0
100
AcDbSymbolTable
 70
     0
  0
ENDTAB
  0
TABLE
  2
APPID
  5
9
330
0
100
AcDbSymbolTable
 70
     1
  0
APPID
  5
12
330
9
100
AcDbSymbolTableRecord
100
AcDbRegAppTableRecord
  2
ACAD
 70
     0
  0
ENDTAB
  0
TABLE
  2
DIMSTYLE
  5
A
330
0
100
AcDbSymbolTable
 70
     1
100
AcDbDimStyleTable
  0
DIMSTYLE
105
27
330
A
100
AcDbSymbolTableRecord
100
AcDbDimStyleTableRecord
  2
Standard
 70
     0
340
11
  0
ENDTAB
  0
TABLE
  2
BLOCK_RECORD
  5
1
330
0
100
AcDbSymbolTable
 70
     1
  0
BLOCK_RECORD
  5
1F
330
1
100
AcDbSymbolTableRecord
100
AcDbBlockTableRecord
  2
*Model_Space
340
22
  0
BLOCK_RECORD
  5
1B
330
1
100
AcDbSymbolTableRecord
100
AcDbBlockTableRecord
  2
*Paper_Space
340
1E
  0
BLOCK_RECORD
  5
23
330
1
100
AcDbSymbolTableRecord
100
AcDbBlockTableRecord
  2
*Paper_Space0
340
26
  0
ENDTAB
  0
ENDSEC
  0
SECTION
  2
BLOCKS
  0
BLOCK
  5
20
330
1F
100
AcDbEntity
  8
0
100
AcDbBlockBegin
  2
*Model_Space
 70
     0
 10
0.0
 20
0.0
 30
0.0
  3
*Model_Space
  1

  0
ENDBLK
  5
21
330
1F
100
AcDbEntity
  8
0
100
AcDbBlockEnd
  0
BLOCK
  5
1C
330
1B
100
AcDbEntity
 67
     1
  8
0
100
AcDbBlockBegin
  2
*Paper_Space
 70
     0
 10
0.0
 20
0.0
 30
0.0
  3
*Paper_Space
  1

  0
ENDBLK
  5
1D
330
1B
100
AcDbEntity
 67
     1
  8
0
100
AcDbBlockEnd
  0
BLOCK
  5
24
330
23
100
AcDbEntity
  8
0
100
AcDbBlockBegin
  2
*Paper_Space0
 70
     0
 10
0.0
 20
0.0
 30
0.0
  3
*Paper_Space0
  1

  0
ENDBLK
  5
25
330
23
100
AcDbEntity
  8
0
100
AcDbBlockEnd
  0
ENDSEC
  0
SECTION
  2
ENTITIES
  0
SPLINE
  5
3C
330
1F
100
AcDbEntity
  8
Linee visibili 2D
100
AcDbSpline
210
0.0
220
0.0
230
1.0
 70
    24
 71
     2
 72
     6
 73
     3
 74
     0
 42
0.0000000001
 43
0.0000000001
 40
0.0
 40
0.0
 40
0.0
 40
39.52635196735331
 40
39.52635196735331
 40
39.52635196735331
 10
142.0985349402829
 20
41.01358019627471
 30
0.0
 10
161.0471589796407
 20
35.39817531533819
 30
0.0
 10
179.9957830189985
 20
29.78277043440168
 30
0.0
  0
SPLINE
  5
3D
330
1F
100
AcDbEntity
  8
Linee visibili 2D
100
AcDbSpline
210
0.0
220
0.0
230
1.0
 70
    24
 71
     2
 72
     6
 73
     3
 74
     0
 42
0.0000000001
 43
0.0000000001
 40
0.0
 40
0.0
 40
0.0
 40
76.52267238984531
 40
76.52267238984531
 40
76.52267238984531
 10
-0.0000000000000025
 20
30.24531645229985
 30
0.0
 10
35.92685635802899
 20
17.08511737894043
 30
0.0
 10
71.85371271605798
 20
3.924918305581022
 30
0.0
  0
SPLINE
  5
3E
330
1F
100
AcDbEntity
  8
Linee visibili 2D
100
AcDbSpline
210
0.0
220
0.0
230
1.0
 70
    12
 71
     2
 72
     6
 73
     3
 74
     0
 42
0.0000000001
 43
0.0000000001
 40
0.0
 40
0.0
 40
0.0
 40
2.37811280201945
 40
2.37811280201945
 40
2.37811280201945
 10
46.41908497824961
 20
270.0622583785906
 30
0.0
 41
1.0
 10
45.53082033797687
 20
270.8528990400022
 30
0.0
 41
0.999855951828611
 10
44.66990236183099
 20
271.6732324874401
 30
0.0
 41
1.0
  0
SPLINE
  5
3F
330
1F
100
AcDbEntity
  8
Linee visibili 2D
100
AcDbSpline
210
0.0
220
0.0
230
1.0
 70
    12
 71
     2
 72
     6
 73
     3
 74
     0
 42
0.0000000001
 43
0.0000000001
 40
0.0
 40
0.0
 40
0.0
 40
2.025921772200725
 40
2.025921772200725
 40
2.025921772200725
 10
44.08096432527872
 20
272.2405571388297
 30
0.0
 41
1.0
 10
43.35539056765526
 20
272.9474917615116
 30
0.0
 41
0.9999093156078271
 10
42.64911886616136
 20
273.6737108208645
 30
0.0
 41
1.0
  0
SPLINE
  5
40
330
1F
100
AcDbEntity
  8
Linee visibili 2D
100
AcDbSpline
210
0.0
220
0.0
230
1.0
 70
    24
 71
     2
 72
     6
 73
     3
 74
     0
 42
0.0000000001
 43
0.0000000001
 40
0.0
 40
0.0
 40
0.0
 40
0.2871331753580652
 40
0.2871331753580652
 40
0.2871331753580652
 10
108.9569971231722
 20
403.3620351331597
 30
0.0
 10
109.1002426019188
 20
403.3524383672216
 30
0.0
 10
109.2434880806653
 20
403.3428416012835
 30
0.0
  0
SPLINE
  5
41
330
1F
100
AcDbEntity
  8
Linee visibili 2D
100
AcDbSpline
210
0.0
220
0.0
230
1.0
 70
    24
 71
     2
 72
     6
 73
     3
 74
     0
 42
0.0000000001
 43
0.0000000001
 40
0.0
 40
0.0
 40
0.0
 40
0.2743751214151531
 40
0.2743751214151531
 40
0.2743751214151531
 10
110.6980863589927
 20
198.8928269495955
 30
0.0
 10
110.5613038875701
 20
198.8822921347217
 30
0.0
 10
110.4245214161475
 20
198.8717573198479
 30
0.0
  0
SPLINE
  5
42
330
1F
100
AcDbEntity
  8
Linee visibili 2D
100
AcDbSpline
210
0.0
220
0.0
230
1.0
 70
    12
 71
     2
 72
     6
 73
     3
 74
     0
 42
0.0000000001
 43
0.0000000001
 40
0.0
 40
0.0
 40
0.0
 40
0.5155065743755234
 40
0.5155065743755234
 40
0.5155065743755234
 10
404.8696498881455
 20
875.7116568786864
 30
0.0
 41
1.0
 10
404.8696498881455
 20
875.4271665000394
 30
0.0
 41
0.8648086810164228
 10
404.6225860618115
 20
875.2861195530329
 30
0.0
 41
1.0
  0
SPLINE
  5
43
330
1F
100
AcDbEntity
  8
Linee visibili 2D
100
AcDbSpline
210
0.0
220
0.0
230
1.0
 70
     8
 71
     3
 72
    12
 73
     8
 74
     0
 42
0.0000000001
 43
0.0000000001
 40
0.0
 40
0.0
 40
0.0
 40
0.0
 40
12.75372966723457
 40
26.15965319644268
 40
53.65404832290065
 40
81.2370887128281
 40
107.2149443482974
 40
107.2149443482974
 40
107.2149443482974
 40
107.2149443482974
 10
38.11765861923327
 20
998.6146176047542
 30
0.0
 10
40.10218114908329
 20
1002.380952791157
 30
0.0
 10
45.35254642119118
 20
1009.440227194852
 30
0.0
 10
59.83976562921385
 20
1020.284896478692
 30
0.0
 10
82.60063370530226
 20
1026.100671027538
 30
0.0
 10
109.7419569612843
 20
1020.044577028742
 30
0.0
 10
123.593723615897
 20
1007.771517058828
 30
0.0
 10
127.9685680848328
 20
1000.259317984297
 30
0.0
  0
SPLINE
  5
44
330
1F
100
AcDbEntity
  8
Linee visibili 2D
100
AcDbSpline
210
0.0
220
0.0
230
1.0
 70
    12
 71
     2
 72
     6
 73
     3
 74
     0
 42
0.0000000001
 43
0.0000000001
 40
0.0
 40
0.0
 40
0.0
 40
0.7772499883037406
 40
0.7772499883037406
 40
0.7772499883037406
 10
161.8877205790439
 20
1117.637009511933
 30
0.0
 41
1.0
 10
162.2624955503287
 20
1117.475159698163
 30
0.0
 41
0.9294962728649245
 10
162.4243310999844
 20
1117.10037856712
 30
0.0
 41
1.0
  0
SPLINE
  5
45
330
1F
100
AcDbEntity
  8
Linee visibili 2D
100
AcDbSpline
210
0.0
220
0.0
230
1.0
 70
    12
 71
     2
 72
     6
 73
     3
 74
     0
 42
0.0000000001
 43
0.0000000001
 40
0.0
 40
0.0
 40
0.0
 40
0.7772499883033902
 40
0.7772499883033902
 40
0.7772499883033902
 10
4.575668900017989
 20
1117.10037856712
 30
0.0
 41
1.0
 10
4.737504449673429
 20
1117.475159698163
 30
0.0
 41
0.9294962728650337
 10
5.112279420957763
 20
1117.637009511933
 30
0.0
 41
1.0
  0
SPLINE
  5
46
330
1F
100
AcDbEntity
  8
Linee visibili 2D
100
AcDbSpline
210
0.0
220
0.0
230
1.0
 70
    12
 71
     2
 72
     6
 73
     3
 74
     0
 42
0.0000000001
 43
0.0000000001
 40
0.0
 40
0.0
 40
0.0
 40
0.7772499882967715
 40
0.7772499882967715
 40
0.7772499882967715
 10
162.4243310999851
 20
861.3424381368143
 30
0.0
 41
1.0
 10
162.2624955503269
 20
860.9676570057757
 30
0.0
 41
0.9294962728646188
 10
161.8877205790434
 20
860.805807192012
 30
0.0
 41
1.0
  0
SPLINE
  5
47
330
1F
100
AcDbEntity
  8
Linee visibili 2D
100
AcDbSpline
210
0.0
220
0.0
230
1.0
 70
    12
 71
     2
 72
     6
 73
     3
 74
     0
 42
0.0000000001
 43
0.0000000001
 40
0.0
 40
0.0
 40
0.0
 40
0.7772499882953231
 40
0.7772499882953231
 40
0.7772499882953231
 10
5.11227942095793
 20
860.805807192012
 30
0.0
 41
1.0
 10
4.737504449675447
 20
860.9676570057759
 30
0.0
 41
0.9294962728646172
 10
4.575668900018027
 20
861.342438136814
 30
0.0
 41
1.0
  0
SPLINE
  5
48
330
1F
100
AcDbEntity
  8
Linee visibili 2D
100
AcDbSpline
210
0.0
220
0.0
230
1.0
 70
    12
 71
     2
 72
     6
 73
     3
 74
     0
 42
0.0000000001
 43
0.0000000001
 40
0.0
 40
0.0
 40
0.0
 40
0.146214673894224
 40
0.146214673894224
 40
0.146214673894224
 10
65.68543074890401
 20
260.9296029439301
 30
0.0
 41
1.0
 10
65.75810603965074
 20
260.9216626666231
 30
0.0
 41
0.9999911352167745
 10
65.83202935596984
 20
260.9227514766714
 30
0.0
 41
1.0
  0
SPLINE
  5
49
330
1F
100
AcDbEntity
  8
Linee visibili 2D
100
AcDbSpline
210
0.0
220
0.0
230
1.0
 70
    12
 71
     2
 72
     6
 73
     3
 74
     0
 42
0.0000000001
 43
0.0000000001
 40
0.0
 40
0.0
 40
0.0
 40
2.070076323284249
 40
2.070076323284249
 40
2.070076323284249
 10
65.83202935596984
 20
260.9227514766714
 30
0.0
 41
1.0
 10
66.87032966286971
 20
260.9153060312774
 30
0.0
 41
0.9967752716271463
 10
67.89674337266891
 20
261.0647655460169
 30
0.0
 41
0.9999997989802144
  0
SPLINE
  5
4A
330
1F
100
AcDbEntity
  8
Linee visibili 2D
100
AcDbSpline
210
0.0
220
0.0
230
1.0
 70
    12
 71
     2
 72
     6
 73
     3
 74
     0
 42
0.0000000001
 43
0.0000000001
 40
0.0
 40
0.0
 40
0.0
 40
0.3574204528607052
 40
0.3574204528607052
 40
0.3574204528607052
 10
67.8967433726689
 20
261.0647655460169
 30
0.0
 41
0.9999999609125717
 10
68.07378903196732
 20
261.0889917380412
 30
0.0
 41
0.9998846144254674
 10
68.24953625759818
 20
261.1216088895812
 30
0.0
 41
1.0
  0
SPLINE
  5
4B
330
1F
100
AcDbEntity
  8
Linee visibili 2D
100
AcDbSpline
210
0.0
220
0.0
230
1.0
 70
     8
 71
     3
 72
    12
 73
     8
 74
     0
 42
0.0000000001
 43
0.0000000001
 40
0.0
 40
0.0
 40
0.0
 40
0.0
 40
3.201877320490099
 40
6.260839471490968
 40
13.05245944699009
 40
21.69413522582731
 40
32.48923926227183
 40
32.48923926227183
 40
32.48923926227183
 40
32.48923926227183
 10
68.24953625759818
 20
261.1216088895812
 30
0.0
 10
69.306345108862
 20
261.3232510322552
 30
0.0
 10
71.28906463704743
 20
261.967137514167
 30
0.0
 10
74.77185949870604
 20
264.8043595308885
 30
0.0
 10
76.96714064779732
 20
270.790564647249
 30
0.0
 10
76.44062188022319
 20
279.6103906923891
 30
0.0
 10
74.55383243854206
 20
285.8349380273105
 30
0.0
 10
73.19638367974737
 20
289.1721044496768
 30
0.0
  0
SPLINE
  5
4C
330
1F
100
AcDbEntity
  8
Linee visibili 2D
100
AcDbSpline
210
0.0
220
0.0
230
1.0
 70
     8
 71
     3
 72
    14
 73
    10
 74
     0
 42
0.0000000001
 43
0.0000000001
 40
0.0
 40
0.0
 40
0.0
 40
0.0
 40
11.32045792307975
 40
22.9369527290078
 40
44.83183010538133
 40
53.56543017864806
 40
60.46057016578937
 40
66.18808325197138
 40
72.28618433275695
 40
72.28618433275695
 40
72.28618433275695
 40
72.28618433275695
 10
73.19638367974737
 20
289.1721044496768
 30
0.0
 10
71.77944857819007
 20
292.6540840960236
 30
0.0
 10
68.30424621894758
 20
299.5393441568344
 30
0.0
 10
59.6308151571825
 20
311.6624624153795
 30
0.0
 10
49.28270316101255
 20
321.5573254325545
 30
0.0
 10
37.94899760794052
 20
327.0418151321241
 30
0.0
 10
30.72280139974775
 20
328.0219740818638
 30
0.0
 10
24.73873683172366
 20
325.3863169504968
 30
0.0
 10
22.90214112983653
 20
321.5749048976625
 30
0.0
 10
22.39178548031338
 20
319.6571882103629
 30
0.0
  0
SPLINE
  5
4D
330
1F
100
AcDbEntity
  8
Linee visibili 2D
100
AcDbSpline
210
0.0
220
0.0
230
1.0
 70
     8
 71
     3
 72
    11
 73
     7
 74
     0
 42
0.0000000001
 43
0.0000000001
 40
-22.26673654340082
 40
-22.26673654340082
 40
-22.26673654340082
 40
-22.26673654340082
 40
-12.44478040827992
 40
-6.364574932970853
 40
-3.410516255769661
 40
0.0
 40
0.0
 40
0.0
 40
0.0
 10
22.39178548031338
 20
319.6571882103629
 30
0.0
 10
21.57182104440989
 20
316.4695817924054
 30
0.0
 10
21.72352221701469
 20
311.080667088951
 30
0.0
 10
23.17131276529938
 20
304.9719773415931
 30
0.0
 10
24.49537431197707
 20
301.0276551862474
 30
0.0
 10
25.27241472617525
 20
299.060404322943
 30
0.0
 10
25.72131873178026
 20
298.0130381951138
 30
0.0
  0
SPLINE
  5
4E
330
1F
100
AcDbEntity
  8
Linee visibili 2D
100
AcDbSpline
210
0.0
220
0.0
230
1.0
 70
     8
 71
     3
 72
    12
 73
     8
 74
     0
 42
0.0000000001
 43
0.0000000001
 40
-53.53794384325492
 40
-53.53794384325492
 40
-53.53794384325492
 40
-53.53794384325492
 40
-39.08376511219557
 40
-24.37956775169901
 40
-10.95500873949768
 40
-5.139462928976522
 40
0.0
 40
0.0
 40
0.0
 40
0.0
 10
25.72131873178026
 20
298.0130381951138
 30
0.0
 10
27.62389129377471
 20
293.58515904029
 30
0.0
 10
32.41058499643971
 20
285.0764658109474
 30
0.0
 10
41.45999474795074
 20
274.0754763402493
 30
0.0
 10
50.19275474316947
 20
266.7776157950489
 30
0.0
 10
57.35372934522096
 20
262.8728947595757
 30
0.0
 10
60.82580513102847
 20
261.6983762190376
 30
0.0
 10
62.5019998118953
 20
261.3373079667501
 30
0.0
  0
SPLINE
  5
4F
330
1F
100
AcDbEntity
  8
Linee visibili 2D
100
AcDbSpline
210
0.0
220
0.0
230
1.0
 70
    12
 71
     2
 72
     6
 73
     3
 74
     0
 42
0.0000000001
 43
0.0000000001
 40
0.0
 40
0.0
 40
0.0
 40
2.75431388551141
 40
2.75431388551141
 40
2.75431388551141
 10
62.50199981189529
 20
261.3373079667501
 30
0.0
 41
0.9999999754671097
 10
63.85064997989669
 20
261.0453968127965
 30
0.0
 41
0.9970363502077777
 10
65.2280703372844
 20
260.9630443345962
 30
0.0
 41
1.0
  0
SPLINE
  5
50
330
1F
100
AcDbEntity
  8
Linee visibili 2D
100
AcDbSpline
210
0.0
220
0.0
230
1.0
 70
    12
 71
     2
 72
     6
 73
     3
 74
     0
 42
0.0000000001
 43
0.0000000001
 40
0.0
 40
0.0
 40
0.0
 40
1.660827082590528
 40
1.660827082590528
 40
1.660827082590528
 10
65.2280703372844
 20
260.9630443345962
 30
0.0
 41
1.0
 10
66.05802681907537
 20
260.9150409004912
 30
0.0
 41
0.9983228294029315
 10
66.8879688003993
 20
260.9632943872958
 30
0.0
 41
1.0
  0
SPLINE
  5
51
330
1F
100
AcDbEntity
  8
Linee visibili 2D
100
AcDbSpline
210
0.0
220
0.0
230
1.0
 70
    12
 71
     2
 72
     6
 73
     3
 74
     0
 42
0.0000000001
 43
0.0000000001
 40
0.0
 40
0.0
 40
0.0
 40
0.9910470087055278
 40
0.9910470087055278
 40
0.9910470087055278
 10
41.02907423619267
 20
207.5337327607975
 30
0.0
 41
1.0
 10
40.45195646082146
 20
207.6821803247816
 30
0.0
 41
0.7654613350589237
 10
40.49901058456688
 20
208.2762246039024
 30
0.0
 41
1.0
  0
SPLINE
  5
52
330
1F
100
AcDbEntity
  8
Linee visibili 2D
100
AcDbSpline
210
0.0
220
0.0
230
1.0
 70
    24
 71
     2
 72
     6
 73
     3
 74
     0
 42
0.0000000001
 43
0.0000000001
 40
0.0
 40
0.0
 40
0.0
 40
65.27728013252033
 40
65.27728013252033
 40
65.27728013252033
 10
40.49901058456688
 20
208.2762246039024
 30
0.0
 10
40.07012033504328
 20
240.9120470772595
 30
0.0
 10
39.6412300855197
 20
273.5478695506166
 30
0.0
  0
SPLINE
  5
53
330
1F
100
AcDbEntity
  8
Linee visibili 2D
100
AcDbSpline
210
0.0
220
0.0
230
1.0
 70
    24
 71
     2
 72
     6
 73
     3
 74
     0
 42
0.0000000001
 43
0.0000000001
 40
0.0
 40
0.0
 40
0.0
 40
56.10874405167792
 40
56.10874405167792
 40
56.10874405167792
 10
38.78541282051226
 20
338.6701248628851
 30
0.0
 10
38.41676245929881
 20
366.7220746487936
 30
0.0
 10
38.04811209808535
 20
394.7740244347021
 30
0.0
  0
SPLINE
  5
54
330
1F
100
AcDbEntity
  8
Linee visibili 2D
100
AcDbSpline
210
0.0
220
0.0
230
1.0
 70
    12
 71
     2
 72
     6
 73
     3
 74
     0
 42
0.0000000001
 43
0.0000000001
 40
0.0
 40
0.0
 40
0.0
 40
1.012395762077899
 40
1.012395762077899
 40
1.012395762077899
 10
38.04811209808535
 20
394.7740244347021
 30
0.0
 41
1.0
 10
37.97550780365731
 20
395.3863718622286
 30
0.0
 41
0.7517857066330577
 10
38.57316466788602
 20
395.5381843226732
 30
0.0
 41
1.0
  0
SPLINE
  5
55
330
1F
100
AcDbEntity
  8
Linee visibili 2D
100
AcDbSpline
210
0.0
220
0.0
230
1.0
 70
    12
 71
     2
 72
     6
 73
     3
 74
     0
 42
0.0000000001
 43
0.0000000001
 40
-0.138086718289859
 40
-0.138086718289859
 40
-0.138086718289859
 40
0.0
 40
0.0
 40
0.0
 10
68.0324306261702
 20
257.4122669892441
 30
0.0
 41
1.0
 10
67.9634458887311
 20
257.4123622697726
 30
0.0
 41
0.9998437762672884
 10
67.89443172650779
 20
257.4128296369848
 30
0.0
 41
0.9999997025126772
  0
SPLINE
  5
56
330
1F
100
AcDbEntity
  8
Linee visibili 2D
100
AcDbSpline
210
0.0
220
0.0
230
1.0
 70
    12
 71
     2
 72
     6
 73
     3
 74
     0
 42
0.0000000001
 43
0.0000000001
 40
0.0
 40
0.0
 40
0.0
 40
1.16477440508804
 40
1.16477440508804
 40
1.16477440508804
 10
67.89443172650778
 20
257.4128296369848
 30
0.0
 41
0.9999999618621503
 10
67.3118678101168
 20
257.405221835566
 30
0.0
 41
0.9993805552694892
 10
66.73033771955747
 20
257.44067692263
 30
0.0
 41
1.0
  0
SPLINE
  5
57
330
1F
100
AcDbEntity
  8
Linee visibili 2D
100
AcDbSpline
210
0.0
220
0.0
230
1.0
 70
     8
 71
     3
 72
    14
 73
    10
 74
     0
 42
0.0000000001
 43
0.0000000001
 40
0.0
 40
0.0
 40
0.0
 40
0.0
 40
10.08017796158253
 40
22.62915392904477
 40
52.12714732905838
 40
66.36844830577759
 40
78.42484182269402
 40
87.99390524673531
 40
95.64018460892441
 40
95.64018460892441
 40
95.64018460892441
 40
95.64018460892441
 10
66.73033771955747
 20
257.44067692263
 30
0.0
 10
63.37362956359868
 20
257.6775116579103
 30
0.0
 10
56.08296622301283
 20
260.0527075603404
 30
0.0
 10
41.71001897161528
 20
269.9985094244384
 30
0.0
 10
29.63336460194083
 20
284.7252777766103
 30
0.0
 10
21.49971214720759
 20
301.5095513093062
 30
0.0
 10
18.60284694564412
 20
313.1879425439878
 30
0.0
 10
19.04809848643739
 20
323.129882052771
 30
0.0
 10
22.36340771498314
 20
328.1675854936488
 30
0.0
 10
24.55976628694687
 20
329.5162624841904
 30
0.0
  0
SPLINE
  5
58
330
1F
100
AcDbEntity
  8
Linee visibili 2D
100
AcDbSpline
210
0.0
220
0.0
230
1.0
 70
     8
 71
     3
 72
    11
 73
     7
 74
     0
 42
0.0000000001
 43
0.0000000001
 40
0.0
 40
0.0
 40
0.0
 40
0.0
 40
14.85905449406757
 40
24.24802966760893
 40
29.42485639820661
 40
33.61801108233474
 40
33.61801108233474
 40
33.61801108233474
 40
33.61801108233474
 10
24.55976628694687
 20
329.5162624841904
 30
0.0
 10
28.72820839465953
 20
332.1908397050521
 30
0.0
 10
35.55031657550088
 20
336.5270624535299
 30
0.0
 10
43.73941798085628
 20
341.924511402991
 30
0.0
 10
48.92166920466361
 20
345.4256516818326
 30
0.0
 10
51.38210967376042
 20
347.3544558184514
 30
0.0
 10
52.43196319214469
 20
348.2773405294591
 30
0.0
  0
SPLINE
  5
5A
330
1F
100
AcDbEntity
  8
Predefinito
100
AcDbSpline
210
0.0
220
0.0
230
1.0
 70
     8
 71
     3
 72
    16
 73
    12
 74
     0
 42
0.0000000001
 43
0.0000000001
 40
0.0
 40
0.0
 40
0.0
 40
0.0
 40
8.217208052829877
 40
16.5836679464925
 40
34.06360544642035
 40
40.33850404088678
 40
50.49790057282721
 40
55.27870881619362
 40
56.02572217696355
 40
63.94403670968428
 40
95.11727970942707
 40
95.11727970942707
 40
95.11727970942707
 40
95.11727970942707
 10
404.8696498881455
 20
1090.530135219251
 30
0.0
 10
404.8704872736021
 20
1087.799932572219
 30
0.0
 10
405.4684553741093
 20
1082.246795321972
 30
0.0
 10
409.2579245108677
 20
1071.507455571476
 30
0.0
 10
415.4527785473187
 20
1062.525101627016
 30
0.0
 10
424.2852942441385
 20
1055.402857276873
 30
0.0
 10
430.3116190022313
 20
1051.696410283008
 30
0.0
 10
434.7609818125057
 20
1048.950263137524
 30
0.0
 10
438.6566679507332
 20
1046.732365085724
 30
0.0
 10
450.1479632248493
 20
1040.077631799826
 30
0.0
 10
461.4409076407968
 20
1033.575858726245
 30
0.0
 10
470.4366383593646
 20
1028.375017387535
 30
0.0
  0
SPLINE
  5
5B
330
1F
100
AcDbEntity
  8
Predefinito
100
AcDbSpline
210
0.0
220
0.0
230
1.0
 70
    12
 71
     2
 72
     6
 73
     3
 74
     0
 42
0.0000000001
 43
0.0000000001
 40
0.0
 40
0.0
 40
0.0
 40
0.7853971145990087
 40
0.7853971145990087
 40
0.7853971145990087
 10
470.4366383593646
 20
1028.375017387535
 30
0.0
 41
1.0
 10
470.8696496285748
 20
1028.125017003653
 30
0.0
 41
0.7071075227982723
 10
470.6196501529764
 20
1027.692005210044
 30
0.0
 41
1.0
  0
SPLINE
  5
5C
330
1F
100
AcDbEntity
  8
Predefinito
100
AcDbSpline
210
0.0
220
0.0
230
1.0
 70
    24
 71
     2
 72
     6
 73
     3
 74
     0
 42
0.0000000001
 43
0.0000000001
 40
0.0
 40
0.0
 40
0.0
 40
109.213427976132
 40
109.213427976132
 40
109.213427976132
 10
470.6196501529764
 20
1027.692005210044
 30
0.0
 10
443.316293159043
 20
980.4012036791307
 30
0.0
 10
416.0129361651096
 20
933.1104021482171
 30
0.0
  0
SPLINE
  5
5D
330
1F
100
AcDbEntity
  8
Predefinito
100
AcDbSpline
210
0.0
220
0.0
230
1.0
 70
    12
 71
     2
 72
     6
 73
     3
 74
     0
 42
0.0000000001
 43
0.0000000001
 40
-0.517324102360518
 40
-0.517324102360518
 40
-0.517324102360518
 40
0.0
 40
0.0
 40
0.0
 10
416.0129361651096
 20
933.1104021482171
 30
0.0
 41
1.0
 10
415.8706826344561
 20
932.864011801596
 30
0.0
 41
0.8691456682222888
 10
415.5861979723454
 20
932.8604415193662
 30
0.0
 41
1.0
  0
SPLINE
  5
5E
330
1F
100
AcDbEntity
  8
Predefinito
100
AcDbSpline
210
0.0
220
0.0
230
1.0
 70
     8
 71
     3
 72
    12
 73
     8
 74
     0
 42
0.0000000001
 43
0.0000000001
 40
0.0
 40
0.0
 40
0.0
 40
0.0
 40
2.191616117897173
 40
4.303025613100735
 40
7.384636538804848
 40
10.95174085313347
 40
14.28011324192964
 40
14.28011324192964
 40
14.28011324192964
 40
14.28011324192964
 10
415.5861979723454
 20
932.8604415193662
 30
0.0
 10
414.8530959316573
 20
932.866718181924
 30
0.0
 10
413.4275548287416
 20
932.7359954100026
 30
0.0
 10
410.9757712499615
 20
932.4504743261276
 30
0.0
 10
408.2392238561386
 20
931.2732581715666
 30
0.0
 10
405.9522535145189
 20
928.7573028840907
 30
0.0
 10
405.068009348842
 20
926.604851327889
 30
0.0
 10
404.9323377515385
 20
925.4941187181116
 30
0.0
  0
POLYLINE
  5
5F
330
1F
100
AcDbEntity
  8
Predefinito
100
AcDb2dPolyline
 66
     1
 10
0.0
 20
0.0
 30
0.0
  0
VERTEX
  5
60
330
5F
100
AcDbEntity
  8
Predefinito
100
AcDbVertex
100
AcDb2dVertex
 10
404.9323377515385
 20
925.4941187181116
 30
0.0
  0
VERTEX
  5
61
330
5F
100
AcDbEntity
  8
Predefinito
100
AcDbVertex
100
AcDb2dVertex
 10
404.8696498881455
 20
924.85926291895
 30
0.0
  0
SEQEND
  5
62
330
5F
100
AcDbEntity
  8
Predefinito
  0
SPLINE
  5
63
330
1F
100
AcDbEntity
  8
Predefinito
100
AcDbSpline
210
0.0
220
0.0
230
1.0
 70
    24
 71
     2
 72
     6
 73
     3
 74
     0
 42
0.0000000001
 43
0.0000000001
 40
-1.0
 40
-1.0
 40
-1.0
 40
0.0
 40
0.0
 40
0.0
 10
404.8696498881455
 20
159.5259934437925
 30
0.0
 10
404.8939635017892
 20
158.9431563285928
 30
0.0
 10
404.918277115433
 20
158.3603192133931
 30
0.0
  0
SPLINE
  5
64
330
1F
100
AcDbEntity
  8
Predefinito
100
AcDbSpline
210
0.0
220
0.0
230
1.0
 70
     8
 71
     3
 72
    14
 73
    10
 74
     0
 42
0.0000000001
 43
0.0000000001
 40
0.0
 40
0.0
 40
0.0
 40
0.0
 40
4.166552842005182
 40
9.82818681224799
 40
20.33289264805117
 40
25.61316851796862
 40
31.83648339472384
 40
36.6978581337758
 40
47.33118309809483
 40
47.33118309809483
 40
47.33118309809483
 40
47.33118309809483
 10
404.918277115433
 20
158.3603192133931
 30
0.0
 10
404.9768607066408
 20
156.9559746433965
 30
0.0
 10
405.9514203070457
 20
153.8047077417188
 30
0.0
 10
409.4766780771869
 20
147.9476031591143
 30
0.0
 10
415.2273178876578
 20
143.3994859574636
 30
0.0
 10
422.090599845807
 20
140.771880483348
 30
0.0
 10
427.424057467246
 20
139.5312367656951
 30
0.0
 10
434.6201642570515
 20
138.7457584435991
 30
0.0
 10
439.7968237810821
 20
138.6879335113964
 30
0.0
 10
443.3334823587711
 20
138.5092039228613
 30
0.0
  0
SPLINE
  5
65
330
1F
100
AcDbEntity
  8
Predefinito
100
AcDbSpline
210
0.0
220
0.0
230
1.0
 70
     8
 71
     3
 72
    12
 73
     8
 74
     0
 42
0.0000000001
 43
0.0000000001
 40
0.0
 40
0.0
 40
0.0
 40
0.0
 40
5.533906133331601
 40
11.5953944967033
 40
26.38820202587219
 40
45.40342995029652
 40
66.36915009158146
 40
66.36915009158146
 40
66.36915009158146
 40
66.36915009158146
 10
443.3334823587711
 20
138.5092039228613
 30
0.0
 10
445.1770621295246
 20
138.4288717183449
 30
0.0
 10
449.0028193413024
 20
137.5648278738932
 30
0.0
 10
456.4455282742803
 20
132.5928632552224
 30
0.0
 10
463.9738637256448
 20
121.3650526308609
 30
0.0
 10
469.4240428277665
 20
103.8241788936408
 30
0.0
 10
470.6892783966009
 20
90.48675980885058
 30
0.0
 10
470.6866374510823
 20
83.50000000000091
 30
0.0
  0
SPLINE
  5
66
330
1F
100
AcDbEntity
  8
Predefinito
100
AcDbSpline
210
0.0
220
0.0
230
1.0
 70
     8
 71
     3
 72
    13
 73
     9
 74
     0
 42
0.0000000001
 43
0.0000000001
 40
0.0
 40
0.0
 40
0.0
 40
0.0
 40
10.89910347663077
 40
21.07299387248686
 40
39.63473598429728
 40
54.67521727985095
 40
60.84081863897045
 40
66.35993794136331
 40
66.35993794136331
 40
66.35993794136331
 40
66.35993794136331
 10
470.6866374510823
 20
83.50000000000091
 30
0.0
 10
470.6836749925356
 20
79.86550660241244
 30
0.0
 10
470.3448878975883
 20
72.84567952324535
 30
0.0
 10
468.3473303645467
 20
59.76112401103163
 30
0.0
 10
464.0016883718581
 20
45.75109090397042
 30
0.0
 10
456.5608501617843
 20
34.50726002993964
 30
0.0
 10
449.0377822699461
 20
29.43399026691957
 30
0.0
 10
445.1803804070253
 20
28.57474271889247
 30
0.0
 10
443.3413492403889
 20
28.49097273821963
 30
0.0
  0
SPLINE
  5
67
330
1F
100
AcDbEntity
  8
Predefinito
100
AcDbSpline
210
0.0
220
0.0
230
1.0
 70
     8
 71
     3
 72
    14
 73
    10
 74
     0
 42
0.0000000001
 43
0.0000000001
 40
0.0
 40
0.0
 40
0.0
 40
0.0
 40
10.64012817182808
 40
15.50193225404543
 40
21.70564419817609
 40
27.00505218810203
 40
37.48801898221306
 40
43.17012588953222
 40
47.33513355334519
 40
47.33513355334519
 40
47.33513355334519
 40
47.33513355334519
 10
443.3413492403889
 20
28.49097273821963
 30
0.0
 10
439.8007047980279
 20
28.31200656612719
 30
0.0
 10
434.6236858644159
 20
28.25102884000631
 30
0.0
 10
427.4285655978497
 20
27.4729705397511
 30
0.0
 10
422.0998000811435
 20
26.22353750713505
 30
0.0
 10
415.237523129649
 20
23.60643388735054
 30
0.0
 10
409.4871961127471
 20
19.05618706940145
 30
0.0
 10
405.95048166065
 20
13.20531935275336
 30
0.0
 10
404.9786290859893
 20
10.04582396758589
 30
0.0
 10
404.916818748709
 20
8.642771093389056
 30
0.0
  0
POLYLINE
  5
68
330
1F
100
AcDbEntity
  8
Predefinito
100
AcDb2dPolyline
 66
     1
 10
0.0
 20
0.0
 30
0.0
  0
VERTEX
  5
69
330
68
100
AcDbEntity
  8
Predefinito
100
AcDbVertex
100
AcDb2dVertex
 10
404.916818748709
 20
8.642771093389056
 30
0.0
  0
VERTEX
  5
6A
330
68
100
AcDbEntity
  8
Predefinito
100
AcDbVertex
100
AcDb2dVertex
 10
404.8696498881455
 20
7.572069843433909
 30
0.0
  0
SEQEND
  5
6B
330
68
100
AcDbEntity
  8
Predefinito
  0
SPLINE
  5
6C
330
1F
100
AcDbEntity
  8
Linee visibili 2D
100
AcDbSpline
210
0.0
220
0.0
230
1.0
 70
    12
 71
     2
 72
     6
 73
     3
 74
     0
 42
0.0000000001
 43
0.0000000001
 40
0.0
 40
0.0
 40
0.0
 40
0.5202016854251466
 40
0.5202016854251466
 40
0.5202016854251466
 10
404.6225860618118
 20
860.7944866492708
 30
0.0
 41
1.0
 10
404.8696498881455
 20
860.9393759927839
 30
0.0
 41
0.867718948546366
 10
404.8696498881455
 20
861.2257908250574
 30
0.0
 41
1.0
  0
SPLINE
  5
6D
330
1F
100
AcDbEntity
  8
Linee visibili 2D
100
AcDbSpline
210
0.0
220
0.0
230
1.0
 70
    24
 71
     2
 72
     6
 73
     3
 74
     0
 42
0.0000000001
 43
0.0000000001
 40
0.0
 40
0.0
 40
0.0
 40
0.5043824731696986
 40
0.5043824731696986
 40
0.5043824731696986
 10
404.8696498881455
 20
861.2257908250574
 30
0.0
 10
404.8696498881455
 20
861.4779820616423
 30
0.0
 10
404.8696498881455
 20
861.7301732982271
 30
0.0
  0
SPLINE
  5
6E
330
1F
100
AcDbEntity
  8
Linee visibili 2D
100
AcDbSpline
210
0.0
220
0.0
230
1.0
 70
    24
 71
     2
 72
     6
 73
     3
 74
     0
 42
0.0000000001
 43
0.0000000001
 40
0.0
 40
0.0
 40
0.0
 40
254.9824701074833
 40
254.9824701074833
 40
254.9824701074833
 10
404.8696498881455
 20
861.7301732982271
 30
0.0
 10
404.8696498881455
 20
989.2214083519688
 30
0.0
 10
404.8696498881455
 20
1116.71264340571
 30
0.0
  0
SPLINE
  5
6F
330
1F
100
AcDbEntity
  8
Linee visibili 2D
100
AcDbSpline
210
0.0
220
0.0
230
1.0
 70
    24
 71
     2
 72
     6
 73
     3
 74
     0
 42
0.0000000001
 43
0.0000000001
 40
0.0
 40
0.0
 40
0.0
 40
0.5043824731710629
 40
0.5043824731710629
 40
0.5043824731710629
 10
404.8696498881455
 20
1116.71264340571
 30
0.0
 10
404.8696498881455
 20
1116.964834642296
 30
0.0
 10
404.8696498881455
 20
1117.217025878881
 30
0.0
  0
SPLINE
  5
70
330
1F
100
AcDbEntity
  8
Linee visibili 2D
100
AcDbSpline
210
0.0
220
0.0
230
1.0
 70
    12
 71
     2
 72
     6
 73
     3
 74
     0
 42
0.0000000001
 43
0.0000000001
 40
0.0
 40
0.0
 40
0.0
 40
0.5202016854243154
 40
0.5202016854243154
 40
0.5202016854243154
 10
404.8696498881455
 20
1117.217025878881
 30
0.0
 41
1.0
 10
404.8696498881453
 20
1117.503440711155
 30
0.0
 41
0.867718948546191
 10
404.6225860618118
 20
1117.648330054667
 30
0.0
 41
1.0
  0
SPLINE
  5
71
330
1F
100
AcDbEntity
  8
Linee visibili 2D
100
AcDbSpline
210
0.0
220
0.0
230
1.0
 70
    24
 71
     2
 72
     6
 73
     3
 74
     0
 42
0.0000000001
 43
0.0000000001
 40
0.0
 40
0.0
 40
0.0
 40
66.6235319131626
 40
66.6235319131626
 40
66.6235319131626
 10
404.6225860618198
 20
0.0
 30
0.0
 10
437.9343520184011
 20
0.0
 30
0.0
 10
471.2461179749824
 20
0.0
 30
0.0
  0
SPLINE
  5
72
330
1F
100
AcDbEntity
  8
Linee visibili 2D
100
AcDbSpline
210
0.0
220
0.0
230
1.0
 70
    24
 71
     2
 72
     6
 73
     3
 74
     0
 42
0.0000000001
 43
0.0000000001
 40
0.0
 40
0.0
 40
0.0
 40
167.0
 40
167.0
 40
167.0
 10
471.2461179749824
 20
0.0
 30
0.0
 10
471.2461179749824
 20
83.5
 30
0.0
 10
471.2461179749824
 20
167.0
 30
0.0
  0
SPLINE
  5
73
330
1F
100
AcDbEntity
  8
Linee visibili 2D
100
AcDbSpline
210
0.0
220
0.0
230
1.0
 70
    24
 71
     2
 72
     6
 73
     3
 74
     0
 42
0.0000000001
 43
0.0000000001
 40
0.0
 40
0.0
 40
0.0
 40
66.6235319131626
 40
66.6235319131626
 40
66.6235319131626
 10
471.2461179749824
 20
167.0
 30
0.0
 10
437.9343520184011
 20
167.0
 30
0.0
 10
404.6225860618198
 20
167.0
 30
0.0
  0
SPLINE
  5
74
330
1F
100
AcDbEntity
  8
Linee visibili 2D
100
AcDbSpline
210
0.0
220
0.0
230
1.0
 70
    24
 71
     2
 72
     6
 73
     3
 74
     0
 42
0.0000000001
 43
0.0000000001
 40
0.0
 40
0.0
 40
0.0
 40
23.37646808683769
 40
23.37646808683769
 40
23.37646808683769
 10
381.2461179749822
 20
167.0
 30
0.0
 10
369.5578839315634
 20
167.0
 30
0.0
 10
357.8696498881445
 20
167.0
 30
0.0
  0
SPLINE
  5
75
330
1F
100
AcDbEntity
  8
Linee visibili 2D
100
AcDbSpline
210
0.0
220
0.0
230
1.0
 70
    24
 71
     2
 72
     6
 73
     3
 74
     0
 42
0.0000000001
 43
0.0000000001
 40
0.0
 40
0.0
 40
0.0
 40
167.0
 40
167.0
 40
167.0
 10
357.8696498881445
 20
167.0
 30
0.0
 10
357.8696498881445
 20
83.5
 30
0.0
 10
357.8696498881445
 20
0.0
 30
0.0
  0
SPLINE
  5
76
330
1F
100
AcDbEntity
  8
Linee visibili 2D
100
AcDbSpline
210
0.0
220
0.0
230
1.0
 70
    24
 71
     2
 72
     6
 73
     3
 74
     0
 42
0.0000000001
 43
0.0000000001
 40
0.0
 40
0.0
 40
0.0
 40
23.37646808683769
 40
23.37646808683769
 40
23.37646808683769
 10
357.8696498881445
 20
0.0
 30
0.0
 10
369.5578839315634
 20
0.0
 30
0.0
 10
381.2461179749822
 20
0.0
 30
0.0
  0
SPLINE
  5
77
330
1F
100
AcDbEntity
  8
Linee visibili 2D
100
AcDbSpline
210
0.0
220
0.0
230
1.0
 70
    24
 71
     2
 72
     6
 73
     3
 74
     0
 42
0.0000000001
 43
0.0000000001
 40
-23.37646808683763
 40
-23.37646808683763
 40
-23.37646808683763
 40
0.0
 40
0.0
 40
0.0
 10
381.2461179749822
 20
0.0
 30
0.0
 10
392.934352018401
 20
0.0
 30
0.0
 10
404.6225860618198
 20
0.0
 30
0.0
  0
SPLINE
  5
78
330
1F
100
AcDbEntity
  8
Linee visibili 2D
100
AcDbSpline
210
0.0
220
0.0
230
1.0
 70
    24
 71
     2
 72
     6
 73
     3
 74
     0
 42
0.0000000001
 43
0.0000000001
 40
0.0
 40
0.0
 40
0.0
 40
167.0
 40
167.0
 40
167.0
 10
404.6225860618198
 20
0.0
 30
0.0
 10
404.6225860618198
 20
83.5
 30
0.0
 10
404.6225860618198
 20
167.0
 30
0.0
  0
SPLINE
  5
79
330
1F
100
AcDbEntity
  8
Linee visibili 2D
100
AcDbSpline
210
0.0
220
0.0
230
1.0
 70
    24
 71
     2
 72
     6
 73
     3
 74
     0
 42
0.0000000001
 43
0.0000000001
 40
-23.37646808683763
 40
-23.37646808683763
 40
-23.37646808683763
 40
0.0
 40
0.0
 40
0.0
 10
404.6225860618198
 20
167.0
 30
0.0
 10
392.934352018401
 20
167.0
 30
0.0
 10
381.2461179749822
 20
167.0
 30
0.0
  0
SPLINE
  5
7A
330
1F
100
AcDbEntity
  8
Linee visibili 2D
100
AcDbSpline
210
0.0
220
0.0
230
1.0
 70
    24
 71
     2
 72
     6
 73
     3
 74
     0
 42
0.0000000001
 43
0.0000000001
 40
0.0
 40
0.0
 40
0.0
 40
66.62353191316265
 40
66.62353191316265
 40
66.62353191316265
 10
357.8696498881446
 20
0.0
 30
0.0
 10
324.5578839315633
 20
0.0
 30
0.0
 10
291.2461179749819
 20
0.0
 30
0.0
  0
SPLINE
  5
7B
330
1F
100
AcDbEntity
  8
Linee visibili 2D
100
AcDbSpline
210
0.0
220
0.0
230
1.0
 70
    24
 71
     2
 72
     6
 73
     3
 74
     0
 42
0.0000000001
 43
0.0000000001
 40
0.0
 40
0.0
 40
0.0
 40
167.0
 40
167.0
 40
167.0
 10
291.2461179749819
 20
0.0
 30
0.0
 10
291.2461179749819
 20
83.5
 30
0.0
 10
291.2461179749819
 20
167.0
 30
0.0
  0
SPLINE
  5
7C
330
1F
100
AcDbEntity
  8
Linee visibili 2D
100
AcDbSpline
210
0.0
220
0.0
230
1.0
 70
    24
 71
     2
 72
     6
 73
     3
 74
     0
 42
0.0000000001
 43
0.0000000001
 40
0.0
 40
0.0
 40
0.0
 40
66.62353191316265
 40
66.62353191316265
 40
66.62353191316265
 10
291.2461179749819
 20
167.0
 30
0.0
 10
324.5578839315633
 20
167.0
 30
0.0
 10
357.8696498881446
 20
167.0
 30
0.0
  0
SPLINE
  5
7D
330
1F
100
AcDbEntity
  8
Predefinito
100
AcDbSpline
210
0.0
220
0.0
230
1.0
 70
    12
 71
     2
 72
     8
 73
     5
 74
     0
 42
0.0000000001
 43
0.0000000001
 40
-123.3256301301042
 40
-123.3256301301042
 40
-123.3256301301042
 40
-75.8926954646794
 40
-75.8926954646794
 40
-4.743293466542463
 40
-4.743293466542463
 40
-4.743293466542463
 10
50.77442284244523
 20
266.8462539690572
 30
0.0
 41
1190.726572215075
 10
36.56939406051103
 20
276.7434582518945
 30
0.0
 41
1136.303792887211
 10
28.06001349910816
 20
294.1627031995097
 30
0.0
 41
1380.086812250618
 10
13.37779863312326
 20
324.2181338244087
 30
0.0
 41
987.8524625168282
 10
31.38976203163012
 20
327.4580028080298
 30
0.0
 41
1281.167143662053
  0
SPLINE
  5
7E
330
1F
100
AcDbEntity
  8
Predefinito
100
AcDbSpline
210
0.0
220
0.0
230
1.0
 70
    24
 71
     2
 72
     6
 73
     3
 74
     0
 42
0.0000000001
 43
0.0000000001
 40
0.0
 40
0.0
 40
0.0
 40
1.0
 40
1.0
 40
1.0
 10
31.38976203163012
 20
327.4580028080298
 30
0.0
 10
31.66195391405817
 20
327.4945923087693
 30
0.0
 10
31.93414579648622
 20
327.5311818095088
 30
0.0
  0
SPLINE
  5
7F
330
1F
100
AcDbEntity
  8
Linee visibili 2D
100
AcDbSpline
210
0.0
220
0.0
230
1.0
 70
    24
 71
     2
 72
     6
 73
     3
 74
     0
 42
0.0000000001
 43
0.0000000001
 40
0.0
 40
0.0
 40
0.0
 40
3.925140216004594
 40
3.925140216004594
 40
3.925140216004594
 10
71.85371271605798
 20
3.924918305581022
 30
0.0
 10
71.87458141158288
 20
1.962459152790515
 30
0.0
 10
71.89545010710776
 20
0.0000000000000072
 30
0.0
  0
SPLINE
  5
80
330
1F
100
AcDbEntity
  8
Linee visibili 2D
100
AcDbSpline
210
0.0
220
0.0
230
1.0
 70
    24
 71
     2
 72
     6
 73
     3
 74
     0
 42
0.0000000001
 43
0.0000000001
 40
-58.09151976151294
 40
-58.09151976151294
 40
-58.09151976151294
 40
0.0
 40
0.0
 40
0.0
 10
71.89545010710776
 20
0.0000000000000072
 30
0.0
 10
100.1249384044416
 20
6.837554937348189
 30
0.0
 10
128.3544267017754
 20
13.67510987469637
 30
0.0
  0
SPLINE
  5
81
330
1F
100
AcDbEntity
  8
Linee visibili 2D
100
AcDbSpline
210
0.0
220
0.0
230
1.0
 70
    24
 71
     2
 72
     6
 73
     3
 74
     0
 42
0.0000000001
 43
0.0000000001
 40
0.0
 40
0.0
 40
0.0
 40
53.13893419265174
 40
53.13893419265174
 40
53.13893419265174
 10
128.3544267017754
 20
13.67510987469637
 30
0.0
 10
154.177213350888
 20
19.92972988371029
 30
0.0
 10
180.0000000000005
 20
26.18434989272421
 30
0.0
  0
SPLINE
  5
82
330
1F
100
AcDbEntity
  8
Linee visibili 2D
100
AcDbSpline
210
0.0
220
0.0
230
1.0
 70
    24
 71
     2
 72
     6
 73
     3
 74
     0
 42
0.0000000001
 43
0.0000000001
 40
-3.598423012611931
 40
-3.598423012611931
 40
-3.598423012611931
 40
0.0
 40
0.0
 40
0.0
 10
180.0000000000005
 20
26.18434989272421
 30
0.0
 10
179.9978915094995
 20
27.98356016356295
 30
0.0
 10
179.9957830189985
 20
29.78277043440168
 30
0.0
  0
SPLINE
  5
83
330
1F
100
AcDbEntity
  8
Linee visibili 2D
100
AcDbSpline
210
0.0
220
0.0
230
1.0
 70
    24
 71
     2
 72
     6
 73
     3
 74
     0
 42
0.0000000001
 43
0.0000000001
 40
0.0
 40
0.0
 40
0.0
 40
53.11905288266803
 40
53.11905288266803
 40
53.11905288266803
 10
179.9957830189985
 20
29.78277043440168
 30
0.0
 10
154.164428927133
 20
23.60623495173947
 30
0.0
 10
128.3330748352676
 20
17.42969946907726
 30
0.0
  0
SPLINE
  5
84
330
1F
100
AcDbEntity
  8
Linee visibili 2D
100
AcDbSpline
210
0.0
220
0.0
230
1.0
 70
    24
 71
     2
 72
     6
 73
     3
 74
     0
 42
0.0000000001
 43
0.0000000001
 40
-58.07148577113148
 40
-58.07148577113148
 40
-58.07148577113148
 40
0.0
 40
0.0
 40
0.0
 10
128.3330748352676
 20
17.42969946907726
 30
0.0
 10
100.0933937756628
 20
10.67730888732914
 30
0.0
 10
71.85371271605798
 20
3.924918305581022
 30
0.0
  0
SPLINE
  5
85
330
1F
100
AcDbEntity
  8
Linee visibili 2D
100
AcDbSpline
210
0.0
220
0.0
230
1.0
 70
    12
 71
     2
 72
     6
 73
     3
 74
     0
 42
0.0000000001
 43
0.0000000001
 40
0.0
 40
0.0
 40
0.0
 40
0.5202016854250067
 40
0.5202016854250067
 40
0.5202016854250067
 10
404.6225860618118
 20
162.4356485704905
 30
0.0
 41
1.0
 10
404.8696498881456
 20
162.2907592269775
 30
0.0
 41
0.8677189485461093
 10
404.8696498881455
 20
162.004344394704
 30
0.0
 41
1.0
  0
SPLINE
  5
86
330
1F
100
AcDbEntity
  8
Linee visibili 2D
100
AcDbSpline
210
0.0
220
0.0
230
1.0
 70
    24
 71
     2
 72
     6
 73
     3
 74
     0
 42
0.0000000001
 43
0.0000000001
 40
-0.504344394749694
 40
-0.504344394749694
 40
-0.504344394749694
 40
0.0
 40
0.0
 40
0.0
 10
404.8696498881455
 20
162.004344394704
 30
0.0
 10
404.8696498881455
 20
161.7521721973291
 30
0.0
 10
404.8696498881455
 20
161.4999999999543
 30
0.0
  0
SPLINE
  5
87
330
1F
100
AcDbEntity
  8
Linee visibili 2D
100
AcDbSpline
210
0.0
220
0.0
230
1.0
 70
    24
 71
     2
 72
     6
 73
     3
 74
     0
 42
0.0000000001
 43
0.0000000001
 40
0.0
 40
0.0
 40
0.0
 40
155.9999999999067
 40
155.9999999999067
 40
155.9999999999067
 10
404.8696498881455
 20
161.4999999999543
 30
0.0
 10
404.8696498881455
 20
83.50000000000097
 30
0.0
 10
404.8696498881455
 20
5.500000000047635
 30
0.0
  0
SPLINE
  5
88
330
1F
100
AcDbEntity
  8
Linee visibili 2D
100
AcDbSpline
210
0.0
220
0.0
230
1.0
 70
    24
 71
     2
 72
     6
 73
     3
 74
     0
 42
0.0000000001
 43
0.0000000001
 40
-0.5043443947491539
 40
-0.5043443947491539
 40
-0.5043443947491539
 40
0.0
 40
0.0
 40
0.0
 10
404.8696498881455
 20
5.500000000047635
 30
0.0
 10
404.8696498881455
 20
5.247827802673058
 30
0.0
 10
404.8696498881455
 20
4.995655605298481
 30
0.0
  0
SPLINE
  5
89
330
1F
100
AcDbEntity
  8
Linee visibili 2D
100
AcDbSpline
210
0.0
220
0.0
230
1.0
 70
    12
 71
     2
 72
     6
 73
     3
 74
     0
 42
0.0000000001
 43
0.0000000001
 40
0.0
 40
0.0
 40
0.0
 40
0.5202016854251837
 40
0.5202016854251837
 40
0.5202016854251837
 10
404.8696498881455
 20
4.995655605298481
 30
0.0
 41
1.0
 10
404.8696498881455
 20
4.709240773024903
 30
0.0
 41
0.8677189485462885
 10
404.6225860618119
 20
4.564351429511781
 30
0.0
 41
1.0
  0
SPLINE
  5
8A
330
1F
100
AcDbEntity
  8
Linee visibili 2D
100
AcDbSpline
210
0.0
220
0.0
230
1.0
 70
    24
 71
     2
 72
     6
 73
     3
 74
     0
 42
0.0000000001
 43
0.0000000001
 40
0.0
 40
0.0
 40
0.0
 40
500.5
 40
500.5
 40
500.5
 10
0.0
 20
621.7461179749814
 30
0.0
 10
0.0
 20
871.9961179749814
 30
0.0
 10
0.0
 20
1122.246117974981
 30
0.0
  0
SPLINE
  5
8B
330
1F
100
AcDbEntity
  8
Linee visibili 2D
100
AcDbSpline
210
0.0
220
0.0
230
1.0
 70
    24
 71
     2
 72
     6
 73
     3
 74
     0
 42
0.0000000001
 43
0.0000000001
 40
0.0
 40
0.0
 40
0.0
 40
167.0
 40
167.0
 40
167.0
 10
0.0
 20
1122.246117974981
 30
0.0
 10
83.5
 20
1122.246117974981
 30
0.0
 10
167.0
 20
1122.246117974981
 30
0.0
  0
SPLINE
  5
8C
330
1F
100
AcDbEntity
  8
Linee visibili 2D
100
AcDbSpline
210
0.0
220
0.0
230
1.0
 70
    24
 71
     2
 72
     6
 73
     3
 74
     0
 42
0.0000000001
 43
0.0000000001
 40
0.0
 40
0.0
 40
0.0
 40
500.5
 40
500.5
 40
500.5
 10
167.0
 20
1122.246117974981
 30
0.0
 10
167.0
 20
871.9961179749814
 30
0.0
 10
167.0
 20
621.7461179749814
 30
0.0
  0
SPLINE
  5
8D
330
1F
100
AcDbEntity
  8
Linee visibili 2D
100
AcDbSpline
210
0.0
220
0.0
230
1.0
 70
    24
 71
     2
 72
     6
 73
     3
 74
     0
 42
0.0000000001
 43
0.0000000001
 40
0.0
 40
0.0
 40
0.0
 40
5.0
 40
5.0
 40
5.0
 10
167.0
 20
621.7461179749814
 30
0.0
 10
167.0
 20
619.2461179749814
 30
0.0
 10
167.0
 20
616.7461179749814
 30
0.0
  0
SPLINE
  5
8E
330
1F
100
AcDbEntity
  8
Linee visibili 2D
100
AcDbSpline
210
0.0
220
0.0
230
1.0
 70
    24
 71
     2
 72
     6
 73
     3
 74
     0
 42
0.0000000001
 43
0.0000000001
 40
0.0
 40
0.0
 40
0.0
 40
167.0
 40
167.0
 40
167.0
 10
167.0
 20
616.7461179749814
 30
0.0
 10
83.5
 20
616.7461179749814
 30
0.0
 10
0.0
 20
616.7461179749814
 30
0.0
  0
SPLINE
  5
8F
330
1F
100
AcDbEntity
  8
Linee visibili 2D
100
AcDbSpline
210
0.0
220
0.0
230
1.0
 70
    24
 71
     2
 72
     6
 73
     3
 74
     0
 42
0.0000000001
 43
0.0000000001
 40
-5.0
 40
-5.0
 40
-5.0
 40
0.0
 40
0.0
 40
0.0
 10
0.0
 20
616.7461179749814
 30
0.0
 10
0.0
 20
619.2461179749814
 30
0.0
 10
0.0
 20
621.7461179749814
 30
0.0
  0
SPLINE
  5
90
330
1F
100
AcDbEntity
  8
Linee visibili 2D
100
AcDbSpline
210
0.0
220
0.0
230
1.0
 70
    24
 71
     2
 72
     6
 73
     3
 74
     0
 42
0.0000000001
 43
0.0000000001
 40
0.0
 40
0.0
 40
0.0
 40
167.0
 40
167.0
 40
167.0
 10
0.0
 20
621.7461179749814
 30
0.0
 10
83.5
 20
621.7461179749814
 30
0.0
 10
167.0
 20
621.7461179749814
 30
0.0
  0
SPLINE
  5
91
330
1F
100
AcDbEntity
  8
Linee visibili 2D
100
AcDbSpline
210
0.0
220
0.0
230
1.0
 70
    24
 71
     2
 72
     6
 73
     3
 74
     0
 42
0.0000000001
 43
0.0000000001
 40
-5.0
 40
-5.0
 40
-5.0
 40
0.0
 40
0.0
 40
0.0
 10
471.2461179749824
 20
616.7461179749814
 30
0.0
 10
471.2461179749824
 20
619.2461179749814
 30
0.0
 10
471.2461179749824
 20
621.7461179749814
 30
0.0
  0
SPLINE
  5
92
330
1F
100
AcDbEntity
  8
Linee visibili 2D
100
AcDbSpline
210
0.0
220
0.0
230
1.0
 70
    24
 71
     2
 72
     6
 73
     3
 74
     0
 42
0.0000000001
 43
0.0000000001
 40
-90.00000000000023
 40
-90.00000000000023
 40
-90.00000000000023
 40
0.0
 40
0.0
 40
0.0
 10
471.2461179749824
 20
621.7461179749814
 30
0.0
 10
426.2461179749823
 20
621.7461179749814
 30
0.0
 10
381.2461179749822
 20
621.7461179749814
 30
0.0
  0
SPLINE
  5
93
330
1F
100
AcDbEntity
  8
Linee visibili 2D
100
AcDbSpline
210
0.0
220
0.0
230
1.0
 70
    24
 71
     2
 72
     6
 73
     3
 74
     0
 42
0.0000000001
 43
0.0000000001
 40
0.0
 40
0.0
 40
0.0
 40
90.00000000000028
 40
90.00000000000028
 40
90.00000000000028
 10
381.2461179749822
 20
621.7461179749814
 30
0.0
 10
336.2461179749821
 20
621.7461179749814
 30
0.0
 10
291.2461179749819
 20
621.7461179749814
 30
0.0
  0
SPLINE
  5
94
330
1F
100
AcDbEntity
  8
Linee visibili 2D
100
AcDbSpline
210
0.0
220
0.0
230
1.0
 70
    24
 71
     2
 72
     6
 73
     3
 74
     0
 42
0.0000000001
 43
0.0000000001
 40
0.0
 40
0.0
 40
0.0
 40
5.0
 40
5.0
 40
5.0
 10
291.2461179749819
 20
621.7461179749814
 30
0.0
 10
291.2461179749819
 20
619.2461179749814
 30
0.0
 10
291.2461179749819
 20
616.7461179749814
 30
0.0
  0
SPLINE
  5
95
330
1F
100
AcDbEntity
  8
Linee visibili 2D
100
AcDbSpline
210
0.0
220
0.0
230
1.0
 70
    24
 71
     2
 72
     6
 73
     3
 74
     0
 42
0.0000000001
 43
0.0000000001
 40
0.0
 40
0.0
 40
0.0
 40
90.00000000000028
 40
90.00000000000028
 40
90.00000000000028
 10
291.2461179749819
 20
616.7461179749814
 30
0.0
 10
336.2461179749821
 20
616.7461179749814
 30
0.0
 10
381.2461179749822
 20
616.7461179749814
 30
0.0
  0
SPLINE
  5
96
330
1F
100
AcDbEntity
  8
Linee visibili 2D
100
AcDbSpline
210
0.0
220
0.0
230
1.0
 70
    24
 71
     2
 72
     6
 73
     3
 74
     0
 42
0.0000000001
 43
0.0000000001
 40
-90.00000000000023
 40
-90.00000000000023
 40
-90.00000000000023
 40
0.0
 40
0.0
 40
0.0
 10
381.2461179749822
 20
616.7461179749814
 30
0.0
 10
426.2461179749823
 20
616.7461179749814
 30
0.0
 10
471.2461179749824
 20
616.7461179749814
 30
0.0
  0
SPLINE
  5
97
330
1F
100
AcDbEntity
  8
Linee visibili 2D
100
AcDbSpline
210
0.0
220
0.0
230
1.0
 70
     8
 71
     3
 72
    12
 73
     8
 74
     0
 42
0.0000000001
 43
0.0000000001
 40
0.0
 40
0.0
 40
0.0
 40
0.0
 40
0.7251085512598501
 40
1.662957477492533
 40
4.005482026028917
 40
6.388173143706442
 40
8.178747584784864
 40
8.178747584784864
 40
8.178747584784864
 40
8.178747584784864
 10
79.84723533067645
 20
206.8712177117246
 30
0.0
 10
80.09077879062959
 20
206.8943446156113
 30
0.0
 10
80.59391352608077
 20
207.1777902482948
 30
0.0
 10
81.31598577963017
 20
208.3336630457781
 30
0.0
 10
81.55447433716746
 20
210.2561428774405
 30
0.0
 10
81.06749231873484
 20
212.3936277919617
 30
0.0
 10
80.12605402866096
 20
213.5285272889737
 30
0.0
 10
79.49717079968568
 20
213.6586253952807
 30
0.0
  0
SPLINE
  5
98
330
1F
100
AcDbEntity
  8
Linee visibili 2D
100
AcDbSpline
210
0.0
220
0.0
230
1.0
 70
    24
 71
     2
 72
     6
 73
     3
 74
     0
 42
0.0000000001
 43
0.0000000001
 40
0.0
 40
0.0
 40
0.0
 40
10.67660377847816
 40
10.67660377847816
 40
10.67660377847816
 10
79.49717079968568
 20
213.6586253952807
 30
0.0
 10
74.17215327892588
 20
214.2546436897655
 30
0.0
 10
68.84713575816608
 20
214.8506619842503
 30
0.0
  0
SPLINE
  5
99
330
1F
100
AcDbEntity
  8
Linee visibili 2D
100
AcDbSpline
210
0.0
220
0.0
230
1.0
 70
    12
 71
     2
 72
     6
 73
     3
 74
     0
 42
0.0000000001
 43
0.0000000001
 40
0.0
 40
0.0
 40
0.0
 40
0.1474715426568983
 40
0.1474715426568983
 40
0.1474715426568983
 10
68.84713575816608
 20
214.8506619842503
 30
0.0
 41
1.0
 10
68.75386049689637
 20
214.8611776677921
 30
0.0
 41
0.9966614611856099
 10
68.68003218730388
 20
214.8574104907021
 30
0.0
 41
1.0
  0
SPLINE
  5
9A
330
1F
100
AcDbEntity
  8
Linee visibili 2D
100
AcDbSpline
210
0.0
220
0.0
230
1.0
 70
    12
 71
     2
 72
     8
 73
     5
 74
     0
 42
0.0000000001
 43
0.0000000001
 40
0.4673052354959317
 40
0.4673052354959317
 40
0.4673052354959317
 40
7.05538295110733
 40
7.05538295110733
 40
14.1107659022147
 40
14.1107659022147
 40
14.1107659022147
 10
68.68003218730388
 20
214.8574104907021
 30
0.0
 41
1336.927684224224
 10
66.90755517607232
 20
214.766450124663
 30
0.0
 41
1009.997875087393
 10
66.94057118780864
 20
211.7280361957178
 30
0.0
 41
1390.575160492791
 10
66.97687922673978
 20
208.3866619527587
 30
0.0
 41
983.5674674615224
 10
68.93902108387952
 20
208.1512047730283
 30
0.0
 41
1387.665518967721
  0
SPLINE
  5
9B
330
1F
100
AcDbEntity
  8
Linee visibili 2D
100
AcDbSpline
210
0.0
220
0.0
230
1.0
 70
    24
 71
     2
 72
     6
 73
     3
 74
     0
 42
0.0000000001
 43
0.0000000001
 40
-10.72133683667717
 40
-10.72133683667717
 40
-10.72133683667717
 40
0.0
 40
0.0
 40
0.0
 10
68.93902108387952
 20
208.1512047730283
 30
0.0
 10
74.26150454491707
 20
207.5125063321703
 30
0.0
 10
79.58398800595462
 20
206.8738078913122
 30
0.0
  0
SPLINE
  5
9C
330
1F
100
AcDbEntity
  8
Linee visibili 2D
100
AcDbSpline
210
0.0
220
0.0
230
1.0
 70
    12
 71
     2
 72
     6
 73
     3
 74
     0
 42
0.0000000001
 43
0.0000000001
 40
-0.2637962169582175
 40
-0.2637962169582175
 40
-0.2637962169582175
 40
0.0
 40
0.0
 40
0.0
 10
79.58398800595462
 20
206.8738078913122
 30
0.0
 41
1.0
 10
79.71546787880393
 20
206.8579107243541
 30
0.0
 41
0.9939025972069812
 10
79.84723533067645
 20
206.8712177117246
 30
0.0
 41
1.0
  0
SPLINE
  5
9D
330
1F
100
AcDbEntity
  8
Linee visibili 2D
100
AcDbSpline
210
0.0
220
0.0
230
1.0
 70
    24
 71
     2
 72
     6
 73
     3
 74
     0
 42
0.0000000001
 43
0.0000000001
 40
0.0
 40
0.0
 40
0.0
 40
500.5
 40
500.5
 40
500.5
 10
404.6225860618198
 20
621.7461179749814
 30
0.0
 10
404.6225860618198
 20
871.9961179749814
 30
0.0
 10
404.6225860618198
 20
1122.246117974981
 30
0.0
  0
SPLINE
  5
9E
330
1F
100
AcDbEntity
  8
Linee visibili 2D
100
AcDbSpline
210
0.0
220
0.0
230
1.0
 70
    24
 71
     2
 72
     6
 73
     3
 74
     0
 42
0.0000000001
 43
0.0000000001
 40
0.0
 40
0.0
 40
0.0
 40
23.37646808683763
 40
23.37646808683763
 40
23.37646808683763
 10
404.6225860618198
 20
1122.246117974981
 30
0.0
 10
392.934352018401
 20
1122.246117974981
 30
0.0
 10
381.2461179749822
 20
1122.246117974981
 30
0.0
  0
SPLINE
  5
9F
330
1F
100
AcDbEntity
  8
Linee visibili 2D
100
AcDbSpline
210
0.0
220
0.0
230
1.0
 70
    24
 71
     2
 72
     6
 73
     3
 74
     0
 42
0.0000000001
 43
0.0000000001
 40
-23.37646808683769
 40
-23.37646808683769
 40
-23.37646808683769
 40
0.0
 40
0.0
 40
0.0
 10
381.2461179749822
 20
1122.246117974981
 30
0.0
 10
369.5578839315634
 20
1122.246117974981
 30
0.0
 10
357.8696498881445
 20
1122.246117974981
 30
0.0
  0
SPLINE
  5
A0
330
1F
100
AcDbEntity
  8
Linee visibili 2D
100
AcDbSpline
210
0.0
220
0.0
230
1.0
 70
    24
 71
     2
 72
     6
 73
     3
 74
     0
 42
0.0000000001
 43
0.0000000001
 40
0.0
 40
0.0
 40
0.0
 40
500.5
 40
500.5
 40
500.5
 10
357.8696498881445
 20
1122.246117974981
 30
0.0
 10
357.8696498881445
 20
871.9961179749814
 30
0.0
 10
357.8696498881445
 20
621.7461179749814
 30
0.0
  0
SPLINE
  5
A1
330
1F
100
AcDbEntity
  8
Linee visibili 2D
100
AcDbSpline
210
0.0
220
0.0
230
1.0
 70
    24
 71
     2
 72
     6
 73
     3
 74
     0
 42
0.0000000001
 43
0.0000000001
 40
0.0
 40
0.0
 40
0.0
 40
256.9911969768871
 40
256.9911969768871
 40
256.9911969768871
 10
162.5
 20
1117.717006840413
 30
0.0
 10
162.5000000000001
 20
989.221408351969
 30
0.0
 10
162.5000000000001
 20
860.7258098635255
 30
0.0
  0
SPLINE
  5
A2
330
1F
100
AcDbEntity
  8
Linee visibili 2D
100
AcDbSpline
210
0.0
220
0.0
230
1.0
 70
    24
 71
     2
 72
     6
 73
     3
 74
     0
 42
0.0000000001
 43
0.0000000001
 40
0.0
 40
0.0
 40
0.0
 40
158.0043253562337
 40
158.0043253562337
 40
158.0043253562337
 10
162.5000000000001
 20
860.7258098635255
 30
0.0
 10
83.49783732188325
 20
860.7258098635255
 30
0.0
 10
4.495674643766392
 20
860.7258098635255
 30
0.0
  0
SPLINE
  5
A3
330
1F
100
AcDbEntity
  8
Linee visibili 2D
100
AcDbSpline
210
0.0
220
0.0
230
1.0
 70
    24
 71
     2
 72
     6
 73
     3
 74
     0
 42
0.0000000001
 43
0.0000000001
 40
0.0
 40
0.0
 40
0.0
 40
256.9911969768871
 40
256.9911969768871
 40
256.9911969768871
 10
4.495674643766392
 20
860.7258098635255
 30
0.0
 10
4.495674643766392
 20
989.221408351969
 30
0.0
 10
4.495674643766392
 20
1117.717006840413
 30
0.0
  0
SPLINE
  5
A4
330
1F
100
AcDbEntity
  8
Linee visibili 2D
100
AcDbSpline
210
0.0
220
0.0
230
1.0
 70
    24
 71
     2
 72
     6
 73
     3
 74
     0
 42
0.0000000001
 43
0.0000000001
 40
0.0
 40
0.0
 40
0.0
 40
158.0043253562336
 40
158.0043253562336
 40
158.0043253562336
 10
4.495674643766392
 20
1117.717006840413
 30
0.0
 10
83.4978373218832
 20
1117.717006840413
 30
0.0
 10
162.5
 20
1117.717006840413
 30
0.0
  0
SPLINE
  5
A5
330
1F
100
AcDbEntity
  8
Linee visibili 2D
100
AcDbSpline
210
0.0
220
0.0
230
1.0
 70
    24
 71
     2
 72
     6
 73
     3
 74
     0
 42
0.0000000001
 43
0.0000000001
 40
0.0
 40
0.0
 40
0.0
 40
41.79915240365955
 40
41.79915240365955
 40
41.79915240365955
 10
40.93430393852645
 20
38.70415223109923
 30
0.0
 10
20.46715196926322
 20
34.47473434169954
 30
0.0
 10
-0.0000000000000025
 20
30.24531645229985
 30
0.0
  0
SPLINE
  5
A6
330
1F
100
AcDbEntity
  8
Linee visibili 2D
100
AcDbSpline
210
0.0
220
0.0
230
1.0
 70
    24
 71
     2
 72
     6
 73
     3
 74
     0
 42
0.0000000001
 43
0.0000000001
 40
0.0
 40
0.0
 40
0.0
 40
3.593077983633871
 40
3.593077983633871
 40
3.593077983633871
 10
-0.0000000000000025
 20
30.24531645229985
 30
0.0
 10
0.030321754411803
 20
28.44903336204709
 30
0.0
 10
0.0606435088236084
 20
26.65275027179433
 30
0.0
  0
SPLINE
  5
A7
330
1F
100
AcDbEntity
  8
Linee visibili 2D
100
AcDbSpline
210
0.0
220
0.0
230
1.0
 70
    24
 71
     2
 72
     6
 73
     3
 74
     0
 42
0.0000000001
 43
0.0000000001
 40
-76.6198964764605
 40
-76.6198964764605
 40
-76.6198964764605
 40
0.0
 40
0.0
 40
0.0
 10
0.0606435088236084
 20
26.65275027179433
 30
0.0
 10
35.97804680796568
 20
13.32637513589717
 30
0.0
 10
71.89545010710776
 20
0.0000000000000072
 30
0.0
  0
SPLINE
  5
A8
330
1F
100
AcDbEntity
  8
Linee visibili 2D
100
AcDbSpline
210
0.0
220
0.0
230
1.0
 70
    24
 71
     2
 72
     6
 73
     3
 74
     0
 42
0.0000000001
 43
0.0000000001
 40
0.0
 40
0.0
 40
0.0
 40
0.7294074003767784
 40
0.7294074003767784
 40
0.7294074003767784
 10
38.05645549955677
 20
394.7741340794353
 30
0.0
 10
38.05166334341681
 20
395.1388062941304
 30
0.0
 10
38.04687118727684
 20
395.5034785088255
 30
0.0
  0
SPLINE
  5
A9
330
1F
100
AcDbEntity
  8
Linee visibili 2D
100
AcDbSpline
210
0.0
220
0.0
230
1.0
 70
    24
 71
     2
 72
     6
 73
     3
 74
     0
 42
0.0000000001
 43
0.0000000001
 40
0.0
 40
0.0
 40
0.0
 40
71.63100866373858
 40
71.63100866373858
 40
71.63100866373858
 10
38.04687118727684
 20
395.5034785088255
 30
0.0
 10
73.64253749169244
 20
399.4656611006353
 30
0.0
 10
109.238203796108
 20
403.4278436924451
 30
0.0
  0
SPLINE
  5
AA
330
1F
100
AcDbEntity
  8
Linee visibili 2D
100
AcDbSpline
210
0.0
220
0.0
230
1.0
 70
    24
 71
     2
 72
     6
 73
     3
 74
     0
 42
0.0000000001
 43
0.0000000001
 40
0.0
 40
0.0
 40
0.0
 40
204.633865476506
 40
204.633865476506
 40
204.633865476506
 10
109.238203796108
 20
403.4278436924451
 30
0.0
 10
109.9661920355015
 20
301.1135008167393
 30
0.0
 10
110.6941802748951
 20
198.7991579410335
 30
0.0
  0
SPLINE
  5
AB
330
1F
100
AcDbEntity
  8
Linee visibili 2D
100
AcDbSpline
210
0.0
220
0.0
230
1.0
 70
    24
 71
     2
 72
     6
 73
     3
 74
     0
 42
0.0000000001
 43
0.0000000001
 40
0.0
 40
0.0
 40
0.0
 40
70.72392770674821
 40
70.72392770674821
 40
70.72392770674821
 10
110.6941802748951
 20
198.7991579410335
 30
0.0
 10
75.60532870180731
 20
203.185612414655
 30
0.0
 10
40.51647712871956
 20
207.5720668882764
 30
0.0
  0
SPLINE
  5
AC
330
1F
100
AcDbEntity
  8
Linee visibili 2D
100
AcDbSpline
210
0.0
220
0.0
230
1.0
 70
    24
 71
     2
 72
     6
 73
     3
 74
     0
 42
0.0000000001
 43
0.0000000001
 40
0.0
 40
0.0
 40
0.0
 40
0.3406988099673241
 40
0.3406988099673241
 40
0.3406988099673241
 10
40.51647712871956
 20
207.5720668882764
 30
0.0
 10
40.51423876111701
 20
207.742401586705
 30
0.0
 10
40.51200039351446
 20
207.9127362851336
 30
0.0
  0
SPLINE
  5
AD
330
1F
100
AcDbEntity
  8
Linee visibili 2D
100
AcDbSpline
210
0.0
220
0.0
230
1.0
 70
    24
 71
     2
 72
     6
 73
     3
 74
     0
 42
0.0000000001
 43
0.0000000001
 40
0.0
 40
0.0
 40
0.0
 40
24.0
 40
24.0
 40
24.0
 10
71.500000000001
 20
875.2217315080597
 30
0.0
 10
83.500000000001
 20
875.2217315080597
 30
0.0
 10
95.500000000001
 20
875.2217315080597
 30
0.0
  0
SPLINE
  5
AE
330
1F
100
AcDbEntity
  8
Linee visibili 2D
100
AcDbSpline
210
0.0
220
0.0
230
1.0
 70
    12
 71
     2
 72
     8
 73
     5
 74
     0
 42
0.0000000001
 43
0.0000000001
 40
0.0
 40
0.0
 40
0.0
 40
7.055382951107426
 40
7.055382951107426
 40
14.11076590221501
 40
14.11076590221501
 40
14.11076590221501
 10
95.500000000001
 20
875.2217315080597
 30
0.0
 41
1.0
 10
99.99159628830124
 20
875.2217315080601
 30
0.0
 41
0.7071067811865184
 10
99.99159628830114
 20
870.7301352197597
 30
0.0
 41
1.0
 10
99.99159628830166
 20
866.2385389314592
 30
0.0
 41
0.7071067811864513
 10
95.500000000001
 20
866.2385389314597
 30
0.0
 41
1.0
  0
SPLINE
  5
AF
330
1F
100
AcDbEntity
  8
Linee visibili 2D
100
AcDbSpline
210
0.0
220
0.0
230
1.0
 70
    24
 71
     2
 72
     6
 73
     3
 74
     0
 42
0.0000000001
 43
0.0000000001
 40
0.0
 40
0.0
 40
0.0
 40
24.0
 40
24.0
 40
24.0
 10
95.500000000001
 20
866.2385389314597
 30
0.0
 10
83.500000000001
 20
866.2385389314597
 30
0.0
 10
71.500000000001
 20
866.2385389314597
 30
0.0
  0
SPLINE
  5
B0
330
1F
100
AcDbEntity
  8
Linee visibili 2D
100
AcDbSpline
210
0.0
220
0.0
230
1.0
 70
    12
 71
     2
 72
     8
 73
     5
 74
     0
 42
0.0000000001
 43
0.0000000001
 40
-14.11076590221432
 40
-14.11076590221432
 40
-14.11076590221432
 40
-7.055382951107209
 40
-7.055382951107209
 40
0.0
 40
0.0
 40
0.0
 10
71.500000000001
 20
866.2385389314597
 30
0.0
 41
1.0
 10
67.00840371170122
 20
866.2385389314599
 30
0.0
 41
0.70710678118658
 10
67.00840371170092
 20
870.7301352197597
 30
0.0
 41
1.0
 10
67.00840371170113
 20
875.2217315080595
 30
0.0
 41
0.7071067811865777
 10
71.500000000001
 20
875.2217315080597
 30
0.0
 41
1.0
  0
SPLINE
  5
B1
330
1F
100
AcDbEntity
  8
Linee visibili 2D
100
AcDbSpline
210
0.0
220
0.0
230
1.0
 70
    24
 71
     2
 72
     6
 73
     3
 74
     0
 42
0.0000000001
 43
0.0000000001
 40
0.0
 40
0.0
 40
0.0
 40
393.3252221880095
 40
393.3252221880095
 40
393.3252221880095
 10
111.4277176129551
 20
407.3547784811657
 30
0.0
 10
112.7901356169072
 20
210.6968866499598
 30
0.0
 10
114.1525536208592
 20
14.03899481875391
 30
0.0
  0
SPLINE
  5
B2
330
1F
100
AcDbEntity
  8
Linee visibili 2D
100
AcDbSpline
210
0.0
220
0.0
230
1.0
 70
    24
 71
     2
 72
     6
 73
     3
 74
     0
 42
0.0000000001
 43
0.0000000001
 40
0.0
 40
0.0
 40
0.0
 40
77.26112914474001
 40
77.26112914474001
 40
77.26112914474001
 10
114.1525536208592
 20
14.03899481875391
 30
0.0
 10
77.54342877969283
 20
26.37157352492657
 30
0.0
 10
40.93430393852645
 20
38.70415223109924
 30
0.0
  0
SPLINE
  5
B3
330
1F
100
AcDbEntity
  8
Linee visibili 2D
100
AcDbSpline
210
0.0
220
0.0
230
1.0
 70
    24
 71
     2
 72
     6
 73
     3
 74
     0
 42
0.0000000001
 43
0.0000000001
 40
0.0
 40
0.0
 40
0.0
 40
236.8981197860249
 40
236.8981197860249
 40
236.8981197860249
 10
40.93430393852645
 20
38.70415223109924
 30
0.0
 10
39.35929829530548
 20
157.1427403126965
 30
0.0
 10
37.7842926520845
 20
275.5813283942938
 30
0.0
  0
SPLINE
  5
B4
330
1F
100
AcDbEntity
  8
Linee visibili 2D
100
AcDbSpline
210
0.0
220
0.0
230
1.0
 70
    24
 71
     2
 72
     6
 73
     3
 74
     0
 42
0.0000000001
 43
0.0000000001
 40
0.0
 40
0.0
 40
0.0
 40
61.17955293368916
 40
61.17955293368916
 40
61.17955293368916
 10
36.96113989653705
 20
337.481455903131
 30
0.0
 10
36.55439061035727
 20
368.0685279975586
 30
0.0
 10
36.1476413241775
 20
398.6556000919862
 30
0.0
  0
SPLINE
  5
B5
330
1F
100
AcDbEntity
  8
Linee visibili 2D
100
AcDbSpline
210
0.0
220
0.0
230
1.0
 70
    24
 71
     2
 72
     6
 73
     3
 74
     0
 42
0.0000000001
 43
0.0000000001
 40
0.0
 40
0.0
 40
0.0
 40
75.78103714446607
 40
75.78103714446607
 40
75.78103714446607
 10
36.1476413241775
 20
398.6556000919862
 30
0.0
 10
73.7876794685663
 20
403.005189286576
 30
0.0
 10
111.4277176129551
 20
407.3547784811657
 30
0.0
  0
SPLINE
  5
B6
330
1F
100
AcDbEntity
  8
Linee visibili 2D
100
AcDbSpline
210
0.0
220
0.0
230
1.0
 70
    24
 71
     2
 72
     6
 73
     3
 74
     0
 42
0.0000000001
 43
0.0000000001
 40
-14.74354384324308
 40
-14.74354384324308
 40
-14.74354384324308
 40
0.0
 40
0.0
 40
0.0
 10
111.4277176129551
 20
407.3547784811657
 30
0.0
 10
118.775078283727
 20
406.7553517233362
 30
0.0
 10
126.1224389544989
 20
406.1559249655067
 30
0.0
  0
SPLINE
  5
B7
330
1F
100
AcDbEntity
  8
Linee visibili 2D
100
AcDbSpline
210
0.0
220
0.0
230
1.0
 70
    24
 71
     2
 72
     6
 73
     3
 74
     0
 42
0.0000000001
 43
0.0000000001
 40
0.0
 40
0.0
 40
0.0
 40
14.39499810897305
 40
14.39499810897305
 40
14.39499810897305
 10
126.1224389544989
 20
406.1559249655067
 30
0.0
 10
133.2961038539441
 20
405.5706689960351
 30
0.0
 10
140.4697687533893
 20
404.9854130265635
 30
0.0
  0
SPLINE
  5
B8
330
1F
100
AcDbEntity
  8
Linee visibili 2D
100
AcDbSpline
210
0.0
220
0.0
230
1.0
 70
    24
 71
     2
 72
     6
 73
     3
 74
     0
 42
0.0000000001
 43
0.0000000001
 40
-384.2464115380516
 40
-384.2464115380516
 40
-384.2464115380516
 40
0.0
 40
0.0
 40
0.0
 10
140.4697687533893
 20
404.9854130265635
 30
0.0
 10
141.3295073921479
 20
212.8641309039407
 30
0.0
 10
142.1892460309065
 20
20.74284878131779
 30
0.0
  0
SPLINE
  5
B9
330
1F
100
AcDbEntity
  8
Linee visibili 2D
100
AcDbSpline
210
0.0
220
0.0
230
1.0
 70
     8
 71
     3
 72
    14
 73
    10
 74
     0
 42
0.0000000001
 43
0.0000000001
 40
0.0
 40
0.0
 40
0.0
 40
0.0
 40
17.09975997793449
 40
34.4927090706845
 40
52.91057508085169
 40
72.14562146336601
 40
110.8613515301817
 40
129.0576109379376
 40
146.1060546639514
 40
146.1060546639514
 40
146.1060546639514
 40
146.1060546639514
 10
34.04680570474913
 20
985.7598641100536
 30
0.0
 10
33.24844809445862
 20
980.117091687607
 30
0.0
 10
34.38418882354597
 20
968.3597841163788
 30
0.0
 10
43.69179103756252
 20
952.9173017058288
 30
0.0
 10
58.84440460687598
 20
941.96327118784
 30
0.0
 10
83.65527587837103
 20
935.0150416068558
 30
0.0
 10
109.943621297457
 20
940.9360332854179
 30
0.0
 10
127.8829420083723
 20
958.6705619872442
 30
0.0
 10
132.1694621593049
 20
969.8828459695854
 30
0.0
 10
132.9575090540816
 20
975.5588309737254
 30
0.0
  0
SPLINE
  5
BA
330
1F
100
AcDbEntity
  8
Linee visibili 2D
100
AcDbSpline
210
0.0
220
0.0
230
1.0
 70
     8
 71
     3
 72
    14
 73
    10
 74
     0
 42
0.0000000001
 43
0.0000000001
 40
0.0
 40
0.0
 40
0.0
 40
0.0
 40
17.24891121953766
 40
34.54632325131619
 40
53.11682047444396
 40
72.3239834517615
 40
110.7884263576141
 40
129.0113777574808
 40
146.0419291113126
 40
146.0419291113126
 40
146.0419291113126
 40
146.0419291113126
 10
132.9575090540816
 20
975.5588309737254
 30
0.0
 10
133.7576298438665
 20
981.2900111121428
 30
0.0
 10
132.5718365759137
 20
993.06692949347
 30
0.0
 10
123.1661283482123
 20
1008.527458656209
 30
0.0
 10
107.9600107945103
 20
1019.424455134656
 30
0.0
 10
83.1517063285151
 20
1026.242855911256
 30
0.0
 10
56.99235619944514
 20
1020.291423635215
 30
0.0
 10
39.11247202354803
 20
1002.609614063753
 30
0.0
 10
34.82706292617392
 20
991.3911968552115
 30
0.0
 10
34.04680570474913
 20
985.7598641100536
 30
0.0
  0
ENDSEC
  0
SECTION
  2
OBJECTS
  0
DICTIONARY
  5
C
330
0
100
AcDbDictionary
281
     1
  3
ACAD_GROUP
350
D
  3
ACAD_LAYOUT
350
1A
  3
ACAD_MLEADERSTYLE
350
BC
  3
ACAD_MLINESTYLE
350
17
  3
ACAD_PLOTSETTINGS
350
19
  3
ACAD_PLOTSTYLENAME
350
E
  3
ACAD_TABLESTYLE
350
BB
  3
ACAD_VISUALSTYLE
350
2A
  0
DICTIONARY
  5
D
102
{ACAD_REACTORS
330
C
102
}
330
C
100
AcDbDictionary
281
     1
  0
DICTIONARY
  5
1A
102
{ACAD_REACTORS
330
C
102
}
330
C
100
AcDbDictionary
281
     1
  3
Layout1
350
1E
  3
Layout2
350
26
  3
Model
350
22
  0
DICTIONARY
  5
BC
102
{ACAD_REACTORS
330
C
102
}
330
C
100
AcDbDictionary
281
     1
  0
DICTIONARY
  5
17
102
{ACAD_REACTORS
330
C
102
}
330
C
100
AcDbDictionary
281
     1
  3
Standard
350
18
  0
DICTIONARY
  5
19
102
{ACAD_REACTORS
330
C
102
}
330
C
100
AcDbDictionary
281
     1
  0
ACDBDICTIONARYWDFLT
  5
E
102
{ACAD_REACTORS
330
C
102
}
330
C
100
AcDbDictionary
281
     1
  3
Normal
350
F
100
AcDbDictionaryWithDefault
340
F
  0
DICTIONARY
  5
BB
102
{ACAD_REACTORS
330
C
102
}
330
C
100
AcDbDictionary
281
     1
  0
DICTIONARY
  5
2A
102
{ACAD_REACTORS
330
C
102
}
330
C
100
AcDbDictionary
281
     1
  3
2dWireframe
350
2F
  3
3D Hidden
350
31
  3
3dWireframe
350
30
  3
Basic
350
32
  3
Brighten
350
36
  3
ColorChange
350
3A
  3
Conceptual
350
34
  3
Dim
350
35
  3
Facepattern
350
39
  3
Flat
350
2B
  3
FlatWithEdges
350
2C
  3
Gouraud
350
2D
  3
GouraudWithEdges
350
2E
  3
Linepattern
350
38
  3
Realistic
350
33
  3
Thicken
350
37
  0
LAYOUT
  5
1E
102
{ACAD_REACTORS
330
1A
102
}
330
1A
100
AcDbPlotSettings
  1

  2
none_device
  4

  6

 40
0.0
 41
0.0
 42
0.0
 43
0.0
 44
0.0
 45
0.0
 46
0.0
 47
0.0
 48
0.0
 49
0.0
140
0.0
141
0.0
142
1.0
143
1.0
 70
   688
 72
     0
 73
     0
 74
     5
  7

 75
    16
 76
     0
 77
     2
 78
   300
147
1.0
148
0.0
149
0.0
100
AcDbLayout
  1
Layout1
 70
     1
 71
     1
 10
0.0
 20
0.0
 11
12.0
 21
9.0
 12
0.0
 22
0.0
 32
0.0
 14
1.000000000000000E+20
 24
1.000000000000000E+20
 34
1.000000000000000E+20
 15
-1.000000000000000E+20
 25
-1.000000000000000E+20
 35
-1.000000000000000E+20
146
0.0
 13
0.0
 23
0.0
 33
0.0
 16
1.0
 26
0.0
 36
0.0
 17
0.0
 27
1.0
 37
0.0
 76
     0
330
1B
  0
LAYOUT
  5
26
102
{ACAD_REACTORS
330
1A
102
}
330
1A
100
AcDbPlotSettings
  1

  2
none_device
  4

  6

 40
0.0
 41
0.0
 42
0.0
 43
0.0
 44
0.0
 45
0.0
 46
0.0
 47
0.0
 48
0.0
 49
0.0
140
0.0
141
0.0
142
1.0
143
1.0
 70
   688
 72
     0
 73
     0
 74
     5
  7

 75
    16
 76
     0
 77
     2
 78
   300
147
1.0
148
0.0
149
0.0
100
AcDbLayout
  1
Layout2
 70
     1
 71
     2
 10
0.0
 20
0.0
 11
0.0
 21
0.0
 12
0.0
 22
0.0
 32
0.0
 14
0.0
 24
0.0
 34
0.0
 15
0.0
 25
0.0
 35
0.0
146
0.0
 13
0.0
 23
0.0
 33
0.0
 16
1.0
 26
0.0
 36
0.0
 17
0.0
 27
1.0
 37
0.0
 76
     0
330
23
  0
LAYOUT
  5
22
102
{ACAD_REACTORS
330
1A
102
}
330
1A
100
AcDbPlotSettings
  1

  2
none_device
  4

  6

 40
0.0
 41
0.0
 42
0.0
 43
0.0
 44
0.0
 45
0.0
 46
0.0
 47
0.0
 48
0.0
 49
0.0
140
0.0
141
0.0
142
1.0
143
1.0
 70
  1712
 72
     0
 73
     0
 74
     0
  7

 75
     0
 76
     0
 77
     2
 78
   300
147
1.0
148
0.0
149
0.0
100
AcDbLayout
  1
Model
 70
     1
 71
     0
 10
0.0
 20
0.0
 11
12.0
 21
9.0
 12
0.0
 22
0.0
 32
0.0
 14
-0.0000000000000025
 24
0.0
 34
0.0
 15
471.2461179749824
 25
1122.246117974981
 35
0.0
146
0.0
 13
0.0
 23
0.0
 33
0.0
 16
1.0
 26
0.0
 36
0.0
 17
0.0
 27
1.0
 37
0.0
 76
     0
330
1F
331
29
  0
MLINESTYLE
  5
18
102
{ACAD_REACTORS
330
17
102
}
330
17
100
AcDbMlineStyle
  2
Standard
 70
     0
  3

 62
   256
 51
90.0
 52
90.0
 71
     2
 49
0.5
 62
   256
  6
BYLAYER
 49
-0.5
 62
   256
  6
BYLAYER
  0
ACDBPLACEHOLDER
  5
F
102
{ACAD_REACTORS
330
E
102
}
330
E
  0
VISUALSTYLE
  5
2F
102
{ACAD_REACTORS
330
2A
102
}
330
2A
100
AcDbVisualStyle
  2
2dWireframe
 70
     4
 71
     0
 72
     2
 73
     0
 90
        0
 40
-0.6
 41
-30.0
 62
     5
 63
     7
421
 16777215
 74
     1
 91
        4
 64
     7
 65
   257
 75
     1
175
     1
 42
1.0
 92
        0
 66
   257
 43
1.0
 76
     1
 77
     6
 78
     2
 67
     7
 79
     5
170
     0
171
     0
290
     0
174
     0
 93
        1
 44
0.0
173
     0
291
     0
 45
0.0
1001
ACAD
1000
AcDbSavedByObjectVersion
1070
     0
  0
VISUALSTYLE
  5
31
102
{ACAD_REACTORS
330
2A
102
}
330
2A
100
AcDbVisualStyle
  2
3D Hidden
 70
     6
 71
     1
 72
     2
 73
     2
 90
        0
 40
-0.6
 41
-30.0
 62
     5
 63
     7
421
 16777215
 74
     2
 91
        2
 64
     7
 65
   257
 75
     2
175
     1
 42
40.0
 92
        0
 66
   257
 43
1.0
 76
     1
 77
     6
 78
     2
 67
     7
 79
     3
170
     0
171
     0
290
     0
174
     0
 93
        1
 44
0.0
173
     0
291
     0
 45
0.0
1001
ACAD
1000
AcDbSavedByObjectVersion
1070
     0
  0
VISUALSTYLE
  5
30
102
{ACAD_REACTORS
330
2A
102
}
330
2A
100
AcDbVisualStyle
  2
3dWireframe
 70
     5
 71
     0
 72
     2
 73
     0
 90
        0
 40
-0.6
 41
-30.0
 62
     5
 63
     7
421
 16777215
 74
     1
 91
        4
 64
     7
 65
   257
 75
     1
175
     1
 42
1.0
 92
        0
 66
   257
 43
1.0
 76
     1
 77
     6
 78
     2
 67
     7
 79
     5
170
     0
171
     0
290
     0
174
     0
 93
        1
 44
0.0
173
     0
291
     0
 45
0.0
1001
ACAD
1000
AcDbSavedByObjectVersion
1070
     0
  0
VISUALSTYLE
  5
32
102
{ACAD_REACTORS
330
2A
102
}
330
2A
100
AcDbVisualStyle
  2
Basic
 70
     7
 71
     1
 72
     0
 73
     1
 90
        0
 40
-0.6
 41
-30.0
 62
     5
 63
     7
421
 16777215
 74
     0
 91
        4
 64
     7
 65
   257
 75
     1
175
     1
 42
1.0
 92
        8
 66
     7
 43
1.0
 76
     1
 77
     6
 78
     2
 67
     7
 79
     5
170
     0
171
     0
290
     0
174
     0
 93
        1
 44
0.0
173
     0
291
     1
 45
0.0
1001
ACAD
1000
AcDbSavedByObjectVersion
1070
     0
  0
VISUALSTYLE
  5
36
102
{ACAD_REACTORS
330
2A
102
}
330
2A
100
AcDbVisualStyle
  2
Brighten
 70
    12
 71
     2
 72
     2
 73
     0
 90
        0
 40
-0.6
 41
-30.0
 62
     5
 63
     7
421
 16777215
 74
     1
 91
        4
 64
     7
 65
   257
 75
     1
175
     1
 42
1.0
 92
        8
 66
     7
 43
1.0
 76
     1
 77
     6
 78
     2
 67
     7
 79
     5
170
     0
171
     0
290
     0
174
     0
 93
        1
 44
50.0
173
     0
291
     1
 45
0.0
1001
ACAD
1000
AcDbSavedByObjectVersion
1070
     0
  0
VISUALSTYLE
  5
3A
102
{ACAD_REACTORS
330
2A
102
}
330
2A
100
AcDbVisualStyle
  2
ColorChange
 70
    16
 71
     2
 72
     2
 73
     3
 90
        0
 40
-0.6
 41
-30.0
 62
     5
 63
     8
421
  8421504
 74
     1
 91
        4
 64
     7
 65
   257
 75
     1
175
     1
 42
1.0
 92
        8
 66
     8
424
  8421504
 43
1.0
 76
     1
 77
     6
 78
     2
 67
     7
 79
     5
170
     0
171
     0
290
     0
174
     0
 93
        1
 44
0.0
173
     0
291
     1
 45
0.0
1001
ACAD
1000
AcDbSavedByObjectVersion
1070
     0
  0
VISUALSTYLE
  5
34
102
{ACAD_REACTORS
330
2A
102
}
330
2A
100
AcDbVisualStyle
  2
Conceptual
 70
     9
 71
     3
 72
     2
 73
     0
 90
        0
 40
-0.6
 41
-30.0
 62
     5
 63
     7
421
 16777215
 74
     2
 91
        2
 64
     7
 65
   257
 75
     1
175
     1
 42
40.0
 92
        8
 66
     7
 43
1.0
 76
     1
 77
     6
 78
     2
 67
     7
 79
     3
170
     0
171
     0
290
     0
174
     0
 93
        1
 44
0.0
173
     0
291
     0
 45
0.0
1001
ACAD
1000
AcDbSavedByObjectVersion
1070
     0
  0
VISUALSTYLE
  5
35
102
{ACAD_REACTORS
330
2A
102
}
330
2A
100
AcDbVisualStyle
  2
Dim
 70
    11
 71
     2
 72
     2
 73
     0
 90
        0
 40
-0.6
 41
-30.0
 62
     5
 63
     7
421
 16777215
 74
     1
 91
        4
 64
     7
 65
   257
 75
     1
175
     1
 42
1.0
 92
        8
 66
     7
 43
1.0
 76
     1
 77
     6
 78
     2
 67
     7
 79
     5
170
     0
171
     0
290
     0
174
     0
 93
        1
 44
-50.0
173
     0
291
     1
 45
0.0
1001
ACAD
1000
AcDbSavedByObjectVersion
1070
     0
  0
VISUALSTYLE
  5
39
102
{ACAD_REACTORS
330
2A
102
}
330
2A
100
AcDbVisualStyle
  2
Facepattern
 70
    15
 71
     2
 72
     2
 73
     0
 90
        0
 40
-0.6
 41
-30.0
 62
     5
 63
     7
421
 16777215
 74
     1
 91
        4
 64
     7
 65
   257
 75
     1
175
     1
 42
1.0
 92
        8
 66
     7
 43
1.0
 76
     1
 77
     6
 78
     2
 67
     7
 79
     5
170
     0
171
     0
290
     0
174
     0
 93
        1
 44
0.0
173
     0
291
     1
 45
0.0
1001
ACAD
1000
AcDbSavedByObjectVersion
1070
     0
  0
VISUALSTYLE
  5
2B
102
{ACAD_REACTORS
330
2A
102
}
330
2A
100
AcDbVisualStyle
  2
Flat
 70
     0
 71
     2
 72
     1
 73
     1
 90
        2
 40
-0.6
 41
30.0
 62
     5
 63
     7
421
 16777215
 74
     0
 91
        4
 64
     7
 65
   257
 75
     1
175
     1
 42
1.0
 92
        8
 66
     7
 43
1.0
 76
     1
 77
     6
 78
     2
 67
     7
 79
     5
170
     0
171
     0
290
     0
174
     0
 93
       13
 44
0.0
173
     0
291
     1
 45
0.0
1001
ACAD
1000
AcDbSavedByObjectVersion
1070
     0
  0
VISUALSTYLE
  5
2C
102
{ACAD_REACTORS
330
2A
102
}
330
2A
100
AcDbVisualStyle
  2
FlatWithEdges
 70
     1
 71
     2
 72
     1
 73
     1
 90
        2
 40
-0.6
 41
30.0
 62
     5
 63
     7
421
 16777215
 74
     1
 91
        4
 64
     7
 65
   257
 75
     1
175
     1
 42
1.0
 92
        0
 66
   257
 43
1.0
 76
     1
 77
     6
 78
     2
 67
     7
 79
     5
170
     0
171
     0
290
     0
174
     0
 93
       13
 44
0.0
173
     0
291
     1
 45
0.0
1001
ACAD
1000
AcDbSavedByObjectVersion
1070
     0
  0
VISUALSTYLE
  5
2D
102
{ACAD_REACTORS
330
2A
102
}
330
2A
100
AcDbVisualStyle
  2
Gouraud
 70
     2
 71
     2
 72
     2
 73
     1
 90
        2
 40
-0.6
 41
30.0
 62
     5
 63
     7
421
 16777215
 74
     0
 91
        4
 64
     7
 65
   257
 75
     1
175
     1
 42
1.0
 92
        0
 66
     7
 43
1.0
 76
     1
 77
     6
 78
     2
 67
     7
 79
     5
170
     0
171
     0
290
     0
174
     0
 93
       13
 44
0.0
173
     0
291
     1
 45
0.0
1001
ACAD
1000
AcDbSavedByObjectVersion
1070
     0
  0
VISUALSTYLE
  5
2E
102
{ACAD_REACTORS
330
2A
102
}
330
2A
100
AcDbVisualStyle
  2
GouraudWithEdges
 70
     3
 71
     2
 72
     2
 73
     1
 90
        2
 40
-0.6
 41
30.0
 62
     5
 63
     7
421
 16777215
 74
     1
 91
        4
 64
     7
 65
   257
 75
     1
175
     1
 42
1.0
 92
        0
 66
   257
 43
1.0
 76
     1
 77
     6
 78
     2
 67
     7
 79
     5
170
     0
171
     0
290
     0
174
     0
 93
       13
 44
0.0
173
     0
291
     1
 45
0.0
1001
ACAD
1000
AcDbSavedByObjectVersion
1070
     0
  0
VISUALSTYLE
  5
38
102
{ACAD_REACTORS
330
2A
102
}
330
2A
100
AcDbVisualStyle
  2
Linepattern
 70
    14
 71
     2
 72
     2
 73
     0
 90
        0
 40
-0.6
 41
-30.0
 62
     5
 63
     7
421
 16777215
 74
     1
 91
        4
 64
     7
 65
   257
 75
     7
175
     7
 42
1.0
 92
        8
 66
     7
 43
1.0
 76
     1
 77
     6
 78
     2
 67
     7
 79
     5
170
     0
171
     0
290
     0
174
     0
 93
        1
 44
0.0
173
     0
291
     1
 45
0.0
1001
ACAD
1000
AcDbSavedByObjectVersion
1070
     0
  0
VISUALSTYLE
  5
33
102
{ACAD_REACTORS
330
2A
102
}
330
2A
100
AcDbVisualStyle
  2
Realistic
 70
     8
 71
     2
 72
     2
 73
     0
 90
        0
 40
-0.6
 41
-30.0
 62
     5
 63
     7
421
 16777215
 74
     1
 91
        0
 64
     7
 65
   257
 75
     1
175
     1
 42
1.0
 92
        8
 66
     8
424
  7895160
 43
1.0
 76
     1
 77
     6
 78
     2
 67
     7
 79
     5
170
     0
171
     0
290
     0
174
     0
 93
       13
 44
0.0
173
     0
291
     0
 45
0.0
1001
ACAD
1000
AcDbSavedByObjectVersion
1070
     0
  0
VISUALSTYLE
  5
37
102
{ACAD_REACTORS
330
2A
102
}
330
2A
100
AcDbVisualStyle
  2
Thicken
 70
    13
 71
     2
 72
     2
 73
     0
 90
        0
 40
-0.6
 41
-30.0
 62
     5
 63
     7
421
 16777215
 74
     1
 91
        4
 64
     7
 65
   257
 75
     1
175
     1
 42
1.0
 92
       12
 66
     7
 43
1.0
 76
     1
 77
     6
 78
     2
 67
     7
 79
     5
170
     0
171
     0
290
     0
174
     0
 93
        1
 44
0.0
173
     0
291
     1
 45
0.0
1001
ACAD
1000
AcDbSavedByObjectVersion
1070
     0
  0
ENDSEC
  0
EOF
