  0
SECTION
  2
HEADER
  9
$ACADVER
  1
AC1018
  9
$ACADMAINTVER
 70
     0
  9
$DWGCODEPAGE
  3
ANSI_1252
  9
$INSBASE
 10
0.0
 20
0.0
 30
0.0
  9
$EXTMIN
 10
0.0
 20
-0.0000000000000058
 30
0.0
  9
$EXTMAX
 10
528.9664479392364
 20
796.350840076185
 30
0.0
  9
$LIMMIN
 10
0.0
 20
0.0
  9
$LIMMAX
 10
12.0
 20
9.0
  9
$ORTHOMODE
 70
     0
  9
$REGENMODE
 70
     1
  9
$FILLMODE
 70
     1
  9
$QTEXTMODE
 70
     0
  9
$MIRRTEXT
 70
     1
  9
$LTSCALE
 40
1.0
  9
$ATTMODE
 70
     1
  9
$TEXTSIZE
 40
0.2
  9
$TRACEWID
 40
0.05
  9
$TEXTSTYLE
  7
Standard
  9
$CLAYER
  8
0
  9
$CELTYPE
  6
ByLayer
  9
$CECOLOR
 62
   256
  9
$CELTSCALE
 40
1.0
  9
$DISPSILH
 70
     0
  9
$DIMSCALE
 40
1.0
  9
$DIMASZ
 40
0.18
  9
$DIMEXO
 40
0.0625
  9
$DIMDLI
 40
0.38
  9
$DIMRND
 40
0.0
  9
$DIMDLE
 40
0.0
  9
$DIMEXE
 40
0.18
  9
$DIMTP
 40
0.0
  9
$DIMTM
 40
0.0
  9
$DIMTXT
 40
0.18
  9
$DIMCEN
 40
0.09
  9
$DIMTSZ
 40
0.0
  9
$DIMTOL
 70
     0
  9
$DIMLIM
 70
     0
  9
$DIMTIH
 70
     1
  9
$DIMTOH
 70
     1
  9
$DIMSE1
 70
     0
  9
$DIMSE2
 70
     0
  9
$DIMTAD
 70
     0
  9
$DIMZIN
 70
     0
  9
$DIMBLK
  1

  9
$DIMASO
 70
     1
  9
$DIMSHO
 70
     1
  9
$DIMPOST
  1

  9
$DIMAPOST
  1

  9
$DIMALT
 70
     0
  9
$DIMALTD
 70
     2
  9
$DIMALTF
 40
25.4
  9
$DIMLFAC
 40
1.0
  9
$DIMTOFL
 70
     0
  9
$DIMTVP
 40
0.0
  9
$DIMTIX
 70
     0
  9
$DIMSOXD
 70
     0
  9
$DIMSAH
 70
     0
  9
$DIMBLK1
  1

  9
$DIMBLK2
  1

  9
$DIMSTYLE
  2
Standard
  9
$DIMCLRD
 70
     0
  9
$DIMCLRE
 70
     0
  9
$DIMCLRT
 70
     0
  9
$DIMTFAC
 40
1.0
  9
$DIMGAP
 40
0.09
  9
$DIMJUST
 70
     0
  9
$DIMSD1
 70
     0
  9
$DIMSD2
 70
     0
  9
$DIMTOLJ
 70
     1
  9
$DIMTZIN
 70
     0
  9
$DIMALTZ
 70
     0
  9
$DIMALTTZ
 70
     0
  9
$DIMUPT
 70
     0
  9
$DIMDEC
 70
     4
  9
$DIMTDEC
 70
     4
  9
$DIMALTU
 70
     2
  9
$DIMALTTD
 70
     2
  9
$DIMTXSTY
  7
Standard
  9
$DIMAUNIT
 70
     0
  9
$DIMADEC
 70
     0
  9
$DIMALTRND
 40
0.0
  9
$DIMAZIN
 70
     0
  9
$DIMDSEP
 70
    46
  9
$DIMATFIT
 70
     3
  9
$DIMFRAC
 70
     0
  9
$DIMLDRBLK
  1

  9
$DIMLUNIT
 70
     2
  9
$DIMLWD
 70
    -2
  9
$DIMLWE
 70
    -2
  9
$DIMTMOVE
 70
     2
  9
$LUNITS
 70
     2
  9
$LUPREC
 70
     3
  9
$SKETCHINC
 40
0.1
  9
$FILLETRAD
 40
0.5
  9
$AUNITS
 70
     0
  9
$AUPREC
 70
     0
  9
$MENU
  1
.
  9
$ELEVATION
 40
0.0
  9
$PELEVATION
 40
0.0
  9
$THICKNESS
 40
0.0
  9
$LIMCHECK
 70
     0
  9
$CHAMFERA
 40
0.5
  9
$CHAMFERB
 40
0.5
  9
$CHAMFERC
 40
1.0
  9
$CHAMFERD
 40
0.0
  9
$SKPOLY
 70
     0
  9
$TDCREATE
 40
2455967.711544873
  9
$TDUCREATE
 40
2455967.669878206
  9
$TDUPDATE
 40
2455967.711544884
  9
$TDUUPDATE
 40
2455967.669878217
  9
$TDINDWG
 40
0.0000000116
  9
$TDUSRTIMER
 40
0.0000000116
  9
$USRTIMER
 70
     1
  9
$ANGBASE
 50
0.0
  9
$ANGDIR
 70
     0
  9
$PDMODE
 70
     0
  9
$PDSIZE
 40
0.0
  9
$PLINEWID
 40
0.0
  9
$SPLFRAME
 70
     0
  9
$SPLINETYPE
 70
     6
  9
$SPLINESEGS
 70
     8
  9
$HANDSEED
  5
B3
  9
$SURFTAB1
 70
     6
  9
$SURFTAB2
 70
     6
  9
$SURFTYPE
 70
     6
  9
$SURFU
 70
     6
  9
$SURFV
 70
     6
  9
$UCSBASE
  2

  9
$UCSNAME
  2

  9
$UCSORG
 10
0.0
 20
0.0
 30
0.0
  9
$UCSXDIR
 10
1.0
 20
0.0
 30
0.0
  9
$UCSYDIR
 10
0.0
 20
1.0
 30
0.0
  9
$UCSORTHOREF
  2

  9
$UCSORTHOVIEW
 70
     0
  9
$UCSORGTOP
 10
0.0
 20
0.0
 30
0.0
  9
$UCSORGBOTTOM
 10
0.0
 20
0.0
 30
0.0
  9
$UCSORGLEFT
 10
0.0
 20
0.0
 30
0.0
  9
$UCSORGRIGHT
 10
0.0
 20
0.0
 30
0.0
  9
$UCSORGFRONT
 10
0.0
 20
0.0
 30
0.0
  9
$UCSORGBACK
 10
0.0
 20
0.0
 30
0.0
  9
$PUCSBASE
  2

  9
$PUCSNAME
  2

  9
$PUCSORG
 10
0.0
 20
0.0
 30
0.0
  9
$PUCSXDIR
 10
1.0
 20
0.0
 30
0.0
  9
$PUCSYDIR
 10
0.0
 20
1.0
 30
0.0
  9
$PUCSORTHOREF
  2

  9
$PUCSORTHOVIEW
 70
     0
  9
$PUCSORGTOP
 10
0.0
 20
0.0
 30
0.0
  9
$PUCSORGBOTTOM
 10
0.0
 20
0.0
 30
0.0
  9
$PUCSORGLEFT
 10
0.0
 20
0.0
 30
0.0
  9
$PUCSORGRIGHT
 10
0.0
 20
0.0
 30
0.0
  9
$PUCSORGFRONT
 10
0.0
 20
0.0
 30
0.0
  9
$PUCSORGBACK
 10
0.0
 20
0.0
 30
0.0
  9
$USERI1
 70
     0
  9
$USERI2
 70
     0
  9
$USERI3
 70
     0
  9
$USERI4
 70
     0
  9
$USERI5
 70
     0
  9
$USERR1
 40
0.0
  9
$USERR2
 40
0.0
  9
$USERR3
 40
0.0
  9
$USERR4
 40
0.0
  9
$USERR5
 40
0.0
  9
$WORLDVIEW
 70
     1
  9
$SHADEDGE
 70
     3
  9
$SHADEDIF
 70
    70
  9
$TILEMODE
 70
     1
  9
$MAXACTVP
 70
    64
  9
$PINSBASE
 10
0.0
 20
0.0
 30
0.0
  9
$PLIMCHECK
 70
     0
  9
$PEXTMIN
 10
1.000000000000000E+20
 20
1.000000000000000E+20
 30
1.000000000000000E+20
  9
$PEXTMAX
 10
-1.000000000000000E+20
 20
-1.000000000000000E+20
 30
-1.000000000000000E+20
  9
$PLIMMIN
 10
0.0
 20
0.0
  9
$PLIMMAX
 10
12.0
 20
9.0
  9
$UNITMODE
 70
     0
  9
$VISRETAIN
 70
     1
  9
$PLINEGEN
 70
     0
  9
$PSLTSCALE
 70
     1
  9
$TREEDEPTH
 70
  3020
  9
$CMLSTYLE
  2
Standard
  9
$CMLJUST
 70
     0
  9
$CMLSCALE
 40
1.0
  9
$PROXYGRAPHICS
 70
     1
  9
$MEASUREMENT
 70
     0
  9
$CELWEIGHT
370
    -1
  9
$ENDCAPS
280
     0
  9
$JOINSTYLE
280
     0
  9
$LWDISPLAY
290
     0
  9
$INSUNITS
 70
     4
  9
$HYPERLINKBASE
  1

  9
$STYLESHEET
  1

  9
$XEDIT
290
     1
  9
$CEPSNTYPE
380
     0
  9
$PSTYLEMODE
290
     1
  9
$FINGERPRINTGUID
  2
{2F18C4F3-1DFA-46E2-A869-94002EE564DE}
  9
$VERSIONGUID
  2
{FAEB1C32-E019-11D5-929B-00C0DF256EC4}
  9
$EXTNAMES
290
     1
  9
$PSVPSCALE
 40
0.0
  9
$OLESTARTUP
290
     0
  9
$SORTENTS
280
   127
  9
$INDEXCTL
280
     0
  9
$HIDETEXT
280
     1
  9
$XCLIPFRAME
290
     0
  9
$HALOGAP
280
     0
  9
$OBSCOLOR
 70
   257
  9
$OBSLTYPE
280
     0
  9
$INTERSECTIONDISPLAY
280
     0
  9
$INTERSECTIONCOLOR
 70
   257
  9
$DIMASSOC
280
     2
  9
$PROJECTNAME
  1

  0
ENDSEC
  0
SECTION
  2
CLASSES
  0
CLASS
  1
ACDBDICTIONARYWDFLT
  2
AcDbDictionaryWithDefault
  3
ObjectDBX Classes
 90
        0
 91
        4
280
     0
281
     0
  0
CLASS
  1
VISUALSTYLE
  2
AcDbVisualStyle
  3
ObjectDBX Classes
 90
     4095
 91
        4
280
     0
281
     0
  0
ENDSEC
  0
SECTION
  2
TABLES
  0
TABLE
  2
VPORT
  5
8
330
0
100
AcDbSymbolTable
 70
     1
  0
VPORT
  5
29
330
8
100
AcDbSymbolTableRecord
100
AcDbViewportTableRecord
  2
*Active
 70
     0
 10
0.0
 20
0.0
 11
1.0
 21
1.0
 12
264.4832239696182
 22
398.1754200380925
 13
0.0
 23
0.0
 14
0.5
 24
0.5
 15
0.5
 25
0.5
 16
0.0
 26
0.0
 36
1.0
 17
0.0
 27
0.0
 37
0.0
 40
812.2778568777087
 41
0.664237948048917
 42
50.0
 43
0.0
 44
0.0
 50
0.0
 51
0.0
 71
     0
 72
   100
 73
     1
 74
     3
 75
     0
 76
     0
 77
     0
 78
     0
281
     0
 65
     1
110
0.0
120
0.0
130
0.0
111
1.0
121
0.0
131
0.0
112
0.0
122
1.0
132
0.0
 79
     0
146
0.0
  0
ENDTAB
  0
TABLE
  2
LTYPE
  5
5
330
0
100
AcDbSymbolTable
 70
     1
  0
LTYPE
  5
14
330
5
100
AcDbSymbolTableRecord
100
AcDbLinetypeTableRecord
  2
ByBlock
 70
     0
  3

 72
    65
 73
     0
 40
0.0
  0
LTYPE
  5
15
330
5
100
AcDbSymbolTableRecord
100
AcDbLinetypeTableRecord
  2
ByLayer
 70
     0
  3

 72
    65
 73
     0
 40
0.0
  0
LTYPE
  5
16
330
5
100
AcDbSymbolTableRecord
100
AcDbLinetypeTableRecord
  2
Continuous
 70
     0
  3
Solid line
 72
    65
 73
     0
 40
0.0
  0
ENDTAB
  0
TABLE
  2
LAYER
  5
2
330
0
100
AcDbSymbolTable
 70
     2
  0
LAYER
  5
10
330
2
100
AcDbSymbolTableRecord
100
AcDbLayerTableRecord
  2
0
 70
     0
 62
     7
  6
Continuous
370
    -3
390
F
  0
LAYER
  5
3B
330
2
100
AcDbSymbolTableRecord
100
AcDbLayerTableRecord
  2
Linee visibili 2D
 70
     0
 62
     7
  6
Continuous
370
    -3
390
F
  0
ENDTAB
  0
TABLE
  2
STYLE
  5
3
330
0
100
AcDbSymbolTable
 70
     1
  0
STYLE
  5
11
330
3
100
AcDbSymbolTableRecord
100
AcDbTextStyleTableRecord
  2
Standard
 70
     0
 40
0.0
 41
1.0
 50
0.0
 71
     0
 42
0.2
  3
txt
  4

  0
ENDTAB
  0
TABLE
  2
VIEW
  5
6
330
0
100
AcDbSymbolTable
 70
     0
  0
ENDTAB
  0
TABLE
  2
UCS
  5
7
330
0
100
AcDbSymbolTable
 70
     0
  0
ENDTAB
  0
TABLE
  2
APPID
  5
9
330
0
100
AcDbSymbolTable
 70
     1
  0
APPID
  5
12
330
9
100
AcDbSymbolTableRecord
100
AcDbRegAppTableRecord
  2
ACAD
 70
     0
  0
ENDTAB
  0
TABLE
  2
DIMSTYLE
  5
A
330
0
100
AcDbSymbolTable
 70
     1
100
AcDbDimStyleTable
  0
DIMSTYLE
105
27
330
A
100
AcDbSymbolTableRecord
100
AcDbDimStyleTableRecord
  2
Standard
 70
     0
340
11
  0
ENDTAB
  0
TABLE
  2
BLOCK_RECORD
  5
1
330
0
100
AcDbSymbolTable
 70
     1
  0
BLOCK_RECORD
  5
1F
330
1
100
AcDbSymbolTableRecord
100
AcDbBlockTableRecord
  2
*Model_Space
340
22
  0
BLOCK_RECORD
  5
1B
330
1
100
AcDbSymbolTableRecord
100
AcDbBlockTableRecord
  2
*Paper_Space
340
1E
  0
BLOCK_RECORD
  5
23
330
1
100
AcDbSymbolTableRecord
100
AcDbBlockTableRecord
  2
*Paper_Space0
340
26
  0
ENDTAB
  0
ENDSEC
  0
SECTION
  2
BLOCKS
  0
BLOCK
  5
20
330
1F
100
AcDbEntity
  8
0
100
AcDbBlockBegin
  2
*Model_Space
 70
     0
 10
0.0
 20
0.0
 30
0.0
  3
*Model_Space
  1

  0
ENDBLK
  5
21
330
1F
100
AcDbEntity
  8
0
100
AcDbBlockEnd
  0
BLOCK
  5
1C
330
1B
100
AcDbEntity
 67
     1
  8
0
100
AcDbBlockBegin
  2
*Paper_Space
 70
     0
 10
0.0
 20
0.0
 30
0.0
  3
*Paper_Space
  1

  0
ENDBLK
  5
1D
330
1B
100
AcDbEntity
 67
     1
  8
0
100
AcDbBlockEnd
  0
BLOCK
  5
24
330
23
100
AcDbEntity
  8
0
100
AcDbBlockBegin
  2
*Paper_Space0
 70
     0
 10
0.0
 20
0.0
 30
0.0
  3
*Paper_Space0
  1

  0
ENDBLK
  5
25
330
23
100
AcDbEntity
  8
0
100
AcDbBlockEnd
  0
ENDSEC
  0
SECTION
  2
ENTITIES
  0
LINE
  5
3C
330
1F
100
AcDbEntity
  8
Linee visibili 2D
 62
   255
100
AcDbLine
 10
178.5
 20
764.53103492279
 30
0.0
 11
16.50000000000017
 21
764.53103492279
 31
0.0
  0
LINE
  5
3D
330
1F
100
AcDbEntity
  8
Linee visibili 2D
 62
   255
100
AcDbLine
 10
14.00000000000017
 20
763.47037475101
 30
0.0
 11
14.0000000000002
 21
649.8106888122572
 31
0.0
  0
LINE
  5
3E
330
1F
100
AcDbEntity
  8
Linee visibili 2D
 62
   255
100
AcDbLine
 10
14.00000000000017
 20
795.9972866855912
 30
0.0
 11
14.00000000000017
 21
763.47037475101
 31
0.0
  0
LINE
  5
3F
330
1F
100
AcDbEntity
  8
Linee visibili 2D
 62
   255
100
AcDbLine
 10
14.00000000000011
 20
795.9972866855912
 30
0.0
 11
14.50000000000018
 21
796.350840076185
 31
0.0
  0
LINE
  5
40
330
1F
100
AcDbEntity
  8
Linee visibili 2D
 62
   255
100
AcDbLine
 10
180.5
 20
796.3508400761848
 30
0.0
 11
14.50000000000017
 21
796.3508400761848
 31
0.0
  0
LINE
  5
41
330
1F
100
AcDbEntity
  8
Linee visibili 2D
 62
   255
100
AcDbLine
 10
16.50000000000016
 20
794.9366265138117
 30
0.0
 11
178.5
 21
794.9366265138117
 31
0.0
  0
LINE
  5
42
330
1F
100
AcDbEntity
  8
Linee visibili 2D
 62
   255
100
AcDbLine
 10
181.0
 20
649.8106888122572
 30
0.0
 11
181.0
 21
309.1114398032241
 31
0.0
  0
LINE
  5
43
330
1F
100
AcDbEntity
  8
Linee visibili 2D
 62
   255
100
AcDbLine
 10
14.0
 20
309.1114398032241
 30
0.0
 11
14.0
 21
649.8106888122572
 31
0.0
  0
ARC
  5
44
330
1F
100
AcDbEntity
  8
Linee visibili 2D
 62
   255
100
AcDbCircle
 10
96.5750000000001
 20
709.7302593808331
 30
0.0
 40
2.774999999999977
100
AcDbArc
 50
70.52877936550702
 51
289.471220634493
  0
ARC
  5
45
330
1F
100
AcDbEntity
  8
Linee visibili 2D
 62
   255
100
AcDbCircle
 10
96.43750000000031
 20
709.730259380833
 30
0.0
 40
3.187500000000012
100
AcDbArc
 50
70.52877936551155
 51
289.4712206344892
  0
ARC
  5
46
330
1F
100
AcDbEntity
  8
Linee visibili 2D
 62
   255
100
AcDbCircle
 10
98.56250000000014
 20
709.730259380833
 30
0.0
 40
3.187499999999924
100
AcDbArc
 50
250.5287793655099
 51
109.4712206344894
  0
LINE
  5
47
330
1F
100
AcDbEntity
  8
Linee visibili 2D
 62
   255
100
AcDbLine
 10
14.0000000000002
 20
649.8106888122572
 30
0.0
 11
14.50000000000017
 21
649.603582031071
 31
0.0
  0
LINE
  5
48
330
1F
100
AcDbEntity
  8
Linee visibili 2D
 62
   255
100
AcDbLine
 10
14.50000000000017
 20
763.1168213604169
 30
0.0
 11
14.0000000000001
 21
763.47037475101
 31
0.0
  0
LINE
  5
49
330
1F
100
AcDbEntity
  8
Linee visibili 2D
 62
   255
100
AcDbLine
 10
326.9359383663294
 20
309.1114398032241
 30
0.0
 11
327.9192437347499
 21
309.1114398032241
 31
0.0
  0
LINE
  5
4A
330
1F
100
AcDbEntity
  8
Linee visibili 2D
 62
   255
100
AcDbLine
 10
455.9192437347499
 20
306.1114398032241
 30
0.0
 11
327.9192437347499
 21
306.1114398032241
 31
0.0
  0
ARC
  5
4B
330
1F
100
AcDbEntity
  8
Linee visibili 2D
 62
   255
100
AcDbCircle
 10
391.8852788596098
 20
539.071619462606
 30
0.0
 40
3.699999999999932
100
AcDbArc
 50
270.0
 51
90.0
  0
LINE
  5
4C
330
1F
100
AcDbEntity
  8
Linee visibili 2D
 62
   255
100
AcDbLine
 10
327.9192437347499
 20
309.1114398032241
 30
0.0
 11
455.9192437347499
 21
309.1114398032241
 31
0.0
  0
LINE
  5
4D
330
1F
100
AcDbEntity
  8
Linee visibili 2D
 62
   255
100
AcDbLine
 10
327.9192437347499
 20
306.1114398032241
 30
0.0
 11
326.9359383663333
 21
306.111439803224
 31
0.0
  0
ARC
  5
4E
330
1F
100
AcDbEntity
  8
Linee visibili 2D
 62
   255
100
AcDbCircle
 10
391.8852788596099
 20
539.0716194626061
 30
0.0
 40
3.699999999999932
100
AcDbArc
 50
90.00000000000088
 51
269.9999999999991
  0
LINE
  5
4F
330
1F
100
AcDbEntity
  8
Linee visibili 2D
 62
   255
100
AcDbLine
 10
415.4532086098905
 20
649.603582031071
 30
0.0
 11
528.9664479392364
 21
763.1168213604169
 31
0.0
  0
LINE
  5
50
330
1F
100
AcDbEntity
  8
Linee visibili 2D
 62
   255
100
AcDbLine
 10
528.9664479392364
 20
763.1168213604169
 30
0.0
 11
528.6128945486432
 21
763.47037475101
 31
0.0
  0
LINE
  5
51
330
1F
100
AcDbEntity
  8
Linee visibili 2D
 62
   255
100
AcDbLine
 10
496.0859826140622
 20
795.9972866855912
 30
0.0
 11
528.6128945486432
 21
763.47037475101
 31
0.0
  0
LINE
  5
52
330
1F
100
AcDbEntity
  8
Linee visibili 2D
 62
   255
100
AcDbLine
 10
496.0859826140622
 20
795.9972866855912
 30
0.0
 11
495.7324292234692
 21
796.350840076185
 31
0.0
  0
ARC
  5
53
330
1F
100
AcDbEntity
  8
Linee visibili 2D
 62
   255
100
AcDbCircle
 10
391.8852788596097
 20
359.0716194626061
 30
0.0
 40
3.700000000000102
100
AcDbArc
 50
90.00000000000088
 51
269.9999999999991
  0
ARC
  5
54
330
1F
100
AcDbEntity
  8
Linee visibili 2D
 62
   255
100
AcDbCircle
 10
391.8852788596095
 20
359.0716194626062
 30
0.0
 40
3.700000000000127
100
AcDbArc
 50
270.0010642795852
 51
89.99893572041567
  0
ARC
  5
55
330
1F
100
AcDbEntity
  8
Linee visibili 2D
 62
   255
100
AcDbCircle
 10
98.42500000000024
 20
709.7302593808331
 30
0.0
 40
2.774999999999958
100
AcDbArc
 50
250.5287793655081
 51
109.4712206344919
  0
LINE
  5
56
330
1F
100
AcDbEntity
  8
Linee visibili 2D
 62
   255
100
AcDbLine
 10
455.9192437347499
 20
309.1114398032241
 30
0.0
 11
456.9025491031665
 21
309.1114398032242
 31
0.0
  0
LINE
  5
57
330
1F
100
AcDbEntity
  8
Linee visibili 2D
 62
   255
100
AcDbLine
 10
326.9192437347499
 20
306.1114398032241
 30
0.0
 11
326.9192437347499
 21
309.1114398032241
 31
0.0
  0
LINE
  5
58
330
1F
100
AcDbEntity
  8
Linee visibili 2D
 62
   255
100
AcDbLine
 10
414.9532086098904
 20
649.8106888122572
 30
0.0
 11
415.4532086098905
 21
649.603582031071
 31
0.0
  0
LINE
  5
59
330
1F
100
AcDbEntity
  8
Linee visibili 2D
 62
   255
100
AcDbLine
 10
414.9532086098904
 20
649.8106888122572
 30
0.0
 11
368.9532086098904
 21
668.8645126814192
 31
0.0
  0
LINE
  5
5A
330
1F
100
AcDbEntity
  8
Linee visibili 2D
 62
   255
100
AcDbLine
 10
368.4532086098905
 20
669.0716194626059
 30
0.0
 11
368.9532086098904
 21
668.8645126814192
 31
0.0
  0
LINE
  5
5B
330
1F
100
AcDbEntity
  8
Linee visibili 2D
 62
   255
100
AcDbLine
 10
495.7324292234691
 20
796.3508400761848
 30
0.0
 11
368.4532086098905
 21
669.0716194626059
 31
0.0
  0
LINE
  5
5C
330
1F
100
AcDbEntity
  8
Linee visibili 2D
 62
   255
100
AcDbLine
 10
456.9192437347499
 20
306.1114398032241
 30
0.0
 11
455.9192437347499
 21
306.1114398032241
 31
0.0
  0
LINE
  5
5D
330
1F
100
AcDbEntity
  8
Linee visibili 2D
 62
   255
100
AcDbLine
 10
456.9192437347499
 20
309.1114398032241
 30
0.0
 11
456.9192437347499
 21
306.1114398032241
 31
0.0
  0
LINE
  5
5E
330
1F
100
AcDbEntity
  8
Linee visibili 2D
 62
   255
100
AcDbLine
 10
368.4532086098903
 20
309.1114398032241
 30
0.0
 11
368.4532086098903
 21
669.0716194626061
 31
0.0
  0
ARC
  5
5F
330
1F
100
AcDbEntity
  8
Linee visibili 2D
 62
   255
100
AcDbCircle
 10
391.9532086098904
 20
359.0716194626061
 30
0.0
 40
4.25
100
AcDbArc
 50
90.00000000000153
 51
269.9999999999985
  0
ARC
  5
60
330
1F
100
AcDbEntity
  8
Linee visibili 2D
 62
   255
100
AcDbCircle
 10
391.9532086098904
 20
359.0716194626061
 30
0.0
 40
4.25
100
AcDbArc
 50
269.9999999999985
 51
90.00000000000153
  0
ARC
  5
61
330
1F
100
AcDbEntity
  8
Linee visibili 2D
 62
   255
100
AcDbCircle
 10
391.9532086098902
 20
539.0716194626061
 30
0.0
 40
4.25
100
AcDbArc
 50
270.0000000000007
 51
89.99999999999923
  0
ARC
  5
62
330
1F
100
AcDbEntity
  8
Linee visibili 2D
 62
   255
100
AcDbCircle
 10
391.9532086098903
 20
539.071619462606
 30
0.0
 40
4.249999999999886
100
AcDbArc
 50
90.0
 51
270.0
  0
LINE
  5
63
330
1F
100
AcDbEntity
  8
Linee visibili 2D
 62
   255
100
AcDbLine
 10
415.4532086098903
 20
309.1114398032241
 30
0.0
 11
415.4532086098903
 21
649.603582031071
 31
0.0
  0
LINE
  5
64
330
1F
100
AcDbEntity
  8
Linee visibili 2D
 62
   255
100
AcDbLine
 10
0.0166946315834249
 20
309.1114398032242
 30
0.0
 11
1.0
 21
309.1114398032241
 31
0.0
  0
LINE
  5
65
330
1F
100
AcDbEntity
  8
Linee visibili 2D
 62
   255
100
AcDbLine
 10
1.0
 20
309.1114398032241
 30
0.0
 11
194.0
 21
309.1114398032241
 31
0.0
  0
LINE
  5
66
330
1F
100
AcDbEntity
  8
Linee visibili 2D
 62
   255
100
AcDbLine
 10
194.0
 20
309.1114398032241
 30
0.0
 11
195.0
 21
309.1114398032241
 31
0.0
  0
LINE
  5
67
330
1F
100
AcDbEntity
  8
Linee visibili 2D
 62
   255
100
AcDbLine
 10
1.0
 20
306.1114398032241
 30
0.0
 11
0.0166946315834249
 21
306.111439803224
 31
0.0
  0
LINE
  5
68
330
1F
100
AcDbEntity
  8
Linee visibili 2D
 62
   255
100
AcDbLine
 10
194.9833053684166
 20
306.111439803224
 30
0.0
 11
194.0
 21
306.1114398032241
 31
0.0
  0
LINE
  5
69
330
1F
100
AcDbEntity
  8
Linee visibili 2D
 62
   255
100
AcDbLine
 10
194.0
 20
306.1114398032241
 30
0.0
 11
1.0
 21
306.1114398032241
 31
0.0
  0
LINE
  5
6A
330
1F
100
AcDbEntity
  8
Linee visibili 2D
 62
   255
100
AcDbLine
 10
0.0
 20
306.1114398032241
 30
0.0
 11
0.0
 21
309.1114398032241
 31
0.0
  0
LINE
  5
6B
330
1F
100
AcDbEntity
  8
Linee visibili 2D
 62
   255
100
AcDbLine
 10
195.0
 20
309.1114398032241
 30
0.0
 11
195.0
 21
306.1114398032241
 31
0.0
  0
LINE
  5
6C
330
1F
100
AcDbEntity
  8
Linee visibili 2D
 62
   255
100
AcDbLine
 10
178.045343986853
 20
794.0035072811575
 30
0.0
 11
178.5451801775346
 21
793.5160905619014
 31
0.0
  0
LINE
  5
6D
330
1F
100
AcDbEntity
  8
Linee visibili 2D
 62
   255
100
AcDbLine
 10
16.58057230379865
 20
793.5160903571589
 30
0.0
 11
17.08040092594397
 21
794.0035072811575
 31
0.0
  0
LINE
  5
6E
330
1F
100
AcDbEntity
  8
Linee visibili 2D
 62
   255
100
AcDbLine
 10
17.08040368534759
 20
794.0035072811652
 30
0.0
 11
178.045341227447
 21
794.0035072811652
 31
0.0
  0
LINE
  5
6F
330
1F
100
AcDbEntity
  8
Linee visibili 2D
 62
   255
100
AcDbLine
 10
93.80000000000021
 20
709.9653451055528
 30
0.0
 11
93.80000000000021
 21
710.0838127714242
 31
0.0
  0
LINE
  5
70
330
1F
100
AcDbEntity
  8
Linee visibili 2D
 62
   255
100
AcDbLine
 10
101.2000000000002
 20
710.0838127714261
 30
0.0
 11
101.2000000000002
 21
709.9653451055549
 31
0.0
  0
LINE
  5
71
330
1F
100
AcDbEntity
  8
Linee visibili 2D
 62
   255
100
AcDbLine
 10
16.58047983776942
 20
764.543092511733
 30
0.0
 11
16.58047983776943
 21
793.5096776386351
 31
0.0
  0
LINE
  5
72
330
1F
100
AcDbEntity
  8
Linee visibili 2D
 62
   255
100
AcDbLine
 10
178.5452650750252
 20
793.5096776386351
 30
0.0
 11
178.5452650750253
 21
764.543092511733
 31
0.0
  0
ARC
  5
73
330
1F
100
AcDbEntity
  8
Linee visibili 2D
 62
   255
100
AcDbCircle
 10
97.03750000000008
 20
709.4297389988284
 30
0.0
 40
3.302910648200977
100
AcDbArc
 50
81.95053302446924
 51
168.5782463410366
  0
ARC
  5
74
330
1F
100
AcDbEntity
  8
Linee visibili 2D
 62
   255
100
AcDbCircle
 10
97.96250000000036
 20
709.4297389988284
 30
0.0
 40
3.302910648200962
100
AcDbArc
 50
11.42175365896341
 51
98.0494669755315
  0
LINE
  5
75
330
1F
100
AcDbEntity
  8
Linee visibili 2D
 62
   255
100
AcDbLine
 10
97.90941686792752
 20
712.7089022046713
 30
0.0
 11
98.17457303477248
 21
712.6622758323781
 31
0.0
  0
LINE
  5
76
330
1F
100
AcDbEntity
  8
Linee visibili 2D
 62
   255
100
AcDbLine
 10
96.82542696522789
 20
712.6622758323781
 30
0.0
 11
97.09058313207287
 21
712.7089022046713
 31
0.0
  0
LINE
  5
77
330
1F
100
AcDbEntity
  8
Linee visibili 2D
 62
   255
100
AcDbLine
 10
16.0000000000002
 20
794.5830731232181
 30
0.0
 11
16.50000000000015
 21
794.9366265138117
 31
0.0
  0
LINE
  5
78
330
1F
100
AcDbEntity
  8
Linee visibili 2D
 62
   255
100
AcDbLine
 10
16.00000000000017
 20
764.8845883133831
 30
0.0
 11
16.00000000000017
 21
794.5830731232181
 31
0.0
  0
LINE
  5
79
330
1F
100
AcDbEntity
  8
Linee visibili 2D
 62
   255
100
AcDbLine
 10
16.50000000000017
 20
764.53103492279
 30
0.0
 11
16.0000000000002
 21
764.8845883133831
 31
0.0
  0
LINE
  5
7A
330
1F
100
AcDbEntity
  8
Linee visibili 2D
 62
   255
100
AcDbLine
 10
179.0
 20
764.8845883133831
 30
0.0
 11
178.5
 21
764.53103492279
 31
0.0
  0
LINE
  5
7B
330
1F
100
AcDbEntity
  8
Linee visibili 2D
 62
   255
100
AcDbLine
 10
179.0
 20
794.5830731232181
 30
0.0
 11
179.0
 21
764.8845883133831
 31
0.0
  0
LINE
  5
7C
330
1F
100
AcDbEntity
  8
Linee visibili 2D
 62
   255
100
AcDbLine
 10
178.5
 20
794.9366265138117
 30
0.0
 11
179.0000000000001
 21
794.5830731232181
 31
0.0
  0
LINE
  5
7D
330
1F
100
AcDbEntity
  8
Linee visibili 2D
 62
   255
100
AcDbLine
 10
180.5
 20
796.3508400761848
 30
0.0
 11
181.0
 21
795.9972866855912
 31
0.0
  0
LINE
  5
7E
330
1F
100
AcDbEntity
  8
Linee visibili 2D
 62
   255
100
AcDbLine
 10
181.0
 20
649.8106888122572
 30
0.0
 11
181.0
 21
763.47037475101
 31
0.0
  0
LINE
  5
7F
330
1F
100
AcDbEntity
  8
Linee visibili 2D
 62
   255
100
AcDbLine
 10
181.0
 20
763.47037475101
 30
0.0
 11
181.0
 21
795.9972866855912
 31
0.0
  0
LINE
  5
80
330
1F
100
AcDbEntity
  8
Linee visibili 2D
 62
   255
100
AcDbLine
 10
180.5
 20
649.603582031071
 30
0.0
 11
181.0
 21
649.8106888122572
 31
0.0
  0
LINE
  5
81
330
1F
100
AcDbEntity
  8
Linee visibili 2D
 62
   255
100
AcDbLine
 10
181.0
 20
763.47037475101
 30
0.0
 11
180.5
 21
763.1168213604169
 31
0.0
  0
LINE
  5
82
330
1F
100
AcDbEntity
  8
Linee visibili 2D
 62
   255
100
AcDbLine
 10
14.50000000000017
 20
763.1168213604169
 30
0.0
 11
180.5
 21
763.1168213604169
 31
0.0
  0
LINE
  5
83
330
1F
100
AcDbEntity
  8
Linee visibili 2D
 62
   255
100
AcDbLine
 10
180.5
 20
649.603582031071
 30
0.0
 11
14.50000000000017
 21
649.603582031071
 31
0.0
  0
LINE
  5
84
330
1F
100
AcDbEntity
  8
Linee visibili 2D
 62
   255
100
AcDbLine
 10
526.8388071304
 20
178.5451715174243
 30
0.0
 11
527.3262219254043
 21
178.045341227447
 31
0.0
  0
LINE
  5
85
330
1F
100
AcDbEntity
  8
Linee visibili 2D
 62
   255
100
AcDbLine
 10
527.3262219254043
 20
178.045341227447
 30
0.0
 11
527.3262219254043
 21
17.08040368534762
 31
0.0
  0
LINE
  5
86
330
1F
100
AcDbEntity
  8
Linee visibili 2D
 62
   255
100
AcDbLine
 10
527.3262219254043
 20
17.08040368534762
 30
0.0
 11
526.8388073974288
 21
16.58056352667878
 31
0.0
  0
LINE
  5
87
330
1F
100
AcDbEntity
  8
Linee visibili 2D
 62
   255
100
AcDbLine
 10
526.1315654429852
 20
16.56287245639744
 30
0.0
 11
526.8323922828743
 21
16.58047983776942
 31
0.0
  0
LINE
  5
88
330
1F
100
AcDbEntity
  8
Linee visibili 2D
 62
   255
100
AcDbLine
 10
497.8655936891229
 20
16.58047465870077
 30
0.0
 11
497.1433593217222
 21
16.56295202514578
 31
0.0
  0
LINE
  5
89
330
1F
100
AcDbEntity
  8
Linee visibili 2D
 62
   255
100
AcDbLine
 10
526.8323922828743
 20
16.58047983776942
 30
0.0
 11
497.8658071559723
 21
16.58047983776943
 31
0.0
  0
LINE
  5
8A
330
1F
100
AcDbEntity
  8
Linee visibili 2D
 62
   255
100
AcDbLine
 10
497.1474866766762
 20
178.562692751001
 30
0.0
 11
497.8656051834336
 21
178.5452699752223
 31
0.0
  0
LINE
  5
8B
330
1F
100
AcDbEntity
  8
Linee visibili 2D
 62
   255
100
AcDbLine
 10
526.8323922828743
 20
178.5452650750253
 30
0.0
 11
526.1315654429852
 21
178.5628724563973
 31
0.0
  0
LINE
  5
8C
330
1F
100
AcDbEntity
  8
Linee visibili 2D
 62
   255
100
AcDbLine
 10
497.8658071559723
 20
178.5452650750252
 30
0.0
 11
526.8323922828743
 21
178.5452650750253
 31
0.0
  0
LINE
  5
8D
330
1F
100
AcDbEntity
  8
Linee visibili 2D
 62
   255
100
AcDbLine
 10
497.1466427858422
 20
16.50000000000016
 30
0.0
 11
497.1466427858422
 21
178.5
 31
0.0
  0
LINE
  5
8E
330
1F
100
AcDbEntity
  8
Linee visibili 2D
 62
   255
100
AcDbLine
 10
495.7324292234691
 20
180.5
 30
0.0
 11
495.7324292234691
 21
14.50000000000017
 31
0.0
  0
LINE
  5
8F
330
1F
100
AcDbEntity
  8
Linee visibili 2D
 62
   255
100
AcDbLine
 10
368.4532086098905
 20
14.50000000000017
 30
0.0
 11
368.4532086098905
 21
180.5
 31
0.0
  0
LINE
  5
90
330
1F
100
AcDbEntity
  8
Linee visibili 2D
 62
   255
100
AcDbLine
 10
496.0859826140622
 20
14.00000000000011
 30
0.0
 11
495.7324292234691
 21
14.50000000000018
 31
0.0
  0
LINE
  5
91
330
1F
100
AcDbEntity
  8
Linee visibili 2D
 62
   255
100
AcDbLine
 10
368.4532086098905
 20
14.50000000000017
 30
0.0
 11
368.9532086098904
 21
14.00000000000024
 31
0.0
  0
LINE
  5
92
330
1F
100
AcDbEntity
  8
Linee visibili 2D
 62
   255
100
AcDbLine
 10
496.0859826140622
 20
14.00000000000017
 30
0.0
 11
528.6128945486432
 21
14.00000000000017
 31
0.0
  0
LINE
  5
93
330
1F
100
AcDbEntity
  8
Linee visibili 2D
 62
   255
100
AcDbLine
 10
368.9532086098904
 20
14.00000000000021
 30
0.0
 11
496.0859826140622
 21
14.00000000000017
 31
0.0
  0
LINE
  5
94
330
1F
100
AcDbEntity
  8
Linee visibili 2D
 62
   255
100
AcDbLine
 10
528.9664479392364
 20
14.50000000000017
 30
0.0
 11
528.6128945486432
 21
14.00000000000013
 31
0.0
  0
LINE
  5
95
330
1F
100
AcDbEntity
  8
Linee visibili 2D
 62
   255
100
AcDbLine
 10
528.9664479392364
 20
14.50000000000017
 30
0.0
 11
528.9664479392364
 21
180.5
 31
0.0
  0
LINE
  5
96
330
1F
100
AcDbEntity
  8
Linee visibili 2D
 62
   255
100
AcDbLine
 10
528.6128945486432
 20
181.0
 30
0.0
 11
528.9664479392364
 21
180.5
 31
0.0
  0
LINE
  5
97
330
1F
100
AcDbEntity
  8
Linee visibili 2D
 62
   255
100
AcDbLine
 10
528.6128945486432
 20
181.0
 30
0.0
 11
496.0859826140623
 21
181.0
 31
0.0
  0
LINE
  5
98
330
1F
100
AcDbEntity
  8
Linee visibili 2D
 62
   255
100
AcDbLine
 10
496.0859826140623
 20
181.0
 30
0.0
 11
368.9532086098905
 21
181.0
 31
0.0
  0
LINE
  5
99
330
1F
100
AcDbEntity
  8
Linee visibili 2D
 62
   255
100
AcDbLine
 10
495.7324292234691
 20
180.5
 30
0.0
 11
496.0859826140623
 21
181.0
 31
0.0
  0
LINE
  5
9A
330
1F
100
AcDbEntity
  8
Linee visibili 2D
 62
   255
100
AcDbLine
 10
368.9532086098905
 20
181.0
 30
0.0
 11
368.4532086098905
 21
180.5
 31
0.0
  0
LINE
  5
9B
330
1F
100
AcDbEntity
  8
Linee visibili 2D
 62
   255
100
AcDbLine
 10
497.1466427858421
 20
178.5
 30
0.0
 11
497.5001961764352
 21
179.0
 31
0.0
  0
LINE
  5
9C
330
1F
100
AcDbEntity
  8
Linee visibili 2D
 62
   255
100
AcDbLine
 10
497.5001961764353
 20
179.0
 30
0.0
 11
527.1986809862703
 21
179.0
 31
0.0
  0
LINE
  5
9D
330
1F
100
AcDbEntity
  8
Linee visibili 2D
 62
   255
100
AcDbLine
 10
527.1986809862702
 20
179.0
 30
0.0
 11
527.5522343768635
 21
178.5
 31
0.0
  0
LINE
  5
9E
330
1F
100
AcDbEntity
  8
Linee visibili 2D
 62
   255
100
AcDbLine
 10
527.5522343768635
 20
16.50000000000017
 30
0.0
 11
527.1986809862703
 21
16.00000000000019
 31
0.0
  0
LINE
  5
9F
330
1F
100
AcDbEntity
  8
Linee visibili 2D
 62
   255
100
AcDbLine
 10
527.1986809862703
 20
16.00000000000017
 30
0.0
 11
497.5001961764353
 21
16.00000000000017
 31
0.0
  0
LINE
  5
A0
330
1F
100
AcDbEntity
  8
Linee visibili 2D
 62
   255
100
AcDbLine
 10
497.5001961764353
 20
16.0000000000002
 30
0.0
 11
497.1466427858421
 21
16.50000000000016
 31
0.0
  0
LINE
  5
A1
330
1F
100
AcDbEntity
  8
Linee visibili 2D
 62
   255
100
AcDbLine
 10
527.5522343768635
 20
178.5
 30
0.0
 11
527.5522343768635
 21
16.50000000000017
 31
0.0
  0
ARC
  5
A2
330
1F
100
AcDbEntity
  8
Linee visibili 2D
 62
   255
100
AcDbCircle
 10
341.9192437347499
 20
179.9999999999999
 30
0.0
 40
3.5
100
AcDbArc
 50
179.9999999999991
 51
0.0000000000009305
  0
ARC
  5
A3
330
1F
100
AcDbEntity
  8
Linee visibili 2D
 62
   255
100
AcDbCircle
 10
341.9192437347499
 20
180.0
 30
0.0
 40
3.5
100
AcDbArc
 50
0.0
 51
180.0
  0
ARC
  5
A4
330
1F
100
AcDbEntity
  8
Linee visibili 2D
 62
   255
100
AcDbCircle
 10
441.9192437347498
 20
180.0000000000001
 30
0.0
 40
3.499999999999906
100
AcDbArc
 50
16.60154959901782
 51
163.3984504009817
  0
ARC
  5
A5
330
1F
100
AcDbEntity
  8
Linee visibili 2D
 62
   255
100
AcDbCircle
 10
441.9192437347499
 20
15.0
 30
0.0
 40
3.5
100
AcDbArc
 50
196.6015495990169
 51
343.3984504009831
  0
ARC
  5
A6
330
1F
100
AcDbEntity
  8
Linee visibili 2D
 62
   255
100
AcDbCircle
 10
341.91924373475
 20
15.00000000000004
 30
0.0
 40
3.499999999999943
100
AcDbArc
 50
179.9999999999998
 51
0.0000000000002036
  0
ARC
  5
A7
330
1F
100
AcDbEntity
  8
Linee visibili 2D
 62
   255
100
AcDbCircle
 10
341.9192437347499
 20
15.00000000000003
 30
0.0
 40
3.5
100
AcDbArc
 50
0.0000000000004071
 51
179.9999999999996
  0
LINE
  5
A8
330
1F
100
AcDbEntity
  8
Linee visibili 2D
 62
   255
100
AcDbLine
 10
455.9192437347499
 20
195.0
 30
0.0
 11
327.9192437347499
 21
195.0
 31
0.0
  0
ARC
  5
A9
330
1F
100
AcDbEntity
  8
Linee visibili 2D
 62
   255
100
AcDbCircle
 10
455.9192437347501
 20
194.0000000000001
 30
0.0
 40
0.9999999999998295
100
AcDbArc
 50
359.9999999999919
 51
90.00000000000978
  0
LINE
  5
AA
330
1F
100
AcDbEntity
  8
Linee visibili 2D
 62
   255
100
AcDbLine
 10
456.9192437347499
 20
181.0
 30
0.0
 11
456.9192437347499
 21
194.0
 31
0.0
  0
LINE
  5
AB
330
1F
100
AcDbEntity
  8
Linee visibili 2D
 62
   255
100
AcDbLine
 10
456.9192437347499
 20
1.0
 30
0.0
 11
456.9192437347499
 21
14.00000000000017
 31
0.0
  0
ARC
  5
AC
330
1F
100
AcDbEntity
  8
Linee visibili 2D
 62
   255
100
AcDbCircle
 10
455.91924373475
 20
0.9999999999998848
 30
0.0
 40
0.9999999999998848
100
AcDbArc
 50
269.9999999999935
 51
0.0000000000066028
  0
LINE
  5
AD
330
1F
100
AcDbEntity
  8
Linee visibili 2D
 62
   255
100
AcDbLine
 10
327.9192437347499
 20
0.0
 30
0.0
 11
455.9192437347499
 21
0.0
 31
0.0
  0
ARC
  5
AE
330
1F
100
AcDbEntity
  8
Linee visibili 2D
 62
   255
100
AcDbCircle
 10
327.9192437347499
 20
0.9999999999999942
 30
0.0
 40
1.0
100
AcDbArc
 50
179.9999999999997
 51
270.0
  0
LINE
  5
AF
330
1F
100
AcDbEntity
  8
Linee visibili 2D
 62
   255
100
AcDbLine
 10
326.9192437347499
 20
194.0
 30
0.0
 11
326.9192437347499
 21
1.0
 31
0.0
  0
ARC
  5
B0
330
1F
100
AcDbEntity
  8
Linee visibili 2D
 62
   255
100
AcDbCircle
 10
327.9192437347499
 20
194.0
 30
0.0
 40
1.0
100
AcDbArc
 50
90.0
 51
180.0
  0
ENDSEC
  0
SECTION
  2
OBJECTS
  0
DICTIONARY
  5
C
330
0
100
AcDbDictionary
281
     1
  3
ACAD_GROUP
350
D
  3
ACAD_LAYOUT
350
1A
  3
ACAD_MLEADERSTYLE
350
B2
  3
ACAD_MLINESTYLE
350
17
  3
ACAD_PLOTSETTINGS
350
19
  3
ACAD_PLOTSTYLENAME
350
E
  3
ACAD_TABLESTYLE
350
B1
  3
ACAD_VISUALSTYLE
350
2A
  0
DICTIONARY
  5
D
102
{ACAD_REACTORS
330
C
102
}
330
C
100
AcDbDictionary
281
     1
  0
DICTIONARY
  5
1A
102
{ACAD_REACTORS
330
C
102
}
330
C
100
AcDbDictionary
281
     1
  3
Layout1
350
1E
  3
Layout2
350
26
  3
Model
350
22
  0
DICTIONARY
  5
B2
102
{ACAD_REACTORS
330
C
102
}
330
C
100
AcDbDictionary
281
     1
  0
DICTIONARY
  5
17
102
{ACAD_REACTORS
330
C
102
}
330
C
100
AcDbDictionary
281
     1
  3
Standard
350
18
  0
DICTIONARY
  5
19
102
{ACAD_REACTORS
330
C
102
}
330
C
100
AcDbDictionary
281
     1
  0
ACDBDICTIONARYWDFLT
  5
E
102
{ACAD_REACTORS
330
C
102
}
330
C
100
AcDbDictionary
281
     1
  3
Normal
350
F
100
AcDbDictionaryWithDefault
340
F
  0
DICTIONARY
  5
B1
102
{ACAD_REACTORS
330
C
102
}
330
C
100
AcDbDictionary
281
     1
  0
DICTIONARY
  5
2A
102
{ACAD_REACTORS
330
C
102
}
330
C
100
AcDbDictionary
281
     1
  3
2dWireframe
350
2F
  3
3D Hidden
350
31
  3
3dWireframe
350
30
  3
Basic
350
32
  3
Brighten
350
36
  3
ColorChange
350
3A
  3
Conceptual
350
34
  3
Dim
350
35
  3
Facepattern
350
39
  3
Flat
350
2B
  3
FlatWithEdges
350
2C
  3
Gouraud
350
2D
  3
GouraudWithEdges
350
2E
  3
Linepattern
350
38
  3
Realistic
350
33
  3
Thicken
350
37
  0
LAYOUT
  5
1E
102
{ACAD_REACTORS
330
1A
102
}
330
1A
100
AcDbPlotSettings
  1

  2
none_device
  4

  6

 40
0.0
 41
0.0
 42
0.0
 43
0.0
 44
0.0
 45
0.0
 46
0.0
 47
0.0
 48
0.0
 49
0.0
140
0.0
141
0.0
142
1.0
143
1.0
 70
   688
 72
     0
 73
     0
 74
     5
  7

 75
    16
 76
     0
 77
     2
 78
   300
147
1.0
148
0.0
149
0.0
100
AcDbLayout
  1
Layout1
 70
     1
 71
     1
 10
0.0
 20
0.0
 11
12.0
 21
9.0
 12
0.0
 22
0.0
 32
0.0
 14
1.000000000000000E+20
 24
1.000000000000000E+20
 34
1.000000000000000E+20
 15
-1.000000000000000E+20
 25
-1.000000000000000E+20
 35
-1.000000000000000E+20
146
0.0
 13
0.0
 23
0.0
 33
0.0
 16
1.0
 26
0.0
 36
0.0
 17
0.0
 27
1.0
 37
0.0
 76
     0
330
1B
  0
LAYOUT
  5
26
102
{ACAD_REACTORS
330
1A
102
}
330
1A
100
AcDbPlotSettings
  1

  2
none_device
  4

  6

 40
0.0
 41
0.0
 42
0.0
 43
0.0
 44
0.0
 45
0.0
 46
0.0
 47
0.0
 48
0.0
 49
0.0
140
0.0
141
0.0
142
1.0
143
1.0
 70
   688
 72
     0
 73
     0
 74
     5
  7

 75
    16
 76
     0
 77
     2
 78
   300
147
1.0
148
0.0
149
0.0
100
AcDbLayout
  1
Layout2
 70
     1
 71
     2
 10
0.0
 20
0.0
 11
0.0
 21
0.0
 12
0.0
 22
0.0
 32
0.0
 14
0.0
 24
0.0
 34
0.0
 15
0.0
 25
0.0
 35
0.0
146
0.0
 13
0.0
 23
0.0
 33
0.0
 16
1.0
 26
0.0
 36
0.0
 17
0.0
 27
1.0
 37
0.0
 76
     0
330
23
  0
LAYOUT
  5
22
102
{ACAD_REACTORS
330
1A
102
}
330
1A
100
AcDbPlotSettings
  1

  2
none_device
  4

  6

 40
0.0
 41
0.0
 42
0.0
 43
0.0
 44
0.0
 45
0.0
 46
0.0
 47
0.0
 48
0.0
 49
0.0
140
0.0
141
0.0
142
1.0
143
1.0
 70
  1712
 72
     0
 73
     0
 74
     0
  7

 75
     0
 76
     0
 77
     2
 78
   300
147
1.0
148
0.0
149
0.0
100
AcDbLayout
  1
Model
 70
     1
 71
     0
 10
0.0
 20
0.0
 11
12.0
 21
9.0
 12
0.0
 22
0.0
 32
0.0
 14
0.0
 24
-0.0000000000000058
 34
0.0
 15
528.9664479392364
 25
796.350840076185
 35
0.0
146
0.0
 13
0.0
 23
0.0
 33
0.0
 16
1.0
 26
0.0
 36
0.0
 17
0.0
 27
1.0
 37
0.0
 76
     0
330
1F
331
29
  0
MLINESTYLE
  5
18
102
{ACAD_REACTORS
330
17
102
}
330
17
100
AcDbMlineStyle
  2
Standard
 70
     0
  3

 62
   256
 51
90.0
 52
90.0
 71
     2
 49
0.5
 62
   256
  6
BYLAYER
 49
-0.5
 62
   256
  6
BYLAYER
  0
ACDBPLACEHOLDER
  5
F
102
{ACAD_REACTORS
330
E
102
}
330
E
  0
VISUALSTYLE
  5
2F
102
{ACAD_REACTORS
330
2A
102
}
330
2A
100
AcDbVisualStyle
  2
2dWireframe
 70
     4
 71
     0
 72
     2
 73
     0
 90
        0
 40
-0.6
 41
-30.0
 62
     5
 63
     7
421
 16777215
 74
     1
 91
        4
 64
     7
 65
   257
 75
     1
175
     1
 42
1.0
 92
        0
 66
   257
 43
1.0
 76
     1
 77
     6
 78
     2
 67
     7
 79
     5
170
     0
171
     0
290
     0
174
     0
 93
        1
 44
0.0
173
     0
291
     0
 45
0.0
1001
ACAD
1000
AcDbSavedByObjectVersion
1070
     0
  0
VISUALSTYLE
  5
31
102
{ACAD_REACTORS
330
2A
102
}
330
2A
100
AcDbVisualStyle
  2
3D Hidden
 70
     6
 71
     1
 72
     2
 73
     2
 90
        0
 40
-0.6
 41
-30.0
 62
     5
 63
     7
421
 16777215
 74
     2
 91
        2
 64
     7
 65
   257
 75
     2
175
     1
 42
40.0
 92
        0
 66
   257
 43
1.0
 76
     1
 77
     6
 78
     2
 67
     7
 79
     3
170
     0
171
     0
290
     0
174
     0
 93
        1
 44
0.0
173
     0
291
     0
 45
0.0
1001
ACAD
1000
AcDbSavedByObjectVersion
1070
     0
  0
VISUALSTYLE
  5
30
102
{ACAD_REACTORS
330
2A
102
}
330
2A
100
AcDbVisualStyle
  2
3dWireframe
 70
     5
 71
     0
 72
     2
 73
     0
 90
        0
 40
-0.6
 41
-30.0
 62
     5
 63
     7
421
 16777215
 74
     1
 91
        4
 64
     7
 65
   257
 75
     1
175
     1
 42
1.0
 92
        0
 66
   257
 43
1.0
 76
     1
 77
     6
 78
     2
 67
     7
 79
     5
170
     0
171
     0
290
     0
174
     0
 93
        1
 44
0.0
173
     0
291
     0
 45
0.0
1001
ACAD
1000
AcDbSavedByObjectVersion
1070
     0
  0
VISUALSTYLE
  5
32
102
{ACAD_REACTORS
330
2A
102
}
330
2A
100
AcDbVisualStyle
  2
Basic
 70
     7
 71
     1
 72
     0
 73
     1
 90
        0
 40
-0.6
 41
-30.0
 62
     5
 63
     7
421
 16777215
 74
     0
 91
        4
 64
     7
 65
   257
 75
     1
175
     1
 42
1.0
 92
        8
 66
     7
 43
1.0
 76
     1
 77
     6
 78
     2
 67
     7
 79
     5
170
     0
171
     0
290
     0
174
     0
 93
        1
 44
0.0
173
     0
291
     1
 45
0.0
1001
ACAD
1000
AcDbSavedByObjectVersion
1070
     0
  0
VISUALSTYLE
  5
36
102
{ACAD_REACTORS
330
2A
102
}
330
2A
100
AcDbVisualStyle
  2
Brighten
 70
    12
 71
     2
 72
     2
 73
     0
 90
        0
 40
-0.6
 41
-30.0
 62
     5
 63
     7
421
 16777215
 74
     1
 91
        4
 64
     7
 65
   257
 75
     1
175
     1
 42
1.0
 92
        8
 66
     7
 43
1.0
 76
     1
 77
     6
 78
     2
 67
     7
 79
     5
170
     0
171
     0
290
     0
174
     0
 93
        1
 44
50.0
173
     0
291
     1
 45
0.0
1001
ACAD
1000
AcDbSavedByObjectVersion
1070
     0
  0
VISUALSTYLE
  5
3A
102
{ACAD_REACTORS
330
2A
102
}
330
2A
100
AcDbVisualStyle
  2
ColorChange
 70
    16
 71
     2
 72
     2
 73
     3
 90
        0
 40
-0.6
 41
-30.0
 62
     5
 63
     8
421
  8421504
 74
     1
 91
        4
 64
     7
 65
   257
 75
     1
175
     1
 42
1.0
 92
        8
 66
     8
424
  8421504
 43
1.0
 76
     1
 77
     6
 78
     2
 67
     7
 79
     5
170
     0
171
     0
290
     0
174
     0
 93
        1
 44
0.0
173
     0
291
     1
 45
0.0
1001
ACAD
1000
AcDbSavedByObjectVersion
1070
     0
  0
VISUALSTYLE
  5
34
102
{ACAD_REACTORS
330
2A
102
}
330
2A
100
AcDbVisualStyle
  2
Conceptual
 70
     9
 71
     3
 72
     2
 73
     0
 90
        0
 40
-0.6
 41
-30.0
 62
     5
 63
     7
421
 16777215
 74
     2
 91
        2
 64
     7
 65
   257
 75
     1
175
     1
 42
40.0
 92
        8
 66
     7
 43
1.0
 76
     1
 77
     6
 78
     2
 67
     7
 79
     3
170
     0
171
     0
290
     0
174
     0
 93
        1
 44
0.0
173
     0
291
     0
 45
0.0
1001
ACAD
1000
AcDbSavedByObjectVersion
1070
     0
  0
VISUALSTYLE
  5
35
102
{ACAD_REACTORS
330
2A
102
}
330
2A
100
AcDbVisualStyle
  2
Dim
 70
    11
 71
     2
 72
     2
 73
     0
 90
        0
 40
-0.6
 41
-30.0
 62
     5
 63
     7
421
 16777215
 74
     1
 91
        4
 64
     7
 65
   257
 75
     1
175
     1
 42
1.0
 92
        8
 66
     7
 43
1.0
 76
     1
 77
     6
 78
     2
 67
     7
 79
     5
170
     0
171
     0
290
     0
174
     0
 93
        1
 44
-50.0
173
     0
291
     1
 45
0.0
1001
ACAD
1000
AcDbSavedByObjectVersion
1070
     0
  0
VISUALSTYLE
  5
39
102
{ACAD_REACTORS
330
2A
102
}
330
2A
100
AcDbVisualStyle
  2
Facepattern
 70
    15
 71
     2
 72
     2
 73
     0
 90
        0
 40
-0.6
 41
-30.0
 62
     5
 63
     7
421
 16777215
 74
     1
 91
        4
 64
     7
 65
   257
 75
     1
175
     1
 42
1.0
 92
        8
 66
     7
 43
1.0
 76
     1
 77
     6
 78
     2
 67
     7
 79
     5
170
     0
171
     0
290
     0
174
     0
 93
        1
 44
0.0
173
     0
291
     1
 45
0.0
1001
ACAD
1000
AcDbSavedByObjectVersion
1070
     0
  0
VISUALSTYLE
  5
2B
102
{ACAD_REACTORS
330
2A
102
}
330
2A
100
AcDbVisualStyle
  2
Flat
 70
     0
 71
     2
 72
     1
 73
     1
 90
        2
 40
-0.6
 41
30.0
 62
     5
 63
     7
421
 16777215
 74
     0
 91
        4
 64
     7
 65
   257
 75
     1
175
     1
 42
1.0
 92
        8
 66
     7
 43
1.0
 76
     1
 77
     6
 78
     2
 67
     7
 79
     5
170
     0
171
     0
290
     0
174
     0
 93
       13
 44
0.0
173
     0
291
     1
 45
0.0
1001
ACAD
1000
AcDbSavedByObjectVersion
1070
     0
  0
VISUALSTYLE
  5
2C
102
{ACAD_REACTORS
330
2A
102
}
330
2A
100
AcDbVisualStyle
  2
FlatWithEdges
 70
     1
 71
     2
 72
     1
 73
     1
 90
        2
 40
-0.6
 41
30.0
 62
     5
 63
     7
421
 16777215
 74
     1
 91
        4
 64
     7
 65
   257
 75
     1
175
     1
 42
1.0
 92
        0
 66
   257
 43
1.0
 76
     1
 77
     6
 78
     2
 67
     7
 79
     5
170
     0
171
     0
290
     0
174
     0
 93
       13
 44
0.0
173
     0
291
     1
 45
0.0
1001
ACAD
1000
AcDbSavedByObjectVersion
1070
     0
  0
VISUALSTYLE
  5
2D
102
{ACAD_REACTORS
330
2A
102
}
330
2A
100
AcDbVisualStyle
  2
Gouraud
 70
     2
 71
     2
 72
     2
 73
     1
 90
        2
 40
-0.6
 41
30.0
 62
     5
 63
     7
421
 16777215
 74
     0
 91
        4
 64
     7
 65
   257
 75
     1
175
     1
 42
1.0
 92
        0
 66
     7
 43
1.0
 76
     1
 77
     6
 78
     2
 67
     7
 79
     5
170
     0
171
     0
290
     0
174
     0
 93
       13
 44
0.0
173
     0
291
     1
 45
0.0
1001
ACAD
1000
AcDbSavedByObjectVersion
1070
     0
  0
VISUALSTYLE
  5
2E
102
{ACAD_REACTORS
330
2A
102
}
330
2A
100
AcDbVisualStyle
  2
GouraudWithEdges
 70
     3
 71
     2
 72
     2
 73
     1
 90
        2
 40
-0.6
 41
30.0
 62
     5
 63
     7
421
 16777215
 74
     1
 91
        4
 64
     7
 65
   257
 75
     1
175
     1
 42
1.0
 92
        0
 66
   257
 43
1.0
 76
     1
 77
     6
 78
     2
 67
     7
 79
     5
170
     0
171
     0
290
     0
174
     0
 93
       13
 44
0.0
173
     0
291
     1
 45
0.0
1001
ACAD
1000
AcDbSavedByObjectVersion
1070
     0
  0
VISUALSTYLE
  5
38
102
{ACAD_REACTORS
330
2A
102
}
330
2A
100
AcDbVisualStyle
  2
Linepattern
 70
    14
 71
     2
 72
     2
 73
     0
 90
        0
 40
-0.6
 41
-30.0
 62
     5
 63
     7
421
 16777215
 74
     1
 91
        4
 64
     7
 65
   257
 75
     7
175
     7
 42
1.0
 92
        8
 66
     7
 43
1.0
 76
     1
 77
     6
 78
     2
 67
     7
 79
     5
170
     0
171
     0
290
     0
174
     0
 93
        1
 44
0.0
173
     0
291
     1
 45
0.0
1001
ACAD
1000
AcDbSavedByObjectVersion
1070
     0
  0
VISUALSTYLE
  5
33
102
{ACAD_REACTORS
330
2A
102
}
330
2A
100
AcDbVisualStyle
  2
Realistic
 70
     8
 71
     2
 72
     2
 73
     0
 90
        0
 40
-0.6
 41
-30.0
 62
     5
 63
     7
421
 16777215
 74
     1
 91
        0
 64
     7
 65
   257
 75
     1
175
     1
 42
1.0
 92
        8
 66
     8
424
  7895160
 43
1.0
 76
     1
 77
     6
 78
     2
 67
     7
 79
     5
170
     0
171
     0
290
     0
174
     0
 93
       13
 44
0.0
173
     0
291
     0
 45
0.0
1001
ACAD
1000
AcDbSavedByObjectVersion
1070
     0
  0
VISUALSTYLE
  5
37
102
{ACAD_REACTORS
330
2A
102
}
330
2A
100
AcDbVisualStyle
  2
Thicken
 70
    13
 71
     2
 72
     2
 73
     0
 90
        0
 40
-0.6
 41
-30.0
 62
     5
 63
     7
421
 16777215
 74
     1
 91
        4
 64
     7
 65
   257
 75
     1
175
     1
 42
1.0
 92
       12
 66
     7
 43
1.0
 76
     1
 77
     6
 78
     2
 67
     7
 79
     5
170
     0
171
     0
290
     0
174
     0
 93
        1
 44
0.0
173
     0
291
     1
 45
0.0
1001
ACAD
1000
AcDbSavedByObjectVersion
1070
     0
  0
ENDSEC
  0
EOF
