  0
SECTION
  2
HEADER
  9
$ACADVER
  1
AC1018
  9
$ACADMAINTVER
 70
     0
  9
$DWGCODEPAGE
  3
ANSI_1252
  9
$INSBASE
 10
0.0
 20
0.0
 30
0.0
  9
$EXTMIN
 10
0.0000000000000711
 20
0.0000000000000711
 30
0.0
  9
$EXTMAX
 10
697.3134064198039
 20
3299.494366295317
 30
0.0
  9
$LIMMIN
 10
0.0
 20
0.0
  9
$LIMMAX
 10
12.0
 20
9.0
  9
$ORTHOMODE
 70
     0
  9
$REGENMODE
 70
     1
  9
$FILLMODE
 70
     1
  9
$QTEXTMODE
 70
     0
  9
$MIRRTEXT
 70
     1
  9
$LTSCALE
 40
1.0
  9
$ATTMODE
 70
     1
  9
$TEXTSIZE
 40
0.2
  9
$TRACEWID
 40
0.05
  9
$TEXTSTYLE
  7
Standard
  9
$CLAYER
  8
0
  9
$CELTYPE
  6
ByLayer
  9
$CECOLOR
 62
   256
  9
$CELTSCALE
 40
1.0
  9
$DISPSILH
 70
     0
  9
$DIMSCALE
 40
1.0
  9
$DIMASZ
 40
0.18
  9
$DIMEXO
 40
0.0625
  9
$DIMDLI
 40
0.38
  9
$DIMRND
 40
0.0
  9
$DIMDLE
 40
0.0
  9
$DIMEXE
 40
0.18
  9
$DIMTP
 40
0.0
  9
$DIMTM
 40
0.0
  9
$DIMTXT
 40
0.18
  9
$DIMCEN
 40
0.09
  9
$DIMTSZ
 40
0.0
  9
$DIMTOL
 70
     0
  9
$DIMLIM
 70
     0
  9
$DIMTIH
 70
     1
  9
$DIMTOH
 70
     1
  9
$DIMSE1
 70
     0
  9
$DIMSE2
 70
     0
  9
$DIMTAD
 70
     0
  9
$DIMZIN
 70
     0
  9
$DIMBLK
  1

  9
$DIMASO
 70
     1
  9
$DIMSHO
 70
     1
  9
$DIMPOST
  1

  9
$DIMAPOST
  1

  9
$DIMALT
 70
     0
  9
$DIMALTD
 70
     2
  9
$DIMALTF
 40
25.4
  9
$DIMLFAC
 40
1.0
  9
$DIMTOFL
 70
     0
  9
$DIMTVP
 40
0.0
  9
$DIMTIX
 70
     0
  9
$DIMSOXD
 70
     0
  9
$DIMSAH
 70
     0
  9
$DIMBLK1
  1

  9
$DIMBLK2
  1

  9
$DIMSTYLE
  2
Standard
  9
$DIMCLRD
 70
     0
  9
$DIMCLRE
 70
     0
  9
$DIMCLRT
 70
     0
  9
$DIMTFAC
 40
1.0
  9
$DIMGAP
 40
0.09
  9
$DIMJUST
 70
     0
  9
$DIMSD1
 70
     0
  9
$DIMSD2
 70
     0
  9
$DIMTOLJ
 70
     1
  9
$DIMTZIN
 70
     0
  9
$DIMALTZ
 70
     0
  9
$DIMALTTZ
 70
     0
  9
$DIMUPT
 70
     0
  9
$DIMDEC
 70
     4
  9
$DIMTDEC
 70
     4
  9
$DIMALTU
 70
     2
  9
$DIMALTTD
 70
     2
  9
$DIMTXSTY
  7
Standard
  9
$DIMAUNIT
 70
     0
  9
$DIMADEC
 70
     0
  9
$DIMALTRND
 40
0.0
  9
$DIMAZIN
 70
     0
  9
$DIMDSEP
 70
    46
  9
$DIMATFIT
 70
     3
  9
$DIMFRAC
 70
     0
  9
$DIMLDRBLK
  1

  9
$DIMLUNIT
 70
     2
  9
$DIMLWD
 70
    -2
  9
$DIMLWE
 70
    -2
  9
$DIMTMOVE
 70
     2
  9
$LUNITS
 70
     2
  9
$LUPREC
 70
     3
  9
$SKETCHINC
 40
0.1
  9
$FILLETRAD
 40
0.5
  9
$AUNITS
 70
     0
  9
$AUPREC
 70
     0
  9
$MENU
  1
.
  9
$ELEVATION
 40
0.0
  9
$PELEVATION
 40
0.0
  9
$THICKNESS
 40
0.0
  9
$LIMCHECK
 70
     0
  9
$CHAMFERA
 40
0.5
  9
$CHAMFERB
 40
0.5
  9
$CHAMFERC
 40
1.0
  9
$CHAMFERD
 40
0.0
  9
$SKPOLY
 70
     0
  9
$TDCREATE
 40
2455967.657912002
  9
$TDUCREATE
 40
2455967.616245335
  9
$TDUPDATE
 40
2455967.657912014
  9
$TDUUPDATE
 40
2455967.616245347
  9
$TDINDWG
 40
0.0000000116
  9
$TDUSRTIMER
 40
0.0000000116
  9
$USRTIMER
 70
     1
  9
$ANGBASE
 50
0.0
  9
$ANGDIR
 70
     0
  9
$PDMODE
 70
     0
  9
$PDSIZE
 40
0.0
  9
$PLINEWID
 40
0.0
  9
$SPLFRAME
 70
     0
  9
$SPLINETYPE
 70
     6
  9
$SPLINESEGS
 70
     8
  9
$HANDSEED
  5
CB
  9
$SURFTAB1
 70
     6
  9
$SURFTAB2
 70
     6
  9
$SURFTYPE
 70
     6
  9
$SURFU
 70
     6
  9
$SURFV
 70
     6
  9
$UCSBASE
  2

  9
$UCSNAME
  2

  9
$UCSORG
 10
0.0
 20
0.0
 30
0.0
  9
$UCSXDIR
 10
1.0
 20
0.0
 30
0.0
  9
$UCSYDIR
 10
0.0
 20
1.0
 30
0.0
  9
$UCSORTHOREF
  2

  9
$UCSORTHOVIEW
 70
     0
  9
$UCSORGTOP
 10
0.0
 20
0.0
 30
0.0
  9
$UCSORGBOTTOM
 10
0.0
 20
0.0
 30
0.0
  9
$UCSORGLEFT
 10
0.0
 20
0.0
 30
0.0
  9
$UCSORGRIGHT
 10
0.0
 20
0.0
 30
0.0
  9
$UCSORGFRONT
 10
0.0
 20
0.0
 30
0.0
  9
$UCSORGBACK
 10
0.0
 20
0.0
 30
0.0
  9
$PUCSBASE
  2

  9
$PUCSNAME
  2

  9
$PUCSORG
 10
0.0
 20
0.0
 30
0.0
  9
$PUCSXDIR
 10
1.0
 20
0.0
 30
0.0
  9
$PUCSYDIR
 10
0.0
 20
1.0
 30
0.0
  9
$PUCSORTHOREF
  2

  9
$PUCSORTHOVIEW
 70
     0
  9
$PUCSORGTOP
 10
0.0
 20
0.0
 30
0.0
  9
$PUCSORGBOTTOM
 10
0.0
 20
0.0
 30
0.0
  9
$PUCSORGLEFT
 10
0.0
 20
0.0
 30
0.0
  9
$PUCSORGRIGHT
 10
0.0
 20
0.0
 30
0.0
  9
$PUCSORGFRONT
 10
0.0
 20
0.0
 30
0.0
  9
$PUCSORGBACK
 10
0.0
 20
0.0
 30
0.0
  9
$USERI1
 70
     0
  9
$USERI2
 70
     0
  9
$USERI3
 70
     0
  9
$USERI4
 70
     0
  9
$USERI5
 70
     0
  9
$USERR1
 40
0.0
  9
$USERR2
 40
0.0
  9
$USERR3
 40
0.0
  9
$USERR4
 40
0.0
  9
$USERR5
 40
0.0
  9
$WORLDVIEW
 70
     1
  9
$SHADEDGE
 70
     3
  9
$SHADEDIF
 70
    70
  9
$TILEMODE
 70
     1
  9
$MAXACTVP
 70
    64
  9
$PINSBASE
 10
0.0
 20
0.0
 30
0.0
  9
$PLIMCHECK
 70
     0
  9
$PEXTMIN
 10
1.000000000000000E+20
 20
1.000000000000000E+20
 30
1.000000000000000E+20
  9
$PEXTMAX
 10
-1.000000000000000E+20
 20
-1.000000000000000E+20
 30
-1.000000000000000E+20
  9
$PLIMMIN
 10
0.0
 20
0.0
  9
$PLIMMAX
 10
12.0
 20
9.0
  9
$UNITMODE
 70
     0
  9
$VISRETAIN
 70
     1
  9
$PLINEGEN
 70
     0
  9
$PSLTSCALE
 70
     1
  9
$TREEDEPTH
 70
  3020
  9
$CMLSTYLE
  2
Standard
  9
$CMLJUST
 70
     0
  9
$CMLSCALE
 40
1.0
  9
$PROXYGRAPHICS
 70
     1
  9
$MEASUREMENT
 70
     0
  9
$CELWEIGHT
370
    -1
  9
$ENDCAPS
280
     0
  9
$JOINSTYLE
280
     0
  9
$LWDISPLAY
290
     0
  9
$INSUNITS
 70
     4
  9
$HYPERLINKBASE
  1

  9
$STYLESHEET
  1

  9
$XEDIT
290
     1
  9
$CEPSNTYPE
380
     0
  9
$PSTYLEMODE
290
     1
  9
$FINGERPRINTGUID
  2
{35A9A47D-B1BE-480A-A8C5-A83EFC6AE132}
  9
$VERSIONGUID
  2
{FAEB1C32-E019-11D5-929B-00C0DF256EC4}
  9
$EXTNAMES
290
     1
  9
$PSVPSCALE
 40
0.0
  9
$OLESTARTUP
290
     0
  9
$SORTENTS
280
   127
  9
$INDEXCTL
280
     0
  9
$HIDETEXT
280
     1
  9
$XCLIPFRAME
290
     0
  9
$HALOGAP
280
     0
  9
$OBSCOLOR
 70
   257
  9
$OBSLTYPE
280
     0
  9
$INTERSECTIONDISPLAY
280
     0
  9
$INTERSECTIONCOLOR
 70
   257
  9
$DIMASSOC
280
     2
  9
$PROJECTNAME
  1

  0
ENDSEC
  0
SECTION
  2
CLASSES
  0
CLASS
  1
ACDBDICTIONARYWDFLT
  2
AcDbDictionaryWithDefault
  3
ObjectDBX Classes
 90
        0
 91
        4
280
     0
281
     0
  0
CLASS
  1
VISUALSTYLE
  2
AcDbVisualStyle
  3
ObjectDBX Classes
 90
     4095
 91
        4
280
     0
281
     0
  0
ENDSEC
  0
SECTION
  2
TABLES
  0
TABLE
  2
VPORT
  5
8
330
0
100
AcDbSymbolTable
 70
     1
  0
VPORT
  5
29
330
8
100
AcDbSymbolTableRecord
100
AcDbViewportTableRecord
  2
*Active
 70
     0
 10
0.0
 20
0.0
 11
1.0
 21
1.0
 12
348.656703209902
 22
1649.747183147659
 13
0.0
 23
0.0
 14
0.5
 24
0.5
 15
0.5
 25
0.5
 16
0.0
 26
0.0
 36
1.0
 17
0.0
 27
0.0
 37
0.0
 40
3365.484253621224
 41
0.2113394747822375
 42
50.0
 43
0.0
 44
0.0
 50
0.0
 51
0.0
 71
     0
 72
   100
 73
     1
 74
     3
 75
     0
 76
     0
 77
     0
 78
     0
281
     0
 65
     1
110
0.0
120
0.0
130
0.0
111
1.0
121
0.0
131
0.0
112
0.0
122
1.0
132
0.0
 79
     0
146
0.0
  0
ENDTAB
  0
TABLE
  2
LTYPE
  5
5
330
0
100
AcDbSymbolTable
 70
     1
  0
LTYPE
  5
14
330
5
100
AcDbSymbolTableRecord
100
AcDbLinetypeTableRecord
  2
ByBlock
 70
     0
  3

 72
    65
 73
     0
 40
0.0
  0
LTYPE
  5
15
330
5
100
AcDbSymbolTableRecord
100
AcDbLinetypeTableRecord
  2
ByLayer
 70
     0
  3

 72
    65
 73
     0
 40
0.0
  0
LTYPE
  5
16
330
5
100
AcDbSymbolTableRecord
100
AcDbLinetypeTableRecord
  2
Continuous
 70
     0
  3
Solid line
 72
    65
 73
     0
 40
0.0
  0
ENDTAB
  0
TABLE
  2
LAYER
  5
2
330
0
100
AcDbSymbolTable
 70
     2
  0
LAYER
  5
10
330
2
100
AcDbSymbolTableRecord
100
AcDbLayerTableRecord
  2
0
 70
     0
 62
     7
  6
Continuous
370
    -3
390
F
  0
LAYER
  5
3B
330
2
100
AcDbSymbolTableRecord
100
AcDbLayerTableRecord
  2
Linee visibili 2D
 70
     0
 62
     7
  6
Continuous
370
    -3
390
F
  0
ENDTAB
  0
TABLE
  2
STYLE
  5
3
330
0
100
AcDbSymbolTable
 70
     1
  0
STYLE
  5
11
330
3
100
AcDbSymbolTableRecord
100
AcDbTextStyleTableRecord
  2
Standard
 70
     0
 40
0.0
 41
1.0
 50
0.0
 71
     0
 42
0.2
  3
txt
  4

  0
ENDTAB
  0
TABLE
  2
VIEW
  5
6
330
0
100
AcDbSymbolTable
 70
     0
  0
ENDTAB
  0
TABLE
  2
UCS
  5
7
330
0
100
AcDbSymbolTable
 70
     0
  0
ENDTAB
  0
TABLE
  2
APPID
  5
9
330
0
100
AcDbSymbolTable
 70
     1
  0
APPID
  5
12
330
9
100
AcDbSymbolTableRecord
100
AcDbRegAppTableRecord
  2
ACAD
 70
     0
  0
ENDTAB
  0
TABLE
  2
DIMSTYLE
  5
A
330
0
100
AcDbSymbolTable
 70
     1
100
AcDbDimStyleTable
  0
DIMSTYLE
105
27
330
A
100
AcDbSymbolTableRecord
100
AcDbDimStyleTableRecord
  2
Standard
 70
     0
340
11
  0
ENDTAB
  0
TABLE
  2
BLOCK_RECORD
  5
1
330
0
100
AcDbSymbolTable
 70
     1
  0
BLOCK_RECORD
  5
1F
330
1
100
AcDbSymbolTableRecord
100
AcDbBlockTableRecord
  2
*Model_Space
340
22
  0
BLOCK_RECORD
  5
1B
330
1
100
AcDbSymbolTableRecord
100
AcDbBlockTableRecord
  2
*Paper_Space
340
1E
  0
BLOCK_RECORD
  5
23
330
1
100
AcDbSymbolTableRecord
100
AcDbBlockTableRecord
  2
*Paper_Space0
340
26
  0
ENDTAB
  0
ENDSEC
  0
SECTION
  2
BLOCKS
  0
BLOCK
  5
20
330
1F
100
AcDbEntity
  8
0
100
AcDbBlockBegin
  2
*Model_Space
 70
     0
 10
0.0
 20
0.0
 30
0.0
  3
*Model_Space
  1

  0
ENDBLK
  5
21
330
1F
100
AcDbEntity
  8
0
100
AcDbBlockEnd
  0
BLOCK
  5
1C
330
1B
100
AcDbEntity
 67
     1
  8
0
100
AcDbBlockBegin
  2
*Paper_Space
 70
     0
 10
0.0
 20
0.0
 30
0.0
  3
*Paper_Space
  1

  0
ENDBLK
  5
1D
330
1B
100
AcDbEntity
 67
     1
  8
0
100
AcDbBlockEnd
  0
BLOCK
  5
24
330
23
100
AcDbEntity
  8
0
100
AcDbBlockBegin
  2
*Paper_Space0
 70
     0
 10
0.0
 20
0.0
 30
0.0
  3
*Paper_Space0
  1

  0
ENDBLK
  5
25
330
23
100
AcDbEntity
  8
0
100
AcDbBlockEnd
  0
ENDSEC
  0
SECTION
  2
ENTITIES
  0
LINE
  5
3C
330
1F
100
AcDbEntity
  8
Linee visibili 2D
 62
   255
100
AcDbLine
 10
164.562872456407
 20
3058.377409282219
 30
0.0
 11
164.5628724564069
 21
3086.643167855161
 31
0.0
  0
LINE
  5
3D
330
1F
100
AcDbEntity
  8
Linee visibili 2D
 62
   255
100
AcDbLine
 10
2.562872456406495
 20
3086.643167569228
 30
0.0
 11
2.562872456406495
 21
3058.377409282219
 31
0.0
  0
LINE
  5
3E
330
1F
100
AcDbEntity
  8
Linee visibili 2D
 62
   255
100
AcDbLine
 10
0.0433735509073476
 20
3299.494366295317
 30
0.0
 11
166.9566264491125
 21
3299.494366295317
 31
0.0
  0
POLYLINE
  5
3F
330
1F
100
AcDbEntity
  8
Linee visibili 2D
 62
   255
100
AcDb2dPolyline
 66
     1
 10
0.0
 20
0.0
 30
0.0
  0
VERTEX
  5
40
330
3F
100
AcDbEntity
  8
Linee visibili 2D
 62
   255
100
AcDbVertex
100
AcDb2dVertex
 10
167.0000000000189
 20
3088.553139411372
 30
0.0
  0
VERTEX
  5
41
330
3F
100
AcDbEntity
  8
Linee visibili 2D
 62
   255
100
AcDbVertex
100
AcDb2dVertex
 10
167.0000000000105
 20
3299.439268974717
 30
0.0
 42
0.3844592107275995
  0
VERTEX
  5
42
330
3F
100
AcDbEntity
  8
Linee visibili 2D
 62
   255
100
AcDbVertex
100
AcDb2dVertex
 10
166.5000000000097
 20
3299.201473076508
 30
0.0
  0
SEQEND
  5
43
330
3F
100
AcDbEntity
  8
Linee visibili 2D
 62
   255
  0
POLYLINE
  5
44
330
1F
100
AcDbEntity
  8
Linee visibili 2D
 62
   255
100
AcDb2dPolyline
 66
     1
 10
0.0
 20
0.0
 30
0.0
  0
VERTEX
  5
45
330
44
100
AcDbEntity
  8
Linee visibili 2D
 62
   255
100
AcDbVertex
100
AcDb2dVertex
 10
0.0000000000001473
 20
3088.553139411372
 30
0.0
  0
VERTEX
  5
46
330
44
100
AcDbEntity
  8
Linee visibili 2D
 62
   255
100
AcDbVertex
100
AcDb2dVertex
 10
0.0000000000085257
 20
3299.439268974717
 30
0.0
 42
-0.3844592107625192
  0
VERTEX
  5
47
330
44
100
AcDbEntity
  8
Linee visibili 2D
 62
   255
100
AcDbVertex
100
AcDb2dVertex
 10
0.5000000000096255
 20
3299.201473076508
 30
0.0
  0
SEQEND
  5
48
330
44
100
AcDbEntity
  8
Linee visibili 2D
 62
   255
  0
POLYLINE
  5
49
330
1F
100
AcDbEntity
  8
Linee visibili 2D
 62
   255
100
AcDb2dPolyline
 66
     1
 10
0.0
 20
0.0
 30
0.0
  0
VERTEX
  5
4A
330
49
100
AcDbEntity
  8
Linee visibili 2D
 62
   255
100
AcDbVertex
100
AcDb2dVertex
 10
164.5626927510109
 20
3087.361488048522
 30
0.0
  0
VERTEX
  5
4B
330
49
100
AcDbEntity
  8
Linee visibili 2D
 62
   255
100
AcDbVertex
100
AcDb2dVertex
 10
164.5452675251342
 20
3086.643268555497
 30
0.0
  0
VERTEX
  5
4C
330
49
100
AcDbEntity
  8
Linee visibili 2D
 62
   255
100
AcDbVertex
100
AcDb2dVertex
 10
164.5452188438534
 20
3057.673376083013
 30
0.0
  0
VERTEX
  5
4D
330
49
100
AcDbEntity
  8
Linee visibili 2D
 62
   255
100
AcDbVertex
100
AcDb2dVertex
 10
164.0453426071617
 20
3057.182752799801
 30
0.0
  0
VERTEX
  5
4E
330
49
100
AcDbEntity
  8
Linee visibili 2D
 62
   255
100
AcDbVertex
100
AcDb2dVertex
 10
3.080402305651361
 20
3057.182752799802
 30
0.0
  0
VERTEX
  5
4F
330
49
100
AcDbEntity
  8
Linee visibili 2D
 62
   255
100
AcDbVertex
100
AcDb2dVertex
 10
2.580527500547944
 20
3057.673376123933
 30
0.0
  0
VERTEX
  5
50
330
49
100
AcDbEntity
  8
Linee visibili 2D
 62
   255
100
AcDbVertex
100
AcDb2dVertex
 10
2.580477248244281
 20
3086.643274302652
 30
0.0
  0
VERTEX
  5
51
330
49
100
AcDbEntity
  8
Linee visibili 2D
 62
   255
100
AcDbVertex
100
AcDb2dVertex
 10
2.562952025154801
 20
3087.365615403475
 30
0.0
  0
SEQEND
  5
52
330
49
100
AcDbEntity
  8
Linee visibili 2D
 62
   255
  0
CIRCLE
  5
53
330
1F
100
AcDbEntity
  8
Linee visibili 2D
 62
   255
100
AcDbCircle
 10
508.6813720638433
 20
3090.908579857698
 30
0.0
 40
4.100000000000819
  0
POLYLINE
  5
54
330
1F
100
AcDbEntity
  8
Linee visibili 2D
 62
   255
100
AcDb2dPolyline
 66
     1
 10
0.0
 20
0.0
 30
0.0
  0
VERTEX
  5
55
330
54
100
AcDbEntity
  8
Linee visibili 2D
 62
   255
100
AcDbVertex
100
AcDb2dVertex
 10
486.8884788450258
 20
166.5000000000096
 30
0.0
  0
VERTEX
  5
56
330
54
100
AcDbEntity
  8
Linee visibili 2D
 62
   255
100
AcDbVertex
100
AcDb2dVertex
 10
485.9225530187369
 20
167.0000000000105
 30
0.0
  0
VERTEX
  5
57
330
54
100
AcDbEntity
  8
Linee visibili 2D
 62
   255
100
AcDbVertex
100
AcDb2dVertex
 10
485.7986886314749
 20
167.0000000000096
 30
0.0
  0
SEQEND
  5
58
330
54
100
AcDbEntity
  8
Linee visibili 2D
 62
   255
  0
POLYLINE
  5
59
330
1F
100
AcDbEntity
  8
Linee visibili 2D
 62
   255
100
AcDb2dPolyline
 66
     1
 10
0.0
 20
0.0
 30
0.0
  0
VERTEX
  5
5A
330
59
100
AcDbEntity
  8
Linee visibili 2D
 62
   255
100
AcDbVertex
100
AcDb2dVertex
 10
486.8884788450256
 20
0.5000000000094929
 30
0.0
  0
VERTEX
  5
5B
330
59
100
AcDbEntity
  8
Linee visibili 2D
 62
   255
100
AcDbVertex
100
AcDb2dVertex
 10
485.9225530187368
 20
0.0000000000085255
 30
0.0
  0
VERTEX
  5
5C
330
59
100
AcDbEntity
  8
Linee visibili 2D
 62
   255
100
AcDbVertex
100
AcDb2dVertex
 10
485.7986886314749
 20
0.000000000009436
 30
0.0
  0
SEQEND
  5
5D
330
59
100
AcDbEntity
  8
Linee visibili 2D
 62
   255
  0
POLYLINE
  5
5E
330
1F
100
AcDbEntity
  8
Linee visibili 2D
 62
   255
100
AcDb2dPolyline
 66
     1
 10
0.0
 20
0.0
 30
0.0
  0
VERTEX
  5
5F
330
5E
100
AcDbEntity
  8
Linee visibili 2D
 62
   255
100
AcDbVertex
100
AcDb2dVertex
 10
166.5000000000096
 20
3088.776545501731
 30
0.0
  0
VERTEX
  5
60
330
5E
100
AcDbEntity
  8
Linee visibili 2D
 62
   255
100
AcDbVertex
100
AcDb2dVertex
 10
167.0000000000188
 20
3088.422992111131
 30
0.0
  0
VERTEX
  5
61
330
5E
100
AcDbEntity
  8
Linee visibili 2D
 62
   255
100
AcDbVertex
100
AcDb2dVertex
 10
167.0000000000155
 20
3055.896080176553
 30
0.0
  0
VERTEX
  5
62
330
5E
100
AcDbEntity
  8
Linee visibili 2D
 62
   255
100
AcDbVertex
100
AcDb2dVertex
 10
166.5000000000095
 20
3055.542526785955
 30
0.0
  0
VERTEX
  5
63
330
5E
100
AcDbEntity
  8
Linee visibili 2D
 62
   255
100
AcDbVertex
100
AcDb2dVertex
 10
0.5000000000093792
 20
3055.542526785957
 30
0.0
  0
VERTEX
  5
64
330
5E
100
AcDbEntity
  8
Linee visibili 2D
 62
   255
100
AcDbVertex
100
AcDb2dVertex
 10
0.0000000000034106
 20
3055.896080176553
 30
0.0
  0
VERTEX
  5
65
330
5E
100
AcDbEntity
  8
Linee visibili 2D
 62
   255
100
AcDbVertex
100
AcDb2dVertex
 10
0.0000000000000711
 20
3088.422992111131
 30
0.0
  0
VERTEX
  5
66
330
5E
100
AcDbEntity
  8
Linee visibili 2D
 62
   255
100
AcDbVertex
100
AcDb2dVertex
 10
0.5000000000094876
 20
3088.776545501731
 30
0.0
  0
VERTEX
  5
67
330
5E
100
AcDbEntity
  8
Linee visibili 2D
 62
   255
100
AcDbVertex
100
AcDb2dVertex
 10
166.5000000000096
 20
3088.776545501731
 30
0.0
  0
SEQEND
  5
68
330
5E
100
AcDbEntity
  8
Linee visibili 2D
 62
   255
  0
POLYLINE
  5
69
330
1F
100
AcDbEntity
  8
Linee visibili 2D
 62
   255
100
AcDb2dPolyline
 66
     1
 10
0.0
 20
0.0
 30
0.0
  0
VERTEX
  5
6A
330
69
100
AcDbEntity
  8
Linee visibili 2D
 62
   255
100
AcDbVertex
100
AcDb2dVertex
 10
508.6813720638422
 20
3088.808579857698
 30
0.0
 42
0.9999999999997292
  0
VERTEX
  5
6B
330
69
100
AcDbEntity
  8
Linee visibili 2D
 62
   255
100
AcDbVertex
100
AcDb2dVertex
 10
508.6813720638422
 20
3093.008579857698
 30
0.0
 42
0.9999999999996211
  0
VERTEX
  5
6C
330
69
100
AcDbEntity
  8
Linee visibili 2D
 62
   255
100
AcDbVertex
100
AcDb2dVertex
 10
508.6813720638422
 20
3088.808579857698
 30
0.0
  0
SEQEND
  5
6D
330
69
100
AcDbEntity
  8
Linee visibili 2D
 62
   255
  0
POLYLINE
  5
6E
330
1F
100
AcDbEntity
  8
Linee visibili 2D
 62
   255
100
AcDb2dPolyline
 66
     1
 10
0.0
 20
0.0
 30
0.0
  0
VERTEX
  5
6F
330
6E
100
AcDbEntity
  8
Linee visibili 2D
 62
   255
100
AcDbVertex
100
AcDb2dVertex
 10
0.0000000000105729
 20
3000.908579857698
 30
0.0
  0
VERTEX
  5
70
330
6E
100
AcDbEntity
  8
Linee visibili 2D
 62
   255
100
AcDbVertex
100
AcDb2dVertex
 10
0.0175529247428698
 20
300.9085798576982
 30
0.0
  0
VERTEX
  5
71
330
6E
100
AcDbEntity
  8
Linee visibili 2D
 62
   255
100
AcDbVertex
100
AcDb2dVertex
 10
68.50000000001057
 20
300.908579857698
 30
0.0
  0
VERTEX
  5
72
330
6E
100
AcDbEntity
  8
Linee visibili 2D
 62
   255
100
AcDbVertex
100
AcDb2dVertex
 10
68.50000000001057
 20
585.908579857698
 30
0.0
 42
-0.9999999999999999
  0
VERTEX
  5
73
330
6E
100
AcDbEntity
  8
Linee visibili 2D
 62
   255
100
AcDbVertex
100
AcDb2dVertex
 10
98.50000000001069
 20
585.908579857698
 30
0.0
  0
VERTEX
  5
74
330
6E
100
AcDbEntity
  8
Linee visibili 2D
 62
   255
100
AcDbVertex
100
AcDb2dVertex
 10
98.50000000001057
 20
300.908579857698
 30
0.0
  0
VERTEX
  5
75
330
6E
100
AcDbEntity
  8
Linee visibili 2D
 62
   255
100
AcDbVertex
100
AcDb2dVertex
 10
166.9824470752783
 20
300.9085798576982
 30
0.0
  0
VERTEX
  5
76
330
6E
100
AcDbEntity
  8
Linee visibili 2D
 62
   255
100
AcDbVertex
100
AcDb2dVertex
 10
167.0000000000106
 20
2998.908579857698
 30
0.0
  0
VERTEX
  5
77
330
6E
100
AcDbEntity
  8
Linee visibili 2D
 62
   255
100
AcDbVertex
100
AcDb2dVertex
 10
167.0000000000106
 20
3000.908579857698
 30
0.0
  0
SEQEND
  5
78
330
6E
100
AcDbEntity
  8
Linee visibili 2D
 62
   255
  0
POLYLINE
  5
79
330
1F
100
AcDbEntity
  8
Linee visibili 2D
 62
   255
100
AcDb2dPolyline
 66
     1
 10
0.0
 20
0.0
 30
0.0
  0
VERTEX
  5
7A
330
79
100
AcDbEntity
  8
Linee visibili 2D
 62
   255
100
AcDbVertex
100
AcDb2dVertex
 10
508.6813720638422
 20
3008.808579857698
 30
0.0
 42
0.9999999999995669
  0
VERTEX
  5
7B
330
79
100
AcDbEntity
  8
Linee visibili 2D
 62
   255
100
AcDbVertex
100
AcDb2dVertex
 10
508.6813720638422
 20
3013.008579857698
 30
0.0
 42
0.9999999999998918
  0
VERTEX
  5
7C
330
79
100
AcDbEntity
  8
Linee visibili 2D
 62
   255
100
AcDbVertex
100
AcDb2dVertex
 10
508.6813720638422
 20
3008.808579857698
 30
0.0
  0
SEQEND
  5
7D
330
79
100
AcDbEntity
  8
Linee visibili 2D
 62
   255
  0
POLYLINE
  5
7E
330
1F
100
AcDbEntity
  8
Linee visibili 2D
 62
   255
100
AcDb2dPolyline
 66
     1
 10
0.0
 20
0.0
 30
0.0
  0
VERTEX
  5
7F
330
7E
100
AcDbEntity
  8
Linee visibili 2D
 62
   255
100
AcDbVertex
100
AcDb2dVertex
 10
508.6813720638402
 20
2910.208579857698
 30
0.0
 42
1.000000000000277
  0
VERTEX
  5
80
330
7E
100
AcDbEntity
  8
Linee visibili 2D
 62
   255
100
AcDbVertex
100
AcDb2dVertex
 10
508.6813720638402
 20
2917.608579857698
 30
0.0
 42
1.000000000000338
  0
VERTEX
  5
81
330
7E
100
AcDbEntity
  8
Linee visibili 2D
 62
   255
100
AcDbVertex
100
AcDb2dVertex
 10
508.6813720638402
 20
2910.208579857697
 30
0.0
  0
SEQEND
  5
82
330
7E
100
AcDbEntity
  8
Linee visibili 2D
 62
   255
  0
POLYLINE
  5
83
330
1F
100
AcDbEntity
  8
Linee visibili 2D
 62
   255
100
AcDb2dPolyline
 66
     1
 10
0.0
 20
0.0
 30
0.0
  0
VERTEX
  5
84
330
83
100
AcDbEntity
  8
Linee visibili 2D
 62
   255
100
AcDbVertex
100
AcDb2dVertex
 10
486.1804779306635
 20
0.0000000000085163
 30
0.0
  0
VERTEX
  5
85
330
83
100
AcDbEntity
  8
Linee visibili 2D
 62
   255
100
AcDbVertex
100
AcDb2dVertex
 10
696.959853029203
 20
0.0000000000000711
 30
0.0
  0
VERTEX
  5
86
330
83
100
AcDbEntity
  8
Linee visibili 2D
 62
   255
100
AcDbVertex
100
AcDb2dVertex
 10
697.3134064198039
 20
0.5000000000094724
 30
0.0
  0
VERTEX
  5
87
330
83
100
AcDbEntity
  8
Linee visibili 2D
 62
   255
100
AcDbVertex
100
AcDb2dVertex
 10
697.3134064198039
 20
166.5000000000096
 30
0.0
  0
VERTEX
  5
88
330
83
100
AcDbEntity
  8
Linee visibili 2D
 62
   255
100
AcDbVertex
100
AcDb2dVertex
 10
696.959853029203
 20
167.0000000000188
 30
0.0
  0
VERTEX
  5
89
330
83
100
AcDbEntity
  8
Linee visibili 2D
 62
   255
100
AcDbVertex
100
AcDb2dVertex
 10
486.1804779306661
 20
167.0000000000105
 30
0.0
  0
SEQEND
  5
8A
330
83
100
AcDbEntity
  8
Linee visibili 2D
 62
   255
  0
POLYLINE
  5
8B
330
1F
100
AcDbEntity
  8
Linee visibili 2D
 62
   255
100
AcDb2dPolyline
 66
     1
 10
0.0
 20
0.0
 30
0.0
  0
VERTEX
  5
8C
330
8B
100
AcDbEntity
  8
Linee visibili 2D
 62
   255
100
AcDbVertex
100
AcDb2dVertex
 10
164.5000000000095
 20
3056.956740348329
 30
0.0
  0
VERTEX
  5
8D
330
8B
100
AcDbEntity
  8
Linee visibili 2D
 62
   255
100
AcDbVertex
100
AcDb2dVertex
 10
2.500000000009393
 20
3056.956740348329
 30
0.0
  0
VERTEX
  5
8E
330
8B
100
AcDbEntity
  8
Linee visibili 2D
 62
   255
100
AcDbVertex
100
AcDb2dVertex
 10
2.000000000003664
 20
3057.310293738925
 30
0.0
  0
VERTEX
  5
8F
330
8B
100
AcDbEntity
  8
Linee visibili 2D
 62
   255
100
AcDbVertex
100
AcDb2dVertex
 10
2.000000000000455
 20
3087.008778548759
 30
0.0
  0
VERTEX
  5
90
330
8B
100
AcDbEntity
  8
Linee visibili 2D
 62
   255
100
AcDbVertex
100
AcDb2dVertex
 10
2.500000000009474
 20
3087.362331939357
 30
0.0
  0
VERTEX
  5
91
330
8B
100
AcDbEntity
  8
Linee visibili 2D
 62
   255
100
AcDbVertex
100
AcDb2dVertex
 10
164.5000000000096
 20
3087.362331939357
 30
0.0
  0
VERTEX
  5
92
330
8B
100
AcDbEntity
  8
Linee visibili 2D
 62
   255
100
AcDbVertex
100
AcDb2dVertex
 10
165.0000000000192
 20
3087.008778548759
 30
0.0
  0
VERTEX
  5
93
330
8B
100
AcDbEntity
  8
Linee visibili 2D
 62
   255
100
AcDbVertex
100
AcDb2dVertex
 10
165.0000000000157
 20
3057.310293738925
 30
0.0
  0
VERTEX
  5
94
330
8B
100
AcDbEntity
  8
Linee visibili 2D
 62
   255
100
AcDbVertex
100
AcDb2dVertex
 10
164.5000000000095
 20
3056.956740348329
 30
0.0
  0
SEQEND
  5
95
330
8B
100
AcDbEntity
  8
Linee visibili 2D
 62
   255
  0
CIRCLE
  5
96
330
1F
100
AcDbEntity
  8
Linee visibili 2D
 62
   255
100
AcDbCircle
 10
508.6813720638419
 20
3050.908579857698
 30
0.0
 40
5.0
  0
POLYLINE
  5
97
330
1F
100
AcDbEntity
  8
Linee visibili 2D
 62
   255
100
AcDb2dPolyline
 66
     1
 10
0.0
 20
0.0
 30
0.0
  0
VERTEX
  5
98
330
97
100
AcDbEntity
  8
Linee visibili 2D
 62
   255
100
AcDbVertex
100
AcDb2dVertex
 10
485.798688631475
 20
3299.418245827837
 30
0.0
  0
VERTEX
  5
99
330
97
100
AcDbEntity
  8
Linee visibili 2D
 62
   255
100
AcDbVertex
100
AcDb2dVertex
 10
485.6813720638393
 20
3299.360391699109
 30
0.0
  0
VERTEX
  5
9A
330
97
100
AcDbEntity
  8
Linee visibili 2D
 62
   255
100
AcDbVertex
100
AcDb2dVertex
 10
485.1813720638404
 20
3298.494366295328
 30
0.0
  0
VERTEX
  5
9B
330
97
100
AcDbEntity
  8
Linee visibili 2D
 62
   255
100
AcDbVertex
100
AcDb2dVertex
 10
485.1813720638402
 20
3000.908579857698
 30
0.0
  0
SEQEND
  5
9C
330
97
100
AcDbEntity
  8
Linee visibili 2D
 62
   255
  0
POLYLINE
  5
9D
330
1F
100
AcDbEntity
  8
Linee visibili 2D
 62
   255
100
AcDb2dPolyline
 66
     1
 10
0.0
 20
0.0
 30
0.0
  0
VERTEX
  5
9E
330
9D
100
AcDbEntity
  8
Linee visibili 2D
 62
   255
100
AcDbVertex
100
AcDb2dVertex
 10
485.798688631475
 20
167.0000000000106
 30
0.0
  0
VERTEX
  5
9F
330
9D
100
AcDbEntity
  8
Linee visibili 2D
 62
   255
100
AcDbVertex
100
AcDb2dVertex
 10
485.798688631475
 20
0.0000000000105729
 30
0.0
  0
VERTEX
  5
A0
330
9D
100
AcDbEntity
  8
Linee visibili 2D
 62
   255
100
AcDbVertex
100
AcDb2dVertex
 10
485.6813720638393
 20
0.0000000000105729
 30
0.0
  0
VERTEX
  5
A1
330
9D
100
AcDbEntity
  8
Linee visibili 2D
 62
   255
100
AcDbVertex
100
AcDb2dVertex
 10
485.1813720638402
 20
0.500000000010573
 30
0.0
  0
VERTEX
  5
A2
330
9D
100
AcDbEntity
  8
Linee visibili 2D
 62
   255
100
AcDbVertex
100
AcDb2dVertex
 10
485.1813720638402
 20
166.5000000000106
 30
0.0
  0
VERTEX
  5
A3
330
9D
100
AcDbEntity
  8
Linee visibili 2D
 62
   255
100
AcDbVertex
100
AcDb2dVertex
 10
485.6813720638392
 20
167.0000000000105
 30
0.0
  0
VERTEX
  5
A4
330
9D
100
AcDbEntity
  8
Linee visibili 2D
 62
   255
100
AcDbVertex
100
AcDb2dVertex
 10
485.798688631475
 20
167.0000000000106
 30
0.0
  0
SEQEND
  5
A5
330
9D
100
AcDbEntity
  8
Linee visibili 2D
 62
   255
  0
LINE
  5
A6
330
1F
100
AcDbEntity
  8
Linee visibili 2D
 62
   255
100
AcDbLine
 10
0.0000000000105729
 20
2998.908579857698
 30
0.0
 11
166.9648941505418
 21
2998.908579857697
 31
0.0
  0
POLYLINE
  5
A7
330
1F
100
AcDbEntity
  8
Linee visibili 2D
 62
   255
100
AcDb2dPolyline
 66
     1
 10
0.0
 20
0.0
 30
0.0
  0
VERTEX
  5
A8
330
A7
100
AcDbEntity
  8
Linee visibili 2D
 62
   255
100
AcDbVertex
100
AcDb2dVertex
 10
485.7986886314749
 20
3299.418245827828
 30
0.0
  0
VERTEX
  5
A9
330
A7
100
AcDbEntity
  8
Linee visibili 2D
 62
   255
100
AcDbVertex
100
AcDb2dVertex
 10
531.6813720638379
 20
3188.647649207347
 30
0.0
  0
VERTEX
  5
AA
330
A7
100
AcDbEntity
  8
Linee visibili 2D
 62
   255
100
AcDbVertex
100
AcDb2dVertex
 10
532.1813720638384
 20
3187.440542426159
 30
0.0
  0
VERTEX
  5
AB
330
A7
100
AcDbEntity
  8
Linee visibili 2D
 62
   255
100
AcDbVertex
100
AcDb2dVertex
 10
664.0793877040264
 20
3055.542526785957
 30
0.0
  0
VERTEX
  5
AC
330
A7
100
AcDbEntity
  8
Linee visibili 2D
 62
   255
100
AcDbVertex
100
AcDb2dVertex
 10
697.3134064198038
 20
3088.77654550173
 30
0.0
  0
VERTEX
  5
AD
330
A7
100
AcDbEntity
  8
Linee visibili 2D
 62
   255
100
AcDbVertex
100
AcDb2dVertex
 10
486.8884788450256
 20
3299.201473076508
 30
0.0
  0
VERTEX
  5
AE
330
A7
100
AcDbEntity
  8
Linee visibili 2D
 62
   255
100
AcDbVertex
100
AcDb2dVertex
 10
485.9225530187368
 20
3299.460292121606
 30
0.0
  0
VERTEX
  5
AF
330
A7
100
AcDbEntity
  8
Linee visibili 2D
 62
   255
100
AcDbVertex
100
AcDb2dVertex
 10
485.7986886314749
 20
3299.418245827828
 30
0.0
  0
SEQEND
  5
B0
330
A7
100
AcDbEntity
  8
Linee visibili 2D
 62
   255
  0
CIRCLE
  5
B1
330
1F
100
AcDbEntity
  8
Linee visibili 2D
 62
   255
100
AcDbCircle
 10
508.6813720638416
 20
3010.908579857698
 30
0.0
 40
4.100000000000364
  0
POLYLINE
  5
B2
330
1F
100
AcDbEntity
  8
Linee visibili 2D
 62
   255
100
AcDb2dPolyline
 66
     1
 10
0.0
 20
0.0
 30
0.0
  0
VERTEX
  5
B3
330
B2
100
AcDbEntity
  8
Linee visibili 2D
 62
   255
100
AcDbVertex
100
AcDb2dVertex
 10
0.0000000000105729
 20
3055.765939043928
 30
0.0
  0
VERTEX
  5
B4
330
B2
100
AcDbEntity
  8
Linee visibili 2D
 62
   255
100
AcDbVertex
100
AcDb2dVertex
 10
0.0000000000105729
 20
3000.908579857698
 30
0.0
  0
VERTEX
  5
B5
330
B2
100
AcDbEntity
  8
Linee visibili 2D
 62
   255
100
AcDbVertex
100
AcDb2dVertex
 10
167.0000000000106
 20
3000.908579857698
 30
0.0
  0
VERTEX
  5
B6
330
B2
100
AcDbEntity
  8
Linee visibili 2D
 62
   255
100
AcDbVertex
100
AcDb2dVertex
 10
167.0000000000106
 20
3055.765939043925
 30
0.0
  0
SEQEND
  5
B7
330
B2
100
AcDbEntity
  8
Linee visibili 2D
 62
   255
  0
POLYLINE
  5
B8
330
1F
100
AcDbEntity
  8
Linee visibili 2D
 62
   255
100
AcDb2dPolyline
 66
     1
 10
0.0
 20
0.0
 30
0.0
  0
VERTEX
  5
B9
330
B8
100
AcDbEntity
  8
Linee visibili 2D
 62
   255
100
AcDbVertex
100
AcDb2dVertex
 10
95.00000000001067
 20
859.408579857698
 30
0.0
 42
-0.9999999999999799
  0
VERTEX
  5
BA
330
B8
100
AcDbEntity
  8
Linee visibili 2D
 62
   255
100
AcDbVertex
100
AcDb2dVertex
 10
95.00000000001067
 20
850.908579857698
 30
0.0
  0
VERTEX
  5
BB
330
B8
100
AcDbEntity
  8
Linee visibili 2D
 62
   255
100
AcDbVertex
100
AcDb2dVertex
 10
72.0000000000051
 20
850.908579857698
 30
0.0
 42
-1.000000000001926
  0
VERTEX
  5
BC
330
B8
100
AcDbEntity
  8
Linee visibili 2D
 62
   255
100
AcDbVertex
100
AcDb2dVertex
 10
72.00000000003244
 20
859.408579857698
 30
0.0
  0
VERTEX
  5
BD
330
B8
100
AcDbEntity
  8
Linee visibili 2D
 62
   255
100
AcDbVertex
100
AcDb2dVertex
 10
95.00000000001067
 20
859.408579857698
 30
0.0
  0
SEQEND
  5
BE
330
B8
100
AcDbEntity
  8
Linee visibili 2D
 62
   255
  0
LINE
  5
BF
330
1F
100
AcDbEntity
  8
Linee visibili 2D
 62
   255
100
AcDbLine
 10
532.1462662143714
 20
2998.908579857697
 30
0.0
 11
485.2164779133089
 21
2998.908579857697
 31
0.0
  0
POLYLINE
  5
C0
330
1F
100
AcDbEntity
  8
Linee visibili 2D
 62
   255
100
AcDb2dPolyline
 66
     1
 10
0.0
 20
0.0
 30
0.0
  0
VERTEX
  5
C1
330
C0
100
AcDbEntity
  8
Linee visibili 2D
 62
   255
100
AcDbVertex
100
AcDb2dVertex
 10
532.1813720638398
 20
3187.440542426166
 30
0.0
  0
VERTEX
  5
C2
330
C0
100
AcDbEntity
  8
Linee visibili 2D
 62
   255
100
AcDbVertex
100
AcDb2dVertex
 10
532.1813720638402
 20
3000.908579857698
 30
0.0
  0
VERTEX
  5
C3
330
C0
100
AcDbEntity
  8
Linee visibili 2D
 62
   255
100
AcDbVertex
100
AcDb2dVertex
 10
485.1813720638402
 20
3000.908579857698
 30
0.0
  0
VERTEX
  5
C4
330
C0
100
AcDbEntity
  8
Linee visibili 2D
 62
   255
100
AcDbVertex
100
AcDb2dVertex
 10
485.1813720638402
 20
300.908579857698
 30
0.0
  0
VERTEX
  5
C5
330
C0
100
AcDbEntity
  8
Linee visibili 2D
 62
   255
100
AcDbVertex
100
AcDb2dVertex
 10
532.1813720638402
 20
300.908579857698
 30
0.0
  0
VERTEX
  5
C6
330
C0
100
AcDbEntity
  8
Linee visibili 2D
 62
   255
100
AcDbVertex
100
AcDb2dVertex
 10
532.1813720638402
 20
3000.908579857698
 30
0.0
  0
SEQEND
  5
C7
330
C0
100
AcDbEntity
  8
Linee visibili 2D
 62
   255
  0
CIRCLE
  5
C8
330
1F
100
AcDbEntity
  8
Linee visibili 2D
 62
   255
100
AcDbCircle
 10
508.6813720638398
 20
2913.908579857698
 30
0.0
 40
4.249999999999545
  0
ENDSEC
  0
SECTION
  2
OBJECTS
  0
DICTIONARY
  5
C
330
0
100
AcDbDictionary
281
     1
  3
ACAD_GROUP
350
D
  3
ACAD_LAYOUT
350
1A
  3
ACAD_MLEADERSTYLE
350
CA
  3
ACAD_MLINESTYLE
350
17
  3
ACAD_PLOTSETTINGS
350
19
  3
ACAD_PLOTSTYLENAME
350
E
  3
ACAD_TABLESTYLE
350
C9
  3
ACAD_VISUALSTYLE
350
2A
  0
DICTIONARY
  5
D
102
{ACAD_REACTORS
330
C
102
}
330
C
100
AcDbDictionary
281
     1
  0
DICTIONARY
  5
1A
102
{ACAD_REACTORS
330
C
102
}
330
C
100
AcDbDictionary
281
     1
  3
Layout1
350
1E
  3
Layout2
350
26
  3
Model
350
22
  0
DICTIONARY
  5
CA
102
{ACAD_REACTORS
330
C
102
}
330
C
100
AcDbDictionary
281
     1
  0
DICTIONARY
  5
17
102
{ACAD_REACTORS
330
C
102
}
330
C
100
AcDbDictionary
281
     1
  3
Standard
350
18
  0
DICTIONARY
  5
19
102
{ACAD_REACTORS
330
C
102
}
330
C
100
AcDbDictionary
281
     1
  0
ACDBDICTIONARYWDFLT
  5
E
102
{ACAD_REACTORS
330
C
102
}
330
C
100
AcDbDictionary
281
     1
  3
Normal
350
F
100
AcDbDictionaryWithDefault
340
F
  0
DICTIONARY
  5
C9
102
{ACAD_REACTORS
330
C
102
}
330
C
100
AcDbDictionary
281
     1
  0
DICTIONARY
  5
2A
102
{ACAD_REACTORS
330
C
102
}
330
C
100
AcDbDictionary
281
     1
  3
2dWireframe
350
2F
  3
3D Hidden
350
31
  3
3dWireframe
350
30
  3
Basic
350
32
  3
Brighten
350
36
  3
ColorChange
350
3A
  3
Conceptual
350
34
  3
Dim
350
35
  3
Facepattern
350
39
  3
Flat
350
2B
  3
FlatWithEdges
350
2C
  3
Gouraud
350
2D
  3
GouraudWithEdges
350
2E
  3
Linepattern
350
38
  3
Realistic
350
33
  3
Thicken
350
37
  0
LAYOUT
  5
1E
102
{ACAD_REACTORS
330
1A
102
}
330
1A
100
AcDbPlotSettings
  1

  2
none_device
  4

  6

 40
0.0
 41
0.0
 42
0.0
 43
0.0
 44
0.0
 45
0.0
 46
0.0
 47
0.0
 48
0.0
 49
0.0
140
0.0
141
0.0
142
1.0
143
1.0
 70
   688
 72
     0
 73
     0
 74
     5
  7

 75
    16
 76
     0
 77
     2
 78
   300
147
1.0
148
0.0
149
0.0
100
AcDbLayout
  1
Layout1
 70
     1
 71
     1
 10
0.0
 20
0.0
 11
12.0
 21
9.0
 12
0.0
 22
0.0
 32
0.0
 14
1.000000000000000E+20
 24
1.000000000000000E+20
 34
1.000000000000000E+20
 15
-1.000000000000000E+20
 25
-1.000000000000000E+20
 35
-1.000000000000000E+20
146
0.0
 13
0.0
 23
0.0
 33
0.0
 16
1.0
 26
0.0
 36
0.0
 17
0.0
 27
1.0
 37
0.0
 76
     0
330
1B
  0
LAYOUT
  5
26
102
{ACAD_REACTORS
330
1A
102
}
330
1A
100
AcDbPlotSettings
  1

  2
none_device
  4

  6

 40
0.0
 41
0.0
 42
0.0
 43
0.0
 44
0.0
 45
0.0
 46
0.0
 47
0.0
 48
0.0
 49
0.0
140
0.0
141
0.0
142
1.0
143
1.0
 70
   688
 72
     0
 73
     0
 74
     5
  7

 75
    16
 76
     0
 77
     2
 78
   300
147
1.0
148
0.0
149
0.0
100
AcDbLayout
  1
Layout2
 70
     1
 71
     2
 10
0.0
 20
0.0
 11
0.0
 21
0.0
 12
0.0
 22
0.0
 32
0.0
 14
0.0
 24
0.0
 34
0.0
 15
0.0
 25
0.0
 35
0.0
146
0.0
 13
0.0
 23
0.0
 33
0.0
 16
1.0
 26
0.0
 36
0.0
 17
0.0
 27
1.0
 37
0.0
 76
     0
330
23
  0
LAYOUT
  5
22
102
{ACAD_REACTORS
330
1A
102
}
330
1A
100
AcDbPlotSettings
  1

  2
none_device
  4

  6

 40
0.0
 41
0.0
 42
0.0
 43
0.0
 44
0.0
 45
0.0
 46
0.0
 47
0.0
 48
0.0
 49
0.0
140
0.0
141
0.0
142
1.0
143
1.0
 70
  1712
 72
     0
 73
     0
 74
     0
  7

 75
     0
 76
     0
 77
     2
 78
   300
147
1.0
148
0.0
149
0.0
100
AcDbLayout
  1
Model
 70
     1
 71
     0
 10
0.0
 20
0.0
 11
12.0
 21
9.0
 12
0.0
 22
0.0
 32
0.0
 14
0.0000000000000711
 24
0.0000000000000711
 34
0.0
 15
697.3134064198039
 25
3299.494366295317
 35
0.0
146
0.0
 13
0.0
 23
0.0
 33
0.0
 16
1.0
 26
0.0
 36
0.0
 17
0.0
 27
1.0
 37
0.0
 76
     0
330
1F
331
29
  0
MLINESTYLE
  5
18
102
{ACAD_REACTORS
330
17
102
}
330
17
100
AcDbMlineStyle
  2
Standard
 70
     0
  3

 62
   256
 51
90.0
 52
90.0
 71
     2
 49
0.5
 62
   256
  6
BYLAYER
 49
-0.5
 62
   256
  6
BYLAYER
  0
ACDBPLACEHOLDER
  5
F
102
{ACAD_REACTORS
330
E
102
}
330
E
  0
VISUALSTYLE
  5
2F
102
{ACAD_REACTORS
330
2A
102
}
330
2A
100
AcDbVisualStyle
  2
2dWireframe
 70
     4
 71
     0
 72
     2
 73
     0
 90
        0
 40
-0.6
 41
-30.0
 62
     5
 63
     7
421
 16777215
 74
     1
 91
        4
 64
     7
 65
   257
 75
     1
175
     1
 42
1.0
 92
        0
 66
   257
 43
1.0
 76
     1
 77
     6
 78
     2
 67
     7
 79
     5
170
     0
171
     0
290
     0
174
     0
 93
        1
 44
0.0
173
     0
291
     0
 45
0.0
1001
ACAD
1000
AcDbSavedByObjectVersion
1070
     0
  0
VISUALSTYLE
  5
31
102
{ACAD_REACTORS
330
2A
102
}
330
2A
100
AcDbVisualStyle
  2
3D Hidden
 70
     6
 71
     1
 72
     2
 73
     2
 90
        0
 40
-0.6
 41
-30.0
 62
     5
 63
     7
421
 16777215
 74
     2
 91
        2
 64
     7
 65
   257
 75
     2
175
     1
 42
40.0
 92
        0
 66
   257
 43
1.0
 76
     1
 77
     6
 78
     2
 67
     7
 79
     3
170
     0
171
     0
290
     0
174
     0
 93
        1
 44
0.0
173
     0
291
     0
 45
0.0
1001
ACAD
1000
AcDbSavedByObjectVersion
1070
     0
  0
VISUALSTYLE
  5
30
102
{ACAD_REACTORS
330
2A
102
}
330
2A
100
AcDbVisualStyle
  2
3dWireframe
 70
     5
 71
     0
 72
     2
 73
     0
 90
        0
 40
-0.6
 41
-30.0
 62
     5
 63
     7
421
 16777215
 74
     1
 91
        4
 64
     7
 65
   257
 75
     1
175
     1
 42
1.0
 92
        0
 66
   257
 43
1.0
 76
     1
 77
     6
 78
     2
 67
     7
 79
     5
170
     0
171
     0
290
     0
174
     0
 93
        1
 44
0.0
173
     0
291
     0
 45
0.0
1001
ACAD
1000
AcDbSavedByObjectVersion
1070
     0
  0
VISUALSTYLE
  5
32
102
{ACAD_REACTORS
330
2A
102
}
330
2A
100
AcDbVisualStyle
  2
Basic
 70
     7
 71
     1
 72
     0
 73
     1
 90
        0
 40
-0.6
 41
-30.0
 62
     5
 63
     7
421
 16777215
 74
     0
 91
        4
 64
     7
 65
   257
 75
     1
175
     1
 42
1.0
 92
        8
 66
     7
 43
1.0
 76
     1
 77
     6
 78
     2
 67
     7
 79
     5
170
     0
171
     0
290
     0
174
     0
 93
        1
 44
0.0
173
     0
291
     1
 45
0.0
1001
ACAD
1000
AcDbSavedByObjectVersion
1070
     0
  0
VISUALSTYLE
  5
36
102
{ACAD_REACTORS
330
2A
102
}
330
2A
100
AcDbVisualStyle
  2
Brighten
 70
    12
 71
     2
 72
     2
 73
     0
 90
        0
 40
-0.6
 41
-30.0
 62
     5
 63
     7
421
 16777215
 74
     1
 91
        4
 64
     7
 65
   257
 75
     1
175
     1
 42
1.0
 92
        8
 66
     7
 43
1.0
 76
     1
 77
     6
 78
     2
 67
     7
 79
     5
170
     0
171
     0
290
     0
174
     0
 93
        1
 44
50.0
173
     0
291
     1
 45
0.0
1001
ACAD
1000
AcDbSavedByObjectVersion
1070
     0
  0
VISUALSTYLE
  5
3A
102
{ACAD_REACTORS
330
2A
102
}
330
2A
100
AcDbVisualStyle
  2
ColorChange
 70
    16
 71
     2
 72
     2
 73
     3
 90
        0
 40
-0.6
 41
-30.0
 62
     5
 63
     8
421
  8421504
 74
     1
 91
        4
 64
     7
 65
   257
 75
     1
175
     1
 42
1.0
 92
        8
 66
     8
424
  8421504
 43
1.0
 76
     1
 77
     6
 78
     2
 67
     7
 79
     5
170
     0
171
     0
290
     0
174
     0
 93
        1
 44
0.0
173
     0
291
     1
 45
0.0
1001
ACAD
1000
AcDbSavedByObjectVersion
1070
     0
  0
VISUALSTYLE
  5
34
102
{ACAD_REACTORS
330
2A
102
}
330
2A
100
AcDbVisualStyle
  2
Conceptual
 70
     9
 71
     3
 72
     2
 73
     0
 90
        0
 40
-0.6
 41
-30.0
 62
     5
 63
     7
421
 16777215
 74
     2
 91
        2
 64
     7
 65
   257
 75
     1
175
     1
 42
40.0
 92
        8
 66
     7
 43
1.0
 76
     1
 77
     6
 78
     2
 67
     7
 79
     3
170
     0
171
     0
290
     0
174
     0
 93
        1
 44
0.0
173
     0
291
     0
 45
0.0
1001
ACAD
1000
AcDbSavedByObjectVersion
1070
     0
  0
VISUALSTYLE
  5
35
102
{ACAD_REACTORS
330
2A
102
}
330
2A
100
AcDbVisualStyle
  2
Dim
 70
    11
 71
     2
 72
     2
 73
     0
 90
        0
 40
-0.6
 41
-30.0
 62
     5
 63
     7
421
 16777215
 74
     1
 91
        4
 64
     7
 65
   257
 75
     1
175
     1
 42
1.0
 92
        8
 66
     7
 43
1.0
 76
     1
 77
     6
 78
     2
 67
     7
 79
     5
170
     0
171
     0
290
     0
174
     0
 93
        1
 44
-50.0
173
     0
291
     1
 45
0.0
1001
ACAD
1000
AcDbSavedByObjectVersion
1070
     0
  0
VISUALSTYLE
  5
39
102
{ACAD_REACTORS
330
2A
102
}
330
2A
100
AcDbVisualStyle
  2
Facepattern
 70
    15
 71
     2
 72
     2
 73
     0
 90
        0
 40
-0.6
 41
-30.0
 62
     5
 63
     7
421
 16777215
 74
     1
 91
        4
 64
     7
 65
   257
 75
     1
175
     1
 42
1.0
 92
        8
 66
     7
 43
1.0
 76
     1
 77
     6
 78
     2
 67
     7
 79
     5
170
     0
171
     0
290
     0
174
     0
 93
        1
 44
0.0
173
     0
291
     1
 45
0.0
1001
ACAD
1000
AcDbSavedByObjectVersion
1070
     0
  0
VISUALSTYLE
  5
2B
102
{ACAD_REACTORS
330
2A
102
}
330
2A
100
AcDbVisualStyle
  2
Flat
 70
     0
 71
     2
 72
     1
 73
     1
 90
        2
 40
-0.6
 41
30.0
 62
     5
 63
     7
421
 16777215
 74
     0
 91
        4
 64
     7
 65
   257
 75
     1
175
     1
 42
1.0
 92
        8
 66
     7
 43
1.0
 76
     1
 77
     6
 78
     2
 67
     7
 79
     5
170
     0
171
     0
290
     0
174
     0
 93
       13
 44
0.0
173
     0
291
     1
 45
0.0
1001
ACAD
1000
AcDbSavedByObjectVersion
1070
     0
  0
VISUALSTYLE
  5
2C
102
{ACAD_REACTORS
330
2A
102
}
330
2A
100
AcDbVisualStyle
  2
FlatWithEdges
 70
     1
 71
     2
 72
     1
 73
     1
 90
        2
 40
-0.6
 41
30.0
 62
     5
 63
     7
421
 16777215
 74
     1
 91
        4
 64
     7
 65
   257
 75
     1
175
     1
 42
1.0
 92
        0
 66
   257
 43
1.0
 76
     1
 77
     6
 78
     2
 67
     7
 79
     5
170
     0
171
     0
290
     0
174
     0
 93
       13
 44
0.0
173
     0
291
     1
 45
0.0
1001
ACAD
1000
AcDbSavedByObjectVersion
1070
     0
  0
VISUALSTYLE
  5
2D
102
{ACAD_REACTORS
330
2A
102
}
330
2A
100
AcDbVisualStyle
  2
Gouraud
 70
     2
 71
     2
 72
     2
 73
     1
 90
        2
 40
-0.6
 41
30.0
 62
     5
 63
     7
421
 16777215
 74
     0
 91
        4
 64
     7
 65
   257
 75
     1
175
     1
 42
1.0
 92
        0
 66
     7
 43
1.0
 76
     1
 77
     6
 78
     2
 67
     7
 79
     5
170
     0
171
     0
290
     0
174
     0
 93
       13
 44
0.0
173
     0
291
     1
 45
0.0
1001
ACAD
1000
AcDbSavedByObjectVersion
1070
     0
  0
VISUALSTYLE
  5
2E
102
{ACAD_REACTORS
330
2A
102
}
330
2A
100
AcDbVisualStyle
  2
GouraudWithEdges
 70
     3
 71
     2
 72
     2
 73
     1
 90
        2
 40
-0.6
 41
30.0
 62
     5
 63
     7
421
 16777215
 74
     1
 91
        4
 64
     7
 65
   257
 75
     1
175
     1
 42
1.0
 92
        0
 66
   257
 43
1.0
 76
     1
 77
     6
 78
     2
 67
     7
 79
     5
170
     0
171
     0
290
     0
174
     0
 93
       13
 44
0.0
173
     0
291
     1
 45
0.0
1001
ACAD
1000
AcDbSavedByObjectVersion
1070
     0
  0
VISUALSTYLE
  5
38
102
{ACAD_REACTORS
330
2A
102
}
330
2A
100
AcDbVisualStyle
  2
Linepattern
 70
    14
 71
     2
 72
     2
 73
     0
 90
        0
 40
-0.6
 41
-30.0
 62
     5
 63
     7
421
 16777215
 74
     1
 91
        4
 64
     7
 65
   257
 75
     7
175
     7
 42
1.0
 92
        8
 66
     7
 43
1.0
 76
     1
 77
     6
 78
     2
 67
     7
 79
     5
170
     0
171
     0
290
     0
174
     0
 93
        1
 44
0.0
173
     0
291
     1
 45
0.0
1001
ACAD
1000
AcDbSavedByObjectVersion
1070
     0
  0
VISUALSTYLE
  5
33
102
{ACAD_REACTORS
330
2A
102
}
330
2A
100
AcDbVisualStyle
  2
Realistic
 70
     8
 71
     2
 72
     2
 73
     0
 90
        0
 40
-0.6
 41
-30.0
 62
     5
 63
     7
421
 16777215
 74
     1
 91
        0
 64
     7
 65
   257
 75
     1
175
     1
 42
1.0
 92
        8
 66
     8
424
  7895160
 43
1.0
 76
     1
 77
     6
 78
     2
 67
     7
 79
     5
170
     0
171
     0
290
     0
174
     0
 93
       13
 44
0.0
173
     0
291
     0
 45
0.0
1001
ACAD
1000
AcDbSavedByObjectVersion
1070
     0
  0
VISUALSTYLE
  5
37
102
{ACAD_REACTORS
330
2A
102
}
330
2A
100
AcDbVisualStyle
  2
Thicken
 70
    13
 71
     2
 72
     2
 73
     0
 90
        0
 40
-0.6
 41
-30.0
 62
     5
 63
     7
421
 16777215
 74
     1
 91
        4
 64
     7
 65
   257
 75
     1
175
     1
 42
1.0
 92
       12
 66
     7
 43
1.0
 76
     1
 77
     6
 78
     2
 67
     7
 79
     5
170
     0
171
     0
290
     0
174
     0
 93
        1
 44
0.0
173
     0
291
     1
 45
0.0
1001
ACAD
1000
AcDbSavedByObjectVersion
1070
     0
  0
ENDSEC
  0
EOF
