  0
SECTION
  2
HEADER
  9
$ACADVER
  1
AC1015
  9
$ACADMAINTVER
 70
    20
  9
$DWGCODEPAGE
  3
ANSI_1252
  9
$INSBASE
 10
0.0
 20
0.0
 30
0.0
  9
$EXTMIN
 10
-90.14999999999998
 20
-836.0991327135103
 30
0.0
  9
$EXTMAX
 10
943.2540395327063
 20
401.4550380160613
 30
0.0
  9
$LIMMIN
 10
0.0
 20
0.0
  9
$LIMMAX
 10
0.0
 20
0.0
  9
$ORTHOMODE
 70
     0
  9
$REGENMODE
 70
     1
  9
$FILLMODE
 70
     1
  9
$QTEXTMODE
 70
     0
  9
$MIRRTEXT
 70
     1
  9
$LTSCALE
 40
1.0
  9
$ATTMODE
 70
     1
  9
$TEXTSIZE
 40
0.0
  9
$TRACEWID
 40
0.05
  9
$TEXTSTYLE
  7
STANDARD
  9
$CLAYER
  8
0
  9
$CELTYPE
  6
CONTINUOUS
  9
$CECOLOR
 62
   256
  9
$CELTSCALE
 40
1.0
  9
$DISPSILH
 70
     0
  9
$DIMSCALE
 40
1.0
  9
$DIMASZ
 40
6.0
  9
$DIMEXO
 40
1.0
  9
$DIMDLI
 40
0.38
  9
$DIMRND
 40
0.0
  9
$DIMDLE
 40
1.0
  9
$DIMEXE
 40
0.18
  9
$DIMTP
 40
0.0
  9
$DIMTM
 40
0.0
  9
$DIMTXT
 40
3.5
  9
$DIMCEN
 40
0.09
  9
$DIMTSZ
 40
0.0
  9
$DIMTOL
 70
     0
  9
$DIMLIM
 70
     0
  9
$DIMTIH
 70
     1
  9
$DIMTOH
 70
     1
  9
$DIMSE1
 70
     0
  9
$DIMSE2
 70
     0
  9
$DIMTAD
 70
     1
  9
$DIMZIN
 70
     0
  9
$DIMBLK
  1

  9
$DIMASO
 70
     1
  9
$DIMSHO
 70
     1
  9
$DIMPOST
  1

  9
$DIMAPOST
  1

  9
$DIMALT
 70
     0
  9
$DIMALTD
 70
     2
  9
$DIMALTF
 40
0.0394
  9
$DIMLFAC
 40
10.0
  9
$DIMTOFL
 70
     0
  9
$DIMTVP
 40
0.0
  9
$DIMTIX
 70
     0
  9
$DIMSOXD
 70
     0
  9
$DIMSAH
 70
     0
  9
$DIMBLK1
  1

  9
$DIMBLK2
  1

  9
$DIMSTYLE
  2
STANDARD
  9
$DIMCLRD
 70
     0
  9
$DIMCLRE
 70
     0
  9
$DIMCLRT
 70
     0
  9
$DIMTFAC
 40
1.0
  9
$DIMGAP
 40
1.0
  9
$DIMJUST
 70
     0
  9
$DIMSD1
 70
     0
  9
$DIMSD2
 70
     0
  9
$DIMTOLJ
 70
     1
  9
$DIMTZIN
 70
     0
  9
$DIMALTZ
 70
     0
  9
$DIMALTTZ
 70
     0
  9
$DIMUPT
 70
     0
  9
$DIMDEC
 70
     4
  9
$DIMTDEC
 70
     4
  9
$DIMALTU
 70
     2
  9
$DIMALTTD
 70
     2
  9
$DIMTXSTY
  7
STANDARD
  9
$DIMAUNIT
 70
     0
  9
$DIMADEC
 70
     0
  9
$DIMALTRND
 40
0.0
  9
$DIMAZIN
 70
     0
  9
$DIMDSEP
 70
    46
  9
$DIMATFIT
 70
     3
  9
$DIMFRAC
 70
     0
  9
$DIMLDRBLK
  1

  9
$DIMLUNIT
 70
     2
  9
$DIMLWD
 70
    -2
  9
$DIMLWE
 70
    -2
  9
$DIMTMOVE
 70
     0
  9
$LUNITS
 70
     2
  9
$LUPREC
 70
     2
  9
$SKETCHINC
 40
0.1
  9
$FILLETRAD
 40
0.0
  9
$AUNITS
 70
     0
  9
$AUPREC
 70
     2
  9
$MENU
  1
acad
  9
$ELEVATION
 40
0.0
  9
$PELEVATION
 40
0.0
  9
$THICKNESS
 40
0.0
  9
$LIMCHECK
 70
     0
  9
$CHAMFERA
 40
0.0
  9
$CHAMFERB
 40
0.0
  9
$CHAMFERC
 40
0.0
  9
$CHAMFERD
 40
0.0
  9
$SKPOLY
 70
     0
  9
$TDCREATE
 40
2444972.041666667
  9
$TDUCREATE
 40
2444972.000000000
  9
$TDUPDATE
 40
2454148.709914815
  9
$TDUUPDATE
 40
2454148.668248148
  9
$TDINDWG
 40
0.0015248843
  9
$TDUSRTIMER
 40
0.0015248843
  9
$USRTIMER
 70
     1
  9
$ANGBASE
 50
0.0
  9
$ANGDIR
 70
     0
  9
$PDMODE
 70
     0
  9
$PDSIZE
 40
-1.0
  9
$PLINEWID
 40
0.0
  9
$SPLFRAME
 70
     0
  9
$SPLINETYPE
 70
     6
  9
$SPLINESEGS
 70
     8
  9
$HANDSEED
  5
1FC
  9
$SURFTAB1
 70
     6
  9
$SURFTAB2
 70
     6
  9
$SURFTYPE
 70
     6
  9
$SURFU
 70
     6
  9
$SURFV
 70
     6
  9
$UCSBASE
  2

  9
$UCSNAME
  2

  9
$UCSORG
 10
0.0
 20
0.0
 30
0.0
  9
$UCSXDIR
 10
1.0
 20
0.0
 30
0.0
  9
$UCSYDIR
 10
0.0
 20
1.0
 30
0.0
  9
$UCSORTHOREF
  2

  9
$UCSORTHOVIEW
 70
     1
  9
$UCSORGTOP
 10
0.0
 20
0.0
 30
0.0
  9
$UCSORGBOTTOM
 10
0.0
 20
0.0
 30
0.0
  9
$UCSORGLEFT
 10
0.0
 20
0.0
 30
0.0
  9
$UCSORGRIGHT
 10
0.0
 20
0.0
 30
0.0
  9
$UCSORGFRONT
 10
0.0
 20
0.0
 30
0.0
  9
$UCSORGBACK
 10
0.0
 20
0.0
 30
0.0
  9
$PUCSBASE
  2

  9
$PUCSNAME
  2

  9
$PUCSORG
 10
0.0
 20
0.0
 30
0.0
  9
$PUCSXDIR
 10
1.0
 20
0.0
 30
0.0
  9
$PUCSYDIR
 10
0.0
 20
1.0
 30
0.0
  9
$PUCSORTHOREF
  2

  9
$PUCSORTHOVIEW
 70
     0
  9
$PUCSORGTOP
 10
0.0
 20
0.0
 30
0.0
  9
$PUCSORGBOTTOM
 10
0.0
 20
0.0
 30
0.0
  9
$PUCSORGLEFT
 10
0.0
 20
0.0
 30
0.0
  9
$PUCSORGRIGHT
 10
0.0
 20
0.0
 30
0.0
  9
$PUCSORGFRONT
 10
0.0
 20
0.0
 30
0.0
  9
$PUCSORGBACK
 10
0.0
 20
0.0
 30
0.0
  9
$USERI1
 70
     0
  9
$USERI2
 70
     0
  9
$USERI3
 70
     0
  9
$USERI4
 70
     0
  9
$USERI5
 70
     0
  9
$USERR1
 40
0.0
  9
$USERR2
 40
0.0
  9
$USERR3
 40
0.0
  9
$USERR4
 40
0.0
  9
$USERR5
 40
0.0
  9
$WORLDVIEW
 70
     1
  9
$SHADEDGE
 70
     3
  9
$SHADEDIF
 70
    70
  9
$TILEMODE
 70
     1
  9
$MAXACTVP
 70
    16
  9
$PINSBASE
 10
0.0
 20
0.0
 30
0.0
  9
$PLIMCHECK
 70
     0
  9
$PEXTMIN
 10
1.000000000000000E+20
 20
1.000000000000000E+20
 30
1.000000000000000E+20
  9
$PEXTMAX
 10
-1.000000000000000E+20
 20
-1.000000000000000E+20
 30
-1.000000000000000E+20
  9
$PLIMMIN
 10
0.0
 20
0.0
  9
$PLIMMAX
 10
12.0
 20
9.0
  9
$UNITMODE
 70
     0
  9
$VISRETAIN
 70
     0
  9
$PLINEGEN
 70
     1
  9
$PSLTSCALE
 70
     1
  9
$TREEDEPTH
 70
  3020
  9
$CMLSTYLE
  2
STANDARD
  9
$CMLJUST
 70
     0
  9
$CMLSCALE
 40
1.0
  9
$PROXYGRAPHICS
 70
     1
  9
$MEASUREMENT
 70
     0
  9
$CELWEIGHT
370
    -1
  9
$ENDCAPS
280
     0
  9
$JOINSTYLE
280
     0
  9
$LWDISPLAY
290
     0
  9
$INSUNITS
 70
     0
  9
$HYPERLINKBASE
  1

  9
$STYLESHEET
  1

  9
$XEDIT
290
     1
  9
$CEPSNTYPE
380
     0
  9
$PSTYLEMODE
290
     1
  9
$FINGERPRINTGUID
  2
{3F67F76A-B9DA-4CF1-BED9-7EAF79098B5E}
  9
$VERSIONGUID
  2
{65337C94-66D4-423F-B922-27046DC868BA}
  9
$EXTNAMES
290
     1
  9
$PSVPSCALE
 40
0.0
  9
$OLESTARTUP
290
     0
  0
ENDSEC
  0
SECTION
  2
CLASSES
  0
CLASS
  1
IMAGE
  2
AcDbRasterImage
  3
ISM
 90
    32895
280
     0
281
     1
  0
CLASS
  1
DICTIONARYVAR
  2
AcDbDictionaryVar
  3
ObjectDBX Classes
 90
        0
280
     0
281
     0
  0
CLASS
  1
RASTERVARIABLES
  2
AcDbRasterVariables
  3
ISM
 90
    32768
280
     0
281
     0
  0
CLASS
  1
IMAGEDEF
  2
AcDbRasterImageDef
  3
ISM
 90
    32768
280
     0
281
     0
  0
CLASS
  1
IMAGEDEF_REACTOR
  2
AcDbRasterImageDefReactor
  3
ISM
 90
    32769
280
     0
281
     0
  0
CLASS
  1
IDBUFFER
  2
AcDbIdBuffer
  3
ObjectDBX Classes
 90
    32768
280
     0
281
     0
  0
CLASS
  1
SPATIAL_FILTER
  2
AcDbSpatialFilter
  3
ObjectDBX Classes
 90
    32768
280
     0
281
     0
  0
CLASS
  1
SORTENTSTABLE
  2
AcDbSortentsTable
  3
ObjectDBX Classes
 90
    32768
280
     0
281
     0
  0
CLASS
  1
LAYER_INDEX
  2
AcDbLayerIndex
  3
ObjectDBX Classes
 90
    32768
280
     0
281
     0
  0
CLASS
  1
SPATIAL_INDEX
  2
AcDbSpatialIndex
  3
ObjectDBX Classes
 90
    32768
280
     0
281
     0
  0
CLASS
  1
OBJECT_PTR
  2
CAseDLPNTableRecord
  3
ASE-LPNTableRecord
 90
    32769
280
     0
281
     0
  0
CLASS
  1
LAYOUT
  2
AcDbLayout
  3
ObjectDBX Classes
 90
        0
280
     0
281
     0
  0
CLASS
  1
PLOTSETTINGS
  2
AcDbPlotSettings
  3
ObjectDBX Classes
 90
    32768
280
     0
281
     0
  0
CLASS
  1
ACDBDICTIONARYWDFLT
  2
AcDbDictionaryWithDefault
  3
ObjectDBX Classes
 90
        0
280
     0
281
     0
  0
CLASS
  1
ACDBPLACEHOLDER
  2
AcDbPlaceHolder
  3
ObjectDBX Classes
 90
        0
280
     0
281
     0
  0
CLASS
  1
VBA_PROJECT
  2
AcDbVbaProject
  3
acad
 90
    32768
280
     0
281
     0
  0
CLASS
  1
WIPEOUT
  2
AcDbWipeout
  3
"WipeOut|Product Desc: Object Enabler for WipeOut entity^I^I^I^I^I^I|Company: Autodesk, Inc.^I^I^I^I^I^I|WEB Address: www.autodesk.com"
 90
    32895
280
     0
281
     1
  0
CLASS
  1
WIPEOUTVARIABLES
  2
AcDbWipeoutVariables
  3
"WipeOut|Product Desc:     WipeOut Dbx Application|Company:          Autodesk, Inc.|WEB Address:      www.autodesk.com"
 90
    32768
280
     0
281
     0
  0
CLASS
  1
RTEXT
  2
RText
  3
RText|AutoCAD Express Tool|expresstools@autodesk.com
 90
    32768
280
     0
281
     1
  0
CLASS
  1
ARCALIGNEDTEXT
  2
AcDbArcAlignedText
  3
ATEXT|AutoCAD Express Tool|expresstools@autodesk.com
 90
    32768
280
     0
281
     1
  0
CLASS
  1
TABLESTYLE
  2
AcDbTableStyle
  3
ObjectDBX Classes
 90
     2047
280
     0
281
     0
  0
ENDSEC
  0
SECTION
  2
TABLES
  0
TABLE
  2
VPORT
  5
7
330
0
100
AcDbSymbolTable
 70
     3
  0
VPORT
  5
1F6
330
7
100
AcDbSymbolTableRecord
100
AcDbViewportTableRecord
  2
*Active
 70
     0
 10
0.0
 20
0.0
 11
1.0
 21
1.0
 12
426.552019766353
 22
-217.3220473487245
 13
0.0
 23
0.0
 14
1.0
 24
1.0
 15
0.0
 25
0.0
 16
0.0
 26
0.0
 36
1.0
 17
0.0
 27
0.0
 37
0.0
 40
1246.67619164404
 41
1.975399753997539
 42
50.0
 43
0.0
 44
0.0
 50
0.0
 51
0.0
 71
     0
 72
  2000
 73
     1
 74
     1
 75
     0
 76
     0
 77
     0
 78
     0
281
     0
 65
     1
110
0.0
120
0.0
130
0.0
111
1.0
121
0.0
131
0.0
112
0.0
122
1.0
132
0.0
 79
     1
146
0.0
  0
ENDTAB
  0
TABLE
  2
LTYPE
  5
4
330
0
100
AcDbSymbolTable
 70
     6
  0
LTYPE
  5
11
330
4
100
AcDbSymbolTableRecord
100
AcDbLinetypeTableRecord
  2
BYBLOCK
 70
     0
  3

 72
    65
 73
     0
 40
0.0
  0
LTYPE
  5
12
330
4
100
AcDbSymbolTableRecord
100
AcDbLinetypeTableRecord
  2
BYLAYER
 70
     0
  3

 72
    65
 73
     0
 40
0.0
  0
LTYPE
  5
13
330
4
100
AcDbSymbolTableRecord
100
AcDbLinetypeTableRecord
  2
CONTINUOUS
 70
     0
  3
Solid line
 72
    65
 73
     0
 40
0.0
  0
LTYPE
  5
1E
330
4
100
AcDbSymbolTableRecord
100
AcDbLinetypeTableRecord
  2
HIDDEN
 70
     0
  3
Hidden __ __ __ __ __ __ __ __ __ __ __ __ __ __
 72
    65
 73
     2
 40
1.905
 49
1.27
 74
     0
 49
-0.635
 74
     0
  0
LTYPE
  5
1F
330
4
100
AcDbSymbolTableRecord
100
AcDbLinetypeTableRecord
  2
PHANTOM
 70
     0
  3
Phantom ______  __  __  ______  __  __  ______
 72
    65
 73
     6
 40
12.7
 49
6.349999999999999
 74
     0
 49
-1.27
 74
     0
 49
1.27
 74
     0
 49
-1.27
 74
     0
 49
1.27
 74
     0
 49
-1.27
 74
     0
  0
LTYPE
  5
20
330
4
100
AcDbSymbolTableRecord
100
AcDbLinetypeTableRecord
  2
CENTER
 70
     0
  3
Center ____ _ ____ _ ____ _ ____ _ ____ _ ____
 72
    65
 73
     4
 40
10.16
 49
6.349999999999999
 74
     0
 49
-1.27
 74
     0
 49
1.27
 74
     0
 49
-1.27
 74
     0
  0
LTYPE
  5
21
330
4
100
AcDbSymbolTableRecord
100
AcDbLinetypeTableRecord
  2
CENTERX2
 70
     0
  3
Center (2x) ________  __  ________  __  _____
 72
    65
 73
     4
 40
20.32
 49
12.7
 74
     0
 49
-2.54
 74
     0
 49
2.54
 74
     0
 49
-2.54
 74
     0
  0
LTYPE
  5
22
330
4
100
AcDbSymbolTableRecord
100
AcDbLinetypeTableRecord
  2
DOT2
 70
     0
  3
Dot (.5x) ........................................
 72
    65
 73
     2
 40
0.635
 49
0.0
 74
     0
 49
-0.635
 74
     0
  0
ENDTAB
  0
TABLE
  2
LAYER
  5
2
330
0
100
AcDbSymbolTable
 70
     2
  0
LAYER
  5
14
330
2
100
AcDbSymbolTableRecord
100
AcDbLayerTableRecord
  2
0
 70
     0
 62
     7
  6
CONTINUOUS
370
    -3
390
1D9
  0
LAYER
  5
26
330
2
100
AcDbSymbolTableRecord
100
AcDbLayerTableRecord
  2
DEFPOINTS
 70
     0
 62
     7
  6
CONTINUOUS
290
     0
370
    -3
390
1D9
  0
ENDTAB
  0
TABLE
  2
STYLE
  5
3
330
0
100
AcDbSymbolTable
 70
     1
  0
STYLE
  5
17
330
3
100
AcDbSymbolTableRecord
100
AcDbTextStyleTableRecord
  2
STANDARD
 70
     0
 40
0.0
 41
1.0
 50
0.0
 71
     0
 42
0.0
  3
txt
  4

  0
ENDTAB
  0
TABLE
  2
VIEW
  5
5
330
0
100
AcDbSymbolTable
 70
     0
  0
ENDTAB
  0
TABLE
  2
UCS
  5
6
330
0
100
AcDbSymbolTable
 70
     0
  0
ENDTAB
  0
TABLE
  2
APPID
  5
8
330
0
100
AcDbSymbolTable
 70
     2
  0
APPID
  5
16
330
8
100
AcDbSymbolTableRecord
100
AcDbRegAppTableRecord
  2
ACAD
 70
     0
  0
APPID
  5
1E6
330
8
100
AcDbSymbolTableRecord
100
AcDbRegAppTableRecord
  2
DCO15
 70
     0
  0
ENDTAB
  0
TABLE
  2
DIMSTYLE
  5
9
330
0
100
AcDbSymbolTable
 70
     1
100
AcDbDimStyleTable
 71
     0
  0
DIMSTYLE
105
18
330
9
100
AcDbSymbolTableRecord
100
AcDbDimStyleTableRecord
  2
STANDARD
 70
     0
289
     0
340
17
  0
ENDTAB
  0
TABLE
  2
BLOCK_RECORD
  5
1
330
0
100
AcDbSymbolTable
 70
     0
  0
BLOCK_RECORD
  5
A
330
1
100
AcDbSymbolTableRecord
100
AcDbBlockTableRecord
  2
*MODEL_SPACE
340
1E0
  0
BLOCK_RECORD
  5
B
330
1
100
AcDbSymbolTableRecord
100
AcDbBlockTableRecord
  2
*PAPER_SPACE
340
1E1
  0
ENDTAB
  0
ENDSEC
  0
SECTION
  2
BLOCKS
  0
BLOCK
  5
D
330
A
100
AcDbEntity
  8
0
100
AcDbBlockBegin
  2
*MODEL_SPACE
 70
     0
 10
0.0
 20
0.0
 30
0.0
  3
*MODEL_SPACE
  1

  0
ENDBLK
  5
E
330
A
100
AcDbEntity
  8
0
100
AcDbBlockEnd
  0
BLOCK
  5
F
330
B
100
AcDbEntity
 67
     1
  8
0
100
AcDbBlockBegin
  2
*PAPER_SPACE
 70
     0
 10
0.0
 20
0.0
 30
0.0
  3
*PAPER_SPACE
  1

  0
ENDBLK
  5
10
330
B
100
AcDbEntity
 67
     1
  8
0
100
AcDbBlockEnd
  0
ENDSEC
  0
SECTION
  2
ENTITIES
  0
ARC
  5
27
330
A
100
AcDbEntity
  8
0
  6
Continuous
 62
     7
100
AcDbCircle
 10
69.85000000000491
 20
391.4554927013296
 30
0.0
 40
9.999999999999944
100
AcDbArc
 50
0.0
 51
182.4855969179934
  0
LINE
  5
28
330
A
100
AcDbEntity
  8
0
  6
Continuous
 62
     7
100
AcDbLine
 10
59.85934464698527
 20
391.0232825380774
 30
0.0
 11
64.46662574045008
 21
284.5468313007071
 31
0.0
  0
LINE
  5
29
330
A
100
AcDbEntity
  8
0
  6
Continuous
 62
     7
100
AcDbLine
 10
75.23453418403684
 20
284.5736377055065
 30
0.0
 11
79.84065611427412
 21
391.0233001309164
 31
0.0
  0
LINE
  5
2A
330
A
100
AcDbEntity
  8
0
  6
Continuous
 62
     7
100
AcDbLine
 10
94.77215751266939
 20
147.6330407562489
 30
0.0
 11
92.35000000000393
 21
187.2349660286973
 31
0.0
  0
LINE
  5
2B
330
A
100
AcDbEntity
  8
0
  6
Continuous
 62
     7
100
AcDbLine
 10
47.35000000000535
 20
187.2349660286973
 30
0.0
 11
44.92784248733991
 21
147.6330407562489
 31
0.0
  0
LINE
  5
2C
330
A
100
AcDbEntity
  8
0
  6
Continuous
 62
     7
100
AcDbLine
 10
92.35000000000393
 20
187.2349660286973
 30
0.0
 11
84.84874600638415
 21
194.7362200223176
 31
0.0
  0
LINE
  5
2D
330
A
100
AcDbEntity
  8
0
  6
Continuous
 62
     7
100
AcDbLine
 10
54.85125399362517
 20
194.7362200223176
 30
0.0
 11
47.35000000000535
 21
187.2349660286973
 31
0.0
  0
LINE
  5
2E
330
A
100
AcDbEntity
  8
0
  6
Continuous
 62
     7
100
AcDbLine
 10
84.84844911553258
 20
256.2349660286973
 30
0.0
 11
89.85152563301147
 21
256.2349660286973
 31
0.0
  0
LINE
  5
2F
330
A
100
AcDbEntity
  8
0
  6
Continuous
 62
     7
100
AcDbLine
 10
89.85152563301145
 20
300.2349660286974
 30
0.0
 11
84.84844911553258
 21
300.2349660286974
 31
0.0
  0
LINE
  5
30
330
A
100
AcDbEntity
  8
0
  6
Continuous
 62
     7
100
AcDbLine
 10
59.85000000000463
 20
265.7349660286974
 30
0.0
 11
64.3421259842591
 21
265.7349660286974
 31
0.0
  0
LINE
  5
31
330
A
100
AcDbEntity
  8
0
  6
Continuous
 62
     7
100
AcDbLine
 10
75.3578740157502
 20
265.7349660286974
 30
0.0
 11
79.85000000000463
 21
265.7349660286974
 31
0.0
  0
LINE
  5
32
330
A
100
AcDbEntity
  8
0
  6
Continuous
 62
     7
100
AcDbLine
 10
79.85000000000463
 20
290.7349660286973
 30
0.0
 11
75.50113746733733
 21
290.7349660286973
 31
0.0
  0
LINE
  5
33
330
A
100
AcDbEntity
  8
0
  6
Continuous
 62
     7
100
AcDbLine
 10
64.19886253267259
 20
290.7349660286973
 30
0.0
 11
59.85000000000463
 21
290.7349660286973
 31
0.0
  0
LINE
  5
34
330
A
100
AcDbEntity
  8
0
  6
Continuous
 62
     7
100
AcDbLine
 10
64.27035741150516
 20
267.5578877766501
 30
0.0
 11
66.35000000000386
 21
214.7349660287052
 31
0.0
  0
LINE
  5
35
330
A
100
AcDbEntity
  8
0
  6
Continuous
 62
     7
100
AcDbLine
 10
73.3500000000036
 20
214.7349660287052
 30
0.0
 11
75.42964258850483
 21
267.5578877766676
 31
0.0
  0
ARC
  5
36
330
A
100
AcDbEntity
  8
0
  6
Continuous
 62
     7
100
AcDbCircle
 10
64.85000000000454
 20
196.2349660286971
 30
0.0
 40
1.500000000000014
100
AcDbArc
 50
270.0000000000008
 51
0.0
  0
ARC
  5
37
330
A
100
AcDbEntity
  8
0
  6
Continuous
 62
     7
100
AcDbCircle
 10
74.85000000000477
 20
196.2349660286971
 30
0.0
 40
1.500000000000014
100
AcDbArc
 50
180.0000000000004
 51
270.0000000000008
  0
LINE
  5
38
330
A
100
AcDbEntity
  8
0
  6
Continuous
 62
     7
100
AcDbLine
 10
66.35000000000386
 20
214.7349660287052
 30
0.0
 11
66.35000000000456
 21
196.2349660286971
 31
0.0
  0
LINE
  5
39
330
A
100
AcDbEntity
  8
0
  6
Continuous
 62
     7
100
AcDbLine
 10
73.35000000000471
 20
196.2349660286971
 30
0.0
 11
73.3500000000036
 21
214.7349660287052
 31
0.0
  0
LINE
  5
3A
330
A
100
AcDbEntity
  8
0
  6
Continuous
 62
     7
100
AcDbLine
 10
79.85000000000467
 20
273.2349660286975
 30
0.0
 11
84.85346561710651
 21
273.2349660286975
 31
0.0
  0
LINE
  5
3B
330
A
100
AcDbEntity
  8
0
  6
Continuous
 62
     7
100
AcDbLine
 10
84.85346561710651
 20
283.2349660286973
 30
0.0
 11
79.85000000000467
 21
283.2349660286973
 31
0.0
  0
LINE
  5
3C
330
A
100
AcDbEntity
  8
0
  6
Continuous
 62
     7
100
AcDbLine
 10
-90.14999999999998
 20
-77.36695924375102
 30
0.0
 11
-89.17886572009035
 21
-77.60549270132961
 31
0.0
  0
LINE
  5
3D
330
A
100
AcDbEntity
  8
0
  6
Continuous
 62
     7
100
AcDbLine
 10
228.8788657200903
 20
-77.60549270132961
 30
0.0
 11
229.85
 21
-77.36695924375102
 31
0.0
  0
LINE
  5
3E
330
A
100
AcDbEntity
  8
0
  6
Continuous
 62
     7
100
AcDbLine
 10
229.85
 20
-77.36695924375102
 30
0.0
 11
174.584699345414
 21
147.6330407562489
 31
0.0
  0
LINE
  5
3F
330
A
100
AcDbEntity
  8
0
  6
Continuous
 62
     7
100
AcDbLine
 10
-34.88469934541383
 20
147.6330407562489
 30
0.0
 11
-90.14999999999998
 21
-77.36695924375102
 31
0.0
  0
LWPOLYLINE
  5
40
330
A
100
AcDbEntity
  8
0
  6
Continuous
 62
     7
100
AcDbPolyline
 90
       10
 70
   128
 43
0.0
 10
69.85000000000494
 20
386.0051289726115
 10
67.44792665191283
 20
386.0940071537339
 10
65.46196267357125
 20
386.4284536577624
 10
62.78086051192419
 20
387.3902392483084
 10
61.49452166699926
 20
388.2134891719588
 10
60.57585718904451
 20
389.1447065814814
 10
60.03297720072279
 20
390.1381450323007
 10
59.90014417246624
 20
390.6447759173268
 10
59.86739465485222
 20
390.898389524465
 10
59.85947596949504
 20
391.0218078942607
  0
LWPOLYLINE
  5
4C
330
A
100
AcDbEntity
  8
0
  6
Continuous
 62
     7
100
AcDbPolyline
 90
       11
 70
   128
 43
0.0
 10
79.82120695598339
 20
391.0237849051683
 10
79.66706532622923
 20
390.1382649989598
 10
79.1242558408812
 20
389.1448575691302
 10
78.20560321847327
 20
388.2135910244748
 10
77.81669637605562
 20
387.9248297984726
 10
77.3875305398445
 20
387.6497948967973
 10
76.91913948808566
 20
387.3902392483084
 10
75.78279640144589
 20
386.8919874874888
 10
74.23830523687669
 20
386.428516074434
 10
72.25229053813951
 20
386.094029777821
 10
69.85000000000494
 20
386.0051289726115
  0
LWPOLYLINE
  5
59
330
A
100
AcDbEntity
  8
0
  6
Continuous
 62
     7
100
AcDbPolyline
 90
        5
 70
   128
 43
0.0
 10
68.43423481665784
 20
278.2349660286984
 10
66.85259415575524
 20
279.4414323400372
 10
65.32194568070041
 20
281.622158951491
 10
64.51707087340396
 20
284.0347434329597
 10
64.5258491002071
 20
284.5475683886954
  0
LWPOLYLINE
  5
60
330
A
100
AcDbEntity
  8
0
  6
Continuous
 62
     7
100
AcDbPolyline
 90
       10
 70
   128
 43
0.0
 10
75.22576221001097
 20
284.5733710211519
 10
75.23173651263448
 20
284.5175324035768
 10
74.90842572779538
 20
282.8865213181769
 10
74.03006977800896
 20
280.9989950868381
 10
72.38784517202251
 20
278.9993877401269
 10
71.26576518335162
 20
278.2349660286981
 10
70.22727235731088
 20
277.9130767501354
 10
69.85000000000481
 20
277.8883860643597
 10
68.78199672617306
 20
278.0858760426568
 10
68.43423481665784
 20
278.2349660286984
  0
LINE
  5
6C
330
A
100
AcDbEntity
  8
0
  6
Continuous
 62
     7
100
AcDbLine
 10
47.35000000000535
 20
187.2349660286973
 30
0.0
 11
92.35000000000393
 21
187.2349660286973
 31
0.0
  0
LINE
  5
6D
330
A
100
AcDbEntity
  8
0
  6
Continuous
 62
     7
100
AcDbLine
 10
54.85000000000475
 20
194.7349660286972
 30
0.0
 11
84.85000000000455
 21
194.7349660286972
 31
0.0
  0
LINE
  5
6E
330
A
100
AcDbEntity
  8
0
  6
Continuous
 62
     7
100
AcDbLine
 10
89.85000000000464
 20
256.2349660286973
 30
0.0
 11
89.8500000000047
 21
278.2349660286973
 31
0.0
  0
LINE
  5
6F
330
A
100
AcDbEntity
  8
0
  6
Continuous
 62
     7
100
AcDbLine
 10
89.8500000000047
 20
278.2349660286973
 30
0.0
 11
89.85000000000464
 21
300.2349660286974
 31
0.0
  0
LINE
  5
70
330
A
100
AcDbEntity
  8
0
  6
Continuous
 62
     7
100
AcDbLine
 10
84.8500000000047
 20
278.2349660286973
 30
0.0
 11
84.85000000000463
 21
256.2349660286973
 31
0.0
  0
LINE
  5
71
330
A
100
AcDbEntity
  8
0
  6
Continuous
 62
     7
100
AcDbLine
 10
84.85000000000463
 20
300.2349660286974
 30
0.0
 11
84.8500000000047
 21
278.2349660286973
 31
0.0
  0
LWPOLYLINE
  5
72
330
A
100
AcDbEntity
  8
0
  6
Continuous
 62
     7
100
AcDbPolyline
 90
       19
 70
   128
 43
0.0
 10
64.27035741149194
 20
267.5578877766462
 10
64.62963947423975
 20
269.2083694903735
 10
65.93598401038978
 20
271.7840700167978
 10
67.17368534203472
 20
273.7681493808171
 10
68.55986214862723
 20
275.8057612027278
 10
69.08799174498309
 20
276.5357146645643
 10
69.57682342796257
 20
277.1132768816583
 10
69.67966865903811
 20
277.1940464438918
 10
69.80084454111126
 20
277.2471320031586
 10
69.883869178111
 20
277.2498070043847
 10
69.96308872855157
 20
277.2257840752165
 10
70.09887536720583
 20
277.134671934816
 10
70.58360323041776
 20
276.5733104182928
 10
72.24236596478549
 20
274.1929408858861
 10
73.50752042045122
 20
272.2147401912089
 10
74.56236839660945
 20
270.3350500484385
 10
75.32716360750045
 20
268.4103390334325
 10
75.42964258850436
 20
267.5578877766557
 10
75.4296425885077
 20
267.5578877766651
  0
LINE
  5
87
330
A
100
AcDbEntity
  8
0
  6
Continuous
 62
     7
100
AcDbLine
 10
79.85000000000467
 20
278.2349660286973
 30
0.0
 11
79.85000000000463
 21
290.7349660286973
 31
0.0
  0
LINE
  5
88
330
A
100
AcDbEntity
  8
0
  6
Continuous
 62
     7
100
AcDbLine
 10
79.85000000000463
 20
265.7349660286974
 30
0.0
 11
79.85000000000467
 21
278.2349660286973
 31
0.0
  0
LINE
  5
89
330
A
100
AcDbEntity
  8
0
  6
Continuous
 62
     7
100
AcDbLine
 10
59.85000000000468
 20
278.2349660286973
 30
0.0
 11
59.85000000000463
 21
265.7349660286974
 31
0.0
  0
LINE
  5
8A
330
A
100
AcDbEntity
  8
0
  6
Continuous
 62
     7
100
AcDbLine
 10
59.85000000000463
 20
290.7349660286973
 30
0.0
 11
59.85000000000468
 21
278.2349660286973
 31
0.0
  0
LINE
  5
8B
330
A
100
AcDbEntity
  8
0
  6
Continuous
 62
     7
100
AcDbLine
 10
66.35000000000386
 20
214.7349660287052
 30
0.0
 11
73.3500000000036
 21
214.7349660287052
 31
0.0
  0
ARC
  5
8C
330
A
100
AcDbEntity
  8
0
  6
Continuous
 62
     7
100
AcDbCircle
 10
69.84999999999999
 20
274.1330407562489
 30
0.0
 40
55.0
100
AcDbArc
 50
273.8343861867525
 51
0.0
  0
ARC
  5
8D
330
A
100
AcDbEntity
  8
0
  6
Continuous
 62
     7
100
AcDbCircle
 10
69.84999999999999
 20
274.1330407562489
 30
0.0
 40
55.0
100
AcDbArc
 50
97.61842365863248
 51
266.1656138132589
  0
ARC
  5
8E
330
A
100
AcDbEntity
  8
0
  6
Continuous
 62
     7
100
AcDbCircle
 10
69.84999999999999
 20
274.1330407562489
 30
0.0
 40
55.0
100
AcDbArc
 50
0.0
 51
82.38157634135719
  0
LINE
  5
8F
330
A
100
AcDbEntity
  8
0
  6
Continuous
 62
     7
100
AcDbLine
 10
69.84999999999999
 20
-77.36695924375102
 30
0.0
 11
229.85
 21
-77.36695924375102
 31
0.0
  0
LINE
  5
90
330
A
100
AcDbEntity
  8
0
  6
Continuous
 62
     7
100
AcDbLine
 10
-90.14999999999998
 20
-77.36695924375102
 30
0.0
 11
69.84999999999999
 21
-77.36695924375102
 31
0.0
  0
LINE
  5
91
330
A
100
AcDbEntity
  8
0
  6
Continuous
 62
     7
100
AcDbLine
 10
69.84999999999999
 20
-77.60549270132961
 30
0.0
 11
228.8788657200903
 21
-77.60549270132961
 31
0.0
  0
LINE
  5
92
330
A
100
AcDbEntity
  8
0
  6
Continuous
 62
     7
100
AcDbLine
 10
-89.17886572009035
 20
-77.60549270132961
 30
0.0
 11
69.84999999999999
 21
-77.60549270132961
 31
0.0
  0
LINE
  5
93
330
A
100
AcDbEntity
  8
0
  6
Continuous
 62
     7
100
AcDbLine
 10
69.84999999999999
 20
147.6330407562489
 30
0.0
 11
174.584699345414
 21
147.6330407562489
 31
0.0
  0
LINE
  5
94
330
A
100
AcDbEntity
  8
0
  6
Continuous
 62
     7
100
AcDbLine
 10
-34.88469934541383
 20
147.6330407562489
 30
0.0
 11
69.84999999999999
 21
147.6330407562489
 31
0.0
  0
LINE
  5
95
330
A
100
AcDbEntity
  8
0
  6
PHANTOM
 62
     7
100
AcDbLine
 10
66.35000000000456
 20
196.2349660286971
 30
0.0
 11
73.35000000000471
 21
196.2349660286971
 31
0.0
  0
ARC
  5
96
330
A
100
AcDbEntity
  8
0
  6
PHANTOM
 62
     7
100
AcDbCircle
 10
69.84999999999999
 20
274.1330407562489
 30
0.0
 40
53.00000000000003
100
AcDbArc
 50
0.0
 51
82.18703319978017
  0
ARC
  5
97
330
A
100
AcDbEntity
  8
0
  6
PHANTOM
 62
     7
100
AcDbCircle
 10
69.84999999999999
 20
274.1330407562489
 30
0.0
 40
52.99999999999998
100
AcDbArc
 50
97.81296680020911
 51
265.9349226017115
  0
ARC
  5
98
330
A
100
AcDbEntity
  8
0
  6
PHANTOM
 62
     7
100
AcDbCircle
 10
69.84999999999999
 20
274.1330407562489
 30
0.0
 40
52.99999999999998
100
AcDbArc
 50
274.0650773983002
 51
0.0
  0
ARC
  5
99
330
A
100
AcDbEntity
  8
0
  6
Continuous
 62
     7
100
AcDbCircle
 10
69.85000000000491
 20
-749.773183319809
 30
0.0
 40
10.0
100
AcDbArc
 50
175.9756766650663
 51
270.0000000000011
  0
ARC
  5
9A
330
A
100
AcDbEntity
  8
0
  6
Continuous
 62
     7
100
AcDbCircle
 10
69.85000000000491
 20
-749.773183319809
 30
0.0
 40
10.0
100
AcDbArc
 50
270.0000000000011
 51
3.830288618577045
  0
LINE
  5
9B
330
A
100
AcDbEntity
  8
0
  6
Continuous
 62
     7
100
AcDbLine
 10
79.82776730583579
 20
-749.1067298806061
 30
0.0
 11
75.23405508169833
 21
-680.2523129483715
 31
0.0
  0
LINE
  5
9C
330
A
100
AcDbEntity
  8
0
  6
Continuous
 62
     7
100
AcDbLine
 10
64.46631126698673
 20
-680.2468218067434
 30
0.0
 11
59.87218425888586
 21
-749.1074558693841
 31
0.0
  0
LINE
  5
9D
330
A
100
AcDbEntity
  8
0
  6
Continuous
 62
     7
100
AcDbLine
 10
84.84844911553267
 20
-691.7469135927802
 30
0.0
 11
89.85152563301154
 21
-691.7469135927802
 31
0.0
  0
LINE
  5
9E
330
A
100
AcDbEntity
  8
0
  6
Continuous
 62
     7
100
AcDbLine
 10
89.85152563301138
 20
-647.7469135927803
 30
0.0
 11
84.84844911553251
 21
-647.7469135927803
 31
0.0
  0
LINE
  5
9F
330
A
100
AcDbEntity
  8
0
  6
Continuous
 62
     7
100
AcDbLine
 10
75.36712746500687
 20
-682.2469135927802
 30
0.0
 11
79.85000000000467
 21
-682.2469135927802
 31
0.0
  0
LINE
  5
A0
330
A
100
AcDbEntity
  8
0
  6
Continuous
 62
     7
100
AcDbLine
 10
59.85000000000468
 20
-682.2469135927802
 30
0.0
 11
64.33287253500305
 21
-682.2469135927802
 31
0.0
  0
LINE
  5
A1
330
A
100
AcDbEntity
  8
0
  6
Continuous
 62
     7
100
AcDbLine
 10
64.35000000000461
 20
-657.2469135927803
 30
0.0
 11
59.85000000000458
 21
-657.2469135927803
 31
0.0
  0
LINE
  5
A2
330
A
100
AcDbEntity
  8
0
  6
Continuous
 62
     7
100
AcDbLine
 10
79.85000000000458
 20
-657.2469135927803
 30
0.0
 11
75.35000000000458
 21
-657.2469135927803
 31
0.0
  0
LINE
  5
A3
330
A
100
AcDbEntity
  8
0
  6
Continuous
 62
     7
100
AcDbLine
 10
64.35000000000447
 20
-626.0991327135115
 30
0.0
 11
64.35000000000458
 21
-657.2469135927803
 31
0.0
  0
LINE
  5
A4
330
A
100
AcDbEntity
  8
0
  6
Continuous
 62
     7
100
AcDbLine
 10
75.3500000000046
 20
-657.2469135927803
 30
0.0
 11
75.35000000000448
 21
-626.0991327135115
 31
0.0
  0
LINE
  5
A5
330
A
100
AcDbEntity
  8
0
  6
Continuous
 62
     7
100
AcDbLine
 10
79.85000000000465
 20
-674.7469135927802
 30
0.0
 11
84.85346561710652
 21
-674.7469135927802
 31
0.0
  0
LINE
  5
A6
330
A
100
AcDbEntity
  8
0
  6
Continuous
 62
     7
100
AcDbLine
 10
84.85346561710649
 20
-664.7469135927804
 30
0.0
 11
79.85000000000461
 21
-664.7469135927804
 31
0.0
  0
LINE
  5
A7
330
A
100
AcDbEntity
  8
0
  6
Continuous
 62
     7
100
AcDbLine
 10
14.85000000000007
 20
-291.0991327135114
 30
0.0
 11
14.84999999999999
 21
-304.0991327135115
 31
0.0
  0
LINE
  5
A8
330
A
100
AcDbEntity
  8
0
  6
Continuous
 62
     7
100
AcDbLine
 10
124.85
 20
-304.0991327135115
 30
0.0
 11
124.85
 21
-291.0991327135114
 31
0.0
  0
ARC
  5
A9
330
A
100
AcDbEntity
  8
0
  6
Continuous
 62
     7
100
AcDbCircle
 10
122.85
 20
-304.0991327135115
 30
0.0
 40
2.000000000000014
100
AcDbArc
 50
270.0000000000008
 51
0.0
  0
ARC
  5
AA
330
A
100
AcDbEntity
  8
0
  6
Continuous
 62
     7
100
AcDbCircle
 10
16.85
 20
-304.0991327135115
 30
0.0
 40
2.000000000000003
100
AcDbArc
 50
180.0000000000004
 51
270.0000000000008
  0
LINE
  5
AB
330
A
100
AcDbEntity
  8
0
  6
Continuous
 62
     7
100
AcDbLine
 10
62.85
 20
-306.0991327135115
 30
0.0
 11
62.85
 21
-626.0991327135115
 31
0.0
  0
LINE
  5
AC
330
A
100
AcDbEntity
  8
0
  6
Continuous
 62
     7
100
AcDbLine
 10
76.84999999999999
 20
-626.0991327135115
 30
0.0
 11
76.84999999999999
 21
-306.0991327135115
 31
0.0
  0
LINE
  5
AD
330
A
100
AcDbEntity
  8
0
  6
Continuous
 62
     7
100
AcDbLine
 10
120.8633477494805
 20
-585.7414225472295
 30
0.0
 11
85.97662006418172
 21
-646.1670074079879
 31
0.0
  0
LINE
  5
AE
330
A
100
AcDbEntity
  8
0
  6
Continuous
 62
     7
100
AcDbLine
 10
87.70871002812908
 20
-647.166939587151
 30
0.0
 11
122.5953985570494
 21
-586.7414225472294
 31
0.0
  0
LINE
  5
AF
330
A
100
AcDbEntity
  8
0
  6
Continuous
 62
     7
100
AcDbLine
 10
-33.90874630653157
 20
-677.0991327135109
 30
0.0
 11
35.86468090507375
 21
-677.0991327135109
 31
0.0
  0
LINE
  5
B0
330
A
100
AcDbEntity
  8
0
  6
Continuous
 62
     7
100
AcDbLine
 10
35.86470213686738
 20
-675.0991327135109
 30
0.0
 11
-33.90874630653157
 21
-675.0991327135109
 31
0.0
  0
LINE
  5
B1
330
A
100
AcDbEntity
  8
0
  6
Continuous
 62
     7
100
AcDbLine
 10
122.5953985570506
 20
-765.4568428797919
 30
0.0
 11
87.70867087175105
 21
-705.0312580190337
 31
0.0
  0
LINE
  5
B2
330
A
100
AcDbEntity
  8
0
  6
Continuous
 62
     7
100
AcDbLine
 10
85.97663321906171
 20
-706.0312808039537
 30
0.0
 11
120.8633477494817
 21
-766.456842879792
 31
0.0
  0
LWPOLYLINE
  5
B3
330
A
100
AcDbEntity
  8
0
  6
Continuous
 62
     7
100
AcDbPolyline
 90
        7
 70
   128
 43
0.0
 10
59.87833832480074
 20
-749.0738074459138
 10
59.95872549735497
 20
-748.3804335212369
 10
60.86279757869462
 20
-745.9105527330815
 10
62.01540379822946
 20
-744.3727405266496
 10
63.86359260928322
 20
-742.8647058744743
 10
66.4989837411842
 20
-741.6797698346631
 10
69.85000000000488
 20
-741.19452879405
  0
LWPOLYLINE
  5
BC
330
A
100
AcDbEntity
  8
0
  6
Continuous
 62
     7
100
AcDbPolyline
 90
        9
 70
   128
 43
0.0
 10
69.85000000000488
 20
-741.19452879405
 10
71.79962059066882
 20
-741.355571044463
 10
73.67431835539337
 20
-741.8325090323332
 10
75.40204971042277
 20
-742.6070142982561
 10
76.91641890870617
 20
-743.6493230392097
 10
78.15922959122154
 20
-744.9193799148132
 10
79.08272124041608
 20
-746.3683773515929
 10
79.65140459011135
 20
-747.9406311906603
 10
79.78838709796349
 20
-749.107059871165
  0
LWPOLYLINE
  5
C7
330
A
100
AcDbEntity
  8
0
  6
Continuous
 62
     7
100
AcDbPolyline
 90
       12
 70
   128
 43
0.0
 10
64.53270688971172
 20
-680.2499704356714
 10
64.54441760961703
 20
-679.823064556601
 10
65.16970827082076
 20
-678.6671130383206
 10
66.24934387263514
 20
-677.6748387205887
 10
67.69578486693287
 20
-676.938575375063
 10
69.42627238948663
 20
-676.5833982440986
 10
69.85000000000465
 20
-676.5695390906247
 10
71.64256577720917
 20
-676.8225334570743
 10
73.23334220770885
 20
-677.5314013122466
 10
74.42277498129747
 20
-678.5382634952028
 10
75.08097797899683
 20
-679.6002831071606
 10
75.18499686317321
 20
-680.2578801088936
  0
LINE
  5
D5
330
A
100
AcDbEntity
  8
0
  6
Continuous
 62
     7
100
AcDbLine
 10
89.8500000000047
 20
-691.7469135927802
 30
0.0
 11
89.85000000000455
 21
-647.7469135927803
 31
0.0
  0
LINE
  5
D6
330
A
100
AcDbEntity
  8
0
  6
Continuous
 62
     7
100
AcDbLine
 10
84.85000000000454
 20
-647.7469135927803
 30
0.0
 11
84.8500000000047
 21
-691.7469135927802
 31
0.0
  0
LINE
  5
D7
330
A
100
AcDbEntity
  8
0
  6
Continuous
 62
     7
100
AcDbLine
 10
59.85000000000458
 20
-657.2469135927803
 30
0.0
 11
59.85000000000468
 21
-682.2469135927802
 31
0.0
  0
LWPOLYLINE
  5
D8
330
A
100
AcDbEntity
  8
0
  6
Continuous
 62
     7
100
AcDbPolyline
 90
       12
 70
   128
 43
0.0
 10
75.3500000000046
 20
-657.2469135927803
 10
75.07168152757898
 20
-657.3668506698622
 10
74.28131288475771
 20
-657.6789173265155
 10
72.99871868710845
 20
-658.0886791908429
 10
71.26703703233847
 20
-658.4328518132509
 10
69.43887683774422
 20
-658.5144151060433
 10
67.81250117715439
 20
-658.338521880838
 10
66.36374319932788
 20
-657.9930211957798
 10
65.15839726900165
 20
-657.5809308463864
 10
64.45943877143403
 20
-657.2946788391719
 10
64.35000000000458
 20
-657.2469135927803
 10
64.3500000000046
 20
-657.2469135927803
  0
LINE
  5
E6
330
A
100
AcDbEntity
  8
0
  6
Continuous
 62
     7
100
AcDbLine
 10
79.85000000000467
 20
-682.2469135927802
 30
0.0
 11
79.85000000000458
 21
-657.2469135927803
 31
0.0
  0
LINE
  5
E7
330
A
100
AcDbEntity
  8
0
  6
Continuous
 62
     7
100
AcDbLine
 10
84.85000000000455
 20
-676.2469135927802
 30
0.0
 11
84.70226289496878
 21
-674.7469135927801
 31
0.0
  0
LWPOLYLINE
  5
E8
330
A
100
AcDbEntity
  8
0
  6
Continuous
 62
     7
100
AcDbPolyline
 90
        6
 70
   128
 43
0.0
 10
59.85000000000461
 20
-665.1424867107047
 10
59.24339828220647
 20
-665.6403118749822
 10
57.37795581546652
 20
-667.9133600974863
 10
55.99180701233542
 20
-670.506662107304
 10
55.13822079395628
 20
-673.3205587625384
 10
54.85000000000475
 20
-676.2469135927802
  0
LWPOLYLINE
  5
F0
330
A
100
AcDbEntity
  8
0
  6
Continuous
 62
     7
100
AcDbPolyline
 90
        7
 70
   128
 43
0.0
 10
54.85000000000475
 20
-676.2469135927802
 10
55.1382207939563
 20
-679.1732684230221
 10
55.99180701233546
 20
-681.9871650782566
 10
57.37795581546659
 20
-684.5804670880743
 10
59.24339828220656
 20
-686.8535153105784
 10
61.51644650471072
 20
-688.7189577773185
 10
63.81897220132343
 20
-689.9496834029706
  0
LWPOLYLINE
  5
F9
330
A
100
AcDbEntity
  8
0
  6
Continuous
 62
     7
100
AcDbPolyline
 90
        7
 70
   128
 43
0.0
 10
75.88102779868646
 20
-689.9496834029704
 10
78.18355349529868
 20
-688.7189577773185
 10
80.45660171780284
 20
-686.8535153105784
 10
82.32204418454278
 20
-684.5804670880743
 10
83.70819298767388
 20
-681.9871650782566
 10
84.56177920605304
 20
-679.1732684230221
 10
84.85000000000455
 20
-676.2469135927802
  0
ARC
  5
102
330
A
100
AcDbEntity
  8
0
  6
Continuous
 62
     7
100
AcDbCircle
 10
69.85000000000465
 20
-676.2469135927802
 30
0.0
 40
22.49999999999934
100
AcDbArc
 50
180.0000000000004
 51
253.0678625776801
  0
ARC
  5
103
330
A
100
AcDbEntity
  8
0
  6
Continuous
 62
     7
100
AcDbCircle
 10
69.85000000000465
 20
-676.2469135927802
 30
0.0
 40
22.49999999999933
100
AcDbArc
 50
286.932137422323
 51
316.4577809718433
  0
ARC
  5
104
330
A
100
AcDbEntity
  8
0
  6
Continuous
 62
     7
100
AcDbCircle
 10
69.85000000000465
 20
-676.2469135927802
 30
0.0
 40
22.49999999999934
100
AcDbArc
 50
333.4180739547938
 51
26.40288874490454
  0
ARC
  5
105
330
A
100
AcDbEntity
  8
0
  6
Continuous
 62
     7
100
AcDbCircle
 10
69.85000000000465
 20
-676.2469135927802
 30
0.0
 40
22.4999999999993
100
AcDbArc
 50
48.10782170243681
 51
75.8509954910651
  0
ARC
  5
106
330
A
100
AcDbEntity
  8
0
  6
Continuous
 62
     7
100
AcDbCircle
 10
69.85000000000465
 20
-676.2469135927802
 30
0.0
 40
22.4999999999993
100
AcDbArc
 50
104.1490045089353
 51
180.0000000000004
  0
LINE
  5
107
330
A
100
AcDbEntity
  8
0
  6
Continuous
 62
     7
100
AcDbLine
 10
124.85
 20
-291.0991327135114
 30
0.0
 11
14.85000000000007
 21
-291.0991327135114
 31
0.0
  0
LINE
  5
108
330
A
100
AcDbEntity
  8
0
  6
Continuous
 62
     7
100
AcDbLine
 10
122.85
 20
-306.0991327135115
 30
0.0
 11
16.85000002017094
 21
-306.0991327135115
 31
0.0
  0
LINE
  5
109
330
A
100
AcDbEntity
  8
0
  6
Continuous
 62
     7
100
AcDbLine
 10
76.84999999999999
 20
-626.0991327135115
 30
0.0
 11
62.85
 21
-626.0991327135115
 31
0.0
  0
ARC
  5
10A
330
A
100
AcDbEntity
  8
0
  6
Continuous
 62
     7
100
AcDbCircle
 10
69.84999999999999
 20
-676.099132713511
 30
0.0
 40
104.7346993454141
100
AcDbArc
 50
270.0000000000008
 51
86.16774901581296
  0
ARC
  5
10B
330
A
100
AcDbEntity
  8
0
  6
Continuous
 62
     7
100
AcDbCircle
 10
69.84999999999999
 20
-676.099132713511
 30
0.0
 40
104.7346993454141
100
AcDbArc
 50
93.83225098418705
 51
270.0000000000008
  0
ARC
  5
10C
330
A
100
AcDbEntity
  8
0
  6
Continuous
 62
     7
100
AcDbCircle
 10
69.84999999999999
 20
-676.0991327135102
 30
0.0
 40
160.0
100
AcDbArc
 50
270.0000000000008
 51
87.49250929641277
  0
ARC
  5
10D
330
A
100
AcDbEntity
  8
0
  6
Continuous
 62
     7
100
AcDbCircle
 10
69.84999999999999
 20
-676.0991327135102
 30
0.0
 40
160.0
100
AcDbArc
 50
92.50749070358722
 51
270.0000000000008
  0
ARC
  5
10E
330
A
100
AcDbEntity
  8
0
  6
Continuous
 62
     7
100
AcDbCircle
 10
69.84999999999999
 20
-676.099132713511
 30
0.0
 40
103.7635650655045
100
AcDbArc
 50
270.0000000000008
 51
86.13182823263439
  0
ARC
  5
10F
330
A
100
AcDbEntity
  8
0
  6
Continuous
 62
     7
100
AcDbCircle
 10
69.84999999999999
 20
-676.099132713511
 30
0.0
 40
103.7635650655045
100
AcDbArc
 50
93.86817176736562
 51
270.0000000000008
  0
LWPOLYLINE
  5
110
330
A
100
AcDbEntity
  8
0
  6
Continuous
 62
     7
100
AcDbPolyline
 90
        5
 70
   128
 43
0.0
 10
121.2404333780987
 20
-585.955354268665
 10
121.3982525393462
 20
-586.083397655156
 10
121.7046278212119
 20
-586.2842827195958
 10
122.0317870311903
 20
-586.4491689645632
 10
122.2215854373012
 20
-586.5218226741615
  0
LWPOLYLINE
  5
117
330
A
100
AcDbEntity
  8
0
  6
Continuous
 62
     7
100
AcDbPolyline
 90
        5
 70
   128
 43
0.0
 10
-33.91201881538783
 20
-675.5326643080836
 10
-33.88003957053801
 20
-675.7333614041039
 10
-33.85925564242525
 20
-676.0991327135108
 10
-33.880039570538
 20
-676.464904022918
 10
-33.91201881538772
 20
-676.6656011189378
  0
LWPOLYLINE
  5
11E
330
A
100
AcDbEntity
  8
0
  6
Continuous
 62
     7
100
AcDbPolyline
 90
        5
 70
   128
 43
0.0
 10
122.2215854373241
 20
-765.6764427528525
 10
122.0317870311916
 20
-765.749096462458
 10
121.704627821213
 20
-765.9139827074255
 10
121.3982525393472
 20
-766.1148677718653
 10
121.2404333780833
 20
-766.242911158371
  0
ARC
  5
125
330
A
100
AcDbEntity
  8
0
  6
Continuous
 62
     7
100
AcDbCircle
 10
69.84999999999999
 20
-676.0991327135108
 30
0.0
 40
34.00000000000006
100
AcDbArc
 50
282.4364054248004
 51
53.77422149788195
  0
ARC
  5
126
330
A
100
AcDbEntity
  8
0
  6
Continuous
 62
     7
100
AcDbCircle
 10
69.84999999999999
 20
-676.0991327135108
 30
0.0
 40
33.99999999999991
100
AcDbArc
 50
56.50030889413028
 51
80.69065907835513
  0
ARC
  5
127
330
A
100
AcDbEntity
  8
0
  6
Continuous
 62
     7
100
AcDbCircle
 10
69.84999999999999
 20
-676.0991327135108
 30
0.0
 40
34.00000000000007
100
AcDbArc
 50
99.30934092162933
 51
257.563594575218
  0
LWPOLYLINE
  5
128
330
A
100
AcDbEntity
  8
0
  6
PHANTOM
 62
     7
100
AcDbPolyline
 90
        9
 70
   128
 43
0.0
 10
59.13163685572333
 20
-676.2469135927802
 10
59.1435846238698
 20
-676.7537995687625
 10
59.1793512637714
 20
-677.259566098972
 10
59.23885859950321
 20
-677.7631011403134
 10
59.27861421333123
 20
-678.0191728997577
 10
59.45328290589269
 20
-678.8535875323321
 10
59.51704165221939
 20
-679.0954481502282
 10
59.5603713814946
 20
-679.2480552731793
 10
59.85000000000466
 20
-679.9865521364742
  0
LWPOLYLINE
  5
133
330
A
100
AcDbEntity
  8
0
  6
PHANTOM
 62
     7
100
AcDbPolyline
 90
        4
 70
   128
 43
0.0
 10
61.0089447142627
 20
-682.24691359278
 10
61.27530948457962
 20
-682.677931479349
 10
62.80836788663947
 20
-684.3278145382327
 10
64.13300458359589
 20
-685.2427023113827
  0
LWPOLYLINE
  5
139
330
A
100
AcDbEntity
  8
0
  6
PHANTOM
 62
     7
100
AcDbPolyline
 90
        6
 70
   128
 43
0.0
 10
75.57138298951324
 20
-685.3084669419812
 10
75.61316382873432
 20
-685.2842129605388
 10
76.10580738170039
 20
-684.9505016146139
 10
76.87973524537998
 20
-684.3382962560059
 10
77.85986303939607
 20
-683.3693550972915
 10
78.70285989773062
 20
-682.24691359278
  0
LWPOLYLINE
  5
141
330
A
100
AcDbEntity
  8
0
  6
PHANTOM
 62
     7
100
AcDbPolyline
 90
        8
 70
   128
 43
0.0
 10
79.85000000000467
 20
-680.0712630200981
 10
80.04776177080696
 20
-679.5468127285094
 10
80.09835080510027
 20
-679.3861559047918
 10
80.13506314892095
 20
-679.263670706883
 10
80.32495047642672
 20
-678.5187283509511
 10
80.45750292771165
 20
-677.7880739908822
 10
80.54228948730681
 20
-676.9979624200442
 10
80.56836314428599
 20
-676.2469135927802
  0
LWPOLYLINE
  5
14B
330
A
100
AcDbEntity
  8
0
  6
PHANTOM
 62
     7
100
AcDbPolyline
 90
        4
 70
   128
 43
0.0
 10
80.56836314428599
 20
-676.2469135927802
 10
80.55641535710895
 20
-675.7400276175936
 10
80.5206487172545
 20
-675.2342610885321
 10
80.46305443017153
 20
-674.7469135927801
  0
LWPOLYLINE
  5
151
330
A
100
AcDbEntity
  8
0
  6
PHANTOM
 62
     7
100
AcDbPolyline
 90
        8
 70
   128
 43
0.0
 10
59.85000000000464
 20
-672.4225641737625
 10
59.65223837141197
 20
-672.9470140174803
 10
59.60164926527888
 20
-673.1076710510181
 10
59.56493685109852
 20
-673.2301564786605
 10
59.37504952357008
 20
-673.9750988343381
 10
59.2424970725251
 20
-674.7057531926238
 10
59.15771058392238
 20
-675.4958637438354
 10
59.13163685572333
 20
-676.2469135927802
  0
ARC
  5
15B
330
A
100
AcDbEntity
  8
0
  6
PHANTOM
 62
     7
100
AcDbCircle
 10
69.85000000000465
 20
-676.2469135927802
 30
0.0
 40
9.549678817091745
100
AcDbArc
 50
306.135267603287
 51
321.0756767176982
  0
ARC
  5
15C
330
A
100
AcDbEntity
  8
0
  6
PHANTOM
 62
     7
100
AcDbCircle
 10
69.85000000000465
 20
-676.2469135927802
 30
0.0
 40
9.549678817091686
100
AcDbArc
 50
218.9243232823033
 51
233.8647323967186
  0
ARC
  5
15D
330
A
100
AcDbEntity
  8
0
  6
PHANTOM
 62
     7
100
AcDbCircle
 10
69.85000000000465
 20
-676.2469135927802
 30
0.0
 40
9.243442456779604
100
AcDbArc
 50
307.3442806367049
 51
319.5255558372328
  0
ARC
  5
15E
330
A
100
AcDbEntity
  8
0
  6
PHANTOM
 62
     7
100
AcDbCircle
 10
69.85000000000465
 20
-676.2469135927802
 30
0.0
 40
9.2434424567796
100
AcDbArc
 50
220.4744441627691
 51
232.6557193633012
  0
LINE
  5
15F
330
A
100
AcDbEntity
  8
0
  6
PHANTOM
 62
     7
100
AcDbLine
 10
14.85000000000007
 20
-304.0991327135115
 30
0.0
 11
124.85
 21
-304.0991327135115
 31
0.0
  0
LINE
  5
160
330
A
100
AcDbEntity
  8
0
  6
Continuous
 62
     7
100
AcDbLine
 10
808.3239779246403
 20
147.6330407562489
 30
0.0
 11
805.9018204119748
 21
187.2349660286973
 31
0.0
  0
LINE
  5
161
330
A
100
AcDbEntity
  8
0
  6
Continuous
 62
     7
100
AcDbLine
 10
760.9018204119761
 20
187.2349660286973
 30
0.0
 11
758.4796628993107
 21
147.6330407562489
 31
0.0
  0
LINE
  5
162
330
A
100
AcDbEntity
  8
0
  6
Continuous
 62
     7
100
AcDbLine
 10
805.9018204119748
 20
187.2349660286973
 30
0.0
 11
798.4005664183548
 21
194.7362200223176
 31
0.0
  0
LINE
  5
163
330
A
100
AcDbEntity
  8
0
  6
Continuous
 62
     7
100
AcDbLine
 10
768.403074405596
 20
194.7362200223176
 30
0.0
 11
760.9018204119761
 21
187.2349660286973
 31
0.0
  0
LINE
  5
164
330
A
100
AcDbEntity
  8
0
  6
Continuous
 62
     7
100
AcDbLine
 10
848.3494356132444
 20
396.5942363734427
 30
0.0
 11
783.7244459098196
 21
288.7088278435276
 31
0.0
  0
LINE
  5
165
330
A
100
AcDbEntity
  8
0
  6
Continuous
 62
     7
100
AcDbLine
 10
789.3970147813445
 20
277.8883860643597
 30
0.0
 11
865.3694595544362
 21
386.0755050051617
 31
0.0
  0
ARC
  5
166
330
A
100
AcDbEntity
  8
0
  6
Continuous
 62
     7
100
AcDbCircle
 10
856.9280901390035
 20
391.4554927013296
 30
0.0
 40
10.0
100
AcDbArc
 50
326.9671880051306
 51
0.0
  0
ARC
  5
167
330
A
100
AcDbEntity
  8
0
  6
Continuous
 62
     7
100
AcDbCircle
 10
856.9280901390035
 20
391.4554927013296
 30
0.0
 40
10.00000000000004
100
AcDbArc
 50
0.0
 51
149.0893668266799
  0
LINE
  5
168
330
A
100
AcDbEntity
  8
0
  6
Continuous
 62
     7
100
AcDbLine
 10
777.8923986942809
 20
265.774277658201
 30
0.0
 11
779.9018204119747
 21
214.7349660287052
 31
0.0
  0
LINE
  5
169
330
A
100
AcDbEntity
  8
0
  6
Continuous
 62
     7
100
AcDbLine
 10
786.9018204119762
 20
214.7349660287052
 30
0.0
 11
789.3629914453859
 21
277.2487102774003
 31
0.0
  0
LINE
  5
16A
330
A
100
AcDbEntity
  8
0
  6
Continuous
 62
     7
100
AcDbLine
 10
733.2540395327063
 20
272.7349660286974
 30
0.0
 11
765.6512008619063
 21
272.7349660286974
 31
0.0
  0
LINE
  5
16B
330
A
100
AcDbEntity
  8
0
  6
Continuous
 62
     7
100
AcDbLine
 10
765.6512008619063
 20
283.7349660286973
 30
0.0
 11
733.2540395327063
 21
283.7349660286973
 31
0.0
  0
ARC
  5
16C
330
A
100
AcDbEntity
  8
0
  6
Continuous
 62
     7
100
AcDbCircle
 10
778.4018204119753
 20
196.234966028697
 30
0.0
 40
1.500000000000113
100
AcDbArc
 50
270.0000000000008
 51
0.0
  0
ARC
  5
16D
330
A
100
AcDbEntity
  8
0
  6
Continuous
 62
     7
100
AcDbCircle
 10
788.4018204119755
 20
196.2349660286973
 30
0.0
 40
1.5
100
AcDbArc
 50
180.0000000000004
 51
270.0000000000008
  0
LINE
  5
16E
330
A
100
AcDbEntity
  8
0
  6
Continuous
 62
     7
100
AcDbLine
 10
779.9018204119747
 20
214.7349660287052
 30
0.0
 11
779.9018204119755
 21
196.2349660286971
 31
0.0
  0
LINE
  5
16F
330
A
100
AcDbEntity
  8
0
  6
Continuous
 62
     7
100
AcDbLine
 10
786.9018204119755
 20
196.2349660286971
 30
0.0
 11
786.9018204119762
 21
214.7349660287052
 31
0.0
  0
LINE
  5
170
330
A
100
AcDbEntity
  8
0
  6
Continuous
 62
     7
100
AcDbLine
 10
398.2540395327063
 20
219.1330407562489
 30
0.0
 11
411.2540395327063
 21
219.1330407562489
 31
0.0
  0
LINE
  5
171
330
A
100
AcDbEntity
  8
0
  6
Continuous
 62
     7
100
AcDbLine
 10
411.2540395327063
 20
329.1330407562489
 30
0.0
 11
398.2540395327063
 21
329.1330407562489
 31
0.0
  0
ARC
  5
172
330
A
100
AcDbEntity
  8
0
  6
Continuous
 62
     7
100
AcDbCircle
 10
411.2540395327063
 20
327.1330407562489
 30
0.0
 40
2.0
100
AcDbArc
 50
0.0
 51
90.0
  0
ARC
  5
173
330
A
100
AcDbEntity
  8
0
  6
Continuous
 62
     7
100
AcDbCircle
 10
411.2540395327063
 20
221.1330407562489
 30
0.0
 40
2.0
100
AcDbArc
 50
270.0000000000008
 51
0.0
  0
LINE
  5
174
330
A
100
AcDbEntity
  8
0
  6
Continuous
 62
     7
100
AcDbLine
 10
733.2540395327063
 20
285.3256231598161
 30
0.0
 11
413.2540395327063
 21
285.3256231598161
 31
0.0
  0
LINE
  5
175
330
A
100
AcDbEntity
  8
0
  6
Continuous
 62
     7
100
AcDbLine
 10
413.2540395327063
 20
262.9404583526817
 30
0.0
 11
733.2540395327063
 21
262.9404583526817
 31
0.0
  0
LINE
  5
176
330
A
100
AcDbEntity
  8
0
  6
Continuous
 62
     7
100
AcDbLine
 10
623.254039532707
 20
-77.36695924375102
 30
0.0
 11
624.225173812616
 21
-77.60549270132961
 31
0.0
  0
LINE
  5
177
330
A
100
AcDbEntity
  8
0
  6
Continuous
 62
     7
100
AcDbLine
 10
942.2829052527967
 20
-77.60549270132961
 30
0.0
 11
943.2540395327063
 21
-77.36695924375102
 31
0.0
  0
LINE
  5
178
330
A
100
AcDbEntity
  8
0
  6
Continuous
 62
     7
100
AcDbLine
 10
943.2540395327063
 20
-77.36695924375102
 30
0.0
 11
887.9887388781204
 21
147.6330407562489
 31
0.0
  0
LINE
  5
179
330
A
100
AcDbEntity
  8
0
  6
Continuous
 62
     7
100
AcDbLine
 10
678.5193401872923
 20
147.6330407562489
 30
0.0
 11
623.254039532707
 21
-77.36695924375102
 31
0.0
  0
LINE
  5
17A
330
A
100
AcDbEntity
  8
0
  6
Continuous
 62
     7
100
AcDbLine
 10
783.4018204119754
 20
187.2349660286973
 30
0.0
 11
805.9018204119748
 21
187.2349660286973
 31
0.0
  0
LINE
  5
17B
330
A
100
AcDbEntity
  8
0
  6
Continuous
 62
     7
100
AcDbLine
 10
760.9018204119761
 20
187.2349660286973
 30
0.0
 11
783.4018204119754
 21
187.2349660286973
 31
0.0
  0
LINE
  5
17C
330
A
100
AcDbEntity
  8
0
  6
Continuous
 62
     7
100
AcDbLine
 10
783.4018204119754
 20
194.7349660286972
 30
0.0
 11
798.4018204119753
 21
194.7349660286972
 31
0.0
  0
LINE
  5
17D
330
A
100
AcDbEntity
  8
0
  6
Continuous
 62
     7
100
AcDbLine
 10
768.4018204119755
 20
194.7349660286972
 30
0.0
 11
783.4018204119754
 21
194.7349660286972
 31
0.0
  0
LWPOLYLINE
  5
17E
330
A
100
AcDbEntity
  8
0
  6
Continuous
 62
     7
100
AcDbPolyline
 90
       32
 70
   128
 43
0.0
 10
865.32003926024
 20
386.0051289726115
 10
865.0250506317313
 20
386.0940071537339
 10
864.3789903741554
 20
386.4284536577624
 10
862.7170661158636
 20
387.3902392483084
 10
861.3641873473659
 20
388.2134891719588
 10
859.8693902994501
 20
389.1447065814814
 10
858.3031183193375
 20
390.1381450323007
 10
857.513846112895
 20
390.6447759173268
 10
857.1210324766616
 20
390.898389524465
 10
856.9254748036373
 20
391.0250153088949
 10
856.8279556868489
 20
391.0882521426817
 10
856.7792668743026
 20
391.1198477680676
 10
856.7549408743051
 20
391.1356394154312
 10
856.7427825654005
 20
391.1435336396423
 10
856.7367045948843
 20
391.1474803446312
 10
856.7336659070035
 20
391.1494535944415
 10
856.7321466375815
 20
391.1504401935625
 10
856.7313870215222
 20
391.150933486663
 10
856.731007218158
 20
391.1511801315963
 10
856.7308173176426
 20
391.1513034536586
 10
856.7307223676765
 20
391.1513651145886
 10
856.7306748927665
 20
391.1513959450283
 10
856.7306511553296
 20
391.1514113602419
 10
856.7306392866159
 20
391.1514190678471
 10
856.7306274179053
 20
391.1514267754512
 10
856.3054475858095
 20
391.4275412997984
 10
855.5353403404314
 20
391.9276544446018
 10
853.065459552276
 20
393.5316135043852
 10
851.527647345844
 20
394.5302804977385
 10
850.0196126936687
 20
395.509609860419
 10
848.8346766538574
 20
396.2791166700473
 10
848.3494356132444
 20
396.5942363734427
  0
CIRCLE
  5
1A0
330
A
100
AcDbEntity
  8
0
  6
Continuous
 62
     7
100
AcDbCircle
 10
776.9018204119751
 20
278.2349660286973
 30
0.0
 40
12.49999999999988
  0
LINE
  5
1A1
330
A
100
AcDbEntity
  8
0
  6
Continuous
 62
     7
100
AcDbLine
 10
779.9018204119747
 20
214.7349660287052
 30
0.0
 11
786.9018204119762
 21
214.7349660287052
 31
0.0
  0
LWPOLYLINE
  5
1A2
330
A
100
AcDbEntity
  8
0
  6
Continuous
 62
     7
100
AcDbPolyline
 90
        7
 70
   128
 43
0.0
 10
798.9018204119751
 20
278.2349660286973
 10
798.4790965808461
 20
273.9429789443425
 10
797.2271701272233
 20
269.8159305166653
 10
795.1941518826311
 20
266.0124209022661
 10
792.4581695980792
 20
262.6786168425933
 10
789.1243655384063
 20
259.9426345580413
 10
788.6721332198087
 20
259.700911347714
  0
LWPOLYLINE
  5
1AB
330
A
100
AcDbEntity
  8
0
  6
Continuous
 62
     7
100
AcDbPolyline
 90
        9
 70
   128
 43
0.0
 10
778.2626852353542
 20
256.3689995149313
 10
776.9018204119751
 20
256.2349660286973
 10
772.6098333276203
 20
256.6576898598263
 10
768.4827848999431
 20
257.909616313449
 10
764.6792752855438
 20
259.9426345580413
 10
761.3454712258709
 20
262.6786168425933
 10
758.6094889413191
 20
266.0124209022661
 10
756.5764706967268
 20
269.8159305166654
 10
755.6909909548197
 20
272.7349660286974
  0
LWPOLYLINE
  5
1B6
330
A
100
AcDbEntity
  8
0
  6
Continuous
 62
     7
100
AcDbPolyline
 90
       11
 70
   128
 43
0.0
 10
755.69099095482
 20
283.7349660286973
 10
756.5764706967268
 20
286.6540015407293
 10
758.6094889413191
 20
290.4575111551287
 10
761.3454712258709
 20
293.7913152148014
 10
764.6792752855438
 20
296.5272974993534
 10
768.4827848999431
 20
298.5603157439457
 10
772.6098333276203
 20
299.8122421975685
 10
776.9018204119751
 20
300.2349660286974
 10
781.1938074963298
 20
299.8122421975685
 10
785.3208559240069
 20
298.5603157439457
 10
788.5816076983555
 20
296.8174076089851
  0
LWPOLYLINE
  5
1C3
330
A
100
AcDbEntity
  8
0
  6
Continuous
 62
     7
100
AcDbPolyline
 90
        4
 70
   128
 43
0.0
 10
796.5033942539736
 20
288.0080909592075
 10
797.2271701272233
 20
286.6540015407293
 10
798.4790965808461
 20
282.5269531130522
 10
798.9018204119751
 20
278.2349660286973
  0
LINE
  5
1C9
330
A
100
AcDbEntity
  8
0
  6
Continuous
 62
     7
100
AcDbLine
 10
398.2540395327063
 20
329.1330407562489
 30
0.0
 11
398.2540395327063
 21
219.1330407562489
 31
0.0
  0
LINE
  5
1CA
330
A
100
AcDbEntity
  8
0
  6
Continuous
 62
     7
100
AcDbLine
 10
413.2540395327063
 20
327.1330407562489
 30
0.0
 11
413.2540395327063
 21
221.1330407562489
 31
0.0
  0
LINE
  5
1CB
330
A
100
AcDbEntity
  8
0
  6
Continuous
 62
     7
100
AcDbLine
 10
733.2540395327063
 20
285.3256231598161
 30
0.0
 11
733.2540395327063
 21
276.9775463348454
 31
0.0
  0
LINE
  5
1CC
330
A
100
AcDbEntity
  8
0
  6
Continuous
 62
     7
100
AcDbLine
 10
733.2540395327063
 20
276.9775463348454
 30
0.0
 11
733.2540395327063
 21
266.9775463348454
 31
0.0
  0
LINE
  5
1CD
330
A
100
AcDbEntity
  8
0
  6
Continuous
 62
     7
100
AcDbLine
 10
733.2540395327063
 20
266.9775463348454
 30
0.0
 11
733.2540395327063
 21
262.9404583526817
 31
0.0
  0
LINE
  5
1CE
330
A
100
AcDbEntity
  8
0
  6
Continuous
 62
     7
100
AcDbLine
 10
623.254039532707
 20
-77.36695924375102
 30
0.0
 11
943.2540395327063
 21
-77.36695924375102
 31
0.0
  0
LINE
  5
1CF
330
A
100
AcDbEntity
  8
0
  6
Continuous
 62
     7
100
AcDbLine
 10
624.225173812616
 20
-77.60549270132961
 30
0.0
 11
942.2829052527967
 21
-77.60549270132961
 31
0.0
  0
LINE
  5
1D0
330
A
100
AcDbEntity
  8
0
  6
Continuous
 62
     7
100
AcDbLine
 10
678.5193401872923
 20
147.6330407562489
 30
0.0
 11
887.9887388781204
 21
147.6330407562489
 31
0.0
  0
LINE
  5
1D1
330
A
100
AcDbEntity
  8
0
  6
PHANTOM
 62
     7
100
AcDbLine
 10
779.9018204119755
 20
196.2349660286971
 30
0.0
 11
786.9018204119755
 21
196.2349660286971
 31
0.0
  0
LINE
  5
1D2
330
A
100
AcDbEntity
  8
0
  6
PHANTOM
 62
     7
100
AcDbLine
 10
411.2540395327063
 20
219.1330407562489
 30
0.0
 11
411.2540395327063
 21
329.1330407562489
 31
0.0
  0
LINE
  5
1D3
330
A
100
AcDbEntity
  8
0
  6
PHANTOM
 62
     7
100
AcDbLine
 10
733.2540395327063
 20
276.9775463348454
 30
0.0
 11
413.2540395327063
 21
276.9775463348454
 31
0.0
  0
LINE
  5
1D4
330
A
100
AcDbEntity
  8
0
  6
PHANTOM
 62
     7
100
AcDbLine
 10
733.2540395327063
 20
266.9775463348454
 30
0.0
 11
413.2540395327063
 21
266.9775463348454
 31
0.0
  0
ENDSEC
  0
SECTION
  2
OBJECTS
  0
DICTIONARY
  5
19
330
0
100
AcDbDictionary
281
     1
  3
ACAD_COLOR
350
1DB
  3
ACAD_GROUP
350
1A
  3
ACAD_LAYOUT
350
1DE
  3
ACAD_MATERIAL
350
1DA
  3
ACAD_MLINESTYLE
350
1B
  3
ACAD_PLOTSETTINGS
350
1DF
  3
ACAD_PLOTSTYLENAME
350
1D8
  3
ACAD_TABLESTYLE
350
1DC
  3
ACDBHEADERROUNDTRIPXREC
350
1F7
  3
AcDbVariableDictionary
350
1F2
  3
ASE_INDEX_DICTIONARY
350
1E5
  0
DICTIONARY
  5
1DB
102
{ACAD_REACTORS
330
19
102
}
330
19
100
AcDbDictionary
281
     1
  0
DICTIONARY
  5
1A
102
{ACAD_REACTORS
330
19
102
}
330
19
100
AcDbDictionary
281
     1
  0
DICTIONARY
  5
1DE
102
{ACAD_REACTORS
330
19
102
}
330
19
100
AcDbDictionary
281
     1
  3
Layout1
350
1E1
  3
Model
350
1E0
  0
DICTIONARY
  5
1DA
102
{ACAD_REACTORS
330
19
102
}
330
19
100
AcDbDictionary
281
     1
  0
DICTIONARY
  5
1B
102
{ACAD_REACTORS
330
19
102
}
330
19
100
AcDbDictionary
281
     1
  3
STANDARD
350
1C
  0
DICTIONARY
  5
1DF
102
{ACAD_REACTORS
330
19
102
}
330
19
100
AcDbDictionary
281
     1
  0
ACDBDICTIONARYWDFLT
  5
1D8
102
{ACAD_REACTORS
330
19
102
}
330
19
100
AcDbDictionary
281
     1
  3
Normal
350
1D9
100
AcDbDictionaryWithDefault
340
1D9
  0
DICTIONARY
  5
1DC
102
{ACAD_REACTORS
330
19
102
}
330
19
100
AcDbDictionary
281
     1
  3
Standard
350
1DD
  0
DICTIONARY
  5
1F7
102
{ACAD_REACTORS
330
19
102
}
330
19
100
AcDbDictionary
281
     1
  0
DICTIONARY
  5
1F2
102
{ACAD_REACTORS
330
19
102
}
330
19
100
AcDbDictionary
281
     1
  3
CTABLESTYLE
350
1F3
  3
DIMASSOC
350
1F4
  3
PROJECTNAME
350
1F5
  0
DICTIONARY
  5
1E5
102
{ACAD_REACTORS
330
19
102
}
330
19
100
AcDbDictionary
281
     1
  3
ASEBlockHierarchyIndexRecord
350
1E7
1001
DCO15
1040
1585051032.64
  0
LAYOUT
  5
1E1
102
{ACAD_XDICTIONARY
360
1FA
102
}
102
{ACAD_REACTORS
330
1DE
102
}
330
1DE
100
AcDbPlotSettings
  1

  2
C:\Dokumente und Einstellungen\Administrator\Anwendungsdaten\Autodesk\AutoCAD 2005\R16.1\ita\plotters\Default Windows System Printer.pc3
  4

  6

 40
0.0
 41
0.0
 42
0.0
 43
0.0
 44
0.0
 45
0.0
 46
0.0
 47
0.0
 48
0.0
 49
0.0
140
0.0
141
0.0
142
1.0
143
1.0
 70
   688
 72
     0
 73
     0
 74
     5
  7

 75
    16
147
1.0
148
0.0
149
0.0
100
AcDbLayout
  1
Layout1
 70
     1
 71
     1
 10
0.0
 20
0.0
 11
12.0
 21
9.0
 12
0.0
 22
0.0
 32
0.0
 14
1.000000000000000E+20
 24
1.000000000000000E+20
 34
1.000000000000000E+20
 15
-1.000000000000000E+20
 25
-1.000000000000000E+20
 35
-1.000000000000000E+20
146
0.0
 13
0.0
 23
0.0
 33
0.0
 16
1.0
 26
0.0
 36
0.0
 17
0.0
 27
1.0
 37
0.0
 76
     0
330
B
  0
LAYOUT
  5
1E0
102
{ACAD_XDICTIONARY
360
1F8
102
}
102
{ACAD_REACTORS
330
1DE
102
}
330
1DE
100
AcDbPlotSettings
  1

  2
C:\Dokumente und Einstellungen\Administrator\Anwendungsdaten\Autodesk\AutoCAD 2005\R16.1\ita\plotters\Default Windows System Printer.pc3
  4

  6

 40
0.0
 41
0.0
 42
0.0
 43
0.0
 44
0.0
 45
0.0
 46
0.0
 47
0.0
 48
0.0
 49
0.0
140
0.0
141
0.0
142
1.0
143
1.0
 70
  1712
 72
     0
 73
     0
 74
     0
  7

 75
     0
147
1.0
148
0.0
149
0.0
100
AcDbLayout
  1
Model
 70
     1
 71
     0
 10
0.0
 20
0.0
 11
12.0
 21
9.0
 12
0.0
 22
0.0
 32
0.0
 14
0.0
 24
0.0
 34
0.0
 15
0.0
 25
0.0
 35
0.0
146
0.0
 13
0.0
 23
0.0
 33
0.0
 16
1.0
 26
0.0
 36
0.0
 17
0.0
 27
1.0
 37
0.0
 76
     0
330
A
  0
MLINESTYLE
  5
1C
102
{ACAD_REACTORS
330
1B
102
}
330
1B
100
AcDbMlineStyle
  2
STANDARD
 70
     0
  3

 62
     0
 51
90.0
 52
90.0
 71
     2
 49
0.5
 62
   256
  6
BYLAYER
 49
-0.5
 62
   256
  6
BYLAYER
  0
ACDBPLACEHOLDER
  5
1D9
102
{ACAD_REACTORS
330
1D8
102
}
330
1D8
  0
TABLESTYLE
  5
1DD
102
{ACAD_REACTORS
330
1DC
102
}
330
1DC
100
AcDbTableStyle
  3
Standard
 70
     0
 71
     0
 40
0.06
 41
0.06
280
     0
281
     0
  7
STANDARD
140
0.18
170
     2
 62
     0
 63
     7
283
     0
274
    -2
284
     1
 64
     0
275
    -2
285
     1
 65
     0
276
    -2
286
     1
 66
     0
277
    -2
287
     1
 67
     0
278
    -2
288
     1
 68
     0
279
    -2
289
     1
 69
     0
  7
STANDARD
140
0.25
170
     5
 62
     0
 63
     7
283
     0
274
    -2
284
     1
 64
     0
275
    -2
285
     1
 65
     0
276
    -2
286
     1
 66
     0
277
    -2
287
     1
 67
     0
278
    -2
288
     1
 68
     0
279
    -2
289
     1
 69
     0
  7
STANDARD
140
0.18
170
     5
 62
     0
 63
     7
283
     0
274
    -2
284
     1
 64
     0
275
    -2
285
     1
 65
     0
276
    -2
286
     1
 66
     0
277
    -2
287
     1
 67
     0
278
    -2
288
     1
 68
     0
279
    -2
289
     1
 69
     0
  0
DICTIONARYVAR
  5
1F3
102
{ACAD_REACTORS
330
1F2
102
}
330
1F2
100
DictionaryVariables
280
     0
  1
STANDARD
  0
DICTIONARYVAR
  5
1F4
102
{ACAD_REACTORS
330
1F2
102
}
330
1F2
100
DictionaryVariables
280
     0
  1
1
  0
DICTIONARYVAR
  5
1F5
102
{ACAD_REACTORS
330
1F2
102
}
330
1F2
100
DictionaryVariables
280
     0
  1

  0
XRECORD
  5
1E7
102
{ACAD_REACTORS
330
1E5
102
}
330
1E5
100
AcDbXrecord
280
     1
  0
DICTIONARY
  5
1FA
330
1E1
100
AcDbDictionary
280
     1
281
     1
  3
ACAD_XREC_ROUNDTRIP
360
1FB
  0
DICTIONARY
  5
1F8
330
1E0
100
AcDbDictionary
280
     1
281
     1
  3
ACAD_XREC_ROUNDTRIP
360
1F9
  0
XRECORD
  5
1FB
102
{ACAD_REACTORS
330
1FA
102
}
330
1FA
100
AcDbXrecord
280
     1
102
SHADEPLOT
 70
     0
102
SHADEPLOTRESLEVEL
 70
     2
102
SHADEPLOTCUSTOMDPI
 70
   300
  0
XRECORD
  5
1F9
102
{ACAD_REACTORS
330
1F8
102
}
330
1F8
100
AcDbXrecord
280
     1
102
SHADEPLOT
 70
     0
102
SHADEPLOTRESLEVEL
 70
     2
102
SHADEPLOTCUSTOMDPI
 70
   300
  0
ENDSEC
  0
EOF
