  0
SECTION
  2
HEADER
  9
$ACADVER
  1
AC1015
  9
$ACADMAINTVER
 70
    20
  9
$DWGCODEPAGE
  3
ANSI_1252
  9
$INSBASE
 10
0.0
 20
0.0
 30
0.0
  9
$EXTMIN
 10
-50.14999999999954
 20
-716.0991327135104
 30
0.0
  9
$EXTMAX
 10
823.2540395327063
 20
401.4098312193819
 30
0.0
  9
$LIMMIN
 10
0.0
 20
0.0
  9
$LIMMAX
 10
0.0
 20
0.0
  9
$ORTHOMODE
 70
     0
  9
$REGENMODE
 70
     1
  9
$FILLMODE
 70
     1
  9
$QTEXTMODE
 70
     0
  9
$MIRRTEXT
 70
     1
  9
$LTSCALE
 40
1.0
  9
$ATTMODE
 70
     1
  9
$TEXTSIZE
 40
0.0
  9
$TRACEWID
 40
0.05
  9
$TEXTSTYLE
  7
STANDARD
  9
$CLAYER
  8
0
  9
$CELTYPE
  6
CONTINUOUS
  9
$CECOLOR
 62
   256
  9
$CELTSCALE
 40
1.0
  9
$DISPSILH
 70
     0
  9
$DIMSCALE
 40
1.0
  9
$DIMASZ
 40
6.0
  9
$DIMEXO
 40
1.0
  9
$DIMDLI
 40
0.38
  9
$DIMRND
 40
0.0
  9
$DIMDLE
 40
1.0
  9
$DIMEXE
 40
0.18
  9
$DIMTP
 40
0.0
  9
$DIMTM
 40
0.0
  9
$DIMTXT
 40
3.5
  9
$DIMCEN
 40
0.09
  9
$DIMTSZ
 40
0.0
  9
$DIMTOL
 70
     0
  9
$DIMLIM
 70
     0
  9
$DIMTIH
 70
     1
  9
$DIMTOH
 70
     1
  9
$DIMSE1
 70
     0
  9
$DIMSE2
 70
     0
  9
$DIMTAD
 70
     1
  9
$DIMZIN
 70
     0
  9
$DIMBLK
  1

  9
$DIMASO
 70
     1
  9
$DIMSHO
 70
     1
  9
$DIMPOST
  1

  9
$DIMAPOST
  1

  9
$DIMALT
 70
     0
  9
$DIMALTD
 70
     2
  9
$DIMALTF
 40
0.0394
  9
$DIMLFAC
 40
10.0
  9
$DIMTOFL
 70
     0
  9
$DIMTVP
 40
0.0
  9
$DIMTIX
 70
     0
  9
$DIMSOXD
 70
     0
  9
$DIMSAH
 70
     0
  9
$DIMBLK1
  1

  9
$DIMBLK2
  1

  9
$DIMSTYLE
  2
STANDARD
  9
$DIMCLRD
 70
     0
  9
$DIMCLRE
 70
     0
  9
$DIMCLRT
 70
     0
  9
$DIMTFAC
 40
1.0
  9
$DIMGAP
 40
1.0
  9
$DIMJUST
 70
     0
  9
$DIMSD1
 70
     0
  9
$DIMSD2
 70
     0
  9
$DIMTOLJ
 70
     1
  9
$DIMTZIN
 70
     0
  9
$DIMALTZ
 70
     0
  9
$DIMALTTZ
 70
     0
  9
$DIMUPT
 70
     0
  9
$DIMDEC
 70
     4
  9
$DIMTDEC
 70
     4
  9
$DIMALTU
 70
     2
  9
$DIMALTTD
 70
     2
  9
$DIMTXSTY
  7
STANDARD
  9
$DIMAUNIT
 70
     0
  9
$DIMADEC
 70
     0
  9
$DIMALTRND
 40
0.0
  9
$DIMAZIN
 70
     0
  9
$DIMDSEP
 70
    46
  9
$DIMATFIT
 70
     3
  9
$DIMFRAC
 70
     0
  9
$DIMLDRBLK
  1

  9
$DIMLUNIT
 70
     2
  9
$DIMLWD
 70
    -2
  9
$DIMLWE
 70
    -2
  9
$DIMTMOVE
 70
     0
  9
$LUNITS
 70
     2
  9
$LUPREC
 70
     2
  9
$SKETCHINC
 40
0.1
  9
$FILLETRAD
 40
0.0
  9
$AUNITS
 70
     0
  9
$AUPREC
 70
     2
  9
$MENU
  1
acad
  9
$ELEVATION
 40
0.0
  9
$PELEVATION
 40
0.0
  9
$THICKNESS
 40
0.0
  9
$LIMCHECK
 70
     0
  9
$CHAMFERA
 40
0.0
  9
$CHAMFERB
 40
0.0
  9
$CHAMFERC
 40
0.0
  9
$CHAMFERD
 40
0.0
  9
$SKPOLY
 70
     0
  9
$TDCREATE
 40
2444972.041666667
  9
$TDUCREATE
 40
2444972.000000000
  9
$TDUPDATE
 40
2454148.709006065
  9
$TDUUPDATE
 40
2454148.667339398
  9
$TDINDWG
 40
0.0006089120
  9
$TDUSRTIMER
 40
0.0006089120
  9
$USRTIMER
 70
     1
  9
$ANGBASE
 50
0.0
  9
$ANGDIR
 70
     0
  9
$PDMODE
 70
     0
  9
$PDSIZE
 40
-1.0
  9
$PLINEWID
 40
0.0
  9
$SPLFRAME
 70
     0
  9
$SPLINETYPE
 70
     6
  9
$SPLINESEGS
 70
     8
  9
$HANDSEED
  5
202
  9
$SURFTAB1
 70
     6
  9
$SURFTAB2
 70
     6
  9
$SURFTYPE
 70
     6
  9
$SURFU
 70
     6
  9
$SURFV
 70
     6
  9
$UCSBASE
  2

  9
$UCSNAME
  2

  9
$UCSORG
 10
0.0
 20
0.0
 30
0.0
  9
$UCSXDIR
 10
1.0
 20
0.0
 30
0.0
  9
$UCSYDIR
 10
0.0
 20
1.0
 30
0.0
  9
$UCSORTHOREF
  2

  9
$UCSORTHOVIEW
 70
     1
  9
$UCSORGTOP
 10
0.0
 20
0.0
 30
0.0
  9
$UCSORGBOTTOM
 10
0.0
 20
0.0
 30
0.0
  9
$UCSORGLEFT
 10
0.0
 20
0.0
 30
0.0
  9
$UCSORGRIGHT
 10
0.0
 20
0.0
 30
0.0
  9
$UCSORGFRONT
 10
0.0
 20
0.0
 30
0.0
  9
$UCSORGBACK
 10
0.0
 20
0.0
 30
0.0
  9
$PUCSBASE
  2

  9
$PUCSNAME
  2

  9
$PUCSORG
 10
0.0
 20
0.0
 30
0.0
  9
$PUCSXDIR
 10
1.0
 20
0.0
 30
0.0
  9
$PUCSYDIR
 10
0.0
 20
1.0
 30
0.0
  9
$PUCSORTHOREF
  2

  9
$PUCSORTHOVIEW
 70
     0
  9
$PUCSORGTOP
 10
0.0
 20
0.0
 30
0.0
  9
$PUCSORGBOTTOM
 10
0.0
 20
0.0
 30
0.0
  9
$PUCSORGLEFT
 10
0.0
 20
0.0
 30
0.0
  9
$PUCSORGRIGHT
 10
0.0
 20
0.0
 30
0.0
  9
$PUCSORGFRONT
 10
0.0
 20
0.0
 30
0.0
  9
$PUCSORGBACK
 10
0.0
 20
0.0
 30
0.0
  9
$USERI1
 70
     0
  9
$USERI2
 70
     0
  9
$USERI3
 70
     0
  9
$USERI4
 70
     0
  9
$USERI5
 70
     0
  9
$USERR1
 40
0.0
  9
$USERR2
 40
0.0
  9
$USERR3
 40
0.0
  9
$USERR4
 40
0.0
  9
$USERR5
 40
0.0
  9
$WORLDVIEW
 70
     1
  9
$SHADEDGE
 70
     3
  9
$SHADEDIF
 70
    70
  9
$TILEMODE
 70
     1
  9
$MAXACTVP
 70
    16
  9
$PINSBASE
 10
0.0
 20
0.0
 30
0.0
  9
$PLIMCHECK
 70
     0
  9
$PEXTMIN
 10
1.000000000000000E+20
 20
1.000000000000000E+20
 30
1.000000000000000E+20
  9
$PEXTMAX
 10
-1.000000000000000E+20
 20
-1.000000000000000E+20
 30
-1.000000000000000E+20
  9
$PLIMMIN
 10
0.0
 20
0.0
  9
$PLIMMAX
 10
12.0
 20
9.0
  9
$UNITMODE
 70
     0
  9
$VISRETAIN
 70
     0
  9
$PLINEGEN
 70
     1
  9
$PSLTSCALE
 70
     1
  9
$TREEDEPTH
 70
  3020
  9
$CMLSTYLE
  2
STANDARD
  9
$CMLJUST
 70
     0
  9
$CMLSCALE
 40
1.0
  9
$PROXYGRAPHICS
 70
     1
  9
$MEASUREMENT
 70
     0
  9
$CELWEIGHT
370
    -1
  9
$ENDCAPS
280
     0
  9
$JOINSTYLE
280
     0
  9
$LWDISPLAY
290
     0
  9
$INSUNITS
 70
     0
  9
$HYPERLINKBASE
  1

  9
$STYLESHEET
  1

  9
$XEDIT
290
     1
  9
$CEPSNTYPE
380
     0
  9
$PSTYLEMODE
290
     1
  9
$FINGERPRINTGUID
  2
{78E42355-9EE2-41C9-91BE-55BFE04ABC51}
  9
$VERSIONGUID
  2
{A31572A6-52C0-4819-93F8-1C392C78B284}
  9
$EXTNAMES
290
     1
  9
$PSVPSCALE
 40
0.0
  9
$OLESTARTUP
290
     0
  0
ENDSEC
  0
SECTION
  2
CLASSES
  0
CLASS
  1
IMAGE
  2
AcDbRasterImage
  3
ISM
 90
    32895
280
     0
281
     1
  0
CLASS
  1
DICTIONARYVAR
  2
AcDbDictionaryVar
  3
ObjectDBX Classes
 90
        0
280
     0
281
     0
  0
CLASS
  1
RASTERVARIABLES
  2
AcDbRasterVariables
  3
ISM
 90
    32768
280
     0
281
     0
  0
CLASS
  1
IMAGEDEF
  2
AcDbRasterImageDef
  3
ISM
 90
    32768
280
     0
281
     0
  0
CLASS
  1
IMAGEDEF_REACTOR
  2
AcDbRasterImageDefReactor
  3
ISM
 90
    32769
280
     0
281
     0
  0
CLASS
  1
IDBUFFER
  2
AcDbIdBuffer
  3
ObjectDBX Classes
 90
    32768
280
     0
281
     0
  0
CLASS
  1
SPATIAL_FILTER
  2
AcDbSpatialFilter
  3
ObjectDBX Classes
 90
    32768
280
     0
281
     0
  0
CLASS
  1
SORTENTSTABLE
  2
AcDbSortentsTable
  3
ObjectDBX Classes
 90
    32768
280
     0
281
     0
  0
CLASS
  1
LAYER_INDEX
  2
AcDbLayerIndex
  3
ObjectDBX Classes
 90
    32768
280
     0
281
     0
  0
CLASS
  1
SPATIAL_INDEX
  2
AcDbSpatialIndex
  3
ObjectDBX Classes
 90
    32768
280
     0
281
     0
  0
CLASS
  1
OBJECT_PTR
  2
CAseDLPNTableRecord
  3
ASE-LPNTableRecord
 90
    32769
280
     0
281
     0
  0
CLASS
  1
LAYOUT
  2
AcDbLayout
  3
ObjectDBX Classes
 90
        0
280
     0
281
     0
  0
CLASS
  1
PLOTSETTINGS
  2
AcDbPlotSettings
  3
ObjectDBX Classes
 90
    32768
280
     0
281
     0
  0
CLASS
  1
ACDBDICTIONARYWDFLT
  2
AcDbDictionaryWithDefault
  3
ObjectDBX Classes
 90
        0
280
     0
281
     0
  0
CLASS
  1
ACDBPLACEHOLDER
  2
AcDbPlaceHolder
  3
ObjectDBX Classes
 90
        0
280
     0
281
     0
  0
CLASS
  1
VBA_PROJECT
  2
AcDbVbaProject
  3
acad
 90
    32768
280
     0
281
     0
  0
CLASS
  1
WIPEOUT
  2
AcDbWipeout
  3
"WipeOut|Product Desc: Object Enabler for WipeOut entity^I^I^I^I^I^I|Company: Autodesk, Inc.^I^I^I^I^I^I|WEB Address: www.autodesk.com"
 90
    32895
280
     0
281
     1
  0
CLASS
  1
WIPEOUTVARIABLES
  2
AcDbWipeoutVariables
  3
"WipeOut|Product Desc:     WipeOut Dbx Application|Company:          Autodesk, Inc.|WEB Address:      www.autodesk.com"
 90
    32768
280
     0
281
     0
  0
CLASS
  1
RTEXT
  2
RText
  3
RText|AutoCAD Express Tool|expresstools@autodesk.com
 90
    32768
280
     0
281
     1
  0
CLASS
  1
ARCALIGNEDTEXT
  2
AcDbArcAlignedText
  3
ATEXT|AutoCAD Express Tool|expresstools@autodesk.com
 90
    32768
280
     0
281
     1
  0
CLASS
  1
TABLESTYLE
  2
AcDbTableStyle
  3
ObjectDBX Classes
 90
     2047
280
     0
281
     0
  0
ENDSEC
  0
SECTION
  2
TABLES
  0
TABLE
  2
VPORT
  5
7
330
0
100
AcDbSymbolTable
 70
     3
  0
VPORT
  5
1FC
330
7
100
AcDbSymbolTableRecord
100
AcDbViewportTableRecord
  2
*Active
 70
     0
 10
0.0
 20
0.0
 11
1.0
 21
1.0
 12
386.5520197663534
 22
-157.3446507470642
 13
0.0
 23
0.0
 14
1.0
 24
1.0
 15
0.0
 25
0.0
 16
0.0
 26
0.0
 36
1.0
 17
0.0
 27
0.0
 37
0.0
 40
1125.746130743208
 41
1.975399753997539
 42
50.0
 43
0.0
 44
0.0
 50
0.0
 51
0.0
 71
     0
 72
  2000
 73
     1
 74
     1
 75
     0
 76
     0
 77
     0
 78
     0
281
     0
 65
     1
110
0.0
120
0.0
130
0.0
111
1.0
121
0.0
131
0.0
112
0.0
122
1.0
132
0.0
 79
     1
146
0.0
  0
ENDTAB
  0
TABLE
  2
LTYPE
  5
4
330
0
100
AcDbSymbolTable
 70
     6
  0
LTYPE
  5
11
330
4
100
AcDbSymbolTableRecord
100
AcDbLinetypeTableRecord
  2
BYBLOCK
 70
     0
  3

 72
    65
 73
     0
 40
0.0
  0
LTYPE
  5
12
330
4
100
AcDbSymbolTableRecord
100
AcDbLinetypeTableRecord
  2
BYLAYER
 70
     0
  3

 72
    65
 73
     0
 40
0.0
  0
LTYPE
  5
13
330
4
100
AcDbSymbolTableRecord
100
AcDbLinetypeTableRecord
  2
CONTINUOUS
 70
     0
  3
Solid line
 72
    65
 73
     0
 40
0.0
  0
LTYPE
  5
1E
330
4
100
AcDbSymbolTableRecord
100
AcDbLinetypeTableRecord
  2
HIDDEN
 70
     0
  3
Hidden __ __ __ __ __ __ __ __ __ __ __ __ __ __
 72
    65
 73
     2
 40
1.905
 49
1.27
 74
     0
 49
-0.635
 74
     0
  0
LTYPE
  5
1F
330
4
100
AcDbSymbolTableRecord
100
AcDbLinetypeTableRecord
  2
PHANTOM
 70
     0
  3
Phantom ______  __  __  ______  __  __  ______
 72
    65
 73
     6
 40
12.7
 49
6.349999999999999
 74
     0
 49
-1.27
 74
     0
 49
1.27
 74
     0
 49
-1.27
 74
     0
 49
1.27
 74
     0
 49
-1.27
 74
     0
  0
LTYPE
  5
20
330
4
100
AcDbSymbolTableRecord
100
AcDbLinetypeTableRecord
  2
CENTER
 70
     0
  3
Center ____ _ ____ _ ____ _ ____ _ ____ _ ____
 72
    65
 73
     4
 40
10.16
 49
6.349999999999999
 74
     0
 49
-1.27
 74
     0
 49
1.27
 74
     0
 49
-1.27
 74
     0
  0
LTYPE
  5
21
330
4
100
AcDbSymbolTableRecord
100
AcDbLinetypeTableRecord
  2
CENTERX2
 70
     0
  3
Center (2x) ________  __  ________  __  _____
 72
    65
 73
     4
 40
20.32
 49
12.7
 74
     0
 49
-2.54
 74
     0
 49
2.54
 74
     0
 49
-2.54
 74
     0
  0
LTYPE
  5
22
330
4
100
AcDbSymbolTableRecord
100
AcDbLinetypeTableRecord
  2
DOT2
 70
     0
  3
Dot (.5x) ........................................
 72
    65
 73
     2
 40
0.635
 49
0.0
 74
     0
 49
-0.635
 74
     0
  0
ENDTAB
  0
TABLE
  2
LAYER
  5
2
330
0
100
AcDbSymbolTable
 70
     2
  0
LAYER
  5
14
330
2
100
AcDbSymbolTableRecord
100
AcDbLayerTableRecord
  2
0
 70
     0
 62
     7
  6
CONTINUOUS
370
    -3
390
1DF
  0
LAYER
  5
26
330
2
100
AcDbSymbolTableRecord
100
AcDbLayerTableRecord
  2
DEFPOINTS
 70
     0
 62
     7
  6
CONTINUOUS
290
     0
370
    -3
390
1DF
  0
ENDTAB
  0
TABLE
  2
STYLE
  5
3
330
0
100
AcDbSymbolTable
 70
     1
  0
STYLE
  5
17
330
3
100
AcDbSymbolTableRecord
100
AcDbTextStyleTableRecord
  2
STANDARD
 70
     0
 40
0.0
 41
1.0
 50
0.0
 71
     0
 42
0.0
  3
txt
  4

  0
ENDTAB
  0
TABLE
  2
VIEW
  5
5
330
0
100
AcDbSymbolTable
 70
     0
  0
ENDTAB
  0
TABLE
  2
UCS
  5
6
330
0
100
AcDbSymbolTable
 70
     0
  0
ENDTAB
  0
TABLE
  2
APPID
  5
8
330
0
100
AcDbSymbolTable
 70
     2
  0
APPID
  5
16
330
8
100
AcDbSymbolTableRecord
100
AcDbRegAppTableRecord
  2
ACAD
 70
     0
  0
APPID
  5
1EC
330
8
100
AcDbSymbolTableRecord
100
AcDbRegAppTableRecord
  2
DCO15
 70
     0
  0
ENDTAB
  0
TABLE
  2
DIMSTYLE
  5
9
330
0
100
AcDbSymbolTable
 70
     1
100
AcDbDimStyleTable
 71
     0
  0
DIMSTYLE
105
18
330
9
100
AcDbSymbolTableRecord
100
AcDbDimStyleTableRecord
  2
STANDARD
 70
     0
289
     0
340
17
  0
ENDTAB
  0
TABLE
  2
BLOCK_RECORD
  5
1
330
0
100
AcDbSymbolTable
 70
     0
  0
BLOCK_RECORD
  5
A
330
1
100
AcDbSymbolTableRecord
100
AcDbBlockTableRecord
  2
*MODEL_SPACE
340
1E6
  0
BLOCK_RECORD
  5
B
330
1
100
AcDbSymbolTableRecord
100
AcDbBlockTableRecord
  2
*PAPER_SPACE
340
1E7
  0
ENDTAB
  0
ENDSEC
  0
SECTION
  2
BLOCKS
  0
BLOCK
  5
D
330
A
100
AcDbEntity
  8
0
100
AcDbBlockBegin
  2
*MODEL_SPACE
 70
     0
 10
0.0
 20
0.0
 30
0.0
  3
*MODEL_SPACE
  1

  0
ENDBLK
  5
E
330
A
100
AcDbEntity
  8
0
100
AcDbBlockEnd
  0
BLOCK
  5
F
330
B
100
AcDbEntity
 67
     1
  8
0
100
AcDbBlockBegin
  2
*PAPER_SPACE
 70
     0
 10
0.0
 20
0.0
 30
0.0
  3
*PAPER_SPACE
  1

  0
ENDBLK
  5
10
330
B
100
AcDbEntity
 67
     1
  8
0
100
AcDbBlockEnd
  0
ENDSEC
  0
SECTION
  2
ENTITIES
  0
ARC
  5
27
330
A
100
AcDbEntity
  8
0
  6
Continuous
 62
     7
100
AcDbCircle
 10
69.85000000000491
 20
391.4121836082946
 30
0.0
 40
9.999999999999944
100
AcDbArc
 50
0.0
 51
182.4855969179934
  0
LINE
  5
28
330
A
100
AcDbEntity
  8
0
  6
Continuous
 62
     7
100
AcDbLine
 10
59.85934464698527
 20
390.9799734450425
 30
0.0
 11
64.46662574045008
 21
284.5035222076722
 31
0.0
  0
LINE
  5
29
330
A
100
AcDbEntity
  8
0
  6
Continuous
 62
     7
100
AcDbLine
 10
75.23453418403684
 20
284.5303286124715
 30
0.0
 11
79.84065611427412
 21
390.9799910378815
 31
0.0
  0
LINE
  5
2A
330
A
100
AcDbEntity
  8
0
  6
Continuous
 62
     7
100
AcDbLine
 10
94.81538058017589
 20
146.8830407562489
 30
0.0
 11
92.35000000000393
 21
187.1916569356623
 31
0.0
  0
LINE
  5
2B
330
A
100
AcDbEntity
  8
0
  6
Continuous
 62
     7
100
AcDbLine
 10
47.35000000000535
 20
187.1916569356623
 30
0.0
 11
44.88461941983342
 21
146.8830407562489
 31
0.0
  0
LINE
  5
2C
330
A
100
AcDbEntity
  8
0
  6
Continuous
 62
     7
100
AcDbLine
 10
92.35000000000393
 20
187.1916569356623
 30
0.0
 11
84.84874600638415
 21
194.6929109292826
 31
0.0
  0
LINE
  5
2D
330
A
100
AcDbEntity
  8
0
  6
Continuous
 62
     7
100
AcDbLine
 10
54.85125399362517
 20
194.6929109292826
 30
0.0
 11
47.35000000000535
 21
187.1916569356623
 31
0.0
  0
LINE
  5
2E
330
A
100
AcDbEntity
  8
0
  6
Continuous
 62
     7
100
AcDbLine
 10
84.84844911553258
 20
256.1916569356624
 30
0.0
 11
89.85152563301147
 21
256.1916569356624
 31
0.0
  0
LINE
  5
2F
330
A
100
AcDbEntity
  8
0
  6
Continuous
 62
     7
100
AcDbLine
 10
89.85152563301145
 20
300.1916569356624
 30
0.0
 11
84.84844911553258
 21
300.1916569356624
 31
0.0
  0
LINE
  5
30
330
A
100
AcDbEntity
  8
0
  6
Continuous
 62
     7
100
AcDbLine
 10
59.85000000000463
 20
265.6916569356624
 30
0.0
 11
64.3421259842591
 21
265.6916569356624
 31
0.0
  0
LINE
  5
31
330
A
100
AcDbEntity
  8
0
  6
Continuous
 62
     7
100
AcDbLine
 10
75.3578740157502
 20
265.6916569356624
 30
0.0
 11
79.85000000000463
 21
265.6916569356624
 31
0.0
  0
LINE
  5
32
330
A
100
AcDbEntity
  8
0
  6
Continuous
 62
     7
100
AcDbLine
 10
79.85000000000463
 20
290.6916569356624
 30
0.0
 11
75.50113746733733
 21
290.6916569356624
 31
0.0
  0
LINE
  5
33
330
A
100
AcDbEntity
  8
0
  6
Continuous
 62
     7
100
AcDbLine
 10
64.19886253267259
 20
290.6916569356624
 30
0.0
 11
59.85000000000463
 21
290.6916569356624
 31
0.0
  0
LINE
  5
34
330
A
100
AcDbEntity
  8
0
  6
Continuous
 62
     7
100
AcDbLine
 10
64.27035741150516
 20
267.5145786836152
 30
0.0
 11
66.35000000000386
 21
214.6916569356703
 31
0.0
  0
LINE
  5
35
330
A
100
AcDbEntity
  8
0
  6
Continuous
 62
     7
100
AcDbLine
 10
73.3500000000036
 20
214.6916569356703
 30
0.0
 11
75.42964258850483
 21
267.5145786836327
 31
0.0
  0
ARC
  5
36
330
A
100
AcDbEntity
  8
0
  6
Continuous
 62
     7
100
AcDbCircle
 10
64.85000000000454
 20
196.1916569356622
 30
0.0
 40
1.500000000000014
100
AcDbArc
 50
270.0000000000008
 51
0.0
  0
ARC
  5
37
330
A
100
AcDbEntity
  8
0
  6
Continuous
 62
     7
100
AcDbCircle
 10
74.85000000000477
 20
196.1916569356622
 30
0.0
 40
1.500000000000014
100
AcDbArc
 50
180.0000000000004
 51
270.0000000000008
  0
LINE
  5
38
330
A
100
AcDbEntity
  8
0
  6
Continuous
 62
     7
100
AcDbLine
 10
66.35000000000386
 20
214.6916569356703
 30
0.0
 11
66.35000000000456
 21
196.1916569356622
 31
0.0
  0
LINE
  5
39
330
A
100
AcDbEntity
  8
0
  6
Continuous
 62
     7
100
AcDbLine
 10
73.35000000000471
 20
196.1916569356622
 30
0.0
 11
73.3500000000036
 21
214.6916569356703
 31
0.0
  0
LINE
  5
3A
330
A
100
AcDbEntity
  8
0
  6
Continuous
 62
     7
100
AcDbLine
 10
79.85000000000467
 20
273.1916569356625
 30
0.0
 11
84.85346561710651
 21
273.1916569356625
 31
0.0
  0
LINE
  5
3B
330
A
100
AcDbEntity
  8
0
  6
Continuous
 62
     7
100
AcDbLine
 10
84.85346561710651
 20
283.1916569356623
 30
0.0
 11
79.85000000000467
 21
283.1916569356623
 31
0.0
  0
LINE
  5
3C
330
A
100
AcDbEntity
  8
0
  6
Continuous
 62
     7
100
AcDbLine
 10
-50.14999999999954
 20
-23.11695924375112
 30
0.0
 11
-49.17886572009032
 21
-23.3554927013297
 31
0.0
  0
LINE
  5
3D
330
A
100
AcDbEntity
  8
0
  6
Continuous
 62
     7
100
AcDbLine
 10
188.8788657200903
 20
-23.3554927013297
 30
0.0
 11
189.8499999999998
 21
-23.11695924375112
 31
0.0
  0
LINE
  5
3E
330
A
100
AcDbEntity
  8
0
  6
Continuous
 62
     7
100
AcDbLine
 10
189.8499999999998
 20
-23.11695924375112
 30
0.0
 11
148.0939950609795
 21
146.8830407562489
 31
0.0
  0
LINE
  5
3F
330
A
100
AcDbEntity
  8
0
  6
Continuous
 62
     7
100
AcDbLine
 10
-8.393995060979541
 20
146.8830407562489
 30
0.0
 11
-50.14999999999954
 21
-23.11695924375112
 31
0.0
  0
LWPOLYLINE
  5
40
330
A
100
AcDbEntity
  8
0
  6
Continuous
 62
     7
100
AcDbPolyline
 90
       10
 70
   128
 43
0.0
 10
69.85000000000494
 20
385.9618198795765
 10
67.44792665191283
 20
386.0506980606989
 10
65.46196267357125
 20
386.3851445647275
 10
62.78086051192419
 20
387.3469301552734
 10
61.49452166699926
 20
388.1701800789238
 10
60.57585718904451
 20
389.1013974884465
 10
60.03297720072279
 20
390.0948359392657
 10
59.90014417246624
 20
390.6014668242919
 10
59.86739465485222
 20
390.85508043143
 10
59.85947596949504
 20
390.9784988012257
  0
LWPOLYLINE
  5
4C
330
A
100
AcDbEntity
  8
0
  6
Continuous
 62
     7
100
AcDbPolyline
 90
       11
 70
   128
 43
0.0
 10
79.82120695598339
 20
390.9804758121333
 10
79.66706532622923
 20
390.0949559059248
 10
79.1242558408812
 20
389.1015484760952
 10
78.20560321847327
 20
388.1702819314398
 10
77.81669637605562
 20
387.8815207054377
 10
77.3875305398445
 20
387.6064858037623
 10
76.91913948808566
 20
387.3469301552734
 10
75.78279640144589
 20
386.8486783944538
 10
74.23830523687669
 20
386.385206981399
 10
72.25229053813951
 20
386.050720684786
 10
69.85000000000494
 20
385.9618198795765
  0
LWPOLYLINE
  5
59
330
A
100
AcDbEntity
  8
0
  6
Continuous
 62
     7
100
AcDbPolyline
 90
        5
 70
   128
 43
0.0
 10
68.43423481665784
 20
278.1916569356634
 10
66.85259415575524
 20
279.3981232470023
 10
65.32194568070041
 20
281.5788498584561
 10
64.51707087340396
 20
283.9914343399248
 10
64.5258491002071
 20
284.5042592956604
  0
LWPOLYLINE
  5
60
330
A
100
AcDbEntity
  8
0
  6
Continuous
 62
     7
100
AcDbPolyline
 90
       10
 70
   128
 43
0.0
 10
75.22576221001097
 20
284.5300619281169
 10
75.23173651263448
 20
284.4742233105419
 10
74.90842572779538
 20
282.8432122251419
 10
74.03006977800896
 20
280.9556859938032
 10
72.38784517202251
 20
278.9560786470919
 10
71.26576518335162
 20
278.1916569356631
 10
70.22727235731088
 20
277.8697676571005
 10
69.85000000000481
 20
277.8450769713248
 10
68.78199672617306
 20
278.0425669496218
 10
68.43423481665784
 20
278.1916569356634
  0
LINE
  5
6C
330
A
100
AcDbEntity
  8
0
  6
Continuous
 62
     7
100
AcDbLine
 10
47.35000000000535
 20
187.1916569356623
 30
0.0
 11
92.35000000000393
 21
187.1916569356623
 31
0.0
  0
LINE
  5
6D
330
A
100
AcDbEntity
  8
0
  6
Continuous
 62
     7
100
AcDbLine
 10
54.85000000000475
 20
194.6916569356622
 30
0.0
 11
84.85000000000455
 21
194.6916569356622
 31
0.0
  0
LINE
  5
6E
330
A
100
AcDbEntity
  8
0
  6
Continuous
 62
     7
100
AcDbLine
 10
89.85000000000464
 20
256.1916569356624
 30
0.0
 11
89.8500000000047
 21
278.1916569356624
 31
0.0
  0
LINE
  5
6F
330
A
100
AcDbEntity
  8
0
  6
Continuous
 62
     7
100
AcDbLine
 10
89.8500000000047
 20
278.1916569356624
 30
0.0
 11
89.85000000000464
 21
300.1916569356624
 31
0.0
  0
LINE
  5
70
330
A
100
AcDbEntity
  8
0
  6
Continuous
 62
     7
100
AcDbLine
 10
84.8500000000047
 20
278.1916569356624
 30
0.0
 11
84.85000000000463
 21
256.1916569356624
 31
0.0
  0
LINE
  5
71
330
A
100
AcDbEntity
  8
0
  6
Continuous
 62
     7
100
AcDbLine
 10
84.85000000000463
 20
300.1916569356624
 30
0.0
 11
84.8500000000047
 21
278.1916569356624
 31
0.0
  0
LWPOLYLINE
  5
72
330
A
100
AcDbEntity
  8
0
  6
Continuous
 62
     7
100
AcDbPolyline
 90
       19
 70
   128
 43
0.0
 10
64.27035741149194
 20
267.5145786836113
 10
64.62963947423975
 20
269.1650603973386
 10
65.93598401038978
 20
271.7407609237629
 10
67.17368534203472
 20
273.7248402877821
 10
68.55986214862723
 20
275.7624521096929
 10
69.08799174498309
 20
276.4924055715293
 10
69.57682342796257
 20
277.0699677886234
 10
69.67966865903811
 20
277.1507373508569
 10
69.80084454111126
 20
277.2038229101237
 10
69.883869178111
 20
277.2064979113498
 10
69.96308872855157
 20
277.1824749821815
 10
70.09887536720583
 20
277.0913628417811
 10
70.58360323041776
 20
276.5300013252578
 10
72.24236596478549
 20
274.1496317928511
 10
73.50752042045122
 20
272.171431098174
 10
74.56236839660945
 20
270.2917409554036
 10
75.32716360750045
 20
268.3670299403975
 10
75.42964258850436
 20
267.5145786836207
 10
75.4296425885077
 20
267.5145786836301
  0
LINE
  5
87
330
A
100
AcDbEntity
  8
0
  6
Continuous
 62
     7
100
AcDbLine
 10
79.85000000000467
 20
278.1916569356624
 30
0.0
 11
79.85000000000463
 21
290.6916569356624
 31
0.0
  0
LINE
  5
88
330
A
100
AcDbEntity
  8
0
  6
Continuous
 62
     7
100
AcDbLine
 10
79.85000000000463
 20
265.6916569356624
 30
0.0
 11
79.85000000000467
 21
278.1916569356624
 31
0.0
  0
LINE
  5
89
330
A
100
AcDbEntity
  8
0
  6
Continuous
 62
     7
100
AcDbLine
 10
59.85000000000468
 20
278.1916569356624
 30
0.0
 11
59.85000000000463
 21
265.6916569356624
 31
0.0
  0
LINE
  5
8A
330
A
100
AcDbEntity
  8
0
  6
Continuous
 62
     7
100
AcDbLine
 10
59.85000000000463
 20
290.6916569356624
 30
0.0
 11
59.85000000000468
 21
278.1916569356624
 31
0.0
  0
LINE
  5
8B
330
A
100
AcDbEntity
  8
0
  6
Continuous
 62
     7
100
AcDbLine
 10
66.35000000000386
 20
214.6916569356703
 30
0.0
 11
73.3500000000036
 21
214.6916569356703
 31
0.0
  0
ARC
  5
8C
330
A
100
AcDbEntity
  8
0
  6
Continuous
 62
     7
100
AcDbCircle
 10
69.84999999999999
 20
274.1330407562489
 30
0.0
 40
55.0
100
AcDbArc
 50
273.8361711396997
 51
0.0
  0
ARC
  5
8D
330
A
100
AcDbEntity
  8
0
  6
Continuous
 62
     7
100
AcDbCircle
 10
69.84999999999999
 20
274.1330407562489
 30
0.0
 40
55.0
100
AcDbArc
 50
97.62038193998337
 51
266.1638288603116
  0
ARC
  5
8E
330
A
100
AcDbEntity
  8
0
  6
Continuous
 62
     7
100
AcDbCircle
 10
69.84999999999999
 20
274.1330407562489
 30
0.0
 40
55.0
100
AcDbArc
 50
0.0
 51
82.3796180600063
  0
LINE
  5
8F
330
A
100
AcDbEntity
  8
0
  6
Continuous
 62
     7
100
AcDbLine
 10
69.84999999999999
 20
-23.11695924375112
 30
0.0
 11
189.8499999999998
 21
-23.11695924375112
 31
0.0
  0
LINE
  5
90
330
A
100
AcDbEntity
  8
0
  6
Continuous
 62
     7
100
AcDbLine
 10
-50.14999999999954
 20
-23.11695924375112
 30
0.0
 11
69.84999999999999
 21
-23.11695924375112
 31
0.0
  0
LINE
  5
91
330
A
100
AcDbEntity
  8
0
  6
Continuous
 62
     7
100
AcDbLine
 10
69.84999999999999
 20
-23.3554927013297
 30
0.0
 11
188.8788657200903
 21
-23.3554927013297
 31
0.0
  0
LINE
  5
92
330
A
100
AcDbEntity
  8
0
  6
Continuous
 62
     7
100
AcDbLine
 10
-49.17886572009032
 20
-23.3554927013297
 30
0.0
 11
69.84999999999999
 21
-23.3554927013297
 31
0.0
  0
LINE
  5
93
330
A
100
AcDbEntity
  8
0
  6
Continuous
 62
     7
100
AcDbLine
 10
69.84999999999999
 20
146.8830407562489
 30
0.0
 11
148.0939950609795
 21
146.8830407562489
 31
0.0
  0
LINE
  5
94
330
A
100
AcDbEntity
  8
0
  6
Continuous
 62
     7
100
AcDbLine
 10
-8.393995060979541
 20
146.8830407562489
 30
0.0
 11
69.84999999999999
 21
146.8830407562489
 31
0.0
  0
LINE
  5
95
330
A
100
AcDbEntity
  8
0
  6
PHANTOM
 62
     7
100
AcDbLine
 10
66.35000000000456
 20
196.1916569356622
 30
0.0
 11
73.35000000000471
 21
196.1916569356622
 31
0.0
  0
ARC
  5
96
330
A
100
AcDbEntity
  8
0
  6
PHANTOM
 62
     7
100
AcDbCircle
 10
69.84999999999999
 20
274.1330407562489
 30
0.0
 40
53.00000000000004
100
AcDbArc
 50
0.0
 51
82.18500038810232
  0
ARC
  5
97
330
A
100
AcDbEntity
  8
0
  6
PHANTOM
 62
     7
100
AcDbCircle
 10
69.84999999999999
 20
274.1330407562489
 30
0.0
 40
52.99999999999999
100
AcDbArc
 50
97.81499961188695
 51
265.9330694808665
  0
ARC
  5
98
330
A
100
AcDbEntity
  8
0
  6
PHANTOM
 62
     7
100
AcDbCircle
 10
69.84999999999999
 20
274.1330407562489
 30
0.0
 40
52.99999999999998
100
AcDbArc
 50
274.0669305191453
 51
0.0
  0
ARC
  5
99
330
A
100
AcDbEntity
  8
0
  6
Continuous
 62
     7
100
AcDbCircle
 10
69.85000000000491
 20
-669.5359852130324
 30
0.0
 40
10.0
100
AcDbArc
 50
175.9756766650663
 51
270.0000000000011
  0
ARC
  5
9A
330
A
100
AcDbEntity
  8
0
  6
Continuous
 62
     7
100
AcDbCircle
 10
69.85000000000491
 20
-669.5359852130324
 30
0.0
 40
10.0
100
AcDbArc
 50
270.0000000000011
 51
3.830288618577045
  0
LINE
  5
9B
330
A
100
AcDbEntity
  8
0
  6
Continuous
 62
     7
100
AcDbLine
 10
79.82776730583579
 20
-668.8695317738294
 30
0.0
 11
75.23405508169833
 21
-600.0151148415948
 31
0.0
  0
LINE
  5
9C
330
A
100
AcDbEntity
  8
0
  6
Continuous
 62
     7
100
AcDbLine
 10
64.46631126698673
 20
-600.0096236999667
 30
0.0
 11
59.87218425888586
 21
-668.8702577626075
 31
0.0
  0
LINE
  5
9D
330
A
100
AcDbEntity
  8
0
  6
Continuous
 62
     7
100
AcDbLine
 10
84.84844911553265
 20
-611.5097154860036
 30
0.0
 11
89.85152563301154
 21
-611.5097154860036
 31
0.0
  0
LINE
  5
9E
330
A
100
AcDbEntity
  8
0
  6
Continuous
 62
     7
100
AcDbLine
 10
89.85152563301138
 20
-567.5097154860036
 30
0.0
 11
84.84844911553251
 21
-567.5097154860036
 31
0.0
  0
LINE
  5
9F
330
A
100
AcDbEntity
  8
0
  6
Continuous
 62
     7
100
AcDbLine
 10
75.36712746500687
 20
-602.0097154860035
 30
0.0
 11
79.85000000000467
 21
-602.0097154860035
 31
0.0
  0
LINE
  5
A0
330
A
100
AcDbEntity
  8
0
  6
Continuous
 62
     7
100
AcDbLine
 10
59.85000000000468
 20
-602.0097154860035
 30
0.0
 11
64.33287253500305
 21
-602.0097154860035
 31
0.0
  0
LINE
  5
A1
330
A
100
AcDbEntity
  8
0
  6
Continuous
 62
     7
100
AcDbLine
 10
64.35000000000461
 20
-577.0097154860036
 30
0.0
 11
59.85000000000458
 21
-577.0097154860036
 31
0.0
  0
LINE
  5
A2
330
A
100
AcDbEntity
  8
0
  6
Continuous
 62
     7
100
AcDbLine
 10
79.85000000000458
 20
-577.0097154860036
 30
0.0
 11
75.35000000000458
 21
-577.0097154860036
 31
0.0
  0
LINE
  5
A3
330
A
100
AcDbEntity
  8
0
  6
Continuous
 62
     7
100
AcDbLine
 10
64.35000000000447
 20
-546.0991327135113
 30
0.0
 11
64.35000000000458
 21
-577.0097154860036
 31
0.0
  0
LINE
  5
A4
330
A
100
AcDbEntity
  8
0
  6
Continuous
 62
     7
100
AcDbLine
 10
75.3500000000046
 20
-577.0097154860036
 30
0.0
 11
75.35000000000448
 21
-546.0991327135113
 31
0.0
  0
LINE
  5
A5
330
A
100
AcDbEntity
  8
0
  6
Continuous
 62
     7
100
AcDbLine
 10
79.85000000000465
 20
-594.5097154860035
 30
0.0
 11
84.85346561710652
 21
-594.5097154860035
 31
0.0
  0
LINE
  5
A6
330
A
100
AcDbEntity
  8
0
  6
Continuous
 62
     7
100
AcDbLine
 10
84.85346561710649
 20
-584.5097154860037
 30
0.0
 11
79.85000000000461
 21
-584.5097154860037
 31
0.0
  0
LINE
  5
A7
330
A
100
AcDbEntity
  8
0
  6
Continuous
 62
     7
100
AcDbLine
 10
14.85000000000007
 20
-291.0991327135114
 30
0.0
 11
14.84999999999999
 21
-304.0991327135115
 31
0.0
  0
LINE
  5
A8
330
A
100
AcDbEntity
  8
0
  6
Continuous
 62
     7
100
AcDbLine
 10
124.85
 20
-304.0991327135115
 30
0.0
 11
124.85
 21
-291.0991327135114
 31
0.0
  0
ARC
  5
A9
330
A
100
AcDbEntity
  8
0
  6
Continuous
 62
     7
100
AcDbCircle
 10
122.85
 20
-304.0991327135115
 30
0.0
 40
2.000000000000014
100
AcDbArc
 50
270.0000000000008
 51
0.0
  0
ARC
  5
AA
330
A
100
AcDbEntity
  8
0
  6
Continuous
 62
     7
100
AcDbCircle
 10
16.85
 20
-304.0991327135115
 30
0.0
 40
2.000000000000003
100
AcDbArc
 50
180.0000000000004
 51
270.0000000000008
  0
LINE
  5
AB
330
A
100
AcDbEntity
  8
0
  6
Continuous
 62
     7
100
AcDbLine
 10
62.85
 20
-306.0991327135115
 30
0.0
 11
62.85
 21
-546.0991327135113
 31
0.0
  0
LINE
  5
AC
330
A
100
AcDbEntity
  8
0
  6
Continuous
 62
     7
100
AcDbLine
 10
76.84999999999999
 20
-546.0991327135113
 30
0.0
 11
76.84999999999999
 21
-306.0991327135115
 31
0.0
  0
LINE
  5
AD
330
A
100
AcDbEntity
  8
0
  6
Continuous
 62
     7
100
AcDbLine
 10
107.6171695627544
 20
-528.68447617275
 30
0.0
 11
85.97662006418174
 21
-566.1670074079878
 31
0.0
  0
LINE
  5
AE
330
A
100
AcDbEntity
  8
0
  6
Continuous
 62
     7
100
AcDbLine
 10
87.70872671232352
 20
-567.1669106892784
 30
0.0
 11
109.3492203703233
 21
-529.6844761727499
 31
0.0
  0
LINE
  5
AF
330
A
100
AcDbEntity
  8
0
  6
Continuous
 62
     7
100
AcDbLine
 10
-7.416389933078971
 20
-597.099132713511
 30
0.0
 11
35.86381667561972
 21
-597.0991327135108
 31
0.0
  0
LINE
  5
B0
330
A
100
AcDbEntity
  8
0
  6
Continuous
 62
     7
100
AcDbLine
 10
35.86428659794197
 20
-595.0991327135109
 30
0.0
 11
-7.416389933078971
 21
-595.099132713511
 31
0.0
  0
LINE
  5
B1
330
A
100
AcDbEntity
  8
0
  6
Continuous
 62
     7
100
AcDbLine
 10
109.3492203703242
 20
-662.5137892542714
 30
0.0
 11
87.70905859869685
 21
-625.0319295818034
 31
0.0
  0
LINE
  5
B2
330
A
100
AcDbEntity
  8
0
  6
Continuous
 62
     7
100
AcDbLine
 10
85.97686415404858
 20
-626.0316807950841
 30
0.0
 11
107.6171695627553
 21
-663.5137892542715
 31
0.0
  0
LWPOLYLINE
  5
B3
330
A
100
AcDbEntity
  8
0
  6
Continuous
 62
     7
100
AcDbPolyline
 90
        7
 70
   128
 43
0.0
 10
59.87833832480074
 20
-668.8366093391372
 10
59.95872549735497
 20
-668.1432354144604
 10
60.86279757869462
 20
-665.6733546263049
 10
62.01540379822946
 20
-664.135542419873
 10
63.86359260928322
 20
-662.6275077676977
 10
66.4989837411842
 20
-661.4425717278865
 10
69.85000000000488
 20
-660.9573306872733
  0
LWPOLYLINE
  5
BC
330
A
100
AcDbEntity
  8
0
  6
Continuous
 62
     7
100
AcDbPolyline
 90
        9
 70
   128
 43
0.0
 10
69.85000000000488
 20
-660.9573306872733
 10
71.79962059066882
 20
-661.1183729376863
 10
73.67431835539337
 20
-661.5953109255565
 10
75.40204971042277
 20
-662.3698161914794
 10
76.91641890870617
 20
-663.4121249324331
 10
78.15922959122154
 20
-664.6821818080366
 10
79.08272124041608
 20
-666.1311792448162
 10
79.65140459011135
 20
-667.7034330838837
 10
79.78838709796349
 20
-668.8698617643884
  0
LWPOLYLINE
  5
C7
330
A
100
AcDbEntity
  8
0
  6
Continuous
 62
     7
100
AcDbPolyline
 90
       12
 70
   128
 43
0.0
 10
64.53270688971172
 20
-600.0127723288947
 10
64.54441760961703
 20
-599.5858664498244
 10
65.16970827082076
 20
-598.429914931544
 10
66.24934387263514
 20
-597.4376406138119
 10
67.69578486693288
 20
-596.7013772682864
 10
69.42627238948663
 20
-596.346200137322
 10
69.85000000000465
 20
-596.3323409838481
 10
71.64256577720917
 20
-596.5853353502977
 10
73.23334220770885
 20
-597.2942032054699
 10
74.42277498129747
 20
-598.3010653884262
 10
75.08097797899683
 20
-599.363085000384
 10
75.18499686317321
 20
-600.020682002117
  0
LINE
  5
D5
330
A
100
AcDbEntity
  8
0
  6
Continuous
 62
     7
100
AcDbLine
 10
89.8500000000047
 20
-611.5097154860036
 30
0.0
 11
89.85000000000455
 21
-567.5097154860036
 31
0.0
  0
LINE
  5
D6
330
A
100
AcDbEntity
  8
0
  6
Continuous
 62
     7
100
AcDbLine
 10
84.85000000000454
 20
-567.5097154860036
 30
0.0
 11
84.8500000000047
 21
-611.5097154860036
 31
0.0
  0
LINE
  5
D7
330
A
100
AcDbEntity
  8
0
  6
Continuous
 62
     7
100
AcDbLine
 10
59.85000000000458
 20
-577.0097154860036
 30
0.0
 11
59.85000000000468
 21
-602.0097154860035
 31
0.0
  0
LWPOLYLINE
  5
D8
330
A
100
AcDbEntity
  8
0
  6
Continuous
 62
     7
100
AcDbPolyline
 90
       12
 70
   128
 43
0.0
 10
75.3500000000046
 20
-577.0097154860036
 10
75.07168152757898
 20
-577.1296525630855
 10
74.28131288475771
 20
-577.4417192197389
 10
72.99871868710845
 20
-577.8514810840662
 10
71.26703703233847
 20
-578.1956537064742
 10
69.43887683774422
 20
-578.2772169992666
 10
67.81250117715439
 20
-578.1013237740613
 10
66.36374319932788
 20
-577.7558230890032
 10
65.15839726900165
 20
-577.3437327396098
 10
64.45943877143403
 20
-577.0574807323953
 10
64.35000000000458
 20
-577.0097154860036
 10
64.3500000000046
 20
-577.0097154860036
  0
LINE
  5
E6
330
A
100
AcDbEntity
  8
0
  6
Continuous
 62
     7
100
AcDbLine
 10
79.85000000000467
 20
-602.0097154860035
 30
0.0
 11
79.85000000000458
 21
-577.0097154860036
 31
0.0
  0
LINE
  5
E7
330
A
100
AcDbEntity
  8
0
  6
Continuous
 62
     7
100
AcDbLine
 10
84.85000000000455
 20
-596.0097154860036
 30
0.0
 11
84.70226289496878
 21
-594.5097154860034
 31
0.0
  0
LWPOLYLINE
  5
E8
330
A
100
AcDbEntity
  8
0
  6
Continuous
 62
     7
100
AcDbPolyline
 90
        6
 70
   128
 43
0.0
 10
59.85000000000461
 20
-584.9052886039281
 10
59.24339828220647
 20
-585.4031137682055
 10
57.37795581546652
 20
-587.6761619907097
 10
55.99180701233542
 20
-590.2694640005273
 10
55.13822079395628
 20
-593.0833606557618
 10
54.85000000000475
 20
-596.0097154860036
  0
LWPOLYLINE
  5
F0
330
A
100
AcDbEntity
  8
0
  6
Continuous
 62
     7
100
AcDbPolyline
 90
        7
 70
   128
 43
0.0
 10
54.85000000000475
 20
-596.0097154860036
 10
55.1382207939563
 20
-598.9360703162454
 10
55.99180701233546
 20
-601.7499669714799
 10
57.37795581546659
 20
-604.3432689812976
 10
59.24339828220656
 20
-606.6163172038018
 10
61.51644650471072
 20
-608.4817596705416
 10
63.81897220132343
 20
-609.712485296194
  0
LWPOLYLINE
  5
F9
330
A
100
AcDbEntity
  8
0
  6
Continuous
 62
     7
100
AcDbPolyline
 90
        7
 70
   128
 43
0.0
 10
75.88102779868646
 20
-609.7124852961938
 10
78.18355349529868
 20
-608.4817596705416
 10
80.45660171780284
 20
-606.6163172038018
 10
82.32204418454278
 20
-604.3432689812976
 10
83.70819298767388
 20
-601.7499669714799
 10
84.56177920605304
 20
-598.9360703162454
 10
84.85000000000455
 20
-596.0097154860036
  0
ARC
  5
102
330
A
100
AcDbEntity
  8
0
  6
Continuous
 62
     7
100
AcDbCircle
 10
69.85000000000465
 20
-596.0097154860036
 30
0.0
 40
22.49999999999934
100
AcDbArc
 50
180.0000000000004
 51
253.0678625776801
  0
ARC
  5
103
330
A
100
AcDbEntity
  8
0
  6
Continuous
 62
     7
100
AcDbCircle
 10
69.85000000000465
 20
-596.0097154860036
 30
0.0
 40
22.49999999999933
100
AcDbArc
 50
286.932137422323
 51
316.4577809718433
  0
ARC
  5
104
330
A
100
AcDbEntity
  8
0
  6
Continuous
 62
     7
100
AcDbCircle
 10
69.85000000000465
 20
-596.0097154860036
 30
0.0
 40
22.49999999999934
100
AcDbArc
 50
333.4180739547938
 51
26.40288874490454
  0
ARC
  5
105
330
A
100
AcDbEntity
  8
0
  6
Continuous
 62
     7
100
AcDbCircle
 10
69.85000000000465
 20
-596.0097154860036
 30
0.0
 40
22.4999999999993
100
AcDbArc
 50
48.10782170243681
 51
75.8509954910651
  0
ARC
  5
106
330
A
100
AcDbEntity
  8
0
  6
Continuous
 62
     7
100
AcDbCircle
 10
69.85000000000465
 20
-596.0097154860036
 30
0.0
 40
22.4999999999993
100
AcDbArc
 50
104.1490045089353
 51
180.0000000000004
  0
LINE
  5
107
330
A
100
AcDbEntity
  8
0
  6
Continuous
 62
     7
100
AcDbLine
 10
124.85
 20
-291.0991327135114
 30
0.0
 11
14.85000000000007
 21
-291.0991327135114
 31
0.0
  0
LINE
  5
108
330
A
100
AcDbEntity
  8
0
  6
Continuous
 62
     7
100
AcDbLine
 10
122.85
 20
-306.0991327135115
 30
0.0
 11
16.85000002017094
 21
-306.0991327135115
 31
0.0
  0
LINE
  5
109
330
A
100
AcDbEntity
  8
0
  6
Continuous
 62
     7
100
AcDbLine
 10
76.84999999999999
 20
-546.0991327135113
 30
0.0
 11
62.85
 21
-546.0991327135113
 31
0.0
  0
ARC
  5
10A
330
A
100
AcDbEntity
  8
0
  6
Continuous
 62
     7
100
AcDbCircle
 10
69.84999999999999
 20
-596.099132713511
 30
0.0
 40
78.24399506097961
100
AcDbArc
 50
276.6316465843473
 51
84.8672431106117
  0
ARC
  5
10B
330
A
100
AcDbEntity
  8
0
  6
Continuous
 62
     7
100
AcDbCircle
 10
69.84999999999999
 20
-596.099132713511
 30
0.0
 40
78.24399506097961
100
AcDbArc
 50
95.13275688938831
 51
263.3683534156621
  0
ARC
  5
10C
330
A
100
AcDbEntity
  8
0
  6
Continuous
 62
     7
100
AcDbCircle
 10
69.84999999999999
 20
-596.0991327135103
 30
0.0
 40
120.0
100
AcDbArc
 50
270.0000000000008
 51
86.65584779554434
  0
ARC
  5
10D
330
A
100
AcDbEntity
  8
0
  6
Continuous
 62
     7
100
AcDbCircle
 10
69.84999999999999
 20
-596.0991327135103
 30
0.0
 40
120.0
100
AcDbArc
 50
93.34415220445567
 51
270.0000000000008
  0
ARC
  5
10E
330
A
100
AcDbEntity
  8
0
  6
Continuous
 62
     7
100
AcDbCircle
 10
69.84999999999999
 20
-596.099132713511
 30
0.0
 40
77.27286078106998
100
AcDbArc
 50
277.0284712850976
 51
84.80256027530383
  0
ARC
  5
10F
330
A
100
AcDbEntity
  8
0
  6
Continuous
 62
     7
100
AcDbCircle
 10
69.84999999999999
 20
-596.099132713511
 30
0.0
 40
77.27286078106998
100
AcDbArc
 50
95.19743972469616
 51
262.9715287149117
  0
LWPOLYLINE
  5
110
330
A
100
AcDbEntity
  8
0
  6
Continuous
 62
     7
100
AcDbPolyline
 90
        7
 70
   128
 43
0.0
 10
107.7632864564122
 20
-528.7665423625918
 10
107.8436555181343
 20
-528.8977479301886
 10
108.0743015236505
 20
-529.1401789358916
 10
108.3835690147162
 20
-529.3570333830594
 10
108.7260042204199
 20
-529.516439663303
 10
109.0512786327817
 20
-529.5949694605099
 10
109.2050905182997
 20
-529.5989683258411
  0
LWPOLYLINE
  5
119
330
A
100
AcDbEntity
  8
0
  6
Continuous
 62
     7
100
AcDbPolyline
 90
        7
 70
   128
 43
0.0
 10
-7.418376974717755
 20
-595.2667067502546
 10
-7.344934150917318
 20
-595.4019111831895
 10
-7.250305744071663
 20
-595.7228719860995
 10
-7.217138029433578
 20
-596.099132713511
 10
-7.250305744071678
 20
-596.4753934409225
 10
-7.344934150917331
 20
-596.7963542438325
 10
-7.41837697471781
 20
-596.9315586767674
  0
LWPOLYLINE
  5
122
330
A
100
AcDbEntity
  8
0
  6
Continuous
 62
     7
100
AcDbPolyline
 90
        7
 70
   128
 43
0.0
 10
109.2050905183007
 20
-662.5992971011802
 10
109.0512786327827
 20
-662.6032959665113
 10
108.7260042204208
 20
-662.6818257637183
 10
108.383569014717
 20
-662.841232043962
 10
108.0743015236514
 20
-663.0580864911299
 10
107.8436555181351
 20
-663.3005174968328
 10
107.763286456413
 20
-663.4317230644297
  0
ARC
  5
12B
330
A
100
AcDbEntity
  8
0
  6
Continuous
 62
     7
100
AcDbCircle
 10
69.84999999999999
 20
-596.099132713511
 30
0.0
 40
34.00000000000008
100
AcDbArc
 50
282.4633189805307
 51
53.77422149788197
  0
ARC
  5
12C
330
A
100
AcDbEntity
  8
0
  6
Continuous
 62
     7
100
AcDbCircle
 10
69.84999999999999
 20
-596.099132713511
 30
0.0
 40
34.00000000000009
100
AcDbArc
 50
57.23159701814004
 51
80.69065907835518
  0
ARC
  5
12D
330
A
100
AcDbEntity
  8
0
  6
Continuous
 62
     7
100
AcDbCircle
 10
69.84999999999999
 20
-596.099132713511
 30
0.0
 40
34.00000000000007
100
AcDbArc
 50
99.30934092162933
 51
257.5366810194877
  0
LWPOLYLINE
  5
12E
330
A
100
AcDbEntity
  8
0
  6
PHANTOM
 62
     7
100
AcDbPolyline
 90
        9
 70
   128
 43
0.0
 10
59.13163685572333
 20
-596.0097154860036
 10
59.1435846238698
 20
-596.5166014619859
 10
59.1793512637714
 20
-597.0223679921954
 10
59.23885859950321
 20
-597.5259030335368
 10
59.27861421333123
 20
-597.781974792981
 10
59.45328290589269
 20
-598.6163894255555
 10
59.51704165221939
 20
-598.8582500434514
 10
59.5603713814946
 20
-599.0108571664027
 10
59.85000000000466
 20
-599.7493540296975
  0
LWPOLYLINE
  5
139
330
A
100
AcDbEntity
  8
0
  6
PHANTOM
 62
     7
100
AcDbPolyline
 90
        4
 70
   128
 43
0.0
 10
61.0089447142627
 20
-602.0097154860033
 10
61.27530948457962
 20
-602.4407333725723
 10
62.80836788663947
 20
-604.090616431456
 10
64.13300458359589
 20
-605.0055042046061
  0
LWPOLYLINE
  5
13F
330
A
100
AcDbEntity
  8
0
  6
PHANTOM
 62
     7
100
AcDbPolyline
 90
        6
 70
   128
 43
0.0
 10
75.57138298951324
 20
-605.0712688352046
 10
75.61316382873432
 20
-605.0470148537621
 10
76.10580738170039
 20
-604.7133035078372
 10
76.87973524537998
 20
-604.1010981492292
 10
77.85986303939607
 20
-603.1321569905149
 10
78.70285989773062
 20
-602.0097154860033
  0
LWPOLYLINE
  5
147
330
A
100
AcDbEntity
  8
0
  6
PHANTOM
 62
     7
100
AcDbPolyline
 90
        8
 70
   128
 43
0.0
 10
79.85000000000467
 20
-599.8340649133215
 10
80.04776177080696
 20
-599.3096146217328
 10
80.09835080510027
 20
-599.1489577980152
 10
80.13506314892095
 20
-599.0264726001063
 10
80.32495047642672
 20
-598.2815302441744
 10
80.45750292771165
 20
-597.5508758841056
 10
80.54228948730681
 20
-596.7607643132676
 10
80.56836314428599
 20
-596.0097154860036
  0
LWPOLYLINE
  5
151
330
A
100
AcDbEntity
  8
0
  6
PHANTOM
 62
     7
100
AcDbPolyline
 90
        4
 70
   128
 43
0.0
 10
80.56836314428599
 20
-596.0097154860036
 10
80.55641535710895
 20
-595.502829510817
 10
80.5206487172545
 20
-594.9970629817554
 10
80.46305443017153
 20
-594.5097154860034
  0
LWPOLYLINE
  5
157
330
A
100
AcDbEntity
  8
0
  6
PHANTOM
 62
     7
100
AcDbPolyline
 90
        8
 70
   128
 43
0.0
 10
59.85000000000464
 20
-592.1853660669859
 10
59.65223837141197
 20
-592.7098159107036
 10
59.60164926527888
 20
-592.8704729442414
 10
59.56493685109852
 20
-592.9929583718839
 10
59.37504952357008
 20
-593.7379007275615
 10
59.2424970725251
 20
-594.4685550858471
 10
59.15771058392238
 20
-595.2586656370588
 10
59.13163685572333
 20
-596.0097154860036
  0
ARC
  5
161
330
A
100
AcDbEntity
  8
0
  6
PHANTOM
 62
     7
100
AcDbCircle
 10
69.85000000000465
 20
-596.0097154860036
 30
0.0
 40
9.549678817091745
100
AcDbArc
 50
306.135267603287
 51
321.0756767176982
  0
ARC
  5
162
330
A
100
AcDbEntity
  8
0
  6
PHANTOM
 62
     7
100
AcDbCircle
 10
69.85000000000465
 20
-596.0097154860036
 30
0.0
 40
9.549678817091686
100
AcDbArc
 50
218.9243232823033
 51
233.8647323967186
  0
ARC
  5
163
330
A
100
AcDbEntity
  8
0
  6
PHANTOM
 62
     7
100
AcDbCircle
 10
69.85000000000465
 20
-596.0097154860036
 30
0.0
 40
9.243442456779604
100
AcDbArc
 50
307.3442806367049
 51
319.5255558372328
  0
ARC
  5
164
330
A
100
AcDbEntity
  8
0
  6
PHANTOM
 62
     7
100
AcDbCircle
 10
69.85000000000465
 20
-596.0097154860036
 30
0.0
 40
9.2434424567796
100
AcDbArc
 50
220.4744441627691
 51
232.6557193633012
  0
LINE
  5
165
330
A
100
AcDbEntity
  8
0
  6
PHANTOM
 62
     7
100
AcDbLine
 10
14.85000000000007
 20
-304.0991327135115
 30
0.0
 11
124.85
 21
-304.0991327135115
 31
0.0
  0
LINE
  5
166
330
A
100
AcDbEntity
  8
0
  6
Continuous
 62
     7
100
AcDbLine
 10
728.1300028853701
 20
146.8830407562489
 30
0.0
 11
725.6646223051981
 21
187.1916569356623
 31
0.0
  0
LINE
  5
167
330
A
100
AcDbEntity
  8
0
  6
Continuous
 62
     7
100
AcDbLine
 10
680.6646223051995
 20
187.1916569356623
 30
0.0
 11
678.1992417250275
 21
146.8830407562489
 31
0.0
  0
LINE
  5
168
330
A
100
AcDbEntity
  8
0
  6
Continuous
 62
     7
100
AcDbLine
 10
725.6646223051981
 20
187.1916569356623
 30
0.0
 11
718.1633683115782
 21
194.6929109292826
 31
0.0
  0
LINE
  5
169
330
A
100
AcDbEntity
  8
0
  6
Continuous
 62
     7
100
AcDbLine
 10
688.1658762988194
 20
194.6929109292826
 30
0.0
 11
680.6646223051995
 21
187.1916569356623
 31
0.0
  0
LINE
  5
16A
330
A
100
AcDbEntity
  8
0
  6
Continuous
 62
     7
100
AcDbLine
 10
768.1122375064677
 20
396.5509272804078
 30
0.0
 11
703.4872478030429
 21
288.6655187504926
 31
0.0
  0
LINE
  5
16B
330
A
100
AcDbEntity
  8
0
  6
Continuous
 62
     7
100
AcDbLine
 10
709.1598166745678
 20
277.8450769713248
 30
0.0
 11
785.1322614476595
 21
386.0321959121267
 31
0.0
  0
ARC
  5
16C
330
A
100
AcDbEntity
  8
0
  6
Continuous
 62
     7
100
AcDbCircle
 10
776.6908920322268
 20
391.4121836082946
 30
0.0
 40
10.0
100
AcDbArc
 50
326.9671880051306
 51
0.0
  0
ARC
  5
16D
330
A
100
AcDbEntity
  8
0
  6
Continuous
 62
     7
100
AcDbCircle
 10
776.6908920322268
 20
391.4121836082946
 30
0.0
 40
10.00000000000004
100
AcDbArc
 50
0.0
 51
149.0893668266799
  0
LINE
  5
16E
330
A
100
AcDbEntity
  8
0
  6
Continuous
 62
     7
100
AcDbLine
 10
697.6552005875042
 20
265.730968565166
 30
0.0
 11
699.6646223051981
 21
214.6916569356703
 31
0.0
  0
LINE
  5
16F
330
A
100
AcDbEntity
  8
0
  6
Continuous
 62
     7
100
AcDbLine
 10
706.6646223051995
 20
214.6916569356703
 30
0.0
 11
709.1257933386092
 21
277.2054011843653
 31
0.0
  0
LINE
  5
170
330
A
100
AcDbEntity
  8
0
  6
Continuous
 62
     7
100
AcDbLine
 10
653.2540395327063
 20
272.6916569356624
 30
0.0
 11
685.4140027551296
 21
272.6916569356624
 31
0.0
  0
LINE
  5
171
330
A
100
AcDbEntity
  8
0
  6
Continuous
 62
     7
100
AcDbLine
 10
685.4140027551296
 20
283.6916569356624
 30
0.0
 11
653.2540395327063
 21
283.6916569356624
 31
0.0
  0
ARC
  5
172
330
A
100
AcDbEntity
  8
0
  6
Continuous
 62
     7
100
AcDbCircle
 10
698.1646223051987
 20
196.1916569356621
 30
0.0
 40
1.500000000000113
100
AcDbArc
 50
270.0000000000008
 51
0.0
  0
ARC
  5
173
330
A
100
AcDbEntity
  8
0
  6
Continuous
 62
     7
100
AcDbCircle
 10
708.1646223051989
 20
196.1916569356623
 30
0.0
 40
1.5
100
AcDbArc
 50
180.0000000000004
 51
270.0000000000008
  0
LINE
  5
174
330
A
100
AcDbEntity
  8
0
  6
Continuous
 62
     7
100
AcDbLine
 10
699.6646223051981
 20
214.6916569356703
 30
0.0
 11
699.6646223051988
 21
196.1916569356622
 31
0.0
  0
LINE
  5
175
330
A
100
AcDbEntity
  8
0
  6
Continuous
 62
     7
100
AcDbLine
 10
706.6646223051989
 20
196.1916569356622
 30
0.0
 11
706.6646223051995
 21
214.6916569356703
 31
0.0
  0
LINE
  5
176
330
A
100
AcDbEntity
  8
0
  6
Continuous
 62
     7
100
AcDbLine
 10
398.2540395327063
 20
219.1330407562489
 30
0.0
 11
411.2540395327063
 21
219.1330407562489
 31
0.0
  0
LINE
  5
177
330
A
100
AcDbEntity
  8
0
  6
Continuous
 62
     7
100
AcDbLine
 10
411.2540395327063
 20
329.1330407562489
 30
0.0
 11
398.2540395327063
 21
329.1330407562489
 31
0.0
  0
ARC
  5
178
330
A
100
AcDbEntity
  8
0
  6
Continuous
 62
     7
100
AcDbCircle
 10
411.2540395327063
 20
327.1330407562489
 30
0.0
 40
2.0
100
AcDbArc
 50
0.0
 51
90.0
  0
ARC
  5
179
330
A
100
AcDbEntity
  8
0
  6
Continuous
 62
     7
100
AcDbCircle
 10
411.2540395327063
 20
221.1330407562489
 30
0.0
 40
2.0
100
AcDbArc
 50
270.0000000000008
 51
0.0
  0
LINE
  5
17A
330
A
100
AcDbEntity
  8
0
  6
Continuous
 62
     7
100
AcDbLine
 10
653.2540395327063
 20
285.3256231598161
 30
0.0
 11
413.2540395327063
 21
285.3256231598161
 31
0.0
  0
LINE
  5
17B
330
A
100
AcDbEntity
  8
0
  6
Continuous
 62
     7
100
AcDbLine
 10
413.2540395327063
 20
262.9404583526817
 30
0.0
 11
653.2540395327063
 21
262.9404583526817
 31
0.0
  0
LINE
  5
17C
330
A
100
AcDbEntity
  8
0
  6
Continuous
 62
     7
100
AcDbLine
 10
583.2540395327066
 20
-23.11695924375112
 30
0.0
 11
584.225173812616
 21
-23.3554927013297
 31
0.0
  0
LINE
  5
17D
330
A
100
AcDbEntity
  8
0
  6
Continuous
 62
     7
100
AcDbLine
 10
822.2829052527966
 20
-23.3554927013297
 30
0.0
 11
823.2540395327063
 21
-23.11695924375112
 31
0.0
  0
LINE
  5
17E
330
A
100
AcDbEntity
  8
0
  6
Continuous
 62
     7
100
AcDbLine
 10
823.2540395327063
 20
-23.11695924375112
 30
0.0
 11
781.4980345936858
 21
146.8830407562489
 31
0.0
  0
LINE
  5
17F
330
A
100
AcDbEntity
  8
0
  6
Continuous
 62
     7
100
AcDbLine
 10
625.0100444717268
 20
146.8830407562489
 30
0.0
 11
583.2540395327066
 21
-23.11695924375112
 31
0.0
  0
LINE
  5
180
330
A
100
AcDbEntity
  8
0
  6
Continuous
 62
     7
100
AcDbLine
 10
703.1646223051987
 20
187.1916569356623
 30
0.0
 11
725.6646223051981
 21
187.1916569356623
 31
0.0
  0
LINE
  5
181
330
A
100
AcDbEntity
  8
0
  6
Continuous
 62
     7
100
AcDbLine
 10
680.6646223051995
 20
187.1916569356623
 30
0.0
 11
703.1646223051987
 21
187.1916569356623
 31
0.0
  0
LINE
  5
182
330
A
100
AcDbEntity
  8
0
  6
Continuous
 62
     7
100
AcDbLine
 10
703.1646223051987
 20
194.6916569356622
 30
0.0
 11
718.1646223051987
 21
194.6916569356622
 31
0.0
  0
LINE
  5
183
330
A
100
AcDbEntity
  8
0
  6
Continuous
 62
     7
100
AcDbLine
 10
688.1646223051989
 20
194.6916569356622
 30
0.0
 11
703.1646223051987
 21
194.6916569356622
 31
0.0
  0
LWPOLYLINE
  5
184
330
A
100
AcDbEntity
  8
0
  6
Continuous
 62
     7
100
AcDbPolyline
 90
       32
 70
   128
 43
0.0
 10
785.0828411534633
 20
385.9618198795765
 10
784.7878525249545
 20
386.0506980606989
 10
784.1417922673788
 20
386.3851445647275
 10
782.479868009087
 20
387.3469301552734
 10
781.1269892405891
 20
388.1701800789238
 10
779.6321921926733
 20
389.1013974884465
 10
778.0659202125608
 20
390.0948359392657
 10
777.2766480061184
 20
390.6014668242919
 10
776.883834369885
 20
390.85508043143
 10
776.6882766968606
 20
390.9817062158599
 10
776.5907575800723
 20
391.0449430496468
 10
776.5420687675259
 20
391.0765386750327
 10
776.5177427675284
 20
391.0923303223963
 10
776.5055844586239
 20
391.1002245466073
 10
776.4995064881077
 20
391.1041712515962
 10
776.4964678002268
 20
391.1061445014065
 10
776.494948530805
 20
391.1071311005276
 10
776.4941889147457
 20
391.107624393628
 10
776.4938091113813
 20
391.1078710385614
 10
776.493619210866
 20
391.1079943606237
 10
776.4935242608999
 20
391.1080560215536
 10
776.4934767859898
 20
391.1080868519933
 10
776.4934530485529
 20
391.108102267207
 10
776.4934411798392
 20
391.1081099748121
 10
776.4934293111285
 20
391.1081176824162
 10
776.0682494790329
 20
391.3842322067635
 10
775.2981422336548
 20
391.8843453515668
 10
772.8282614454992
 20
393.4883044113503
 10
771.2904492390673
 20
394.4869714047035
 10
769.7824145868922
 20
395.4663007673841
 10
768.5974785470809
 20
396.2358075770124
 10
768.1122375064677
 20
396.5509272804078
  0
CIRCLE
  5
1A6
330
A
100
AcDbEntity
  8
0
  6
Continuous
 62
     7
100
AcDbCircle
 10
696.6646223051984
 20
278.1916569356624
 30
0.0
 40
12.49999999999988
  0
LINE
  5
1A7
330
A
100
AcDbEntity
  8
0
  6
Continuous
 62
     7
100
AcDbLine
 10
699.6646223051981
 20
214.6916569356703
 30
0.0
 11
706.6646223051995
 21
214.6916569356703
 31
0.0
  0
LWPOLYLINE
  5
1A8
330
A
100
AcDbEntity
  8
0
  6
Continuous
 62
     7
100
AcDbPolyline
 90
        7
 70
   128
 43
0.0
 10
718.6646223051984
 20
278.1916569356624
 10
718.2418984740694
 20
273.8996698513075
 10
716.9899720204466
 20
269.7726214236304
 10
714.9569537758544
 20
265.9691118092311
 10
712.2209714913026
 20
262.6353077495584
 10
708.8871674316297
 20
259.8993254650064
 10
708.434935113032
 20
259.657602254679
  0
LWPOLYLINE
  5
1B1
330
A
100
AcDbEntity
  8
0
  6
Continuous
 62
     7
100
AcDbPolyline
 90
        9
 70
   128
 43
0.0
 10
698.0254871285775
 20
256.3256904218964
 10
696.6646223051984
 20
256.1916569356624
 10
692.3726352208436
 20
256.6143807667913
 10
688.2455867931664
 20
257.8663072204141
 10
684.4420771787671
 20
259.8993254650064
 10
681.1082731190943
 20
262.6353077495584
 10
678.3722908345424
 20
265.9691118092311
 10
676.3392725899501
 20
269.7726214236304
 10
675.4537928480431
 20
272.6916569356624
  0
LWPOLYLINE
  5
1BC
330
A
100
AcDbEntity
  8
0
  6
Continuous
 62
     7
100
AcDbPolyline
 90
       11
 70
   128
 43
0.0
 10
675.4537928480433
 20
283.6916569356624
 10
676.3392725899501
 20
286.6106924476943
 10
678.3722908345424
 20
290.4142020620937
 10
681.1082731190943
 20
293.7480061217664
 10
684.4420771787671
 20
296.4839884063184
 10
688.2455867931664
 20
298.5170066509107
 10
692.3726352208436
 20
299.7689331045335
 10
696.6646223051984
 20
300.1916569356624
 10
700.9566093895531
 20
299.7689331045335
 10
705.0836578172303
 20
298.5170066509107
 10
708.3444095915789
 20
296.7740985159502
  0
LWPOLYLINE
  5
1C9
330
A
100
AcDbEntity
  8
0
  6
Continuous
 62
     7
100
AcDbPolyline
 90
        4
 70
   128
 43
0.0
 10
716.2661961471969
 20
287.9647818661726
 10
716.9899720204466
 20
286.6106924476943
 10
718.2418984740694
 20
282.4836440200173
 10
718.6646223051984
 20
278.1916569356624
  0
LINE
  5
1CF
330
A
100
AcDbEntity
  8
0
  6
Continuous
 62
     7
100
AcDbLine
 10
398.2540395327063
 20
329.1330407562489
 30
0.0
 11
398.2540395327063
 21
219.1330407562489
 31
0.0
  0
LINE
  5
1D0
330
A
100
AcDbEntity
  8
0
  6
Continuous
 62
     7
100
AcDbLine
 10
413.2540395327063
 20
327.1330407562489
 30
0.0
 11
413.2540395327063
 21
221.1330407562489
 31
0.0
  0
LINE
  5
1D1
330
A
100
AcDbEntity
  8
0
  6
Continuous
 62
     7
100
AcDbLine
 10
653.2540395327063
 20
285.3256231598161
 30
0.0
 11
653.2540395327063
 21
276.9775463348454
 31
0.0
  0
LINE
  5
1D2
330
A
100
AcDbEntity
  8
0
  6
Continuous
 62
     7
100
AcDbLine
 10
653.2540395327063
 20
276.9775463348454
 30
0.0
 11
653.2540395327063
 21
266.9775463348454
 31
0.0
  0
LINE
  5
1D3
330
A
100
AcDbEntity
  8
0
  6
Continuous
 62
     7
100
AcDbLine
 10
653.2540395327063
 20
266.9775463348454
 30
0.0
 11
653.2540395327063
 21
262.9404583526817
 31
0.0
  0
LINE
  5
1D4
330
A
100
AcDbEntity
  8
0
  6
Continuous
 62
     7
100
AcDbLine
 10
583.2540395327066
 20
-23.11695924375112
 30
0.0
 11
823.2540395327063
 21
-23.11695924375112
 31
0.0
  0
LINE
  5
1D5
330
A
100
AcDbEntity
  8
0
  6
Continuous
 62
     7
100
AcDbLine
 10
584.225173812616
 20
-23.3554927013297
 30
0.0
 11
822.2829052527966
 21
-23.3554927013297
 31
0.0
  0
LINE
  5
1D6
330
A
100
AcDbEntity
  8
0
  6
Continuous
 62
     7
100
AcDbLine
 10
625.0100444717268
 20
146.8830407562489
 30
0.0
 11
781.4980345936858
 21
146.8830407562489
 31
0.0
  0
LINE
  5
1D7
330
A
100
AcDbEntity
  8
0
  6
PHANTOM
 62
     7
100
AcDbLine
 10
699.6646223051988
 20
196.1916569356622
 30
0.0
 11
706.6646223051989
 21
196.1916569356622
 31
0.0
  0
LINE
  5
1D8
330
A
100
AcDbEntity
  8
0
  6
PHANTOM
 62
     7
100
AcDbLine
 10
411.2540395327063
 20
219.1330407562489
 30
0.0
 11
411.2540395327063
 21
329.1330407562489
 31
0.0
  0
LINE
  5
1D9
330
A
100
AcDbEntity
  8
0
  6
PHANTOM
 62
     7
100
AcDbLine
 10
653.2540395327063
 20
276.9775463348454
 30
0.0
 11
413.2540395327063
 21
276.9775463348454
 31
0.0
  0
LINE
  5
1DA
330
A
100
AcDbEntity
  8
0
  6
PHANTOM
 62
     7
100
AcDbLine
 10
653.2540395327063
 20
266.9775463348454
 30
0.0
 11
413.2540395327063
 21
266.9775463348454
 31
0.0
  0
ENDSEC
  0
SECTION
  2
OBJECTS
  0
DICTIONARY
  5
19
330
0
100
AcDbDictionary
281
     1
  3
ACAD_COLOR
350
1E1
  3
ACAD_GROUP
350
1A
  3
ACAD_LAYOUT
350
1E4
  3
ACAD_MATERIAL
350
1E0
  3
ACAD_MLINESTYLE
350
1B
  3
ACAD_PLOTSETTINGS
350
1E5
  3
ACAD_PLOTSTYLENAME
350
1DE
  3
ACAD_TABLESTYLE
350
1E2
  3
ACDBHEADERROUNDTRIPXREC
350
1FD
  3
AcDbVariableDictionary
350
1F8
  3
ASE_INDEX_DICTIONARY
350
1EB
  0
DICTIONARY
  5
1E1
102
{ACAD_REACTORS
330
19
102
}
330
19
100
AcDbDictionary
281
     1
  0
DICTIONARY
  5
1A
102
{ACAD_REACTORS
330
19
102
}
330
19
100
AcDbDictionary
281
     1
  0
DICTIONARY
  5
1E4
102
{ACAD_REACTORS
330
19
102
}
330
19
100
AcDbDictionary
281
     1
  3
Layout1
350
1E7
  3
Model
350
1E6
  0
DICTIONARY
  5
1E0
102
{ACAD_REACTORS
330
19
102
}
330
19
100
AcDbDictionary
281
     1
  0
DICTIONARY
  5
1B
102
{ACAD_REACTORS
330
19
102
}
330
19
100
AcDbDictionary
281
     1
  3
STANDARD
350
1C
  0
DICTIONARY
  5
1E5
102
{ACAD_REACTORS
330
19
102
}
330
19
100
AcDbDictionary
281
     1
  0
ACDBDICTIONARYWDFLT
  5
1DE
102
{ACAD_REACTORS
330
19
102
}
330
19
100
AcDbDictionary
281
     1
  3
Normal
350
1DF
100
AcDbDictionaryWithDefault
340
1DF
  0
DICTIONARY
  5
1E2
102
{ACAD_REACTORS
330
19
102
}
330
19
100
AcDbDictionary
281
     1
  3
Standard
350
1E3
  0
DICTIONARY
  5
1FD
102
{ACAD_REACTORS
330
19
102
}
330
19
100
AcDbDictionary
281
     1
  0
DICTIONARY
  5
1F8
102
{ACAD_REACTORS
330
19
102
}
330
19
100
AcDbDictionary
281
     1
  3
CTABLESTYLE
350
1F9
  3
DIMASSOC
350
1FA
  3
PROJECTNAME
350
1FB
  0
DICTIONARY
  5
1EB
102
{ACAD_REACTORS
330
19
102
}
330
19
100
AcDbDictionary
281
     1
  3
ASEBlockHierarchyIndexRecord
350
1ED
1001
DCO15
1040
1585050954.124
  0
LAYOUT
  5
1E7
102
{ACAD_XDICTIONARY
360
200
102
}
102
{ACAD_REACTORS
330
1E4
102
}
330
1E4
100
AcDbPlotSettings
  1

  2
C:\Dokumente und Einstellungen\Administrator\Anwendungsdaten\Autodesk\AutoCAD 2005\R16.1\ita\plotters\Default Windows System Printer.pc3
  4

  6

 40
0.0
 41
0.0
 42
0.0
 43
0.0
 44
0.0
 45
0.0
 46
0.0
 47
0.0
 48
0.0
 49
0.0
140
0.0
141
0.0
142
1.0
143
1.0
 70
   688
 72
     0
 73
     0
 74
     5
  7

 75
    16
147
1.0
148
0.0
149
0.0
100
AcDbLayout
  1
Layout1
 70
     1
 71
     1
 10
0.0
 20
0.0
 11
12.0
 21
9.0
 12
0.0
 22
0.0
 32
0.0
 14
1.000000000000000E+20
 24
1.000000000000000E+20
 34
1.000000000000000E+20
 15
-1.000000000000000E+20
 25
-1.000000000000000E+20
 35
-1.000000000000000E+20
146
0.0
 13
0.0
 23
0.0
 33
0.0
 16
1.0
 26
0.0
 36
0.0
 17
0.0
 27
1.0
 37
0.0
 76
     0
330
B
  0
LAYOUT
  5
1E6
102
{ACAD_XDICTIONARY
360
1FE
102
}
102
{ACAD_REACTORS
330
1E4
102
}
330
1E4
100
AcDbPlotSettings
  1

  2
C:\Dokumente und Einstellungen\Administrator\Anwendungsdaten\Autodesk\AutoCAD 2005\R16.1\ita\plotters\Default Windows System Printer.pc3
  4

  6

 40
0.0
 41
0.0
 42
0.0
 43
0.0
 44
0.0
 45
0.0
 46
0.0
 47
0.0
 48
0.0
 49
0.0
140
0.0
141
0.0
142
1.0
143
1.0
 70
  1712
 72
     0
 73
     0
 74
     0
  7

 75
     0
147
1.0
148
0.0
149
0.0
100
AcDbLayout
  1
Model
 70
     1
 71
     0
 10
0.0
 20
0.0
 11
12.0
 21
9.0
 12
0.0
 22
0.0
 32
0.0
 14
0.0
 24
0.0
 34
0.0
 15
0.0
 25
0.0
 35
0.0
146
0.0
 13
0.0
 23
0.0
 33
0.0
 16
1.0
 26
0.0
 36
0.0
 17
0.0
 27
1.0
 37
0.0
 76
     0
330
A
  0
MLINESTYLE
  5
1C
102
{ACAD_REACTORS
330
1B
102
}
330
1B
100
AcDbMlineStyle
  2
STANDARD
 70
     0
  3

 62
     0
 51
90.0
 52
90.0
 71
     2
 49
0.5
 62
   256
  6
BYLAYER
 49
-0.5
 62
   256
  6
BYLAYER
  0
ACDBPLACEHOLDER
  5
1DF
102
{ACAD_REACTORS
330
1DE
102
}
330
1DE
  0
TABLESTYLE
  5
1E3
102
{ACAD_REACTORS
330
1E2
102
}
330
1E2
100
AcDbTableStyle
  3
Standard
 70
     0
 71
     0
 40
0.06
 41
0.06
280
     0
281
     0
  7
STANDARD
140
0.18
170
     2
 62
     0
 63
     7
283
     0
274
    -2
284
     1
 64
     0
275
    -2
285
     1
 65
     0
276
    -2
286
     1
 66
     0
277
    -2
287
     1
 67
     0
278
    -2
288
     1
 68
     0
279
    -2
289
     1
 69
     0
  7
STANDARD
140
0.25
170
     5
 62
     0
 63
     7
283
     0
274
    -2
284
     1
 64
     0
275
    -2
285
     1
 65
     0
276
    -2
286
     1
 66
     0
277
    -2
287
     1
 67
     0
278
    -2
288
     1
 68
     0
279
    -2
289
     1
 69
     0
  7
STANDARD
140
0.18
170
     5
 62
     0
 63
     7
283
     0
274
    -2
284
     1
 64
     0
275
    -2
285
     1
 65
     0
276
    -2
286
     1
 66
     0
277
    -2
287
     1
 67
     0
278
    -2
288
     1
 68
     0
279
    -2
289
     1
 69
     0
  0
DICTIONARYVAR
  5
1F9
102
{ACAD_REACTORS
330
1F8
102
}
330
1F8
100
DictionaryVariables
280
     0
  1
STANDARD
  0
DICTIONARYVAR
  5
1FA
102
{ACAD_REACTORS
330
1F8
102
}
330
1F8
100
DictionaryVariables
280
     0
  1
1
  0
DICTIONARYVAR
  5
1FB
102
{ACAD_REACTORS
330
1F8
102
}
330
1F8
100
DictionaryVariables
280
     0
  1

  0
XRECORD
  5
1ED
102
{ACAD_REACTORS
330
1EB
102
}
330
1EB
100
AcDbXrecord
280
     1
  0
DICTIONARY
  5
200
330
1E7
100
AcDbDictionary
280
     1
281
     1
  3
ACAD_XREC_ROUNDTRIP
360
201
  0
DICTIONARY
  5
1FE
330
1E6
100
AcDbDictionary
280
     1
281
     1
  3
ACAD_XREC_ROUNDTRIP
360
1FF
  0
XRECORD
  5
201
102
{ACAD_REACTORS
330
200
102
}
330
200
100
AcDbXrecord
280
     1
102
SHADEPLOT
 70
     0
102
SHADEPLOTRESLEVEL
 70
     2
102
SHADEPLOTCUSTOMDPI
 70
   300
  0
XRECORD
  5
1FF
102
{ACAD_REACTORS
330
1FE
102
}
330
1FE
100
AcDbXrecord
280
     1
102
SHADEPLOT
 70
     0
102
SHADEPLOTRESLEVEL
 70
     2
102
SHADEPLOTCUSTOMDPI
 70
   300
  0
ENDSEC
  0
EOF
