  0
SECTION
  2
HEADER
  9
$ACADVER
  1
AC1015
  9
$ACADMAINTVER
 70
    20
  9
$DWGCODEPAGE
  3
ANSI_1252
  9
$INSBASE
 10
0.0
 20
0.0
 30
0.0
  9
$EXTMIN
 10
-20.14999999999577
 20
-626.1671510920189
 30
0.0
  9
$EXTMAX
 10
733.3253817088508
 20
401.4531403124175
 30
0.0
  9
$LIMMIN
 10
0.0
 20
0.0
  9
$LIMMAX
 10
0.0
 20
0.0
  9
$ORTHOMODE
 70
     0
  9
$REGENMODE
 70
     1
  9
$FILLMODE
 70
     1
  9
$QTEXTMODE
 70
     0
  9
$MIRRTEXT
 70
     1
  9
$LTSCALE
 40
1.0
  9
$ATTMODE
 70
     1
  9
$TEXTSIZE
 40
0.0
  9
$TRACEWID
 40
0.05
  9
$TEXTSTYLE
  7
STANDARD
  9
$CLAYER
  8
0
  9
$CELTYPE
  6
CONTINUOUS
  9
$CECOLOR
 62
   256
  9
$CELTSCALE
 40
1.0
  9
$DISPSILH
 70
     0
  9
$DIMSCALE
 40
1.0
  9
$DIMASZ
 40
6.0
  9
$DIMEXO
 40
1.0
  9
$DIMDLI
 40
0.38
  9
$DIMRND
 40
0.0
  9
$DIMDLE
 40
1.0
  9
$DIMEXE
 40
0.18
  9
$DIMTP
 40
0.0
  9
$DIMTM
 40
0.0
  9
$DIMTXT
 40
3.5
  9
$DIMCEN
 40
0.09
  9
$DIMTSZ
 40
0.0
  9
$DIMTOL
 70
     0
  9
$DIMLIM
 70
     0
  9
$DIMTIH
 70
     1
  9
$DIMTOH
 70
     1
  9
$DIMSE1
 70
     0
  9
$DIMSE2
 70
     0
  9
$DIMTAD
 70
     1
  9
$DIMZIN
 70
     0
  9
$DIMBLK
  1

  9
$DIMASO
 70
     1
  9
$DIMSHO
 70
     1
  9
$DIMPOST
  1

  9
$DIMAPOST
  1

  9
$DIMALT
 70
     0
  9
$DIMALTD
 70
     2
  9
$DIMALTF
 40
0.0394
  9
$DIMLFAC
 40
10.0
  9
$DIMTOFL
 70
     0
  9
$DIMTVP
 40
0.0
  9
$DIMTIX
 70
     0
  9
$DIMSOXD
 70
     0
  9
$DIMSAH
 70
     0
  9
$DIMBLK1
  1

  9
$DIMBLK2
  1

  9
$DIMSTYLE
  2
STANDARD
  9
$DIMCLRD
 70
     0
  9
$DIMCLRE
 70
     0
  9
$DIMCLRT
 70
     0
  9
$DIMTFAC
 40
1.0
  9
$DIMGAP
 40
1.0
  9
$DIMJUST
 70
     0
  9
$DIMSD1
 70
     0
  9
$DIMSD2
 70
     0
  9
$DIMTOLJ
 70
     1
  9
$DIMTZIN
 70
     0
  9
$DIMALTZ
 70
     0
  9
$DIMALTTZ
 70
     0
  9
$DIMUPT
 70
     0
  9
$DIMDEC
 70
     4
  9
$DIMTDEC
 70
     4
  9
$DIMALTU
 70
     2
  9
$DIMALTTD
 70
     2
  9
$DIMTXSTY
  7
STANDARD
  9
$DIMAUNIT
 70
     0
  9
$DIMADEC
 70
     0
  9
$DIMALTRND
 40
0.0
  9
$DIMAZIN
 70
     0
  9
$DIMDSEP
 70
    46
  9
$DIMATFIT
 70
     3
  9
$DIMFRAC
 70
     0
  9
$DIMLDRBLK
  1

  9
$DIMLUNIT
 70
     2
  9
$DIMLWD
 70
    -2
  9
$DIMLWE
 70
    -2
  9
$DIMTMOVE
 70
     0
  9
$LUNITS
 70
     2
  9
$LUPREC
 70
     2
  9
$SKETCHINC
 40
0.1
  9
$FILLETRAD
 40
0.0
  9
$AUNITS
 70
     0
  9
$AUPREC
 70
     2
  9
$MENU
  1
acad
  9
$ELEVATION
 40
0.0
  9
$PELEVATION
 40
0.0
  9
$THICKNESS
 40
0.0
  9
$LIMCHECK
 70
     0
  9
$CHAMFERA
 40
0.0
  9
$CHAMFERB
 40
0.0
  9
$CHAMFERC
 40
0.0
  9
$CHAMFERD
 40
0.0
  9
$SKPOLY
 70
     0
  9
$TDCREATE
 40
2444972.041666667
  9
$TDUCREATE
 40
2444972.000000000
  9
$TDUPDATE
 40
2454148.709430868
  9
$TDUUPDATE
 40
2454148.667764202
  9
$TDINDWG
 40
0.0010376852
  9
$TDUSRTIMER
 40
0.0010376852
  9
$USRTIMER
 70
     1
  9
$ANGBASE
 50
0.0
  9
$ANGDIR
 70
     0
  9
$PDMODE
 70
     0
  9
$PDSIZE
 40
-1.0
  9
$PLINEWID
 40
0.0
  9
$SPLFRAME
 70
     0
  9
$SPLINETYPE
 70
     6
  9
$SPLINESEGS
 70
     8
  9
$HANDSEED
  5
1FB
  9
$SURFTAB1
 70
     6
  9
$SURFTAB2
 70
     6
  9
$SURFTYPE
 70
     6
  9
$SURFU
 70
     6
  9
$SURFV
 70
     6
  9
$UCSBASE
  2

  9
$UCSNAME
  2

  9
$UCSORG
 10
0.0
 20
0.0
 30
0.0
  9
$UCSXDIR
 10
1.0
 20
0.0
 30
0.0
  9
$UCSYDIR
 10
0.0
 20
1.0
 30
0.0
  9
$UCSORTHOREF
  2

  9
$UCSORTHOVIEW
 70
     1
  9
$UCSORGTOP
 10
0.0
 20
0.0
 30
0.0
  9
$UCSORGBOTTOM
 10
0.0
 20
0.0
 30
0.0
  9
$UCSORGLEFT
 10
0.0
 20
0.0
 30
0.0
  9
$UCSORGRIGHT
 10
0.0
 20
0.0
 30
0.0
  9
$UCSORGFRONT
 10
0.0
 20
0.0
 30
0.0
  9
$UCSORGBACK
 10
0.0
 20
0.0
 30
0.0
  9
$PUCSBASE
  2

  9
$PUCSNAME
  2

  9
$PUCSORG
 10
0.0
 20
0.0
 30
0.0
  9
$PUCSXDIR
 10
1.0
 20
0.0
 30
0.0
  9
$PUCSYDIR
 10
0.0
 20
1.0
 30
0.0
  9
$PUCSORTHOREF
  2

  9
$PUCSORTHOVIEW
 70
     0
  9
$PUCSORGTOP
 10
0.0
 20
0.0
 30
0.0
  9
$PUCSORGBOTTOM
 10
0.0
 20
0.0
 30
0.0
  9
$PUCSORGLEFT
 10
0.0
 20
0.0
 30
0.0
  9
$PUCSORGRIGHT
 10
0.0
 20
0.0
 30
0.0
  9
$PUCSORGFRONT
 10
0.0
 20
0.0
 30
0.0
  9
$PUCSORGBACK
 10
0.0
 20
0.0
 30
0.0
  9
$USERI1
 70
     0
  9
$USERI2
 70
     0
  9
$USERI3
 70
     0
  9
$USERI4
 70
     0
  9
$USERI5
 70
     0
  9
$USERR1
 40
0.0
  9
$USERR2
 40
0.0
  9
$USERR3
 40
0.0
  9
$USERR4
 40
0.0
  9
$USERR5
 40
0.0
  9
$WORLDVIEW
 70
     1
  9
$SHADEDGE
 70
     3
  9
$SHADEDIF
 70
    70
  9
$TILEMODE
 70
     1
  9
$MAXACTVP
 70
    16
  9
$PINSBASE
 10
0.0
 20
0.0
 30
0.0
  9
$PLIMCHECK
 70
     0
  9
$PEXTMIN
 10
1.000000000000000E+20
 20
1.000000000000000E+20
 30
1.000000000000000E+20
  9
$PEXTMAX
 10
-1.000000000000000E+20
 20
-1.000000000000000E+20
 30
-1.000000000000000E+20
  9
$PLIMMIN
 10
0.0
 20
0.0
  9
$PLIMMAX
 10
12.0
 20
9.0
  9
$UNITMODE
 70
     0
  9
$VISRETAIN
 70
     0
  9
$PLINEGEN
 70
     1
  9
$PSLTSCALE
 70
     1
  9
$TREEDEPTH
 70
  3020
  9
$CMLSTYLE
  2
STANDARD
  9
$CMLJUST
 70
     0
  9
$CMLSCALE
 40
1.0
  9
$PROXYGRAPHICS
 70
     1
  9
$MEASUREMENT
 70
     0
  9
$CELWEIGHT
370
    -1
  9
$ENDCAPS
280
     0
  9
$JOINSTYLE
280
     0
  9
$LWDISPLAY
290
     0
  9
$INSUNITS
 70
     0
  9
$HYPERLINKBASE
  1

  9
$STYLESHEET
  1

  9
$XEDIT
290
     1
  9
$CEPSNTYPE
380
     0
  9
$PSTYLEMODE
290
     1
  9
$FINGERPRINTGUID
  2
{DBFE17B6-F217-4F40-9F40-640C8B3FB707}
  9
$VERSIONGUID
  2
{6BBA5EAF-AE9C-4F08-92F6-321891D532B4}
  9
$EXTNAMES
290
     1
  9
$PSVPSCALE
 40
0.0
  9
$OLESTARTUP
290
     0
  0
ENDSEC
  0
SECTION
  2
CLASSES
  0
CLASS
  1
IMAGE
  2
AcDbRasterImage
  3
ISM
 90
    32895
280
     0
281
     1
  0
CLASS
  1
DICTIONARYVAR
  2
AcDbDictionaryVar
  3
ObjectDBX Classes
 90
        0
280
     0
281
     0
  0
CLASS
  1
RASTERVARIABLES
  2
AcDbRasterVariables
  3
ISM
 90
    32768
280
     0
281
     0
  0
CLASS
  1
IMAGEDEF
  2
AcDbRasterImageDef
  3
ISM
 90
    32768
280
     0
281
     0
  0
CLASS
  1
IMAGEDEF_REACTOR
  2
AcDbRasterImageDefReactor
  3
ISM
 90
    32769
280
     0
281
     0
  0
CLASS
  1
IDBUFFER
  2
AcDbIdBuffer
  3
ObjectDBX Classes
 90
    32768
280
     0
281
     0
  0
CLASS
  1
SPATIAL_FILTER
  2
AcDbSpatialFilter
  3
ObjectDBX Classes
 90
    32768
280
     0
281
     0
  0
CLASS
  1
SORTENTSTABLE
  2
AcDbSortentsTable
  3
ObjectDBX Classes
 90
    32768
280
     0
281
     0
  0
CLASS
  1
LAYER_INDEX
  2
AcDbLayerIndex
  3
ObjectDBX Classes
 90
    32768
280
     0
281
     0
  0
CLASS
  1
SPATIAL_INDEX
  2
AcDbSpatialIndex
  3
ObjectDBX Classes
 90
    32768
280
     0
281
     0
  0
CLASS
  1
OBJECT_PTR
  2
CAseDLPNTableRecord
  3
ASE-LPNTableRecord
 90
    32769
280
     0
281
     0
  0
CLASS
  1
LAYOUT
  2
AcDbLayout
  3
ObjectDBX Classes
 90
        0
280
     0
281
     0
  0
CLASS
  1
PLOTSETTINGS
  2
AcDbPlotSettings
  3
ObjectDBX Classes
 90
    32768
280
     0
281
     0
  0
CLASS
  1
ACDBDICTIONARYWDFLT
  2
AcDbDictionaryWithDefault
  3
ObjectDBX Classes
 90
        0
280
     0
281
     0
  0
CLASS
  1
ACDBPLACEHOLDER
  2
AcDbPlaceHolder
  3
ObjectDBX Classes
 90
        0
280
     0
281
     0
  0
CLASS
  1
VBA_PROJECT
  2
AcDbVbaProject
  3
acad
 90
    32768
280
     0
281
     0
  0
CLASS
  1
WIPEOUT
  2
AcDbWipeout
  3
"WipeOut|Product Desc: Object Enabler for WipeOut entity^I^I^I^I^I^I|Company: Autodesk, Inc.^I^I^I^I^I^I|WEB Address: www.autodesk.com"
 90
    32895
280
     0
281
     1
  0
CLASS
  1
WIPEOUTVARIABLES
  2
AcDbWipeoutVariables
  3
"WipeOut|Product Desc:     WipeOut Dbx Application|Company:          Autodesk, Inc.|WEB Address:      www.autodesk.com"
 90
    32768
280
     0
281
     0
  0
CLASS
  1
RTEXT
  2
RText
  3
RText|AutoCAD Express Tool|expresstools@autodesk.com
 90
    32768
280
     0
281
     1
  0
CLASS
  1
ARCALIGNEDTEXT
  2
AcDbArcAlignedText
  3
ATEXT|AutoCAD Express Tool|expresstools@autodesk.com
 90
    32768
280
     0
281
     1
  0
CLASS
  1
TABLESTYLE
  2
AcDbTableStyle
  3
ObjectDBX Classes
 90
     2047
280
     0
281
     0
  0
ENDSEC
  0
SECTION
  2
TABLES
  0
TABLE
  2
VPORT
  5
7
330
0
100
AcDbSymbolTable
 70
     3
  0
VPORT
  5
1F5
330
7
100
AcDbSymbolTableRecord
100
AcDbViewportTableRecord
  2
*Active
 70
     0
 10
0.0
 20
0.0
 11
1.0
 21
1.0
 12
356.5876908544276
 22
-112.3570053898006
 13
0.0
 23
0.0
 14
1.0
 24
1.0
 15
0.0
 25
0.0
 16
0.0
 26
0.0
 36
1.0
 17
0.0
 27
0.0
 37
0.0
 40
1035.194888146975
 41
1.975399753997539
 42
50.0
 43
0.0
 44
0.0
 50
0.0
 51
0.0
 71
     0
 72
  2000
 73
     1
 74
     1
 75
     0
 76
     0
 77
     0
 78
     0
281
     0
 65
     1
110
0.0
120
0.0
130
0.0
111
1.0
121
0.0
131
0.0
112
0.0
122
1.0
132
0.0
 79
     1
146
0.0
  0
ENDTAB
  0
TABLE
  2
LTYPE
  5
4
330
0
100
AcDbSymbolTable
 70
     6
  0
LTYPE
  5
11
330
4
100
AcDbSymbolTableRecord
100
AcDbLinetypeTableRecord
  2
BYBLOCK
 70
     0
  3

 72
    65
 73
     0
 40
0.0
  0
LTYPE
  5
12
330
4
100
AcDbSymbolTableRecord
100
AcDbLinetypeTableRecord
  2
BYLAYER
 70
     0
  3

 72
    65
 73
     0
 40
0.0
  0
LTYPE
  5
13
330
4
100
AcDbSymbolTableRecord
100
AcDbLinetypeTableRecord
  2
CONTINUOUS
 70
     0
  3
Solid line
 72
    65
 73
     0
 40
0.0
  0
LTYPE
  5
1E
330
4
100
AcDbSymbolTableRecord
100
AcDbLinetypeTableRecord
  2
HIDDEN
 70
     0
  3
Hidden __ __ __ __ __ __ __ __ __ __ __ __ __ __
 72
    65
 73
     2
 40
1.905
 49
1.27
 74
     0
 49
-0.635
 74
     0
  0
LTYPE
  5
1F
330
4
100
AcDbSymbolTableRecord
100
AcDbLinetypeTableRecord
  2
PHANTOM
 70
     0
  3
Phantom ______  __  __  ______  __  __  ______
 72
    65
 73
     6
 40
12.7
 49
6.349999999999999
 74
     0
 49
-1.27
 74
     0
 49
1.27
 74
     0
 49
-1.27
 74
     0
 49
1.27
 74
     0
 49
-1.27
 74
     0
  0
LTYPE
  5
20
330
4
100
AcDbSymbolTableRecord
100
AcDbLinetypeTableRecord
  2
CENTER
 70
     0
  3
Center ____ _ ____ _ ____ _ ____ _ ____ _ ____
 72
    65
 73
     4
 40
10.16
 49
6.349999999999999
 74
     0
 49
-1.27
 74
     0
 49
1.27
 74
     0
 49
-1.27
 74
     0
  0
LTYPE
  5
21
330
4
100
AcDbSymbolTableRecord
100
AcDbLinetypeTableRecord
  2
CENTERX2
 70
     0
  3
Center (2x) ________  __  ________  __  _____
 72
    65
 73
     4
 40
20.32
 49
12.7
 74
     0
 49
-2.54
 74
     0
 49
2.54
 74
     0
 49
-2.54
 74
     0
  0
LTYPE
  5
22
330
4
100
AcDbSymbolTableRecord
100
AcDbLinetypeTableRecord
  2
DOT2
 70
     0
  3
Dot (.5x) ........................................
 72
    65
 73
     2
 40
0.635
 49
0.0
 74
     0
 49
-0.635
 74
     0
  0
ENDTAB
  0
TABLE
  2
LAYER
  5
2
330
0
100
AcDbSymbolTable
 70
     2
  0
LAYER
  5
14
330
2
100
AcDbSymbolTableRecord
100
AcDbLayerTableRecord
  2
0
 70
     0
 62
     7
  6
CONTINUOUS
370
    -3
390
1D8
  0
LAYER
  5
26
330
2
100
AcDbSymbolTableRecord
100
AcDbLayerTableRecord
  2
DEFPOINTS
 70
     0
 62
     7
  6
CONTINUOUS
290
     0
370
    -3
390
1D8
  0
ENDTAB
  0
TABLE
  2
STYLE
  5
3
330
0
100
AcDbSymbolTable
 70
     1
  0
STYLE
  5
17
330
3
100
AcDbSymbolTableRecord
100
AcDbTextStyleTableRecord
  2
STANDARD
 70
     0
 40
0.0
 41
1.0
 50
0.0
 71
     0
 42
0.0
  3
txt
  4

  0
ENDTAB
  0
TABLE
  2
VIEW
  5
5
330
0
100
AcDbSymbolTable
 70
     0
  0
ENDTAB
  0
TABLE
  2
UCS
  5
6
330
0
100
AcDbSymbolTable
 70
     0
  0
ENDTAB
  0
TABLE
  2
APPID
  5
8
330
0
100
AcDbSymbolTable
 70
     2
  0
APPID
  5
16
330
8
100
AcDbSymbolTableRecord
100
AcDbRegAppTableRecord
  2
ACAD
 70
     0
  0
APPID
  5
1E5
330
8
100
AcDbSymbolTableRecord
100
AcDbRegAppTableRecord
  2
DCO15
 70
     0
  0
ENDTAB
  0
TABLE
  2
DIMSTYLE
  5
9
330
0
100
AcDbSymbolTable
 70
     1
100
AcDbDimStyleTable
 71
     0
  0
DIMSTYLE
105
18
330
9
100
AcDbSymbolTableRecord
100
AcDbDimStyleTableRecord
  2
STANDARD
 70
     0
289
     0
340
17
  0
ENDTAB
  0
TABLE
  2
BLOCK_RECORD
  5
1
330
0
100
AcDbSymbolTable
 70
     0
  0
BLOCK_RECORD
  5
A
330
1
100
AcDbSymbolTableRecord
100
AcDbBlockTableRecord
  2
*MODEL_SPACE
340
1DF
  0
BLOCK_RECORD
  5
B
330
1
100
AcDbSymbolTableRecord
100
AcDbBlockTableRecord
  2
*PAPER_SPACE
340
1E0
  0
ENDTAB
  0
ENDSEC
  0
SECTION
  2
BLOCKS
  0
BLOCK
  5
D
330
A
100
AcDbEntity
  8
0
100
AcDbBlockBegin
  2
*MODEL_SPACE
 70
     0
 10
0.0
 20
0.0
 30
0.0
  3
*MODEL_SPACE
  1

  0
ENDBLK
  5
E
330
A
100
AcDbEntity
  8
0
100
AcDbBlockEnd
  0
BLOCK
  5
F
330
B
100
AcDbEntity
 67
     1
  8
0
100
AcDbBlockBegin
  2
*PAPER_SPACE
 70
     0
 10
0.0
 20
0.0
 30
0.0
  3
*PAPER_SPACE
  1

  0
ENDBLK
  5
10
330
B
100
AcDbEntity
 67
     1
  8
0
100
AcDbBlockEnd
  0
ENDSEC
  0
SECTION
  2
ENTITIES
  0
ARC
  5
27
330
A
100
AcDbEntity
  8
0
  6
Continuous
 62
     7
100
AcDbCircle
 10
69.85000000000491
 20
391.4554927013302
 30
0.0
 40
9.999999999999946
100
AcDbArc
 50
0.0
 51
182.4855969179937
  0
LINE
  5
28
330
A
100
AcDbEntity
  8
0
  6
Continuous
 62
     7
100
AcDbLine
 10
59.85934464698527
 20
391.023282538078
 30
0.0
 11
64.46662574045008
 21
284.5468313007077
 31
0.0
  0
LINE
  5
29
330
A
100
AcDbEntity
  8
0
  6
Continuous
 62
     7
100
AcDbLine
 10
75.23453418403684
 20
284.5736377055071
 30
0.0
 11
79.84065611427412
 21
391.0233001309169
 31
0.0
  0
LINE
  5
2A
330
A
100
AcDbEntity
  8
0
  6
Continuous
 62
     7
100
AcDbLine
 10
94.81802947778227
 20
146.8830407562488
 30
0.0
 11
92.35000000000393
 21
187.2349660286978
 31
0.0
  0
LINE
  5
2B
330
A
100
AcDbEntity
  8
0
  6
Continuous
 62
     7
100
AcDbLine
 10
47.35000000000535
 20
187.2349660286978
 30
0.0
 11
44.88197052222703
 21
146.8830407562488
 31
0.0
  0
LINE
  5
2C
330
A
100
AcDbEntity
  8
0
  6
Continuous
 62
     7
100
AcDbLine
 10
92.35000000000393
 20
187.2349660286978
 30
0.0
 11
84.84874600638415
 21
194.7362200223181
 31
0.0
  0
LINE
  5
2D
330
A
100
AcDbEntity
  8
0
  6
Continuous
 62
     7
100
AcDbLine
 10
54.85125399362517
 20
194.7362200223181
 30
0.0
 11
47.35000000000535
 21
187.2349660286978
 31
0.0
  0
LINE
  5
2E
330
A
100
AcDbEntity
  8
0
  6
Continuous
 62
     7
100
AcDbLine
 10
84.84844911553258
 20
256.2349660286979
 30
0.0
 11
89.85152563301147
 21
256.2349660286979
 31
0.0
  0
LINE
  5
2F
330
A
100
AcDbEntity
  8
0
  6
Continuous
 62
     7
100
AcDbLine
 10
89.85152563301145
 20
300.2349660286979
 30
0.0
 11
84.84844911553258
 21
300.2349660286979
 31
0.0
  0
LINE
  5
30
330
A
100
AcDbEntity
  8
0
  6
Continuous
 62
     7
100
AcDbLine
 10
59.85000000000463
 20
265.734966028698
 30
0.0
 11
64.3421259842591
 21
265.734966028698
 31
0.0
  0
LINE
  5
31
330
A
100
AcDbEntity
  8
0
  6
Continuous
 62
     7
100
AcDbLine
 10
75.3578740157502
 20
265.734966028698
 30
0.0
 11
79.85000000000463
 21
265.734966028698
 31
0.0
  0
LINE
  5
32
330
A
100
AcDbEntity
  8
0
  6
Continuous
 62
     7
100
AcDbLine
 10
79.85000000000463
 20
290.7349660286978
 30
0.0
 11
75.50113746733733
 21
290.7349660286978
 31
0.0
  0
LINE
  5
33
330
A
100
AcDbEntity
  8
0
  6
Continuous
 62
     7
100
AcDbLine
 10
64.19886253267259
 20
290.7349660286978
 30
0.0
 11
59.85000000000463
 21
290.7349660286978
 31
0.0
  0
LINE
  5
34
330
A
100
AcDbEntity
  8
0
  6
Continuous
 62
     7
100
AcDbLine
 10
64.27035741150516
 20
267.5578877766507
 30
0.0
 11
66.35000000000386
 21
214.7349660287058
 31
0.0
  0
LINE
  5
35
330
A
100
AcDbEntity
  8
0
  6
Continuous
 62
     7
100
AcDbLine
 10
73.3500000000036
 20
214.7349660287058
 30
0.0
 11
75.42964258850483
 21
267.5578877766682
 31
0.0
  0
ARC
  5
36
330
A
100
AcDbEntity
  8
0
  6
Continuous
 62
     7
100
AcDbCircle
 10
64.85000000000454
 20
196.2349660286977
 30
0.0
 40
1.500000000000014
100
AcDbArc
 50
270.0000000000008
 51
0.0
  0
ARC
  5
37
330
A
100
AcDbEntity
  8
0
  6
Continuous
 62
     7
100
AcDbCircle
 10
74.85000000000477
 20
196.2349660286977
 30
0.0
 40
1.500000000000014
100
AcDbArc
 50
180.0000000000004
 51
270.0000000000008
  0
LINE
  5
38
330
A
100
AcDbEntity
  8
0
  6
Continuous
 62
     7
100
AcDbLine
 10
66.35000000000386
 20
214.7349660287058
 30
0.0
 11
66.35000000000456
 21
196.2349660286977
 31
0.0
  0
LINE
  5
39
330
A
100
AcDbEntity
  8
0
  6
Continuous
 62
     7
100
AcDbLine
 10
73.35000000000471
 20
196.2349660286977
 30
0.0
 11
73.3500000000036
 21
214.7349660287058
 31
0.0
  0
LINE
  5
3A
330
A
100
AcDbEntity
  8
0
  6
Continuous
 62
     7
100
AcDbLine
 10
79.85000000000467
 20
273.234966028698
 30
0.0
 11
84.85346561710651
 21
273.234966028698
 31
0.0
  0
LINE
  5
3B
330
A
100
AcDbEntity
  8
0
  6
Continuous
 62
     7
100
AcDbLine
 10
84.85346561710651
 20
283.2349660286978
 30
0.0
 11
79.85000000000467
 21
283.2349660286978
 31
0.0
  0
LINE
  5
3C
330
A
100
AcDbEntity
  8
0
  6
Continuous
 62
     7
100
AcDbLine
 10
159.8500000000042
 20
11.88304075624879
 30
0.0
 11
126.6908196072526
 21
146.8830407562488
 31
0.0
  0
LINE
  5
3D
330
A
100
AcDbEntity
  8
0
  6
Continuous
 62
     7
100
AcDbLine
 10
13.00918039275572
 20
146.8830407562488
 30
0.0
 11
-20.14999999999577
 21
11.88304075624879
 31
0.0
  0
LINE
  5
3E
330
A
100
AcDbEntity
  8
0
  6
Continuous
 62
     7
100
AcDbLine
 10
-20.14999999999577
 20
11.88304075624879
 30
0.0
 11
-19.17886572008612
 21
11.64450729867028
 31
0.0
  0
LINE
  5
3F
330
A
100
AcDbEntity
  8
0
  6
Continuous
 62
     7
100
AcDbLine
 10
158.8788657200945
 20
11.64450729867028
 30
0.0
 11
159.8500000000042
 21
11.88304075624879
 31
0.0
  0
LWPOLYLINE
  5
40
330
A
100
AcDbEntity
  8
0
  6
Continuous
 62
     7
100
AcDbPolyline
 90
       10
 70
   128
 43
0.0
 10
69.85000000000494
 20
386.0051289726119
 10
67.44792665191283
 20
386.0940071537345
 10
65.46196267357125
 20
386.428453657763
 10
62.78086051192419
 20
387.3902392483089
 10
61.49452166699926
 20
388.2134891719593
 10
60.57585718904451
 20
389.144706581482
 10
60.03297720072279
 20
390.1381450323013
 10
59.90014417246624
 20
390.6447759173273
 10
59.86739465485222
 20
390.8983895244655
 10
59.85947596949504
 20
391.0218078942612
  0
LWPOLYLINE
  5
4C
330
A
100
AcDbEntity
  8
0
  6
Continuous
 62
     7
100
AcDbPolyline
 90
       11
 70
   128
 43
0.0
 10
79.82120695598339
 20
391.0237849051689
 10
79.66706532622923
 20
390.1382649989604
 10
79.1242558408812
 20
389.1448575691308
 10
78.20560321847327
 20
388.2135910244754
 10
77.81669637605562
 20
387.9248297984731
 10
77.3875305398445
 20
387.6497948967978
 10
76.91913948808566
 20
387.3902392483089
 10
75.78279640144589
 20
386.8919874874893
 10
74.23830523687669
 20
386.4285160744345
 10
72.25229053813951
 20
386.0940297778216
 10
69.85000000000494
 20
386.0051289726119
  0
LWPOLYLINE
  5
59
330
A
100
AcDbEntity
  8
0
  6
Continuous
 62
     7
100
AcDbPolyline
 90
        5
 70
   128
 43
0.0
 10
68.43423481665784
 20
278.2349660286989
 10
66.85259415575524
 20
279.4414323400378
 10
65.32194568070041
 20
281.6221589514915
 10
64.51707087340396
 20
284.0347434329603
 10
64.5258491002071
 20
284.547568388696
  0
LWPOLYLINE
  5
60
330
A
100
AcDbEntity
  8
0
  6
Continuous
 62
     7
100
AcDbPolyline
 90
       10
 70
   128
 43
0.0
 10
75.22576221001097
 20
284.5733710211524
 10
75.23173651263448
 20
284.5175324035774
 10
74.90842572779538
 20
282.8865213181773
 10
74.03006977800896
 20
280.9989950868387
 10
72.38784517202251
 20
278.9993877401275
 10
71.26576518335162
 20
278.2349660286987
 10
70.22727235731088
 20
277.913076750136
 10
69.85000000000481
 20
277.8883860643603
 10
68.78199672617306
 20
278.0858760426573
 10
68.43423481665784
 20
278.2349660286989
  0
LINE
  5
6C
330
A
100
AcDbEntity
  8
0
  6
Continuous
 62
     7
100
AcDbLine
 10
47.35000000000535
 20
187.2349660286978
 30
0.0
 11
92.35000000000393
 21
187.2349660286978
 31
0.0
  0
LINE
  5
6D
330
A
100
AcDbEntity
  8
0
  6
Continuous
 62
     7
100
AcDbLine
 10
54.85000000000475
 20
194.7349660286978
 30
0.0
 11
84.85000000000455
 21
194.7349660286978
 31
0.0
  0
LINE
  5
6E
330
A
100
AcDbEntity
  8
0
  6
Continuous
 62
     7
100
AcDbLine
 10
84.85000000000463
 20
300.2349660286979
 30
0.0
 11
84.8500000000047
 21
278.2349660286979
 31
0.0
  0
LINE
  5
6F
330
A
100
AcDbEntity
  8
0
  6
Continuous
 62
     7
100
AcDbLine
 10
84.8500000000047
 20
278.2349660286979
 30
0.0
 11
84.85000000000463
 21
256.2349660286979
 31
0.0
  0
LINE
  5
70
330
A
100
AcDbEntity
  8
0
  6
Continuous
 62
     7
100
AcDbLine
 10
89.85000000000464
 20
256.2349660286979
 30
0.0
 11
89.8500000000047
 21
278.2349660286979
 31
0.0
  0
LINE
  5
71
330
A
100
AcDbEntity
  8
0
  6
Continuous
 62
     7
100
AcDbLine
 10
89.8500000000047
 20
278.2349660286979
 30
0.0
 11
89.85000000000464
 21
300.2349660286979
 31
0.0
  0
LWPOLYLINE
  5
72
330
A
100
AcDbEntity
  8
0
  6
Continuous
 62
     7
100
AcDbPolyline
 90
       19
 70
   128
 43
0.0
 10
64.27035741149194
 20
267.5578877766468
 10
64.62963947423975
 20
269.2083694903741
 10
65.93598401038978
 20
271.7840700167984
 10
67.17368534203472
 20
273.7681493808176
 10
68.55986214862723
 20
275.8057612027284
 10
69.08799174498309
 20
276.5357146645648
 10
69.57682342796257
 20
277.1132768816589
 10
69.67966865903811
 20
277.1940464438923
 10
69.80084454111126
 20
277.2471320031592
 10
69.883869178111
 20
277.2498070043853
 10
69.96308872855157
 20
277.225784075217
 10
70.09887536720583
 20
277.1346719348165
 10
70.58360323041776
 20
276.5733104182934
 10
72.24236596478549
 20
274.1929408858866
 10
73.50752042045122
 20
272.2147401912095
 10
74.56236839660945
 20
270.335050048439
 10
75.32716360750045
 20
268.410339033433
 10
75.42964258850436
 20
267.5578877766562
 10
75.4296425885077
 20
267.5578877766657
  0
LINE
  5
87
330
A
100
AcDbEntity
  8
0
  6
Continuous
 62
     7
100
AcDbLine
 10
79.85000000000467
 20
278.2349660286979
 30
0.0
 11
79.85000000000463
 21
290.7349660286978
 31
0.0
  0
LINE
  5
88
330
A
100
AcDbEntity
  8
0
  6
Continuous
 62
     7
100
AcDbLine
 10
79.85000000000463
 20
265.734966028698
 30
0.0
 11
79.85000000000467
 21
278.2349660286979
 31
0.0
  0
LINE
  5
89
330
A
100
AcDbEntity
  8
0
  6
Continuous
 62
     7
100
AcDbLine
 10
59.85000000000468
 20
278.2349660286979
 30
0.0
 11
59.85000000000463
 21
265.734966028698
 31
0.0
  0
LINE
  5
8A
330
A
100
AcDbEntity
  8
0
  6
Continuous
 62
     7
100
AcDbLine
 10
59.85000000000463
 20
290.7349660286978
 30
0.0
 11
59.85000000000468
 21
278.2349660286979
 31
0.0
  0
LINE
  5
8B
330
A
100
AcDbEntity
  8
0
  6
Continuous
 62
     7
100
AcDbLine
 10
66.35000000000386
 20
214.7349660287058
 30
0.0
 11
73.3500000000036
 21
214.7349660287058
 31
0.0
  0
LINE
  5
8C
330
A
100
AcDbEntity
  8
0
  6
Continuous
 62
     7
100
AcDbLine
 10
13.00918039275572
 20
146.8830407562488
 30
0.0
 11
126.6908196072526
 21
146.8830407562488
 31
0.0
  0
LINE
  5
8D
330
A
100
AcDbEntity
  8
0
  6
Continuous
 62
     7
100
AcDbLine
 10
-20.14999999999577
 20
11.88304075624879
 30
0.0
 11
159.8500000000042
 21
11.88304075624879
 31
0.0
  0
LINE
  5
8E
330
A
100
AcDbEntity
  8
0
  6
Continuous
 62
     7
100
AcDbLine
 10
-19.17886572008612
 20
11.64450729867028
 30
0.0
 11
158.8788657200945
 21
11.64450729867028
 31
0.0
  0
ARC
  5
8F
330
A
100
AcDbEntity
  8
0
  6
Continuous
 62
     7
100
AcDbCircle
 10
69.84999999999999
 20
274.1330407562489
 30
0.0
 40
55.0
100
AcDbArc
 50
273.8343861867524
 51
0.0
  0
ARC
  5
90
330
A
100
AcDbEntity
  8
0
  6
Continuous
 62
     7
100
AcDbCircle
 10
69.84999999999999
 20
274.1330407562489
 30
0.0
 40
55.0
100
AcDbArc
 50
97.61842365863245
 51
266.1656138132589
  0
ARC
  5
91
330
A
100
AcDbEntity
  8
0
  6
Continuous
 62
     7
100
AcDbCircle
 10
69.84999999999999
 20
274.1330407562489
 30
0.0
 40
55.0
100
AcDbArc
 50
0.0
 51
82.38157634135722
  0
LINE
  5
92
330
A
100
AcDbEntity
  8
0
  6
PHANTOM
 62
     7
100
AcDbLine
 10
66.35000000000456
 20
196.2349660286977
 30
0.0
 11
73.35000000000471
 21
196.2349660286977
 31
0.0
  0
ARC
  5
93
330
A
100
AcDbEntity
  8
0
  6
PHANTOM
 62
     7
100
AcDbCircle
 10
69.84999999999999
 20
274.1330407562489
 30
0.0
 40
53.00000000000003
100
AcDbArc
 50
0.0
 51
82.18703319978018
  0
ARC
  5
94
330
A
100
AcDbEntity
  8
0
  6
PHANTOM
 62
     7
100
AcDbCircle
 10
69.84999999999999
 20
274.1330407562489
 30
0.0
 40
52.99999999999998
100
AcDbArc
 50
97.8129668002091
 51
265.9349226017116
  0
ARC
  5
95
330
A
100
AcDbEntity
  8
0
  6
PHANTOM
 62
     7
100
AcDbCircle
 10
69.84999999999999
 20
274.1330407562489
 30
0.0
 40
52.99999999999998
100
AcDbArc
 50
274.0650773983002
 51
0.0
  0
ARC
  5
96
330
A
100
AcDbEntity
  8
0
  6
Continuous
 62
     7
100
AcDbCircle
 10
69.85000000000491
 20
-609.5945254959539
 30
0.0
 40
10.0
100
AcDbArc
 50
175.9756766650663
 51
270.0000000000011
  0
ARC
  5
97
330
A
100
AcDbEntity
  8
0
  6
Continuous
 62
     7
100
AcDbCircle
 10
69.85000000000491
 20
-609.5945254959539
 30
0.0
 40
10.0
100
AcDbArc
 50
270.0000000000011
 51
3.830288618577045
  0
LINE
  5
98
330
A
100
AcDbEntity
  8
0
  6
Continuous
 62
     7
100
AcDbLine
 10
79.82776730583579
 20
-608.928072056751
 30
0.0
 11
75.23405508169833
 21
-540.0736551245164
 31
0.0
  0
LINE
  5
99
330
A
100
AcDbEntity
  8
0
  6
Continuous
 62
     7
100
AcDbLine
 10
64.46631126698673
 20
-540.0681639828883
 30
0.0
 11
59.87218425888586
 21
-608.9287980455289
 31
0.0
  0
LINE
  5
9A
330
A
100
AcDbEntity
  8
0
  6
Continuous
 62
     7
100
AcDbLine
 10
84.84844911553265
 20
-551.5682557689252
 30
0.0
 11
89.85152563301154
 21
-551.5682557689252
 31
0.0
  0
LINE
  5
9B
330
A
100
AcDbEntity
  8
0
  6
Continuous
 62
     7
100
AcDbLine
 10
89.85152563301138
 20
-507.5682557689251
 30
0.0
 11
84.84844911553251
 21
-507.5682557689251
 31
0.0
  0
LINE
  5
9C
330
A
100
AcDbEntity
  8
0
  6
Continuous
 62
     7
100
AcDbLine
 10
75.36712746500687
 20
-542.0682557689251
 30
0.0
 11
79.85000000000467
 21
-542.0682557689251
 31
0.0
  0
LINE
  5
9D
330
A
100
AcDbEntity
  8
0
  6
Continuous
 62
     7
100
AcDbLine
 10
59.85000000000468
 20
-542.0682557689251
 30
0.0
 11
64.33287253500305
 21
-542.0682557689251
 31
0.0
  0
LINE
  5
9E
330
A
100
AcDbEntity
  8
0
  6
Continuous
 62
     7
100
AcDbLine
 10
64.35000000000461
 20
-517.0682557689253
 30
0.0
 11
59.85000000000458
 21
-517.0682557689253
 31
0.0
  0
LINE
  5
9F
330
A
100
AcDbEntity
  8
0
  6
Continuous
 62
     7
100
AcDbLine
 10
79.85000000000458
 20
-517.0682557689253
 30
0.0
 11
75.35000000000458
 21
-517.0682557689253
 31
0.0
  0
LINE
  5
A0
330
A
100
AcDbEntity
  8
0
  6
Continuous
 62
     7
100
AcDbLine
 10
64.35000000000447
 20
-486.0991327135114
 30
0.0
 11
64.35000000000458
 21
-517.0682557689253
 31
0.0
  0
LINE
  5
A1
330
A
100
AcDbEntity
  8
0
  6
Continuous
 62
     7
100
AcDbLine
 10
75.3500000000046
 20
-517.0682557689253
 30
0.0
 11
75.35000000000448
 21
-486.0991327135114
 31
0.0
  0
LINE
  5
A2
330
A
100
AcDbEntity
  8
0
  6
Continuous
 62
     7
100
AcDbLine
 10
79.85000000000465
 20
-534.568255768925
 30
0.0
 11
84.85346561710652
 21
-534.568255768925
 31
0.0
  0
LINE
  5
A3
330
A
100
AcDbEntity
  8
0
  6
Continuous
 62
     7
100
AcDbLine
 10
84.85346561710649
 20
-524.5682557689252
 30
0.0
 11
79.85000000000461
 21
-524.5682557689252
 31
0.0
  0
LINE
  5
A4
330
A
100
AcDbEntity
  8
0
  6
Continuous
 62
     7
100
AcDbLine
 10
117.7268157688399
 20
-507.3740818791963
 30
0.0
 11
98.78292209051094
 21
-518.3113439938792
 31
0.0
  0
LINE
  5
A5
330
A
100
AcDbEntity
  8
0
  6
Continuous
 62
     7
100
AcDbLine
 10
99.78364303637164
 20
-520.0429785631614
 30
0.0
 11
118.7268157688399
 21
-509.1061326867651
 31
0.0
  0
LINE
  5
A6
330
A
100
AcDbEntity
  8
0
  6
Continuous
 62
     7
100
AcDbLine
 10
20.97318423116797
 20
-509.1061326867662
 30
0.0
 11
39.9167526615126
 21
-520.0432070194374
 31
0.0
  0
LINE
  5
A7
330
A
100
AcDbEntity
  8
0
  6
Continuous
 62
     7
100
AcDbLine
 10
40.91689099320929
 20
-518.3112360777109
 30
0.0
 11
21.97318423116792
 21
-507.3740818791973
 31
0.0
  0
LINE
  5
A8
330
A
100
AcDbEntity
  8
0
  6
Continuous
 62
     7
100
AcDbLine
 10
14.85000000000007
 20
-291.0991327135114
 30
0.0
 11
14.84999999999999
 21
-304.0991327135115
 31
0.0
  0
LINE
  5
A9
330
A
100
AcDbEntity
  8
0
  6
Continuous
 62
     7
100
AcDbLine
 10
124.85
 20
-304.0991327135115
 30
0.0
 11
124.85
 21
-291.0991327135114
 31
0.0
  0
ARC
  5
AA
330
A
100
AcDbEntity
  8
0
  6
Continuous
 62
     7
100
AcDbCircle
 10
122.85
 20
-304.0991327135115
 30
0.0
 40
2.000000000000014
100
AcDbArc
 50
270.0000000000008
 51
0.0
  0
ARC
  5
AB
330
A
100
AcDbEntity
  8
0
  6
Continuous
 62
     7
100
AcDbCircle
 10
16.85
 20
-304.0991327135115
 30
0.0
 40
2.000000000000003
100
AcDbArc
 50
180.0000000000004
 51
270.0000000000008
  0
LINE
  5
AC
330
A
100
AcDbEntity
  8
0
  6
Continuous
 62
     7
100
AcDbLine
 10
62.85
 20
-306.0991327135115
 30
0.0
 11
62.85
 21
-486.0991327135114
 31
0.0
  0
LINE
  5
AD
330
A
100
AcDbEntity
  8
0
  6
Continuous
 62
     7
100
AcDbLine
 10
76.84999999999999
 20
-486.0991327135114
 30
0.0
 11
76.84999999999999
 21
-306.0991327135115
 31
0.0
  0
LWPOLYLINE
  5
AE
330
A
100
AcDbEntity
  8
0
  6
Continuous
 62
     7
100
AcDbPolyline
 90
        7
 70
   128
 43
0.0
 10
59.87833832480074
 20
-608.8951496220588
 10
59.95872549735497
 20
-608.201775697382
 10
60.86279757869462
 20
-605.7318949092265
 10
62.01540379822946
 20
-604.1940827027945
 10
63.86359260928322
 20
-602.6860480506193
 10
66.4989837411842
 20
-601.501112010808
 10
69.85000000000488
 20
-601.0158709701949
  0
LWPOLYLINE
  5
B7
330
A
100
AcDbEntity
  8
0
  6
Continuous
 62
     7
100
AcDbPolyline
 90
        9
 70
   128
 43
0.0
 10
69.85000000000488
 20
-601.0158709701949
 10
71.79962059066882
 20
-601.176913220608
 10
73.67431835539337
 20
-601.6538512084781
 10
75.40204971042277
 20
-602.4283564744011
 10
76.91641890870617
 20
-603.4706652153547
 10
78.15922959122154
 20
-604.7407220909582
 10
79.08272124041608
 20
-606.1897195277378
 10
79.65140459011135
 20
-607.7619733668052
 10
79.78838709796349
 20
-608.9284020473098
  0
LWPOLYLINE
  5
C2
330
A
100
AcDbEntity
  8
0
  6
Continuous
 62
     7
100
AcDbPolyline
 90
       12
 70
   128
 43
0.0
 10
64.53270688971172
 20
-540.0713126118164
 10
64.54441760961703
 20
-539.6444067327458
 10
65.16970827082076
 20
-538.4884552144654
 10
66.24934387263514
 20
-537.4961808967335
 10
67.69578486693288
 20
-536.7599175512078
 10
69.42627238948663
 20
-536.4047404202437
 10
69.85000000000465
 20
-536.3908812667697
 10
71.64256577720917
 20
-536.6438756332192
 10
73.23334220770885
 20
-537.3527434883915
 10
74.42277498129747
 20
-538.3596056713478
 10
75.08097797899683
 20
-539.4216252833055
 10
75.18499686317321
 20
-540.0792222850385
  0
LINE
  5
D0
330
A
100
AcDbEntity
  8
0
  6
Continuous
 62
     7
100
AcDbLine
 10
84.85000000000454
 20
-507.5682557689251
 30
0.0
 11
84.8500000000047
 21
-551.5682557689252
 31
0.0
  0
LINE
  5
D1
330
A
100
AcDbEntity
  8
0
  6
Continuous
 62
     7
100
AcDbLine
 10
89.8500000000047
 20
-551.5682557689252
 30
0.0
 11
89.85000000000455
 21
-507.5682557689251
 31
0.0
  0
LINE
  5
D2
330
A
100
AcDbEntity
  8
0
  6
Continuous
 62
     7
100
AcDbLine
 10
59.85000000000458
 20
-517.0682557689253
 30
0.0
 11
59.85000000000468
 21
-542.0682557689251
 31
0.0
  0
LWPOLYLINE
  5
D3
330
A
100
AcDbEntity
  8
0
  6
Continuous
 62
     7
100
AcDbPolyline
 90
       12
 70
   128
 43
0.0
 10
75.3500000000046
 20
-517.0682557689253
 10
75.07168152757898
 20
-517.1881928460071
 10
74.28131288475771
 20
-517.5002595026605
 10
72.99871868710845
 20
-517.9100213669878
 10
71.26703703233847
 20
-518.2541939893958
 10
69.43887683774422
 20
-518.3357572821883
 10
67.81250117715439
 20
-518.1598640569829
 10
66.36374319932788
 20
-517.8143633719247
 10
65.15839726900165
 20
-517.4022730225313
 10
64.45943877143403
 20
-517.1160210153169
 10
64.35000000000458
 20
-517.0682557689253
 10
64.3500000000046
 20
-517.0682557689253
  0
LINE
  5
E1
330
A
100
AcDbEntity
  8
0
  6
Continuous
 62
     7
100
AcDbLine
 10
79.85000000000467
 20
-542.0682557689251
 30
0.0
 11
79.85000000000458
 21
-517.0682557689253
 31
0.0
  0
LINE
  5
E2
330
A
100
AcDbEntity
  8
0
  6
Continuous
 62
     7
100
AcDbLine
 10
84.85000000000455
 20
-536.0682557689252
 30
0.0
 11
84.70226289496878
 21
-534.5682557689249
 31
0.0
  0
LWPOLYLINE
  5
E3
330
A
100
AcDbEntity
  8
0
  6
Continuous
 62
     7
100
AcDbPolyline
 90
        6
 70
   128
 43
0.0
 10
59.85000000000461
 20
-524.9638288868498
 10
59.24339828220647
 20
-525.461654051127
 10
57.37795581546652
 20
-527.7347022736312
 10
55.99180701233542
 20
-530.3280042834489
 10
55.13822079395628
 20
-533.1419009386833
 10
54.85000000000475
 20
-536.0682557689252
  0
LWPOLYLINE
  5
EB
330
A
100
AcDbEntity
  8
0
  6
Continuous
 62
     7
100
AcDbPolyline
 90
        7
 70
   128
 43
0.0
 10
54.85000000000475
 20
-536.0682557689252
 10
55.1382207939563
 20
-538.9946105991671
 10
55.99180701233546
 20
-541.8085072544015
 10
57.37795581546659
 20
-544.4018092642192
 10
59.24339828220656
 20
-546.6748574867234
 10
61.51644650471072
 20
-548.5402999534633
 10
63.81897220132343
 20
-549.7710255791156
  0
LWPOLYLINE
  5
F4
330
A
100
AcDbEntity
  8
0
  6
Continuous
 62
     7
100
AcDbPolyline
 90
        7
 70
   128
 43
0.0
 10
75.88102779868646
 20
-549.7710255791154
 10
78.18355349529868
 20
-548.5402999534633
 10
80.45660171780284
 20
-546.6748574867234
 10
82.32204418454278
 20
-544.4018092642192
 10
83.70819298767388
 20
-541.8085072544015
 10
84.56177920605304
 20
-538.9946105991671
 10
84.85000000000455
 20
-536.0682557689252
  0
ARC
  5
FD
330
A
100
AcDbEntity
  8
0
  6
Continuous
 62
     7
100
AcDbCircle
 10
69.85000000000465
 20
-536.0682557689252
 30
0.0
 40
22.49999999999934
100
AcDbArc
 50
180.0000000000004
 51
253.0678625776801
  0
ARC
  5
FE
330
A
100
AcDbEntity
  8
0
  6
Continuous
 62
     7
100
AcDbCircle
 10
69.85000000000465
 20
-536.0682557689252
 30
0.0
 40
22.49999999999928
100
AcDbArc
 50
286.932137422323
 51
316.4577809718435
  0
ARC
  5
FF
330
A
100
AcDbEntity
  8
0
  6
Continuous
 62
     7
100
AcDbCircle
 10
69.85000000000465
 20
-536.0682557689252
 30
0.0
 40
22.49999999999934
100
AcDbArc
 50
333.4180739547938
 51
26.40288874490454
  0
ARC
  5
100
330
A
100
AcDbEntity
  8
0
  6
Continuous
 62
     7
100
AcDbCircle
 10
69.85000000000465
 20
-536.0682557689252
 30
0.0
 40
22.49999999999941
100
AcDbArc
 50
48.10782170243706
 51
75.85099549106516
  0
ARC
  5
101
330
A
100
AcDbEntity
  8
0
  6
Continuous
 62
     7
100
AcDbCircle
 10
69.85000000000465
 20
-536.0682557689252
 30
0.0
 40
22.49999999999934
100
AcDbArc
 50
104.1490045089353
 51
180.0000000000004
  0
ARC
  5
102
330
A
100
AcDbEntity
  8
0
  6
Continuous
 62
     7
100
AcDbCircle
 10
69.85000000000422
 20
-536.1704748896555
 30
0.0
 40
56.84081960724846
100
AcDbArc
 50
0.0
 51
82.92601296168889
  0
ARC
  5
103
330
A
100
AcDbEntity
  8
0
  6
Continuous
 62
     7
100
AcDbCircle
 10
69.85000000000422
 20
-536.1704748896555
 30
0.0
 40
56.84081960724842
100
AcDbArc
 50
97.07398703831968
 51
261.0229170553879
  0
ARC
  5
104
330
A
100
AcDbEntity
  8
0
  6
Continuous
 62
     7
100
AcDbCircle
 10
69.85000000000422
 20
-536.1704748896555
 30
0.0
 40
56.84081960724843
100
AcDbArc
 50
278.9770829446151
 51
0.0
  0
ARC
  5
105
330
A
100
AcDbEntity
  8
0
  6
Continuous
 62
     7
100
AcDbCircle
 10
69.85000000000422
 20
-536.1704748896551
 30
0.0
 40
90.00000000000003
100
AcDbArc
 50
0.0
 51
85.53915630212868
  0
ARC
  5
106
330
A
100
AcDbEntity
  8
0
  6
Continuous
 62
     7
100
AcDbCircle
 10
69.85000000000422
 20
-536.1704748896551
 30
0.0
 40
89.99999999999998
100
AcDbArc
 50
94.46084369787667
 51
0.0
  0
ARC
  5
107
330
A
100
AcDbEntity
  8
0
  6
Continuous
 62
     7
100
AcDbCircle
 10
69.85000000000422
 20
-536.1704748896555
 30
0.0
 40
55.86968532733883
100
AcDbArc
 50
0.0
 51
82.80240672292292
  0
ARC
  5
108
330
A
100
AcDbEntity
  8
0
  6
Continuous
 62
     7
100
AcDbCircle
 10
69.85000000000422
 20
-536.1704748896555
 30
0.0
 40
55.86968532733886
100
AcDbArc
 50
97.19759327708581
 51
260.9329724677052
  0
ARC
  5
109
330
A
100
AcDbEntity
  8
0
  6
Continuous
 62
     7
100
AcDbCircle
 10
69.85000000000422
 20
-536.1704748896555
 30
0.0
 40
55.86968532733886
100
AcDbArc
 50
279.0670275322979
 51
0.0
  0
LWPOLYLINE
  5
10A
330
A
100
AcDbEntity
  8
0
  6
Continuous
 62
     7
100
AcDbPolyline
 90
        9
 70
   128
 43
0.0
 10
117.7611924145992
 20
-507.4313138026037
 10
117.7469140424952
 20
-507.4560155936894
 10
117.6611071451067
 20
-507.7570965593055
 10
117.6924788964763
 20
-508.1111977776766
 10
117.8363533716922
 20
-508.4655408530824
 10
118.0712862390407
 20
-508.7673113412785
 10
118.3622610139764
 20
-508.9715306841111
 10
118.6659082274901
 20
-509.0477602139609
 10
118.6944397921413
 20
-509.0477456765369
  0
LWPOLYLINE
  5
115
330
A
100
AcDbEntity
  8
0
  6
Continuous
 62
     7
100
AcDbPolyline
 90
        9
 70
   128
 43
0.0
 10
21.00556020786564
 20
-509.047745676538
 10
21.03409177251774
 20
-509.0477602139618
 10
21.33773898603144
 20
-508.9715306841123
 10
21.62871376096706
 20
-508.7673113412795
 10
21.8636466283156
 20
-508.4655408530833
 10
22.00752110353154
 20
-508.1111977776776
 10
22.03889285490108
 20
-507.7570965593065
 10
21.95308595751259
 20
-507.4560155936905
 10
21.93880758540811
 20
-507.4313138026041
  0
ARC
  5
120
330
A
100
AcDbEntity
  8
0
  6
Continuous
 62
     7
100
AcDbCircle
 10
69.85000000000422
 20
-536.1704748896555
 30
0.0
 40
34.00000000000004
100
AcDbArc
 50
0.0
 51
53.76056859635941
  0
ARC
  5
121
330
A
100
AcDbEntity
  8
0
  6
Continuous
 62
     7
100
AcDbCircle
 10
69.85000000000422
 20
-536.1704748896555
 30
0.0
 40
34.00000000000002
100
AcDbArc
 50
57.27147739639363
 51
80.69065907836238
  0
ARC
  5
122
330
A
100
AcDbEntity
  8
0
  6
Continuous
 62
     7
100
AcDbCircle
 10
69.85000000000422
 20
-536.1704748896555
 30
0.0
 40
33.99999999999995
100
AcDbArc
 50
99.30934092163656
 51
257.5352284049203
  0
ARC
  5
123
330
A
100
AcDbEntity
  8
0
  6
Continuous
 62
     7
100
AcDbCircle
 10
69.85000000000422
 20
-536.1704748896555
 30
0.0
 40
34.00000000000004
100
AcDbArc
 50
282.4647715950837
 51
0.0
  0
LINE
  5
124
330
A
100
AcDbEntity
  8
0
  6
Continuous
 62
     7
100
AcDbLine
 10
124.85
 20
-291.0991327135114
 30
0.0
 11
14.85000000000007
 21
-291.0991327135114
 31
0.0
  0
LINE
  5
125
330
A
100
AcDbEntity
  8
0
  6
Continuous
 62
     7
100
AcDbLine
 10
122.85
 20
-306.0991327135115
 30
0.0
 11
16.85000002017094
 21
-306.0991327135115
 31
0.0
  0
LINE
  5
126
330
A
100
AcDbEntity
  8
0
  6
Continuous
 62
     7
100
AcDbLine
 10
76.84999999999999
 20
-486.0991327135114
 30
0.0
 11
62.85
 21
-486.0991327135114
 31
0.0
  0
LWPOLYLINE
  5
127
330
A
100
AcDbEntity
  8
0
  6
PHANTOM
 62
     7
100
AcDbPolyline
 90
        9
 70
   128
 43
0.0
 10
59.13163685572333
 20
-536.0682557689252
 10
59.1435846238698
 20
-536.5751417449074
 10
59.1793512637714
 20
-537.080908275117
 10
59.23885859950321
 20
-537.5844433164584
 10
59.27861421333123
 20
-537.8405150759025
 10
59.45328290589269
 20
-538.6749297084771
 10
59.51704165221939
 20
-538.916790326373
 10
59.5603713814946
 20
-539.0693974493242
 10
59.85000000000466
 20
-539.807894312619
  0
LWPOLYLINE
  5
132
330
A
100
AcDbEntity
  8
0
  6
PHANTOM
 62
     7
100
AcDbPolyline
 90
        4
 70
   128
 43
0.0
 10
61.0089447142627
 20
-542.068255768925
 10
61.27530948457962
 20
-542.499273655494
 10
62.80836788663947
 20
-544.1491567143775
 10
64.13300458359589
 20
-545.0640444875277
  0
LWPOLYLINE
  5
138
330
A
100
AcDbEntity
  8
0
  6
PHANTOM
 62
     7
100
AcDbPolyline
 90
        6
 70
   128
 43
0.0
 10
75.57138298951324
 20
-545.1298091181261
 10
75.61316382873432
 20
-545.1055551366838
 10
76.10580738170039
 20
-544.7718437907588
 10
76.87973524537998
 20
-544.1596384321509
 10
77.85986303939607
 20
-543.1906972734365
 10
78.70285989773062
 20
-542.068255768925
  0
LWPOLYLINE
  5
140
330
A
100
AcDbEntity
  8
0
  6
PHANTOM
 62
     7
100
AcDbPolyline
 90
        8
 70
   128
 43
0.0
 10
79.85000000000467
 20
-539.892605196243
 10
80.04776177080696
 20
-539.3681549046544
 10
80.09835080510027
 20
-539.2074980809367
 10
80.13506314892095
 20
-539.0850128830279
 10
80.32495047642672
 20
-538.3400705270961
 10
80.45750292771165
 20
-537.6094161670271
 10
80.54228948730681
 20
-536.8193045961892
 10
80.56836314428599
 20
-536.0682557689252
  0
LWPOLYLINE
  5
14A
330
A
100
AcDbEntity
  8
0
  6
PHANTOM
 62
     7
100
AcDbPolyline
 90
        4
 70
   128
 43
0.0
 10
80.56836314428599
 20
-536.0682557689252
 10
80.55641535710895
 20
-535.5613697937385
 10
80.5206487172545
 20
-535.055603264677
 10
80.46305443017153
 20
-534.5682557689249
  0
LWPOLYLINE
  5
150
330
A
100
AcDbEntity
  8
0
  6
PHANTOM
 62
     7
100
AcDbPolyline
 90
        8
 70
   128
 43
0.0
 10
59.85000000000464
 20
-532.2439063499074
 10
59.65223837141197
 20
-532.7683561936253
 10
59.60164926527888
 20
-532.929013227163
 10
59.56493685109852
 20
-533.0514986548055
 10
59.37504952357008
 20
-533.796441010483
 10
59.2424970725251
 20
-534.5270953687687
 10
59.15771058392238
 20
-535.3172059199803
 10
59.13163685572333
 20
-536.0682557689252
  0
ARC
  5
15A
330
A
100
AcDbEntity
  8
0
  6
PHANTOM
 62
     7
100
AcDbCircle
 10
69.85000000000465
 20
-536.0682557689252
 30
0.0
 40
9.549678817091683
100
AcDbArc
 50
306.1352676032873
 51
321.0756767176986
  0
ARC
  5
15B
330
A
100
AcDbEntity
  8
0
  6
PHANTOM
 62
     7
100
AcDbCircle
 10
69.85000000000465
 20
-536.0682557689252
 30
0.0
 40
9.549678817091661
100
AcDbArc
 50
218.9243232823031
 51
233.8647323967184
  0
ARC
  5
15C
330
A
100
AcDbEntity
  8
0
  6
PHANTOM
 62
     7
100
AcDbCircle
 10
69.85000000000465
 20
-536.0682557689252
 30
0.0
 40
9.243442456779604
100
AcDbArc
 50
307.3442806367049
 51
319.5255558372328
  0
ARC
  5
15D
330
A
100
AcDbEntity
  8
0
  6
PHANTOM
 62
     7
100
AcDbCircle
 10
69.85000000000465
 20
-536.0682557689252
 30
0.0
 40
9.2434424567796
100
AcDbArc
 50
220.4744441627691
 51
232.6557193633012
  0
LINE
  5
15E
330
A
100
AcDbEntity
  8
0
  6
PHANTOM
 62
     7
100
AcDbLine
 10
14.85000000000007
 20
-304.0991327135115
 30
0.0
 11
124.85
 21
-304.0991327135115
 31
0.0
  0
LINE
  5
15F
330
A
100
AcDbEntity
  8
0
  6
Continuous
 62
     7
100
AcDbLine
 10
668.191192065898
 20
146.8830407562488
 30
0.0
 11
665.7231625881197
 21
187.2349660286978
 31
0.0
  0
LINE
  5
160
330
A
100
AcDbEntity
  8
0
  6
Continuous
 62
     7
100
AcDbLine
 10
620.7231625881211
 20
187.2349660286978
 30
0.0
 11
618.2551331103427
 21
146.8830407562488
 31
0.0
  0
LINE
  5
161
330
A
100
AcDbEntity
  8
0
  6
Continuous
 62
     7
100
AcDbLine
 10
665.7231625881197
 20
187.2349660286978
 30
0.0
 11
658.2219085944998
 21
194.7362200223181
 31
0.0
  0
LINE
  5
162
330
A
100
AcDbEntity
  8
0
  6
Continuous
 62
     7
100
AcDbLine
 10
628.2244165817409
 20
194.7362200223181
 30
0.0
 11
620.7231625881211
 21
187.2349660286978
 31
0.0
  0
LINE
  5
163
330
A
100
AcDbEntity
  8
0
  6
Continuous
 62
     7
100
AcDbLine
 10
708.1707777893893
 20
396.5942363734433
 30
0.0
 11
643.5457880859645
 21
288.7088278435281
 31
0.0
  0
LINE
  5
164
330
A
100
AcDbEntity
  8
0
  6
Continuous
 62
     7
100
AcDbLine
 10
649.2183569574893
 20
277.8883860643603
 30
0.0
 11
725.190801730581
 21
386.0755050051622
 31
0.0
  0
ARC
  5
165
330
A
100
AcDbEntity
  8
0
  6
Continuous
 62
     7
100
AcDbCircle
 10
716.7494323151483
 20
391.4554927013302
 30
0.0
 40
10.00000000000003
100
AcDbArc
 50
326.9671880051315
 51
0.0
  0
ARC
  5
166
330
A
100
AcDbEntity
  8
0
  6
Continuous
 62
     7
100
AcDbCircle
 10
716.7494323151483
 20
391.4554927013302
 30
0.0
 40
10.0
100
AcDbArc
 50
0.0
 51
149.089366826679
  0
LINE
  5
167
330
A
100
AcDbEntity
  8
0
  6
Continuous
 62
     7
100
AcDbLine
 10
637.7137408704259
 20
265.7742776582015
 30
0.0
 11
639.7231625881196
 21
214.7349660287058
 31
0.0
  0
LINE
  5
168
330
A
100
AcDbEntity
  8
0
  6
Continuous
 62
     7
100
AcDbLine
 10
646.7231625881211
 20
214.7349660287058
 30
0.0
 11
649.1843336215309
 21
277.2487102774008
 31
0.0
  0
LINE
  5
169
330
A
100
AcDbEntity
  8
0
  6
Continuous
 62
     7
100
AcDbLine
 10
593.2540395327064
 20
272.734966028698
 30
0.0
 11
625.4725430380512
 21
272.734966028698
 31
0.0
  0
LINE
  5
16A
330
A
100
AcDbEntity
  8
0
  6
Continuous
 62
     7
100
AcDbLine
 10
625.4725430380512
 20
283.7349660286978
 30
0.0
 11
593.2540395327064
 21
283.7349660286978
 31
0.0
  0
ARC
  5
16B
330
A
100
AcDbEntity
  8
0
  6
Continuous
 62
     7
100
AcDbCircle
 10
638.2231625881203
 20
196.2349660286976
 30
0.0
 40
1.5
100
AcDbArc
 50
270.0000000000008
 51
0.0
  0
ARC
  5
16C
330
A
100
AcDbEntity
  8
0
  6
Continuous
 62
     7
100
AcDbCircle
 10
648.2231625881205
 20
196.2349660286978
 30
0.0
 40
1.500000000000113
100
AcDbArc
 50
180.0000000000004
 51
270.0000000000008
  0
LINE
  5
16D
330
A
100
AcDbEntity
  8
0
  6
Continuous
 62
     7
100
AcDbLine
 10
639.7231625881196
 20
214.7349660287058
 30
0.0
 11
639.7231625881203
 21
196.2349660286977
 31
0.0
  0
LINE
  5
16E
330
A
100
AcDbEntity
  8
0
  6
Continuous
 62
     7
100
AcDbLine
 10
646.7231625881204
 20
196.2349660286977
 30
0.0
 11
646.7231625881211
 21
214.7349660287058
 31
0.0
  0
LINE
  5
16F
330
A
100
AcDbEntity
  8
0
  6
Continuous
 62
     7
100
AcDbLine
 10
733.3253817088508
 20
11.88304075624879
 30
0.0
 11
700.1662013160994
 21
146.8830407562488
 31
0.0
  0
LINE
  5
170
330
A
100
AcDbEntity
  8
0
  6
Continuous
 62
     7
100
AcDbLine
 10
586.4845621016023
 20
146.8830407562488
 30
0.0
 11
553.3253817088508
 21
11.88304075624879
 31
0.0
  0
LINE
  5
171
330
A
100
AcDbEntity
  8
0
  6
Continuous
 62
     7
100
AcDbLine
 10
553.3253817088508
 20
11.88304075624879
 30
0.0
 11
554.2965159887605
 21
11.64450729867028
 31
0.0
  0
LINE
  5
172
330
A
100
AcDbEntity
  8
0
  6
Continuous
 62
     7
100
AcDbLine
 10
732.3542474289413
 20
11.64450729867028
 30
0.0
 11
733.3253817088508
 21
11.88304075624879
 31
0.0
  0
LINE
  5
173
330
A
100
AcDbEntity
  8
0
  6
Continuous
 62
     7
100
AcDbLine
 10
398.2540395327063
 20
219.1330407562489
 30
0.0
 11
411.2540395327063
 21
219.1330407562489
 31
0.0
  0
LINE
  5
174
330
A
100
AcDbEntity
  8
0
  6
Continuous
 62
     7
100
AcDbLine
 10
411.2540395327063
 20
329.1330407562489
 30
0.0
 11
398.2540395327063
 21
329.1330407562489
 31
0.0
  0
ARC
  5
175
330
A
100
AcDbEntity
  8
0
  6
Continuous
 62
     7
100
AcDbCircle
 10
411.2540395327063
 20
327.1330407562489
 30
0.0
 40
2.0
100
AcDbArc
 50
0.0
 51
90.0
  0
ARC
  5
176
330
A
100
AcDbEntity
  8
0
  6
Continuous
 62
     7
100
AcDbCircle
 10
411.2540395327063
 20
221.1330407562489
 30
0.0
 40
2.0
100
AcDbArc
 50
270.0000000000008
 51
0.0
  0
LINE
  5
177
330
A
100
AcDbEntity
  8
0
  6
Continuous
 62
     7
100
AcDbLine
 10
593.2540395327064
 20
285.3256231598161
 30
0.0
 11
413.2540395327063
 21
285.3256231598161
 31
0.0
  0
LINE
  5
178
330
A
100
AcDbEntity
  8
0
  6
Continuous
 62
     7
100
AcDbLine
 10
413.2540395327063
 20
262.9404583526817
 30
0.0
 11
593.2540395327064
 21
262.9404583526817
 31
0.0
  0
LINE
  5
179
330
A
100
AcDbEntity
  8
0
  6
Continuous
 62
     7
100
AcDbLine
 10
643.2231625881205
 20
187.2349660286978
 30
0.0
 11
665.7231625881197
 21
187.2349660286978
 31
0.0
  0
LINE
  5
17A
330
A
100
AcDbEntity
  8
0
  6
Continuous
 62
     7
100
AcDbLine
 10
620.7231625881211
 20
187.2349660286978
 30
0.0
 11
643.2231625881205
 21
187.2349660286978
 31
0.0
  0
LINE
  5
17B
330
A
100
AcDbEntity
  8
0
  6
Continuous
 62
     7
100
AcDbLine
 10
643.2231625881204
 20
194.7349660286978
 30
0.0
 11
658.2231625881203
 21
194.7349660286978
 31
0.0
  0
LINE
  5
17C
330
A
100
AcDbEntity
  8
0
  6
Continuous
 62
     7
100
AcDbLine
 10
628.2231625881205
 20
194.7349660286978
 30
0.0
 11
643.2231625881204
 21
194.7349660286978
 31
0.0
  0
LWPOLYLINE
  5
17D
330
A
100
AcDbEntity
  8
0
  6
Continuous
 62
     7
100
AcDbPolyline
 90
       32
 70
   128
 43
0.0
 10
725.1413814363849
 20
386.0051289726119
 10
724.8463928078761
 20
386.0940071537345
 10
724.2003325503003
 20
386.428453657763
 10
722.5384082920085
 20
387.3902392483089
 10
721.1855295235108
 20
388.2134891719593
 10
719.690732475595
 20
389.144706581482
 10
718.1244604954823
 20
390.1381450323013
 10
717.3351882890399
 20
390.6447759173273
 10
716.9423746528065
 20
390.8983895244655
 10
716.7468169797821
 20
391.0250153088954
 10
716.6492978629938
 20
391.0882521426823
 10
716.6006090504476
 20
391.1198477680682
 10
716.5762830504501
 20
391.1356394154318
 10
716.5641247415455
 20
391.1435336396428
 10
716.5580467710293
 20
391.1474803446317
 10
716.5550080831484
 20
391.1494535944421
 10
716.5534888137266
 20
391.1504401935631
 10
716.5527291976672
 20
391.1509334866635
 10
716.5523493943029
 20
391.1511801315969
 10
716.5521594937875
 20
391.1513034536592
 10
716.5520645438215
 20
391.1513651145892
 10
716.5520170689115
 20
391.1513959450289
 10
716.5519933314746
 20
391.1514113602424
 10
716.5519814627607
 20
391.1514190678476
 10
716.5519695940501
 20
391.1514267754517
 10
716.1267897619545
 20
391.427541299799
 10
715.3566825165764
 20
391.9276544446023
 10
712.8868017284209
 20
393.5316135043858
 10
711.3489895219888
 20
394.530280497739
 10
709.8409548698136
 20
395.5096098604196
 10
708.6560188300023
 20
396.2791166700478
 10
708.1707777893893
 20
396.5942363734433
  0
CIRCLE
  5
19F
330
A
100
AcDbEntity
  8
0
  6
Continuous
 62
     7
100
AcDbCircle
 10
636.7231625881199
 20
278.2349660286979
 30
0.0
 40
12.5
  0
LINE
  5
1A0
330
A
100
AcDbEntity
  8
0
  6
Continuous
 62
     7
100
AcDbLine
 10
639.7231625881196
 20
214.7349660287058
 30
0.0
 11
646.7231625881211
 21
214.7349660287058
 31
0.0
  0
LWPOLYLINE
  5
1A1
330
A
100
AcDbEntity
  8
0
  6
Continuous
 62
     7
100
AcDbPolyline
 90
        7
 70
   128
 43
0.0
 10
658.72316258812
 20
278.2349660286979
 10
658.3004387569911
 20
273.942978944343
 10
657.0485123033683
 20
269.8159305166659
 10
655.0154940587759
 20
266.0124209022666
 10
652.2795117742241
 20
262.6786168425939
 10
648.9457077145512
 20
259.9426345580419
 10
648.4934753959537
 20
259.7009113477146
  0
LWPOLYLINE
  5
1AA
330
A
100
AcDbEntity
  8
0
  6
Continuous
 62
     7
100
AcDbPolyline
 90
        9
 70
   128
 43
0.0
 10
638.0840274114992
 20
256.3689995149319
 10
636.7231625881199
 20
256.2349660286979
 10
632.4311755037653
 20
256.6576898598269
 10
628.3041270760881
 20
257.9096163134495
 10
624.5006174616888
 20
259.9426345580419
 10
621.1668134020158
 20
262.6786168425939
 10
618.4308311174639
 20
266.0124209022666
 10
616.3978128728717
 20
269.8159305166659
 10
615.5123331309646
 20
272.734966028698
  0
LWPOLYLINE
  5
1B5
330
A
100
AcDbEntity
  8
0
  6
Continuous
 62
     7
100
AcDbPolyline
 90
       11
 70
   128
 43
0.0
 10
615.5123331309648
 20
283.7349660286978
 10
616.3978128728717
 20
286.6540015407299
 10
618.4308311174639
 20
290.4575111551292
 10
621.1668134020158
 20
293.791315214802
 10
624.5006174616888
 20
296.5272974993539
 10
628.3041270760881
 20
298.5603157439463
 10
632.4311755037653
 20
299.812242197569
 10
636.7231625881199
 20
300.2349660286979
 10
641.0151496724747
 20
299.812242197569
 10
645.1421981001519
 20
298.5603157439463
 10
648.4029498745005
 20
296.8174076089857
  0
LWPOLYLINE
  5
1C2
330
A
100
AcDbEntity
  8
0
  6
Continuous
 62
     7
100
AcDbPolyline
 90
        4
 70
   128
 43
0.0
 10
656.3247364301186
 20
288.0080909592081
 10
657.0485123033683
 20
286.6540015407299
 10
658.3004387569911
 20
282.5269531130528
 10
658.72316258812
 20
278.2349660286979
  0
LINE
  5
1C8
330
A
100
AcDbEntity
  8
0
  6
Continuous
 62
     7
100
AcDbLine
 10
586.4845621016023
 20
146.8830407562488
 30
0.0
 11
700.1662013160994
 21
146.8830407562488
 31
0.0
  0
LINE
  5
1C9
330
A
100
AcDbEntity
  8
0
  6
Continuous
 62
     7
100
AcDbLine
 10
553.3253817088508
 20
11.88304075624879
 30
0.0
 11
733.3253817088508
 21
11.88304075624879
 31
0.0
  0
LINE
  5
1CA
330
A
100
AcDbEntity
  8
0
  6
Continuous
 62
     7
100
AcDbLine
 10
554.2965159887605
 20
11.64450729867028
 30
0.0
 11
732.3542474289413
 21
11.64450729867028
 31
0.0
  0
LINE
  5
1CB
330
A
100
AcDbEntity
  8
0
  6
Continuous
 62
     7
100
AcDbLine
 10
398.2540395327063
 20
329.1330407562489
 30
0.0
 11
398.2540395327063
 21
219.1330407562489
 31
0.0
  0
LINE
  5
1CC
330
A
100
AcDbEntity
  8
0
  6
Continuous
 62
     7
100
AcDbLine
 10
413.2540395327063
 20
327.1330407562489
 30
0.0
 11
413.2540395327063
 21
221.1330407562489
 31
0.0
  0
LINE
  5
1CD
330
A
100
AcDbEntity
  8
0
  6
Continuous
 62
     7
100
AcDbLine
 10
593.2540395327064
 20
285.3256231598161
 30
0.0
 11
593.2540395327064
 21
276.9775463348454
 31
0.0
  0
LINE
  5
1CE
330
A
100
AcDbEntity
  8
0
  6
Continuous
 62
     7
100
AcDbLine
 10
593.2540395327064
 20
276.9775463348454
 30
0.0
 11
593.2540395327064
 21
266.9775463348454
 31
0.0
  0
LINE
  5
1CF
330
A
100
AcDbEntity
  8
0
  6
Continuous
 62
     7
100
AcDbLine
 10
593.2540395327064
 20
266.9775463348454
 30
0.0
 11
593.2540395327064
 21
262.9404583526817
 31
0.0
  0
LINE
  5
1D0
330
A
100
AcDbEntity
  8
0
  6
PHANTOM
 62
     7
100
AcDbLine
 10
639.7231625881203
 20
196.2349660286977
 30
0.0
 11
646.7231625881204
 21
196.2349660286977
 31
0.0
  0
LINE
  5
1D1
330
A
100
AcDbEntity
  8
0
  6
PHANTOM
 62
     7
100
AcDbLine
 10
411.2540395327063
 20
219.1330407562489
 30
0.0
 11
411.2540395327063
 21
329.1330407562489
 31
0.0
  0
LINE
  5
1D2
330
A
100
AcDbEntity
  8
0
  6
PHANTOM
 62
     7
100
AcDbLine
 10
593.2540395327064
 20
276.9775463348454
 30
0.0
 11
413.2540395327063
 21
276.9775463348454
 31
0.0
  0
LINE
  5
1D3
330
A
100
AcDbEntity
  8
0
  6
PHANTOM
 62
     7
100
AcDbLine
 10
593.2540395327064
 20
266.9775463348454
 30
0.0
 11
413.2540395327063
 21
266.9775463348454
 31
0.0
  0
ENDSEC
  0
SECTION
  2
OBJECTS
  0
DICTIONARY
  5
19
330
0
100
AcDbDictionary
281
     1
  3
ACAD_COLOR
350
1DA
  3
ACAD_GROUP
350
1A
  3
ACAD_LAYOUT
350
1DD
  3
ACAD_MATERIAL
350
1D9
  3
ACAD_MLINESTYLE
350
1B
  3
ACAD_PLOTSETTINGS
350
1DE
  3
ACAD_PLOTSTYLENAME
350
1D7
  3
ACAD_TABLESTYLE
350
1DB
  3
ACDBHEADERROUNDTRIPXREC
350
1F6
  3
AcDbVariableDictionary
350
1F1
  3
ASE_INDEX_DICTIONARY
350
1E4
  0
DICTIONARY
  5
1DA
102
{ACAD_REACTORS
330
19
102
}
330
19
100
AcDbDictionary
281
     1
  0
DICTIONARY
  5
1A
102
{ACAD_REACTORS
330
19
102
}
330
19
100
AcDbDictionary
281
     1
  0
DICTIONARY
  5
1DD
102
{ACAD_REACTORS
330
19
102
}
330
19
100
AcDbDictionary
281
     1
  3
Layout1
350
1E0
  3
Model
350
1DF
  0
DICTIONARY
  5
1D9
102
{ACAD_REACTORS
330
19
102
}
330
19
100
AcDbDictionary
281
     1
  0
DICTIONARY
  5
1B
102
{ACAD_REACTORS
330
19
102
}
330
19
100
AcDbDictionary
281
     1
  3
STANDARD
350
1C
  0
DICTIONARY
  5
1DE
102
{ACAD_REACTORS
330
19
102
}
330
19
100
AcDbDictionary
281
     1
  0
ACDBDICTIONARYWDFLT
  5
1D7
102
{ACAD_REACTORS
330
19
102
}
330
19
100
AcDbDictionary
281
     1
  3
Normal
350
1D8
100
AcDbDictionaryWithDefault
340
1D8
  0
DICTIONARY
  5
1DB
102
{ACAD_REACTORS
330
19
102
}
330
19
100
AcDbDictionary
281
     1
  3
Standard
350
1DC
  0
DICTIONARY
  5
1F6
102
{ACAD_REACTORS
330
19
102
}
330
19
100
AcDbDictionary
281
     1
  0
DICTIONARY
  5
1F1
102
{ACAD_REACTORS
330
19
102
}
330
19
100
AcDbDictionary
281
     1
  3
CTABLESTYLE
350
1F2
  3
DIMASSOC
350
1F3
  3
PROJECTNAME
350
1F4
  0
DICTIONARY
  5
1E4
102
{ACAD_REACTORS
330
19
102
}
330
19
100
AcDbDictionary
281
     1
  3
ASEBlockHierarchyIndexRecord
350
1E6
1001
DCO15
1040
1585050990.827
  0
LAYOUT
  5
1E0
102
{ACAD_XDICTIONARY
360
1F9
102
}
102
{ACAD_REACTORS
330
1DD
102
}
330
1DD
100
AcDbPlotSettings
  1

  2
C:\Dokumente und Einstellungen\Administrator\Anwendungsdaten\Autodesk\AutoCAD 2005\R16.1\ita\plotters\Default Windows System Printer.pc3
  4

  6

 40
0.0
 41
0.0
 42
0.0
 43
0.0
 44
0.0
 45
0.0
 46
0.0
 47
0.0
 48
0.0
 49
0.0
140
0.0
141
0.0
142
1.0
143
1.0
 70
   688
 72
     0
 73
     0
 74
     5
  7

 75
    16
147
1.0
148
0.0
149
0.0
100
AcDbLayout
  1
Layout1
 70
     1
 71
     1
 10
0.0
 20
0.0
 11
12.0
 21
9.0
 12
0.0
 22
0.0
 32
0.0
 14
1.000000000000000E+20
 24
1.000000000000000E+20
 34
1.000000000000000E+20
 15
-1.000000000000000E+20
 25
-1.000000000000000E+20
 35
-1.000000000000000E+20
146
0.0
 13
0.0
 23
0.0
 33
0.0
 16
1.0
 26
0.0
 36
0.0
 17
0.0
 27
1.0
 37
0.0
 76
     0
330
B
  0
LAYOUT
  5
1DF
102
{ACAD_XDICTIONARY
360
1F7
102
}
102
{ACAD_REACTORS
330
1DD
102
}
330
1DD
100
AcDbPlotSettings
  1

  2
C:\Dokumente und Einstellungen\Administrator\Anwendungsdaten\Autodesk\AutoCAD 2005\R16.1\ita\plotters\Default Windows System Printer.pc3
  4

  6

 40
0.0
 41
0.0
 42
0.0
 43
0.0
 44
0.0
 45
0.0
 46
0.0
 47
0.0
 48
0.0
 49
0.0
140
0.0
141
0.0
142
1.0
143
1.0
 70
  1712
 72
     0
 73
     0
 74
     0
  7

 75
     0
147
1.0
148
0.0
149
0.0
100
AcDbLayout
  1
Model
 70
     1
 71
     0
 10
0.0
 20
0.0
 11
12.0
 21
9.0
 12
0.0
 22
0.0
 32
0.0
 14
0.0
 24
0.0
 34
0.0
 15
0.0
 25
0.0
 35
0.0
146
0.0
 13
0.0
 23
0.0
 33
0.0
 16
1.0
 26
0.0
 36
0.0
 17
0.0
 27
1.0
 37
0.0
 76
     0
330
A
  0
MLINESTYLE
  5
1C
102
{ACAD_REACTORS
330
1B
102
}
330
1B
100
AcDbMlineStyle
  2
STANDARD
 70
     0
  3

 62
     0
 51
90.0
 52
90.0
 71
     2
 49
0.5
 62
   256
  6
BYLAYER
 49
-0.5
 62
   256
  6
BYLAYER
  0
ACDBPLACEHOLDER
  5
1D8
102
{ACAD_REACTORS
330
1D7
102
}
330
1D7
  0
TABLESTYLE
  5
1DC
102
{ACAD_REACTORS
330
1DB
102
}
330
1DB
100
AcDbTableStyle
  3
Standard
 70
     0
 71
     0
 40
0.06
 41
0.06
280
     0
281
     0
  7
STANDARD
140
0.18
170
     2
 62
     0
 63
     7
283
     0
274
    -2
284
     1
 64
     0
275
    -2
285
     1
 65
     0
276
    -2
286
     1
 66
     0
277
    -2
287
     1
 67
     0
278
    -2
288
     1
 68
     0
279
    -2
289
     1
 69
     0
  7
STANDARD
140
0.25
170
     5
 62
     0
 63
     7
283
     0
274
    -2
284
     1
 64
     0
275
    -2
285
     1
 65
     0
276
    -2
286
     1
 66
     0
277
    -2
287
     1
 67
     0
278
    -2
288
     1
 68
     0
279
    -2
289
     1
 69
     0
  7
STANDARD
140
0.18
170
     5
 62
     0
 63
     7
283
     0
274
    -2
284
     1
 64
     0
275
    -2
285
     1
 65
     0
276
    -2
286
     1
 66
     0
277
    -2
287
     1
 67
     0
278
    -2
288
     1
 68
     0
279
    -2
289
     1
 69
     0
  0
DICTIONARYVAR
  5
1F2
102
{ACAD_REACTORS
330
1F1
102
}
330
1F1
100
DictionaryVariables
280
     0
  1
STANDARD
  0
DICTIONARYVAR
  5
1F3
102
{ACAD_REACTORS
330
1F1
102
}
330
1F1
100
DictionaryVariables
280
     0
  1
1
  0
DICTIONARYVAR
  5
1F4
102
{ACAD_REACTORS
330
1F1
102
}
330
1F1
100
DictionaryVariables
280
     0
  1

  0
XRECORD
  5
1E6
102
{ACAD_REACTORS
330
1E4
102
}
330
1E4
100
AcDbXrecord
280
     1
  0
DICTIONARY
  5
1F9
330
1E0
100
AcDbDictionary
280
     1
281
     1
  3
ACAD_XREC_ROUNDTRIP
360
1FA
  0
DICTIONARY
  5
1F7
330
1DF
100
AcDbDictionary
280
     1
281
     1
  3
ACAD_XREC_ROUNDTRIP
360
1F8
  0
XRECORD
  5
1FA
102
{ACAD_REACTORS
330
1F9
102
}
330
1F9
100
AcDbXrecord
280
     1
102
SHADEPLOT
 70
     0
102
SHADEPLOTRESLEVEL
 70
     2
102
SHADEPLOTCUSTOMDPI
 70
   300
  0
XRECORD
  5
1F8
102
{ACAD_REACTORS
330
1F7
102
}
330
1F7
100
AcDbXrecord
280
     1
102
SHADEPLOT
 70
     0
102
SHADEPLOTRESLEVEL
 70
     2
102
SHADEPLOTCUSTOMDPI
 70
   300
  0
ENDSEC
  0
EOF
