  0
SECTION
  2
HEADER
  9
$ACADVER
  1
AC1018
  9
$ACADMAINTVER
 70
     0
  9
$DWGCODEPAGE
  3
ANSI_1252
  9
$INSBASE
 10
0.0
 20
0.0
 30
0.0
  9
$EXTMIN
 10
0.0104503632346577
 20
0.0492151439236028
 30
0.0
  9
$EXTMAX
 10
514.4436787893544
 20
773.443678789354
 30
0.0
  9
$LIMMIN
 10
0.0
 20
0.0
  9
$LIMMAX
 10
12.0
 20
9.0
  9
$ORTHOMODE
 70
     0
  9
$REGENMODE
 70
     1
  9
$FILLMODE
 70
     1
  9
$QTEXTMODE
 70
     0
  9
$MIRRTEXT
 70
     1
  9
$LTSCALE
 40
1.0
  9
$ATTMODE
 70
     1
  9
$TEXTSIZE
 40
0.2
  9
$TRACEWID
 40
0.05
  9
$TEXTSTYLE
  7
Standard
  9
$CLAYER
  8
Predefinito
  9
$CELTYPE
  6
ByLayer
  9
$CECOLOR
 62
   256
  9
$CELTSCALE
 40
1.0
  9
$DISPSILH
 70
     0
  9
$DIMSCALE
 40
1.0
  9
$DIMASZ
 40
0.18
  9
$DIMEXO
 40
0.0625
  9
$DIMDLI
 40
0.38
  9
$DIMRND
 40
0.0
  9
$DIMDLE
 40
0.0
  9
$DIMEXE
 40
0.18
  9
$DIMTP
 40
0.0
  9
$DIMTM
 40
0.0
  9
$DIMTXT
 40
0.18
  9
$DIMCEN
 40
0.09
  9
$DIMTSZ
 40
0.0
  9
$DIMTOL
 70
     0
  9
$DIMLIM
 70
     0
  9
$DIMTIH
 70
     1
  9
$DIMTOH
 70
     1
  9
$DIMSE1
 70
     0
  9
$DIMSE2
 70
     0
  9
$DIMTAD
 70
     0
  9
$DIMZIN
 70
     0
  9
$DIMBLK
  1

  9
$DIMASO
 70
     1
  9
$DIMSHO
 70
     1
  9
$DIMPOST
  1

  9
$DIMAPOST
  1

  9
$DIMALT
 70
     0
  9
$DIMALTD
 70
     2
  9
$DIMALTF
 40
25.4
  9
$DIMLFAC
 40
1.0
  9
$DIMTOFL
 70
     0
  9
$DIMTVP
 40
0.0
  9
$DIMTIX
 70
     0
  9
$DIMSOXD
 70
     0
  9
$DIMSAH
 70
     0
  9
$DIMBLK1
  1

  9
$DIMBLK2
  1

  9
$DIMSTYLE
  2
Standard
  9
$DIMCLRD
 70
     0
  9
$DIMCLRE
 70
     0
  9
$DIMCLRT
 70
     0
  9
$DIMTFAC
 40
1.0
  9
$DIMGAP
 40
0.09
  9
$DIMJUST
 70
     0
  9
$DIMSD1
 70
     0
  9
$DIMSD2
 70
     0
  9
$DIMTOLJ
 70
     1
  9
$DIMTZIN
 70
     0
  9
$DIMALTZ
 70
     0
  9
$DIMALTTZ
 70
     0
  9
$DIMUPT
 70
     0
  9
$DIMDEC
 70
     4
  9
$DIMTDEC
 70
     4
  9
$DIMALTU
 70
     2
  9
$DIMALTTD
 70
     2
  9
$DIMTXSTY
  7
Standard
  9
$DIMAUNIT
 70
     0
  9
$DIMADEC
 70
     0
  9
$DIMALTRND
 40
0.0
  9
$DIMAZIN
 70
     0
  9
$DIMDSEP
 70
    46
  9
$DIMATFIT
 70
     3
  9
$DIMFRAC
 70
     0
  9
$DIMLDRBLK
  1

  9
$DIMLUNIT
 70
     2
  9
$DIMLWD
 70
    -2
  9
$DIMLWE
 70
    -2
  9
$DIMTMOVE
 70
     2
  9
$LUNITS
 70
     2
  9
$LUPREC
 70
     3
  9
$SKETCHINC
 40
0.1
  9
$FILLETRAD
 40
0.5
  9
$AUNITS
 70
     0
  9
$AUPREC
 70
     0
  9
$MENU
  1
.
  9
$ELEVATION
 40
0.0
  9
$PELEVATION
 40
0.0
  9
$THICKNESS
 40
0.0
  9
$LIMCHECK
 70
     0
  9
$CHAMFERA
 40
0.5
  9
$CHAMFERB
 40
0.5
  9
$CHAMFERC
 40
1.0
  9
$CHAMFERD
 40
0.0
  9
$SKPOLY
 70
     0
  9
$TDCREATE
 40
2458267.389789167
  9
$TDUCREATE
 40
2458267.306455833
  9
$TDUPDATE
 40
2458267.389789178
  9
$TDUUPDATE
 40
2458267.306455845
  9
$TDINDWG
 40
0.0000000116
  9
$TDUSRTIMER
 40
0.0000000116
  9
$USRTIMER
 70
     1
  9
$ANGBASE
 50
0.0
  9
$ANGDIR
 70
     0
  9
$PDMODE
 70
     0
  9
$PDSIZE
 40
0.0
  9
$PLINEWID
 40
0.0
  9
$SPLFRAME
 70
     0
  9
$SPLINETYPE
 70
     6
  9
$SPLINESEGS
 70
     8
  9
$HANDSEED
  5
12E
  9
$SURFTAB1
 70
     6
  9
$SURFTAB2
 70
     6
  9
$SURFTYPE
 70
     6
  9
$SURFU
 70
     6
  9
$SURFV
 70
     6
  9
$UCSBASE
  2

  9
$UCSNAME
  2

  9
$UCSORG
 10
0.0
 20
0.0
 30
0.0
  9
$UCSXDIR
 10
1.0
 20
0.0
 30
0.0
  9
$UCSYDIR
 10
0.0
 20
1.0
 30
0.0
  9
$UCSORTHOREF
  2

  9
$UCSORTHOVIEW
 70
     0
  9
$UCSORGTOP
 10
0.0
 20
0.0
 30
0.0
  9
$UCSORGBOTTOM
 10
0.0
 20
0.0
 30
0.0
  9
$UCSORGLEFT
 10
0.0
 20
0.0
 30
0.0
  9
$UCSORGRIGHT
 10
0.0
 20
0.0
 30
0.0
  9
$UCSORGFRONT
 10
0.0
 20
0.0
 30
0.0
  9
$UCSORGBACK
 10
0.0
 20
0.0
 30
0.0
  9
$PUCSBASE
  2

  9
$PUCSNAME
  2

  9
$PUCSORG
 10
0.0
 20
0.0
 30
0.0
  9
$PUCSXDIR
 10
1.0
 20
0.0
 30
0.0
  9
$PUCSYDIR
 10
0.0
 20
1.0
 30
0.0
  9
$PUCSORTHOREF
  2

  9
$PUCSORTHOVIEW
 70
     0
  9
$PUCSORGTOP
 10
0.0
 20
0.0
 30
0.0
  9
$PUCSORGBOTTOM
 10
0.0
 20
0.0
 30
0.0
  9
$PUCSORGLEFT
 10
0.0
 20
0.0
 30
0.0
  9
$PUCSORGRIGHT
 10
0.0
 20
0.0
 30
0.0
  9
$PUCSORGFRONT
 10
0.0
 20
0.0
 30
0.0
  9
$PUCSORGBACK
 10
0.0
 20
0.0
 30
0.0
  9
$USERI1
 70
     0
  9
$USERI2
 70
     0
  9
$USERI3
 70
     0
  9
$USERI4
 70
     0
  9
$USERI5
 70
     0
  9
$USERR1
 40
0.0
  9
$USERR2
 40
0.0
  9
$USERR3
 40
0.0
  9
$USERR4
 40
0.0
  9
$USERR5
 40
0.0
  9
$WORLDVIEW
 70
     1
  9
$SHADEDGE
 70
     3
  9
$SHADEDIF
 70
    70
  9
$TILEMODE
 70
     1
  9
$MAXACTVP
 70
    64
  9
$PINSBASE
 10
0.0
 20
0.0
 30
0.0
  9
$PLIMCHECK
 70
     0
  9
$PEXTMIN
 10
1.000000000000000E+20
 20
1.000000000000000E+20
 30
1.000000000000000E+20
  9
$PEXTMAX
 10
-1.000000000000000E+20
 20
-1.000000000000000E+20
 30
-1.000000000000000E+20
  9
$PLIMMIN
 10
0.0
 20
0.0
  9
$PLIMMAX
 10
12.0
 20
9.0
  9
$UNITMODE
 70
     0
  9
$VISRETAIN
 70
     1
  9
$PLINEGEN
 70
     0
  9
$PSLTSCALE
 70
     1
  9
$TREEDEPTH
 70
  3020
  9
$CMLSTYLE
  2
Standard
  9
$CMLJUST
 70
     0
  9
$CMLSCALE
 40
1.0
  9
$PROXYGRAPHICS
 70
     1
  9
$MEASUREMENT
 70
     0
  9
$CELWEIGHT
370
    -1
  9
$ENDCAPS
280
     0
  9
$JOINSTYLE
280
     0
  9
$LWDISPLAY
290
     0
  9
$INSUNITS
 70
     4
  9
$HYPERLINKBASE
  1

  9
$STYLESHEET
  1

  9
$XEDIT
290
     1
  9
$CEPSNTYPE
380
     0
  9
$PSTYLEMODE
290
     1
  9
$FINGERPRINTGUID
  2
{870DD330-133E-4851-B2DE-91CF467E4117}
  9
$VERSIONGUID
  2
{FAEB1C32-E019-11D5-929B-00C0DF256EC4}
  9
$EXTNAMES
290
     1
  9
$PSVPSCALE
 40
0.0
  9
$OLESTARTUP
290
     0
  9
$SORTENTS
280
   127
  9
$INDEXCTL
280
     0
  9
$HIDETEXT
280
     1
  9
$XCLIPFRAME
290
     0
  9
$HALOGAP
280
     0
  9
$OBSCOLOR
 70
   257
  9
$OBSLTYPE
280
     0
  9
$INTERSECTIONDISPLAY
280
     0
  9
$INTERSECTIONCOLOR
 70
   257
  9
$DIMASSOC
280
     2
  9
$PROJECTNAME
  1

  0
ENDSEC
  0
SECTION
  2
CLASSES
  0
CLASS
  1
ACDBDICTIONARYWDFLT
  2
AcDbDictionaryWithDefault
  3
ObjectDBX Classes
 90
        0
 91
        4
280
     0
281
     0
  0
CLASS
  1
VISUALSTYLE
  2
AcDbVisualStyle
  3
ObjectDBX Classes
 90
     4095
 91
        4
280
     0
281
     0
  0
ENDSEC
  0
SECTION
  2
TABLES
  0
TABLE
  2
VPORT
  5
8
330
0
100
AcDbSymbolTable
 70
     1
  0
VPORT
  5
29
330
8
100
AcDbSymbolTableRecord
100
AcDbViewportTableRecord
  2
*Active
 70
     0
 10
0.0
 20
0.0
 11
1.0
 21
1.0
 12
257.2270645762945
 22
386.7464469666388
 13
0.0
 23
0.0
 14
0.5
 24
0.5
 15
0.5
 25
0.5
 16
0.0
 26
0.0
 36
1.0
 17
0.0
 27
0.0
 37
0.0
 40
788.8623529183391
 41
0.6651628019178144
 42
50.0
 43
0.0
 44
0.0
 50
0.0
 51
0.0
 71
     0
 72
   100
 73
     1
 74
     3
 75
     0
 76
     0
 77
     0
 78
     0
281
     0
 65
     1
110
0.0
120
0.0
130
0.0
111
1.0
121
0.0
131
0.0
112
0.0
122
1.0
132
0.0
 79
     0
146
0.0
  0
ENDTAB
  0
TABLE
  2
LTYPE
  5
5
330
0
100
AcDbSymbolTable
 70
     1
  0
LTYPE
  5
14
330
5
100
AcDbSymbolTableRecord
100
AcDbLinetypeTableRecord
  2
ByBlock
 70
     0
  3

 72
    65
 73
     0
 40
0.0
  0
LTYPE
  5
15
330
5
100
AcDbSymbolTableRecord
100
AcDbLinetypeTableRecord
  2
ByLayer
 70
     0
  3

 72
    65
 73
     0
 40
0.0
  0
LTYPE
  5
16
330
5
100
AcDbSymbolTableRecord
100
AcDbLinetypeTableRecord
  2
Continuous
 70
     0
  3
Solid line
 72
    65
 73
     0
 40
0.0
  0
ENDTAB
  0
TABLE
  2
LAYER
  5
2
330
0
100
AcDbSymbolTable
 70
     2
  0
LAYER
  5
10
330
2
100
AcDbSymbolTableRecord
100
AcDbLayerTableRecord
  2
0
 70
     0
 62
     7
  6
Continuous
370
    -3
390
F
  0
LAYER
  5
3B
330
2
100
AcDbSymbolTableRecord
100
AcDbLayerTableRecord
  2
Predefinito
 70
     0
 62
     7
  6
Continuous
370
    -3
390
F
  0
ENDTAB
  0
TABLE
  2
STYLE
  5
3
330
0
100
AcDbSymbolTable
 70
     1
  0
STYLE
  5
11
330
3
100
AcDbSymbolTableRecord
100
AcDbTextStyleTableRecord
  2
Standard
 70
     0
 40
0.0
 41
1.0
 50
0.0
 71
     0
 42
0.2
  3
txt
  4

  0
ENDTAB
  0
TABLE
  2
VIEW
  5
6
330
0
100
AcDbSymbolTable
 70
     0
  0
ENDTAB
  0
TABLE
  2
UCS
  5
7
330
0
100
AcDbSymbolTable
 70
     0
  0
ENDTAB
  0
TABLE
  2
APPID
  5
9
330
0
100
AcDbSymbolTable
 70
     1
  0
APPID
  5
12
330
9
100
AcDbSymbolTableRecord
100
AcDbRegAppTableRecord
  2
ACAD
 70
     0
  0
ENDTAB
  0
TABLE
  2
DIMSTYLE
  5
A
330
0
100
AcDbSymbolTable
 70
     1
100
AcDbDimStyleTable
  0
DIMSTYLE
105
27
330
A
100
AcDbSymbolTableRecord
100
AcDbDimStyleTableRecord
  2
Standard
 70
     0
340
11
  0
ENDTAB
  0
TABLE
  2
BLOCK_RECORD
  5
1
330
0
100
AcDbSymbolTable
 70
     1
  0
BLOCK_RECORD
  5
1F
330
1
100
AcDbSymbolTableRecord
100
AcDbBlockTableRecord
  2
*Model_Space
340
22
  0
BLOCK_RECORD
  5
1B
330
1
100
AcDbSymbolTableRecord
100
AcDbBlockTableRecord
  2
*Paper_Space
340
1E
  0
BLOCK_RECORD
  5
23
330
1
100
AcDbSymbolTableRecord
100
AcDbBlockTableRecord
  2
*Paper_Space0
340
26
  0
ENDTAB
  0
ENDSEC
  0
SECTION
  2
BLOCKS
  0
BLOCK
  5
20
330
1F
100
AcDbEntity
  8
0
100
AcDbBlockBegin
  2
*Model_Space
 70
     0
 10
0.0
 20
0.0
 30
0.0
  3
*Model_Space
  1

  0
ENDBLK
  5
21
330
1F
100
AcDbEntity
  8
0
100
AcDbBlockEnd
  0
BLOCK
  5
1C
330
1B
100
AcDbEntity
 67
     1
  8
0
100
AcDbBlockBegin
  2
*Paper_Space
 70
     0
 10
0.0
 20
0.0
 30
0.0
  3
*Paper_Space
  1

  0
ENDBLK
  5
1D
330
1B
100
AcDbEntity
 67
     1
  8
0
100
AcDbBlockEnd
  0
BLOCK
  5
24
330
23
100
AcDbEntity
  8
0
100
AcDbBlockBegin
  2
*Paper_Space0
 70
     0
 10
0.0
 20
0.0
 30
0.0
  3
*Paper_Space0
  1

  0
ENDBLK
  5
25
330
23
100
AcDbEntity
  8
0
100
AcDbBlockEnd
  0
ENDSEC
  0
SECTION
  2
ENTITIES
  0
SPLINE
  5
3C
330
1F
100
AcDbEntity
  8
Predefinito
100
AcDbSpline
210
0.0
220
0.0
230
1.0
 70
    12
 71
     2
 72
     6
 73
     3
 74
     0
 42
0.0000000001
 43
0.0000000001
 40
0.0
 40
0.0
 40
0.0
 40
3.069983274953954
 40
3.069983274953954
 40
3.069983274953954
 10
28.11920257276686
 20
573.5303502434984
 30
0.0
 41
1.0
 10
29.41498319602063
 20
574.4431236529836
 30
0.0
 41
0.9533447652903939
 10
30.99997607060614
 20
574.4436787893537
 30
0.0
 41
1.0
  0
SPLINE
  5
3D
330
1F
100
AcDbEntity
  8
Predefinito
100
AcDbSpline
210
0.0
220
0.0
230
1.0
 70
    12
 71
     2
 72
     6
 73
     3
 74
     0
 42
0.0000000001
 43
0.0000000001
 40
0.0
 40
0.0
 40
0.0
 40
3.071344782105801
 40
3.071344782105801
 40
3.071344782105801
 10
108.9999781787261
 20
574.4436787893537
 30
0.0
 41
1.0
 10
110.5858757729952
 20
574.4438779987138
 30
0.0
 41
0.9531651776320513
 10
111.8817446315375
 20
573.5296596874484
 30
0.0
 41
1.0
  0
SPLINE
  5
3E
330
1F
100
AcDbEntity
  8
Predefinito
100
AcDbSpline
210
0.0
220
0.0
230
1.0
 70
    12
 71
     2
 72
     8
 73
     5
 74
     0
 42
0.0000000001
 43
0.0000000001
 40
0.0
 40
0.0
 40
0.0
 40
87.43319394099659
 40
87.43319394099659
 40
174.8663878819932
 40
174.8663878819932
 40
174.8663878819932
 10
69.99997523537569
 20
447.4436787893542
 30
0.0
 41
1.0
 10
19.54683872202323
 20
447.443691490348
 30
0.0
 41
0.8112422548272702
 10
3.592156719784668
 20
495.3077396501369
 30
0.0
 41
1.0
 10
-12.36252528245391
 20
543.1717878099256
 30
0.0
 41
0.8112422548272702
 10
27.99997712466585
 20
573.443678789354
 30
0.0
 41
1.0
  0
SPLINE
  5
3F
330
1F
100
AcDbEntity
  8
Predefinito
100
AcDbSpline
210
0.0
220
0.0
230
1.0
 70
    12
 71
     2
 72
     8
 73
     5
 74
     0
 42
0.0000000001
 43
0.0000000001
 40
0.0
 40
0.0
 40
0.0
 40
87.43309242074513
 40
87.43309242074513
 40
174.8661848414903
 40
174.8661848414903
 40
174.8661848414903
 10
111.9999771246664
 20
573.443678789354
 30
0.0
 41
1.0
 10
152.3623320218514
 20
543.1717417314095
 30
0.0
 41
0.8112429812883425
 10
136.4076785941594
 20
495.3077792952643
 30
0.0
 41
1.0
 10
120.4530251664675
 20
447.4438168591192
 30
0.0
 41
0.8112429812883425
 10
69.99997901395645
 20
447.443678789354
 30
0.0
 41
1.0
  0
SPLINE
  5
40
330
1F
100
AcDbEntity
  8
Predefinito
100
AcDbSpline
210
0.0
220
0.0
230
1.0
 70
    24
 71
     2
 72
     6
 73
     3
 74
     0
 42
0.0000000001
 43
0.0000000001
 40
0.0
 40
0.0
 40
0.0
 40
4.253115379867722
 40
4.253115379867722
 40
4.253115379867722
 10
60.04997712466629
 20
611.5122563033349
 30
0.0
 10
60.04997712466629
 20
613.6388139932687
 30
0.0
 10
60.04997712466629
 20
615.7653716832026
 30
0.0
  0
SPLINE
  5
41
330
1F
100
AcDbEntity
  8
Predefinito
100
AcDbSpline
210
0.0
220
0.0
230
1.0
 70
    24
 71
     2
 72
     6
 73
     3
 74
     0
 42
0.0000000001
 43
0.0000000001
 40
0.0
 40
0.0
 40
0.0
 40
13.75317775083522
 40
13.75317775083522
 40
13.75317775083522
 10
60.04997712466629
 20
586.2653724731947
 30
0.0
 10
60.04997712466629
 20
593.1419613486123
 30
0.0
 10
60.04997712466629
 20
600.0185502240299
 30
0.0
  0
SPLINE
  5
42
330
1F
100
AcDbEntity
  8
Predefinito
100
AcDbSpline
210
0.0
220
0.0
230
1.0
 70
    24
 71
     2
 72
     6
 73
     3
 74
     0
 42
0.0000000001
 43
0.0000000001
 40
0.0
 40
0.0
 40
0.0
 40
13.75317775083511
 40
13.75317775083511
 40
13.75317775083511
 10
79.94997712466628
 20
600.0185502240299
 30
0.0
 10
79.94997712466628
 20
593.1419613486123
 30
0.0
 10
79.94997712466628
 20
586.2653724731948
 30
0.0
  0
SPLINE
  5
43
330
1F
100
AcDbEntity
  8
Predefinito
100
AcDbSpline
210
0.0
220
0.0
230
1.0
 70
    24
 71
     2
 72
     6
 73
     3
 74
     0
 42
0.0000000001
 43
0.0000000001
 40
0.0
 40
0.0
 40
0.0
 40
0.7071067811865476
 40
0.7071067811865476
 40
0.7071067811865476
 10
60.04997712466624
 20
615.7653724731949
 30
0.0
 10
60.29997712466624
 20
616.0153724731949
 30
0.0
 10
60.54997712466624
 20
616.2653724731949
 30
0.0
  0
SPLINE
  5
44
330
1F
100
AcDbEntity
  8
Predefinito
100
AcDbSpline
210
0.0
220
0.0
230
1.0
 70
    24
 71
     2
 72
     6
 73
     3
 74
     0
 42
0.0000000001
 43
0.0000000001
 40
0.0
 40
0.0
 40
0.0
 40
0.7071067811865576
 40
0.7071067811865576
 40
0.7071067811865576
 10
79.44997712466632
 20
616.2653724731949
 30
0.0
 10
79.69997712466633
 20
616.0153724731949
 30
0.0
 10
79.94997712466633
 20
615.7653724731949
 30
0.0
  0
SPLINE
  5
45
330
1F
100
AcDbEntity
  8
Predefinito
100
AcDbSpline
210
0.0
220
0.0
230
1.0
 70
    12
 71
     2
 72
     6
 73
     3
 74
     0
 42
0.0000000001
 43
0.0000000001
 40
0.0
 40
0.0
 40
0.0
 40
31.58158651876498
 40
31.58158651876498
 40
31.58158651876498
 10
80.36638237928955
 20
586.2653724735889
 30
0.0
 41
1.0
 10
96.25464468739912
 20
583.8711263879853
 30
0.0
 41
0.9743534699666911
 10
109.4840068041423
 20
574.7522848237401
 30
0.0
 41
1.0
  0
SPLINE
  5
46
330
1F
100
AcDbEntity
  8
Predefinito
100
AcDbSpline
210
0.0
220
0.0
230
1.0
 70
    12
 71
     2
 72
     6
 73
     3
 74
     0
 42
0.0000000001
 43
0.0000000001
 40
0.0
 40
0.0
 40
0.0
 40
31.58165418909488
 40
31.58165418909488
 40
31.58165418909488
 10
30.51594615892789
 20
574.7522848588478
 30
0.0
 41
1.0
 10
43.74514080878892
 20
583.8715517295423
 30
0.0
 41
0.9743472308176335
 10
59.6335718700432
 20
586.2653724735889
 30
0.0
 41
1.0
  0
SPLINE
  5
47
330
1F
100
AcDbEntity
  8
Predefinito
100
AcDbSpline
210
0.0
220
0.0
230
1.0
 70
    24
 71
     2
 72
     6
 73
     3
 74
     0
 42
0.0000000001
 43
0.0000000001
 40
0.0
 40
0.0
 40
0.0
 40
39.51418963414507
 40
39.51418963414507
 40
39.51418963414507
 10
109.5141667588114
 20
574.5362019345752
 30
0.0
 10
89.7570719417389
 20
574.5362019345752
 30
0.0
 10
69.99997712466637
 20
574.5362019345752
 30
0.0
  0
SPLINE
  5
48
330
1F
100
AcDbEntity
  8
Predefinito
100
AcDbSpline
210
0.0
220
0.0
230
1.0
 70
    12
 71
     2
 72
     8
 73
     5
 74
     0
 42
0.0000000001
 43
0.0000000001
 40
0.0
 40
0.0
 40
0.0
 40
0.090499856463042
 40
0.090499856463042
 40
0.180999712926084
 40
0.180999712926084
 40
0.180999712926084
 10
109.5925534588959
 20
574.6773625857716
 30
0.0
 41
1.0
 10
109.6072482310564
 20
574.6317129548219
 30
0.0
 41
0.9174538780251411
 10
109.5839668760718
 20
574.5897867858484
 30
0.0
 41
1.0
 10
109.5606855210873
 20
574.5478606168751
 30
0.0
 41
0.9174538780251411
 10
109.5141677797205
 20
574.5362019345815
 30
0.0
 41
1.0
  0
SPLINE
  5
49
330
1F
100
AcDbEntity
  8
Predefinito
100
AcDbSpline
210
0.0
220
0.0
230
1.0
 70
    12
 71
     2
 72
     8
 73
     5
 74
     0
 42
0.0000000001
 43
0.0000000001
 40
0.0
 40
0.0
 40
0.0
 40
0.0914206894665662
 40
0.0914206894665662
 40
0.1828413789331325
 40
0.1828413789331325
 40
0.1828413789331325
 10
30.48578646961231
 20
574.5362019345815
 30
0.0
 41
1.0
 10
30.43816682789581
 20
574.5463991811681
 30
0.0
 41
0.910430792870403
 10
30.41452490165625
 20
574.5889746839699
 30
0.0
 41
1.0
 10
30.39088297541669
 20
574.6315501867718
 30
0.0
 41
0.910430792870403
 10
30.4074007904369
 20
574.6773625857716
 30
0.0
 41
1.0
  0
SPLINE
  5
4A
330
1F
100
AcDbEntity
  8
Predefinito
100
AcDbSpline
210
0.0
220
0.0
230
1.0
 70
    24
 71
     2
 72
     6
 73
     3
 74
     0
 42
0.0000000001
 43
0.0000000001
 40
0.0
 40
0.0
 40
0.0
 40
0.6598872323783944
 40
0.6598872323783944
 40
0.6598872323783944
 10
52.49997712466637
 20
642.2238267495899
 30
0.0
 10
52.73328249308294
 20
641.9905213811733
 30
0.0
 10
52.96658786149952
 20
641.7572160127567
 30
0.0
  0
SPLINE
  5
4B
330
1F
100
AcDbEntity
  8
Predefinito
100
AcDbSpline
210
0.0
220
0.0
230
1.0
 70
    24
 71
     2
 72
     6
 73
     3
 74
     0
 42
0.0000000001
 43
0.0000000001
 40
0.0
 40
0.0
 40
0.0
 40
0.6598872323783944
 40
0.6598872323783944
 40
0.6598872323783944
 10
45.03336638783325
 20
641.7572160127567
 30
0.0
 10
45.26667175624983
 20
641.9905213811733
 30
0.0
 10
45.49997712466641
 20
642.2238267495899
 30
0.0
  0
SPLINE
  5
4C
330
1F
100
AcDbEntity
  8
Predefinito
100
AcDbSpline
210
0.0
220
0.0
230
1.0
 70
    24
 71
     2
 72
     6
 73
     3
 74
     0
 42
0.0000000001
 43
0.0000000001
 40
0.0
 40
0.0
 40
0.0
 40
0.6598872323783944
 40
0.6598872323783944
 40
0.6598872323783944
 10
52.96658786149952
 20
659.6904374864231
 30
0.0
 10
52.73328249308294
 20
659.4571321180065
 30
0.0
 10
52.49997712466637
 20
659.2238267495899
 30
0.0
  0
SPLINE
  5
4D
330
1F
100
AcDbEntity
  8
Predefinito
100
AcDbSpline
210
0.0
220
0.0
230
1.0
 70
    24
 71
     2
 72
     6
 73
     3
 74
     0
 42
0.0000000001
 43
0.0000000001
 40
0.0
 40
0.0
 40
0.0
 40
0.6598872323783944
 40
0.6598872323783944
 40
0.6598872323783944
 10
45.49997712466641
 20
659.2238267495899
 30
0.0
 10
45.26667175624983
 20
659.4571321180065
 30
0.0
 10
45.03336638783325
 20
659.6904374864231
 30
0.0
  0
SPLINE
  5
4E
330
1F
100
AcDbEntity
  8
Predefinito
100
AcDbSpline
210
0.0
220
0.0
230
1.0
 70
    24
 71
     2
 72
     6
 73
     3
 74
     0
 42
0.0000000001
 43
0.0000000001
 40
0.0
 40
0.0
 40
0.0
 40
17.5
 40
17.5
 40
17.5
 10
44.99997712466639
 20
624.2238267495899
 30
0.0
 10
44.99997712466639
 20
632.9738267495899
 30
0.0
 10
44.99997712466639
 20
641.7238267495899
 30
0.0
  0
SPLINE
  5
4F
330
1F
100
AcDbEntity
  8
Predefinito
100
AcDbSpline
210
0.0
220
0.0
230
1.0
 70
    24
 71
     2
 72
     6
 73
     3
 74
     0
 42
0.0000000001
 43
0.0000000001
 40
0.0
 40
0.0
 40
0.0
 40
17.5
 40
17.5
 40
17.5
 10
52.99997712466639
 20
641.7238267495899
 30
0.0
 10
52.99997712466639
 20
632.9738267495899
 30
0.0
 10
52.99997712466639
 20
624.2238267495899
 30
0.0
  0
SPLINE
  5
50
330
1F
100
AcDbEntity
  8
Predefinito
100
AcDbSpline
210
0.0
220
0.0
230
1.0
 70
    12
 71
     2
 72
     6
 73
     3
 74
     0
 42
0.0000000001
 43
0.0000000001
 40
0.0
 40
0.0
 40
0.0
 40
17.16475018785592
 40
17.16475018785592
 40
17.16475018785592
 10
52.99997712466639
 20
624.2238267495899
 30
0.0
 41
1.0
 10
52.99931477257201
 20
614.8289466501265
 30
0.0
 41
0.8751825649753529
 10
60.95467899383321
 20
609.8313519657729
 30
0.0
 41
1.0
  0
SPLINE
  5
51
330
1F
100
AcDbEntity
  8
Predefinito
100
AcDbSpline
210
0.0
220
0.0
230
1.0
 70
    12
 71
     2
 72
     6
 73
     3
 74
     0
 42
0.0000000001
 43
0.0000000001
 40
0.0
 40
0.0
 40
0.0
 40
17.14481575448159
 40
17.14481575448159
 40
17.14481575448159
 10
79.06254104166993
 20
609.840883175599
 30
0.0
 41
1.0
 10
86.99860009052703
 20
614.8429202684121
 30
0.0
 41
0.8755966125228465
 10
86.99997712466646
 20
624.2238267495899
 30
0.0
 41
1.0
  0
SPLINE
  5
52
330
1F
100
AcDbEntity
  8
Predefinito
100
AcDbSpline
210
0.0
220
0.0
230
1.0
 70
    24
 71
     2
 72
     6
 73
     3
 74
     0
 42
0.0000000001
 43
0.0000000001
 40
0.0
 40
0.0
 40
0.0
 40
120.0
 40
120.0
 40
120.0
 10
86.99997712466639
 20
624.2238267495899
 30
0.0
 10
86.99997712466639
 20
684.2238267495899
 30
0.0
 10
86.99997712466639
 20
744.2238267495899
 30
0.0
  0
SPLINE
  5
53
330
1F
100
AcDbEntity
  8
Predefinito
100
AcDbSpline
210
0.0
220
0.0
230
1.0
 70
    24
 71
     2
 72
     6
 73
     3
 74
     0
 42
0.0000000001
 43
0.0000000001
 40
0.0
 40
0.0
 40
0.0
 40
120.0
 40
120.0
 40
120.0
 10
94.99997712466639
 20
744.2238267495899
 30
0.0
 10
94.99997712466639
 20
684.2238267495899
 30
0.0
 10
94.99997712466639
 20
624.2238267495899
 30
0.0
  0
SPLINE
  5
54
330
1F
100
AcDbEntity
  8
Predefinito
100
AcDbSpline
210
0.0
220
0.0
230
1.0
 70
    12
 71
     2
 72
     6
 73
     3
 74
     0
 42
0.0000000001
 43
0.0000000001
 40
0.0
 40
0.0
 40
0.0
 40
19.62743245336094
 40
19.62743245336094
 40
19.62743245336094
 10
63.12729820881675
 20
759.772695175581
 30
0.0
 41
1.0
 10
53.00273932200431
 20
755.2945357208004
 30
0.0
 41
0.8380731966320242
 10
52.99997712466644
 20
744.2238267495899
 30
0.0
 41
1.0
  0
SPLINE
  5
55
330
1F
100
AcDbEntity
  8
Predefinito
100
AcDbSpline
210
0.0
220
0.0
230
1.0
 70
    12
 71
     2
 72
     6
 73
     3
 74
     0
 42
0.0000000001
 43
0.0000000001
 40
0.0
 40
0.0
 40
0.0
 40
19.59635917121552
 40
19.59635917121552
 40
19.59635917121552
 10
86.99997712466639
 20
744.2238267495899
 30
0.0
 41
1.0
 10
86.99990623772304
 20
755.2735186270497
 30
0.0
 41
0.8384526998363867
 10
76.90189031194768
 20
759.7596934959791
 30
0.0
 41
1.0
  0
SPLINE
  5
56
330
1F
100
AcDbEntity
  8
Predefinito
100
AcDbSpline
210
0.0
220
0.0
230
1.0
 70
    24
 71
     2
 72
     6
 73
     3
 74
     0
 42
0.0000000001
 43
0.0000000001
 40
0.0
 40
0.0
 40
0.0
 40
84.5
 40
84.5
 40
84.5
 10
52.99997712466639
 20
744.2238267495899
 30
0.0
 10
52.99997712466639
 20
701.9738267495899
 30
0.0
 10
52.99997712466639
 20
659.7238267495899
 30
0.0
  0
SPLINE
  5
57
330
1F
100
AcDbEntity
  8
Predefinito
100
AcDbSpline
210
0.0
220
0.0
230
1.0
 70
    12
 71
     2
 72
     6
 73
     3
 74
     0
 42
0.0000000001
 43
0.0000000001
 40
0.0
 40
0.0
 40
0.0
 40
8.68064452287096
 40
8.68064452287096
 40
8.68064452287096
 10
61.79581504560697
 20
771.0012153543222
 30
0.0
 41
1.0
 10
65.53432284182581
 20
773.443678789354
 30
0.0
 41
0.9584281674521075
 10
69.99997712466681
 20
773.4436787893538
 30
0.0
 41
1.0
  0
SPLINE
  5
58
330
1F
100
AcDbEntity
  8
Predefinito
100
AcDbSpline
210
0.0
220
0.0
230
1.0
 70
    12
 71
     2
 72
     6
 73
     3
 74
     0
 42
0.0000000001
 43
0.0000000001
 40
0.0
 40
0.0
 40
0.0
 40
16.33010037688653
 40
16.33010037688653
 40
16.33010037688653
 10
83.29016585628663
 20
765.3985967240191
 30
0.0
 41
1.0
 10
79.08007624266611
 20
773.4436787893541
 30
0.0
 41
0.8554709801168866
 10
69.9999771246668
 20
773.4436787893538
 30
0.0
 41
1.0
  0
SPLINE
  5
59
330
1F
100
AcDbEntity
  8
Predefinito
100
AcDbSpline
210
0.0
220
0.0
230
1.0
 70
    12
 71
     2
 72
     6
 73
     3
 74
     0
 42
0.0000000001
 43
0.0000000001
 40
0.0
 40
0.0
 40
0.0
 40
9.93240284921609
 40
9.93240284921609
 40
9.93240284921609
 10
78.20413920372664
 20
745.8861422243856
 30
0.0
 41
1.0
 10
82.52056799352206
 20
748.7061763298801
 30
0.0
 41
0.9456917945212724
 10
84.19096948703417
 20
753.5840763600157
 30
0.0
 41
1.0
  0
SPLINE
  5
5A
330
1F
100
AcDbEntity
  8
Predefinito
100
AcDbSpline
210
0.0
220
0.0
230
1.0
 70
    12
 71
     2
 72
     8
 73
     5
 74
     0
 42
0.0000000001
 43
0.0000000001
 40
0.0
 40
0.0
 40
0.0
 40
3.730190968105772
 40
3.730190968105772
 40
27.29213587002896
 40
27.29213587002896
 40
27.29213587002896
 10
55.80948894948769
 20
753.58260428364
 30
0.0
 41
1.0
 10
56.41704774797984
 20
751.8090137049329
 30
0.0
 41
0.99227977378451
 10
57.44244055969848
 20
750.2395167102941
 30
0.0
 41
1.0
 10
65.64660263875847
 20
737.6819801453264
 30
0.0
 41
0.7071067811865677
 10
78.2041392037266
 20
745.8861422243857
 30
0.0
 41
1.0
  0
SPLINE
  5
5B
330
1F
100
AcDbEntity
  8
Predefinito
100
AcDbSpline
210
0.0
220
0.0
230
1.0
 70
    12
 71
     2
 72
     6
 73
     3
 74
     0
 42
0.0000000001
 43
0.0000000001
 40
0.0
 40
0.0
 40
0.0
 40
7.649455853701191
 40
7.649455853701191
 40
7.649455853701191
 10
61.79581504560696
 20
771.0012153543222
 30
0.0
 41
1.0
 10
58.52262531653515
 20
768.8627561976326
 30
0.0
 41
0.9676678708095904
 10
56.70978839319273
 20
765.3985967242975
 30
0.0
 41
1.0
  0
SPLINE
  5
5C
330
1F
100
AcDbEntity
  8
Predefinito
100
AcDbSpline
210
0.0
220
0.0
230
1.0
 70
    12
 71
     2
 72
     6
 73
     3
 74
     0
 42
0.0000000001
 43
0.0000000001
 40
0.0
 40
0.0
 40
0.0
 40
7.204159005535641
 40
7.204159005535641
 40
7.204159005535641
 10
57.0496810862898
 20
765.6081628962801
 30
0.0
 41
1.0
 10
58.82866604278973
 20
768.8238001271899
 30
0.0
 41
0.970528089289662
 10
61.90520387332778
 20
770.833781533456
 30
0.0
 41
1.0
  0
SPLINE
  5
5D
330
1F
100
AcDbEntity
  8
Predefinito
100
AcDbSpline
210
0.0
220
0.0
230
1.0
 70
    12
 71
     2
 72
     8
 73
     5
 74
     0
 42
0.0000000001
 43
0.0000000001
 40
0.0
 40
0.0
 40
0.0
 40
23.24778563656438
 40
23.24778563656438
 40
27.08092284346645
 40
27.08092284346645
 40
27.08092284346645
 10
78.09475037600583
 20
746.0535760452517
 30
0.0
 41
1.0
 10
65.70464763190381
 20
737.9588027939129
 30
0.0
 41
0.7071067811865634
 10
57.60987438056468
 20
750.3489055380148
 30
0.0
 41
1.0
 10
56.55571919603702
 20
751.9624270832127
 30
0.0
 41
0.9916268607885259
 10
55.94996144510104
 20
753.7921135254932
 30
0.0
 41
1.0
  0
SPLINE
  5
5E
330
1F
100
AcDbEntity
  8
Predefinito
100
AcDbSpline
210
0.0
220
0.0
230
1.0
 70
    12
 71
     2
 72
     6
 73
     3
 74
     0
 42
0.0000000001
 43
0.0000000001
 40
0.0
 40
0.0
 40
0.0
 40
9.952711280997597
 40
9.952711280997597
 40
9.952711280997597
 10
84.05049359243124
 20
753.7936264252315
 30
0.0
 41
1.0
 10
82.42524325593175
 20
748.8827985830734
 30
0.0
 41
0.9440018287453716
 10
78.09475037600586
 20
746.0535760452518
 30
0.0
 41
1.0
  0
SPLINE
  5
5F
330
1F
100
AcDbEntity
  8
Predefinito
100
AcDbSpline
210
0.0
220
0.0
230
1.0
 70
    12
 71
     2
 72
     8
 73
     5
 74
     0
 42
0.0000000001
 43
0.0000000001
 40
0.0
 40
0.0
 40
0.0
 40
23.24778563656446
 40
23.24778563656446
 40
24.3339641939747
 40
24.3339641939747
 40
24.3339641939747
 10
61.90520387332779
 20
770.833781533456
 30
0.0
 41
1.0
 10
74.2953066174299
 20
778.928554784795
 30
0.0
 41
0.707106781186548
 10
82.39007986876888
 20
766.5384520406928
 30
0.0
 41
1.0
 10
82.68725276346294
 20
766.0835902942674
 30
0.0
 41
0.9993268059035613
 10
82.95027316141746
 20
765.6081628992197
 30
0.0
 41
1.0
  0
SPLINE
  5
60
330
1F
100
AcDbEntity
  8
Predefinito
100
AcDbSpline
210
0.0
220
0.0
230
1.0
 70
    12
 71
     2
 72
     8
 73
     5
 74
     0
 42
0.0000000001
 43
0.0000000001
 40
0.0
 40
0.0
 40
0.0
 40
10.68141502220537
 40
10.68141502220537
 40
21.36283004441067
 40
21.36283004441067
 40
21.36283004441067
 10
69.99997712466681
 20
751.6436787893539
 30
0.0
 41
1.0
 10
76.79997712466691
 20
751.6436787893537
 30
0.0
 41
0.7071067811865401
 10
76.79997712466691
 20
758.4436787893538
 30
0.0
 41
1.0
 10
76.79997712466681
 20
765.2436787893539
 30
0.0
 41
0.707106781186549
 10
69.99997712466681
 20
765.2436787893539
 30
0.0
 41
1.0
  0
SPLINE
  5
61
330
1F
100
AcDbEntity
  8
Predefinito
100
AcDbSpline
210
0.0
220
0.0
230
1.0
 70
    12
 71
     2
 72
     6
 73
     3
 74
     0
 42
0.0000000001
 43
0.0000000001
 40
0.0
 40
0.0
 40
0.0
 40
10.99557428756442
 40
10.99557428756442
 40
10.99557428756442
 10
76.99997712466681
 20
758.4436787893538
 30
0.0
 41
1.0
 10
76.99997712466715
 20
765.4436787893542
 30
0.0
 41
0.707106781186513
 10
69.99997712466681
 20
765.4436787893538
 30
0.0
 41
1.0
  0
SPLINE
  5
62
330
1F
100
AcDbEntity
  8
Predefinito
100
AcDbSpline
210
0.0
220
0.0
230
1.0
 70
    12
 71
     2
 72
     6
 73
     3
 74
     0
 42
0.0000000001
 43
0.0000000001
 40
0.0
 40
0.0
 40
0.0
 40
10.99557428756425
 40
10.99557428756425
 40
10.99557428756425
 10
76.99997712466681
 20
758.4436787893538
 30
0.0
 41
1.0
 10
76.9999771246667
 20
751.443678789354
 30
0.0
 41
0.7071067811865611
 10
69.99997712466681
 20
751.4436787893538
 30
0.0
 41
1.0
  0
SPLINE
  5
63
330
1F
100
AcDbEntity
  8
Predefinito
100
AcDbSpline
210
0.0
220
0.0
230
1.0
 70
    12
 71
     2
 72
     8
 73
     5
 74
     0
 42
0.0000000001
 43
0.0000000001
 40
0.0
 40
0.0
 40
0.0
 40
10.9955742875644
 40
10.9955742875644
 40
21.99114857512854
 40
21.99114857512854
 40
21.99114857512854
 10
69.99997712466681
 20
765.4436787893538
 30
0.0
 41
1.0
 10
62.99997712466656
 20
765.4436787893542
 30
0.0
 41
0.7071067811865231
 10
62.99997712466678
 20
758.4436787893538
 30
0.0
 41
1.0
 10
62.99997712466703
 20
751.4436787893542
 30
0.0
 41
0.7071067811865661
 10
69.99997712466681
 20
751.443678789354
 30
0.0
 41
1.0
  0
SPLINE
  5
64
330
1F
100
AcDbEntity
  8
Predefinito
100
AcDbSpline
210
0.0
220
0.0
230
1.0
 70
    12
 71
     2
 72
     8
 73
     5
 74
     0
 42
0.0000000001
 43
0.0000000001
 40
0.0
 40
0.0
 40
0.0
 40
10.6814150222054
 40
10.6814150222054
 40
21.36283004441072
 40
21.36283004441072
 40
21.36283004441072
 10
69.99997712466681
 20
765.2436787893539
 30
0.0
 41
1.0
 10
63.19997712466681
 20
765.2436787893539
 30
0.0
 41
0.7071067811865571
 10
63.1999771246667
 20
758.4436787893538
 30
0.0
 41
1.0
 10
63.19997712466669
 20
751.6436787893538
 30
0.0
 41
0.7071067811865343
 10
69.99997712466681
 20
751.6436787893539
 30
0.0
 41
1.0
  0
SPLINE
  5
65
330
1F
100
AcDbEntity
  8
Predefinito
100
AcDbSpline
210
0.0
220
0.0
230
1.0
 70
    24
 71
     2
 72
     6
 73
     3
 74
     0
 42
0.0000000001
 43
0.0000000001
 40
0.0
 40
0.0
 40
0.0
 40
42.00000000000027
 40
42.00000000000027
 40
42.00000000000027
 10
111.9999771246664
 20
573.4436787893538
 30
0.0
 10
90.99997712466626
 20
573.4436787893538
 30
0.0
 10
69.99997712466613
 20
573.4436787893538
 30
0.0
  0
SPLINE
  5
66
330
1F
100
AcDbEntity
  8
Predefinito
100
AcDbSpline
210
0.0
220
0.0
230
1.0
 70
    24
 71
     2
 72
     6
 73
     3
 74
     0
 42
0.0000000001
 43
0.0000000001
 40
0.0
 40
0.0
 40
0.0
 40
42.00000000000027
 40
42.00000000000027
 40
42.00000000000027
 10
69.99997712466613
 20
573.4436787893538
 30
0.0
 10
48.999977124666
 20
573.4436787893538
 30
0.0
 10
27.99997712466586
 20
573.4436787893538
 30
0.0
  0
SPLINE
  5
67
330
1F
100
AcDbEntity
  8
Predefinito
100
AcDbSpline
210
0.0
220
0.0
230
1.0
 70
    24
 71
     2
 72
     6
 73
     3
 74
     0
 42
0.0000000001
 43
0.0000000001
 40
0.0
 40
0.0
 40
0.0
 40
39.0000000000002
 40
39.0000000000002
 40
39.0000000000002
 10
30.99997712466593
 20
574.4436787893538
 30
0.0
 10
50.49997712466603
 20
574.4436787893538
 30
0.0
 10
69.99997712466613
 20
574.4436787893538
 30
0.0
  0
SPLINE
  5
68
330
1F
100
AcDbEntity
  8
Predefinito
100
AcDbSpline
210
0.0
220
0.0
230
1.0
 70
     8
 71
     3
 72
    12
 73
     8
 74
     0
 42
0.0000000001
 43
0.0000000001
 40
0.0
 40
0.0
 40
0.0
 40
0.0
 40
0.0070685091581303
 40
1.782008853289865
 40
3.274272052593095
 40
6.102038466076128
 40
12.2426628498639
 40
12.2426628498639
 40
12.2426628498639
 40
12.2426628498639
 10
79.94658982889092
 20
600.0234069063692
 30
0.0
 10
79.95336132142971
 20
600.015062806018
 30
0.0
 10
79.65423743112575
 20
600.5218945038474
 30
0.0
 10
79.1243075777456
 20
601.492216802017
 30
0.0
 10
78.35482070633884
 20
603.350038798586
 30
0.0
 10
77.67253977330877
 20
606.8740101992076
 30
0.0
 10
78.90824285246305
 20
609.766506356037
 30
0.0
 10
79.94606897334393
 20
611.5065131443159
 30
0.0
  0
SPLINE
  5
69
330
1F
100
AcDbEntity
  8
Predefinito
100
AcDbSpline
210
0.0
220
0.0
230
1.0
 70
     8
 71
     3
 72
    12
 73
     8
 74
     0
 42
0.0000000001
 43
0.0000000001
 40
0.0
 40
0.0
 40
0.0
 40
0.0
 40
1.897064321798114
 40
3.240878205195032
 40
6.021217667827536
 40
8.781300417662184
 40
12.19258198438997
 40
12.19258198438997
 40
12.19258198438997
 40
12.19258198438997
 10
60.07735653177491
 20
611.4689616685203
 30
0.0
 10
60.39483086234394
 20
610.9231410432104
 30
0.0
 10
60.92003137651301
 20
609.9749404030557
 30
0.0
 10
61.68333121319959
 20
608.1188491874478
 30
0.0
 10
62.09310752492128
 20
605.8260097597973
 30
0.0
 10
61.58144005623218
 20
602.8457847395441
 30
0.0
 10
60.6321611588996
 20
600.9994358256295
 30
0.0
 10
60.05336442044165
 20
600.0234069063692
 30
0.0
  0
SPLINE
  5
6A
330
1F
100
AcDbEntity
  8
Predefinito
100
AcDbSpline
210
0.0
220
0.0
230
1.0
 70
    12
 71
     2
 72
     6
 73
     3
 74
     0
 42
0.0000000001
 43
0.0000000001
 40
0.0
 40
0.0
 40
0.0
 40
9.950000000000008
 40
9.950000000000008
 40
9.950000000000008
 10
69.99997712466629
 20
615.7653724700212
 30
0.0
 41
1.0
 10
65.0249771246663
 20
615.7653725852558
 30
0.0
 41
0.9999999999999989
 10
60.04997712466628
 20
615.7653722301812
 30
0.0
 41
1.0
  0
SPLINE
  5
6B
330
1F
100
AcDbEntity
  8
Predefinito
100
AcDbSpline
210
0.0
220
0.0
230
1.0
 70
    12
 71
     2
 72
     6
 73
     3
 74
     0
 42
0.0000000001
 43
0.0000000001
 40
0.0
 40
0.0
 40
0.0
 40
9.949999999999994
 40
9.949999999999994
 40
9.949999999999994
 10
79.94997712466628
 20
615.7653722316027
 30
0.0
 41
1.0
 10
74.97497712466628
 20
615.7653725838351
 30
0.0
 41
0.9999999999999989
 10
69.99997712466629
 20
615.7653724657592
 30
0.0
 41
1.0
  0
SPLINE
  5
6C
330
1F
100
AcDbEntity
  8
Predefinito
100
AcDbSpline
210
0.0
220
0.0
230
1.0
 70
    24
 71
     2
 72
     6
 73
     3
 74
     0
 42
0.0000000001
 43
0.0000000001
 40
0.0
 40
0.0
 40
0.0
 40
9.449999999999989
 40
9.449999999999989
 40
9.449999999999989
 10
79.44997712466628
 20
616.2653724731949
 30
0.0
 10
74.72497712466628
 20
616.2653724731949
 30
0.0
 10
69.99997712466629
 20
616.2653724731949
 30
0.0
  0
SPLINE
  5
6D
330
1F
100
AcDbEntity
  8
Predefinito
100
AcDbSpline
210
0.0
220
0.0
230
1.0
 70
    24
 71
     2
 72
     6
 73
     3
 74
     0
 42
0.0000000001
 43
0.0000000001
 40
0.0
 40
0.0
 40
0.0
 40
9.449999999999996
 40
9.449999999999996
 40
9.449999999999996
 10
69.99997712466629
 20
616.2653724731949
 30
0.0
 10
65.2749771246663
 20
616.2653724731949
 30
0.0
 10
60.54997712466629
 20
616.2653724731949
 30
0.0
  0
SPLINE
  5
6E
330
1F
100
AcDbEntity
  8
Predefinito
100
AcDbSpline
210
0.0
220
0.0
230
1.0
 70
    24
 71
     2
 72
     6
 73
     3
 74
     0
 42
0.0000000001
 43
0.0000000001
 40
0.0
 40
0.0
 40
0.0
 40
39.59257633422943
 40
39.59257633422943
 40
39.59257633422943
 10
30.40740079043692
 20
574.6773625857716
 30
0.0
 10
50.20368895755164
 20
574.6773625857716
 30
0.0
 10
69.99997712466636
 20
574.6773625857716
 30
0.0
  0
SPLINE
  5
6F
330
1F
100
AcDbEntity
  8
Predefinito
100
AcDbSpline
210
0.0
220
0.0
230
1.0
 70
    24
 71
     2
 72
     6
 73
     3
 74
     0
 42
0.0000000001
 43
0.0000000001
 40
0.0
 40
0.0
 40
0.0
 40
39.59257633422943
 40
39.59257633422943
 40
39.59257633422943
 10
69.99997712466637
 20
574.6773625857716
 30
0.0
 10
89.79626529178108
 20
574.6773625857716
 30
0.0
 10
109.5925534588958
 20
574.6773625857716
 30
0.0
  0
SPLINE
  5
70
330
1F
100
AcDbEntity
  8
Predefinito
100
AcDbSpline
210
0.0
220
0.0
230
1.0
 70
    24
 71
     2
 72
     6
 73
     3
 74
     0
 42
0.0000000001
 43
0.0000000001
 40
0.0
 40
0.0
 40
0.0
 40
10.36640525462309
 40
10.36640525462309
 40
10.36640525462309
 10
59.63357187004327
 20
586.2653724735889
 30
0.0
 10
64.81677449735481
 20
586.2653724735889
 30
0.0
 10
69.99997712466636
 20
586.2653724735889
 30
0.0
  0
SPLINE
  5
71
330
1F
100
AcDbEntity
  8
Predefinito
100
AcDbSpline
210
0.0
220
0.0
230
1.0
 70
    24
 71
     2
 72
     6
 73
     3
 74
     0
 42
0.0000000001
 43
0.0000000001
 40
0.0
 40
0.0
 40
0.0
 40
10.36640525462309
 40
10.36640525462309
 40
10.36640525462309
 10
69.99997712466637
 20
586.2653724735889
 30
0.0
 10
75.18317975197792
 20
586.2653724735889
 30
0.0
 10
80.36638237928946
 20
586.2653724735889
 30
0.0
  0
SPLINE
  5
72
330
1F
100
AcDbEntity
  8
Predefinito
100
AcDbSpline
210
0.0
220
0.0
230
1.0
 70
    24
 71
     2
 72
     6
 73
     3
 74
     0
 42
0.0000000001
 43
0.0000000001
 40
0.0
 40
0.0
 40
0.0
 40
3.933221473666308
 40
3.933221473666308
 40
3.933221473666308
 10
48.99997712466639
 20
659.7238267495899
 30
0.0
 10
47.03336638783323
 20
659.7238267495898
 30
0.0
 10
45.06675565100008
 20
659.7238267495898
 30
0.0
  0
SPLINE
  5
73
330
1F
100
AcDbEntity
  8
Predefinito
100
AcDbSpline
210
0.0
220
0.0
230
1.0
 70
    24
 71
     2
 72
     6
 73
     3
 74
     0
 42
0.0000000001
 43
0.0000000001
 40
0.0
 40
0.0
 40
0.0
 40
3.5
 40
3.5
 40
3.5
 10
45.49997712466639
 20
659.2238267495899
 30
0.0
 10
47.24997712466639
 20
659.2238267495899
 30
0.0
 10
48.99997712466639
 20
659.2238267495899
 30
0.0
  0
SPLINE
  5
74
330
1F
100
AcDbEntity
  8
Predefinito
100
AcDbSpline
210
0.0
220
0.0
230
1.0
 70
    24
 71
     2
 72
     6
 73
     3
 74
     0
 42
0.0000000001
 43
0.0000000001
 40
0.0
 40
0.0
 40
0.0
 40
3.44156878945801
 40
3.44156878945801
 40
3.44156878945801
 10
48.99997712466639
 20
659.2238267495899
 30
0.0
 10
50.7207615193954
 20
659.2238267495899
 30
0.0
 10
52.4415459141244
 20
659.2238267495899
 30
0.0
  0
SPLINE
  5
75
330
1F
100
AcDbEntity
  8
Predefinito
100
AcDbSpline
210
0.0
220
0.0
230
1.0
 70
    12
 71
     2
 72
     8
 73
     5
 74
     0
 42
0.0000000001
 43
0.0000000001
 40
0.0
 40
0.0
 40
0.0
 40
0.0667785263337066
 40
0.0667785263337066
 40
6.349963833513293
 40
6.349963833513293
 40
6.349963833513293
 10
52.93319859833268
 20
659.7238264083862
 30
0.0
 41
1.0
 10
52.96658786149953
 20
659.723826408386
 30
0.0
 41
1.0
 10
52.99997712466639
 20
659.7238264083859
 30
0.0
 41
1.0
 10
52.99997712466639
 20
659.7238267495899
 30
0.0
 41
0.7071067811865476
 10
48.99997712466639
 20
659.7238267495899
 30
0.0
 41
1.0
  0
SPLINE
  5
76
330
1F
100
AcDbEntity
  8
Predefinito
100
AcDbSpline
210
0.0
220
0.0
230
1.0
 70
    12
 71
     2
 72
     8
 73
     5
 74
     0
 42
0.0000000001
 43
0.0000000001
 40
0.0
 40
0.0
 40
0.0
 40
0.0584312105419897
 40
0.0584312105419897
 40
5.556218354324129
 40
5.556218354324129
 40
5.556218354324129
 10
52.4415459141244
 20
642.2238268852234
 30
0.0
 41
1.0
 10
52.4707615193954
 20
642.2238268852236
 30
0.0
 41
1.0
 10
52.49997712466639
 20
642.2238268852237
 30
0.0
 41
1.0
 10
52.49997712466639
 20
642.2238267495899
 30
0.0
 41
0.7071067811865476
 10
48.99997712466639
 20
642.2238267495899
 30
0.0
 41
1.0
  0
SPLINE
  5
77
330
1F
100
AcDbEntity
  8
Predefinito
100
AcDbSpline
210
0.0
220
0.0
230
1.0
 70
    24
 71
     2
 72
     6
 73
     3
 74
     0
 42
0.0000000001
 43
0.0000000001
 40
0.0
 40
0.0
 40
0.0
 40
3.44156878945801
 40
3.44156878945801
 40
3.44156878945801
 10
48.99997712466639
 20
642.2238267495899
 30
0.0
 10
47.27919272993738
 20
642.22382674959
 30
0.0
 10
45.55840833520838
 20
642.22382674959
 30
0.0
  0
SPLINE
  5
78
330
1F
100
AcDbEntity
  8
Predefinito
100
AcDbSpline
210
0.0
220
0.0
230
1.0
 70
    24
 71
     2
 72
     6
 73
     3
 74
     0
 42
0.0000000001
 43
0.0000000001
 40
0.0
 40
0.0
 40
0.0
 40
3.933221473666293
 40
3.933221473666293
 40
3.933221473666293
 10
48.99997712466639
 20
624.2238267495899
 30
0.0
 10
50.96658786149953
 20
624.2238267495899
 30
0.0
 10
52.93319859833268
 20
624.2238267495899
 30
0.0
  0
SPLINE
  5
79
330
1F
100
AcDbEntity
  8
Predefinito
100
AcDbSpline
210
0.0
220
0.0
230
1.0
 70
    24
 71
     2
 72
     6
 73
     3
 74
     0
 42
0.0000000001
 43
0.0000000001
 40
0.0
 40
0.0
 40
0.0
 40
4.0
 40
4.0
 40
4.0
 10
44.99997712466639
 20
624.2238267495899
 30
0.0
 10
46.99997712466639
 20
624.2238267495899
 30
0.0
 10
48.99997712466639
 20
624.2238267495899
 30
0.0
  0
SPLINE
  5
7A
330
1F
100
AcDbEntity
  8
Predefinito
100
AcDbSpline
210
0.0
220
0.0
230
1.0
 70
    24
 71
     2
 72
     6
 73
     3
 74
     0
 42
0.0000000001
 43
0.0000000001
 40
0.0
 40
0.0
 40
0.0
 40
3.933221473666293
 40
3.933221473666293
 40
3.933221473666293
 10
48.99997712466639
 20
641.7238267495899
 30
0.0
 10
47.03336638783324
 20
641.7238267495899
 30
0.0
 10
45.06675565100009
 20
641.7238267495899
 30
0.0
  0
SPLINE
  5
7B
330
1F
100
AcDbEntity
  8
Predefinito
100
AcDbSpline
210
0.0
220
0.0
230
1.0
 70
    12
 71
     2
 72
     8
 73
     5
 74
     0
 42
0.0000000001
 43
0.0000000001
 40
0.0
 40
0.0
 40
0.0
 40
0.0667785263337066
 40
0.0667785263337066
 40
6.349963833513293
 40
6.349963833513293
 40
6.349963833513293
 10
52.93319859833268
 20
641.7238268852234
 30
0.0
 41
1.0
 10
52.96658786149953
 20
641.723826885223
 30
0.0
 41
1.0
 10
52.99997712466639
 20
641.7238268852228
 30
0.0
 41
1.0
 10
52.99997712466639
 20
641.7238267495898
 30
0.0
 41
0.7071067811865476
 10
48.99997712466639
 20
641.7238267495899
 30
0.0
 41
1.0
  0
SPLINE
  5
7C
330
1F
100
AcDbEntity
  8
Predefinito
100
AcDbSpline
210
0.0
220
0.0
230
1.0
 70
    12
 71
     2
 72
     6
 73
     3
 74
     0
 42
0.0000000001
 43
0.0000000001
 40
0.0
 40
0.0
 40
0.0
 40
29.6607916845054
 40
29.6607916845054
 40
29.6607916845054
 10
44.99997712466639
 20
624.2238267495899
 30
0.0
 41
1.0
 10
44.99997712466639
 20
607.3682462711245
 30
0.0
 41
0.829147221043938
 10
60.62572141642215
 20
601.0479054104834
 30
0.0
 41
1.0
  0
SPLINE
  5
7D
330
1F
100
AcDbEntity
  8
Predefinito
100
AcDbSpline
210
0.0
220
0.0
230
1.0
 70
    12
 71
     2
 72
     6
 73
     3
 74
     0
 42
0.0000000001
 43
0.0000000001
 40
0.0
 40
0.0
 40
0.0
 40
29.6574704506147
 40
29.6574704506147
 40
29.6574704506147
 10
79.37731165639477
 20
601.0491509788254
 30
0.0
 41
1.0
 10
94.99997712466657
 20
607.3706616580849
 30
0.0
 41
0.8291843526228408
 10
94.9999771246664
 20
624.2238267495899
 30
0.0
 41
1.0
  0
SPLINE
  5
7E
330
1F
100
AcDbEntity
  8
Predefinito
100
AcDbSpline
210
0.0
220
0.0
230
1.0
 70
    24
 71
     2
 72
     6
 73
     3
 74
     0
 42
0.0000000001
 43
0.0000000001
 40
0.0
 40
0.0
 40
0.0
 40
4.0
 40
4.0
 40
4.0
 10
94.99997712466637
 20
624.2238267495899
 30
0.0
 10
92.99997712466637
 20
624.2238267495899
 30
0.0
 10
90.99997712466637
 20
624.2238267495899
 30
0.0
  0
SPLINE
  5
7F
330
1F
100
AcDbEntity
  8
Predefinito
100
AcDbSpline
210
0.0
220
0.0
230
1.0
 70
    24
 71
     2
 72
     6
 73
     3
 74
     0
 42
0.0000000001
 43
0.0000000001
 40
0.0
 40
0.0
 40
0.0
 40
3.933221473666293
 40
3.933221473666293
 40
3.933221473666293
 10
90.99997712466639
 20
744.2238267495899
 30
0.0
 10
89.03336638783324
 20
744.2238267495899
 30
0.0
 10
87.0667556510001
 20
744.2238267495899
 30
0.0
  0
SPLINE
  5
80
330
1F
100
AcDbEntity
  8
Predefinito
100
AcDbSpline
210
0.0
220
0.0
230
1.0
 70
    24
 71
     2
 72
     6
 73
     3
 74
     0
 42
0.0000000001
 43
0.0000000001
 40
0.0
 40
0.0
 40
0.0
 40
4.0
 40
4.0
 40
4.0
 10
94.99997712466639
 20
744.2238267495899
 30
0.0
 10
92.99997712466639
 20
744.2238267495899
 30
0.0
 10
90.99997712466639
 20
744.2238267495899
 30
0.0
  0
SPLINE
  5
81
330
1F
100
AcDbEntity
  8
Predefinito
100
AcDbSpline
210
0.0
220
0.0
230
1.0
 70
    28
 71
     2
 72
     8
 73
     5
 74
     0
 42
0.0000000001
 43
0.0000000001
 40
5.497787143782138
 40
5.497787143782138
 40
5.497787143782138
 40
6.283185307179586
 40
6.283185307179586
 40
12.56637061435917
 40
12.56637061435917
 40
12.56637061435917
 10
87.0667556510001
 20
624.2238267495899
 30
0.0
 41
0.9359296083845573
 10
86.99997712466639
 20
624.2238267495898
 30
0.0
 41
0.9633883476483185
 10
86.99997712466639
 20
624.2238267495899
 30
0.0
 41
1.0
 10
86.99997712466639
 20
624.2238267495899
 30
0.0
 41
0.7071067811865476
 10
90.99997712466639
 20
624.2238267495899
 30
0.0
 41
1.0
  0
SPLINE
  5
82
330
1F
100
AcDbEntity
  8
Predefinito
100
AcDbSpline
210
0.0
220
0.0
230
1.0
 70
    12
 71
     2
 72
     8
 73
     5
 74
     0
 42
0.0000000001
 43
0.0000000001
 40
0.0
 40
0.0
 40
0.0
 40
39.26990816987239
 40
39.26990816987239
 40
78.5398163397447
 40
78.5398163397447
 40
78.5398163397447
 10
94.99997712466639
 20
744.2238267495899
 30
0.0
 41
1.0
 10
94.99997712466626
 20
769.2238267495899
 30
0.0
 41
0.7071067811865517
 10
69.9999771246664
 20
769.22382674959
 30
0.0
 41
1.0
 10
44.99997712466655
 20
769.2238267495896
 30
0.0
 41
0.7071067811865513
 10
44.99997712466644
 20
744.2238267495899
 30
0.0
 41
1.0
  0
SPLINE
  5
83
330
1F
100
AcDbEntity
  8
Predefinito
100
AcDbSpline
210
0.0
220
0.0
230
1.0
 70
    28
 71
     2
 72
    10
 73
     7
 74
     0
 42
0.0000000001
 43
0.0000000001
 40
5.890486225480862
 40
5.890486225480862
 40
5.890486225480862
 40
9.42477796076938
 40
9.42477796076938
 40
14.13716694115407
 40
14.13716694115407
 40
18.84955592153876
 40
18.84955592153876
 40
18.84955592153876
 10
52.97807188320064
 20
744.2238267495899
 30
0.0
 41
0.9368011046134544
 10
53.17746498338623
 20
744.22382674959
 30
0.0
 41
0.8736022092269089
 10
51.82840424941258
 20
744.2238267495899
 30
0.0
 41
1.0
 10
49.93850966574567
 20
744.2238267495899
 30
0.0
 41
0.8314696123025452
 10
47.46924339520603
 20
744.2238267495899
 30
0.0
 41
1.0
 10
44.99997712466639
 20
744.2238267495899
 30
0.0
 41
0.8314696123025452
 10
44.99997712466639
 20
744.2238267495899
 30
0.0
 41
1.0
  0
SPLINE
  5
84
330
1F
100
AcDbEntity
  8
Predefinito
100
AcDbSpline
210
0.0
220
0.0
230
1.0
 70
    24
 71
     2
 72
     6
 73
     3
 74
     0
 42
0.0000000001
 43
0.0000000001
 40
0.0
 40
0.0
 40
0.0
 40
84.5
 40
84.5
 40
84.5
 10
44.99997712466639
 20
744.2238267495899
 30
0.0
 10
44.99997712466639
 20
701.9738267495899
 30
0.0
 10
44.99997712466639
 20
659.7238267495899
 30
0.0
  0
SPLINE
  5
85
330
1F
100
AcDbEntity
  8
Predefinito
100
AcDbSpline
210
0.0
220
0.0
230
1.0
 70
    24
 71
     2
 72
     6
 73
     3
 74
     0
 42
0.0000000001
 43
0.0000000001
 40
0.0
 40
0.0
 40
0.0
 40
0.2828427124745627
 40
0.2828427124745627
 40
0.2828427124745627
 10
317.9436787893544
 20
773.2436787893539
 30
0.0
 10
318.0436787893543
 20
773.3436787893538
 30
0.0
 10
318.1436787893543
 20
773.4436787893538
 30
0.0
  0
SPLINE
  5
86
330
1F
100
AcDbEntity
  8
Predefinito
100
AcDbSpline
210
0.0
220
0.0
230
1.0
 70
    24
 71
     2
 72
     6
 73
     3
 74
     0
 42
0.0000000001
 43
0.0000000001
 40
0.0
 40
0.0
 40
0.0
 40
0.2282442962622426
 40
0.2282442962622426
 40
0.2282442962622426
 10
318.1050718790085
 20
743.4822856996997
 30
0.0
 10
318.0243753341814
 20
743.5629822445268
 30
0.0
 10
317.9436787893544
 20
743.6436787893539
 30
0.0
  0
SPLINE
  5
87
330
1F
100
AcDbEntity
  8
Predefinito
100
AcDbSpline
210
0.0
220
0.0
230
1.0
 70
    24
 71
     2
 72
     6
 73
     3
 74
     0
 42
0.0000000001
 43
0.0000000001
 40
0.0
 40
0.0
 40
0.0
 40
1.100000000000023
 40
1.100000000000023
 40
1.100000000000023
 10
319.2436787893544
 20
743.4436787893538
 30
0.0
 10
318.6936787893544
 20
743.4436787893538
 30
0.0
 10
318.1436787893543
 20
743.4436787893538
 30
0.0
  0
SPLINE
  5
88
330
1F
100
AcDbEntity
  8
Predefinito
100
AcDbSpline
210
0.0
220
0.0
230
1.0
 70
    24
 71
     2
 72
     6
 73
     3
 74
     0
 42
0.0000000001
 43
0.0000000001
 40
0.0
 40
0.0
 40
0.0
 40
0.2828427124745627
 40
0.2828427124745627
 40
0.2828427124745627
 10
319.2436787893544
 20
773.4436787893538
 30
0.0
 10
319.3436787893544
 20
773.3436787893538
 30
0.0
 10
319.4436787893544
 20
773.2436787893539
 30
0.0
  0
SPLINE
  5
89
330
1F
100
AcDbEntity
  8
Predefinito
100
AcDbSpline
210
0.0
220
0.0
230
1.0
 70
    24
 71
     2
 72
     6
 73
     3
 74
     0
 42
0.0000000001
 43
0.0000000001
 40
0.0
 40
0.0
 40
0.0
 40
0.2263813160373278
 40
0.2263813160373278
 40
0.2263813160373278
 10
319.4436787893544
 20
743.6436787893539
 30
0.0
 10
319.3636409075024
 20
743.5636409075018
 30
0.0
 10
319.2836030256505
 20
743.4836030256499
 30
0.0
  0
SPLINE
  5
8A
330
1F
100
AcDbEntity
  8
Predefinito
100
AcDbSpline
210
0.0
220
0.0
230
1.0
 70
    24
 71
     2
 72
     6
 73
     3
 74
     0
 42
0.0000000001
 43
0.0000000001
 40
0.0
 40
0.0
 40
0.0
 40
16.74999999999994
 40
16.74999999999994
 40
16.74999999999994
 10
448.6936787893544
 20
765.4436787893538
 30
0.0
 10
457.0686787893544
 20
765.4436787893538
 30
0.0
 10
465.4436787893544
 20
765.4436787893538
 30
0.0
  0
SPLINE
  5
8B
330
1F
100
AcDbEntity
  8
Predefinito
100
AcDbSpline
210
0.0
220
0.0
230
1.0
 70
    24
 71
     2
 72
     6
 73
     3
 74
     0
 42
0.0000000001
 43
0.0000000001
 40
0.0
 40
0.0
 40
0.0
 40
120.55
 40
120.55
 40
120.55
 10
319.6436787893543
 20
765.4436787893538
 30
0.0
 10
379.9186787893543
 20
765.4436787893538
 30
0.0
 10
440.1936787893543
 20
765.4436787893538
 30
0.0
  0
SPLINE
  5
8C
330
1F
100
AcDbEntity
  8
Predefinito
100
AcDbSpline
210
0.0
220
0.0
230
1.0
 70
    24
 71
     2
 72
     6
 73
     3
 74
     0
 42
0.0000000001
 43
0.0000000001
 40
0.0
 40
0.0
 40
0.0
 40
120.793024025291
 40
120.793024025291
 40
120.793024025291
 10
440.4367028146453
 20
751.4436787893538
 30
0.0
 10
380.0401908019999
 20
751.4436787893538
 30
0.0
 10
319.6436787893543
 20
751.4436787893538
 30
0.0
  0
SPLINE
  5
8D
330
1F
100
AcDbEntity
  8
Predefinito
100
AcDbSpline
210
0.0
220
0.0
230
1.0
 70
    24
 71
     2
 72
     6
 73
     3
 74
     0
 42
0.0000000001
 43
0.0000000001
 40
0.0
 40
0.0
 40
0.0
 40
17.00697597470901
 40
17.00697597470901
 40
17.00697597470901
 10
465.4436787893544
 20
751.4436787893538
 30
0.0
 10
456.9401908019998
 20
751.4436787893538
 30
0.0
 10
448.4367028146453
 20
751.4436787893538
 30
0.0
  0
SPLINE
  5
8E
330
1F
100
AcDbEntity
  8
Predefinito
100
AcDbSpline
210
0.0
220
0.0
230
1.0
 70
    24
 71
     2
 72
     6
 73
     3
 74
     0
 42
0.0000000001
 43
0.0000000001
 40
0.0
 40
0.0
 40
0.0
 40
0.6244725707722784
 40
0.6244725707722784
 40
0.6244725707722784
 10
465.9436787893544
 20
764.9436787893538
 30
0.0
 10
466.1644631840834
 20
765.1644631840829
 30
0.0
 10
466.3852475788124
 20
765.3852475788119
 30
0.0
  0
SPLINE
  5
8F
330
1F
100
AcDbEntity
  8
Predefinito
100
AcDbSpline
210
0.0
220
0.0
230
1.0
 70
    24
 71
     2
 72
     6
 73
     3
 74
     0
 42
0.0000000001
 43
0.0000000001
 40
0.0
 40
0.0
 40
0.0
 40
0.6244725707722784
 40
0.6244725707722784
 40
0.6244725707722784
 10
465.9436787893544
 20
751.9436787893538
 30
0.0
 10
465.7228943946253
 20
751.7228943946247
 30
0.0
 10
465.5021099998963
 20
751.5021099998958
 30
0.0
  0
SPLINE
  5
90
330
1F
100
AcDbEntity
  8
Predefinito
100
AcDbSpline
210
0.0
220
0.0
230
1.0
 70
    24
 71
     2
 72
     6
 73
     3
 74
     0
 42
0.0000000001
 43
0.0000000001
 40
0.0
 40
0.0
 40
0.0
 40
2.800000000000011
 40
2.800000000000011
 40
2.800000000000011
 10
466.4436787893544
 20
765.4436787893538
 30
0.0
 10
467.8436787893544
 20
765.4436787893538
 30
0.0
 10
469.2436787893544
 20
765.4436787893538
 30
0.0
  0
SPLINE
  5
91
330
1F
100
AcDbEntity
  8
Predefinito
100
AcDbSpline
210
0.0
220
0.0
230
1.0
 70
    24
 71
     2
 72
     6
 73
     3
 74
     0
 42
0.0000000001
 43
0.0000000001
 40
0.0
 40
0.0
 40
0.0
 40
2.800000000000011
 40
2.800000000000011
 40
2.800000000000011
 10
469.2436787893544
 20
751.4436787893538
 30
0.0
 10
467.8436787893544
 20
751.4436787893538
 30
0.0
 10
466.4436787893544
 20
751.4436787893538
 30
0.0
  0
SPLINE
  5
92
330
1F
100
AcDbEntity
  8
Predefinito
100
AcDbSpline
210
0.0
220
0.0
230
1.0
 70
    24
 71
     2
 72
     6
 73
     3
 74
     0
 42
0.0000000001
 43
0.0000000001
 40
0.0
 40
0.0
 40
0.0
 40
0.2002085020603739
 40
0.2002085020603739
 40
0.2002085020603739
 10
469.4436787893544
 20
751.6436787893539
 30
0.0
 10
469.3728943946254
 20
751.5728943946249
 30
0.0
 10
469.3021099998963
 20
751.5021099998958
 30
0.0
  0
SPLINE
  5
93
330
1F
100
AcDbEntity
  8
Predefinito
100
AcDbSpline
210
0.0
220
0.0
230
1.0
 70
    24
 71
     2
 72
     6
 73
     3
 74
     0
 42
0.0000000001
 43
0.0000000001
 40
0.0
 40
0.0
 40
0.0
 40
0.2002085020602935
 40
0.2002085020602935
 40
0.2002085020602935
 10
319.4436787893544
 20
765.2436787893539
 30
0.0
 10
319.5144631840834
 20
765.3144631840829
 30
0.0
 10
319.5852475788124
 20
765.3852475788119
 30
0.0
  0
SPLINE
  5
94
330
1F
100
AcDbEntity
  8
Predefinito
100
AcDbSpline
210
0.0
220
0.0
230
1.0
 70
    12
 71
     2
 72
     6
 73
     3
 74
     0
 42
0.0000000001
 43
0.0000000001
 40
0.0
 40
0.0
 40
0.0
 40
3.071344782105838
 40
3.071344782105838
 40
3.071344782105838
 10
483.4436798434143
 20
574.4436787893537
 30
0.0
 41
1.0
 10
485.0295774376835
 20
574.443877998714
 30
0.0
 41
0.9531651776320123
 10
486.3254462962257
 20
573.5296596874484
 30
0.0
 41
1.0
  0
SPLINE
  5
95
330
1F
100
AcDbEntity
  8
Predefinito
100
AcDbSpline
210
0.0
220
0.0
230
1.0
 70
    12
 71
     2
 72
     8
 73
     5
 74
     0
 42
0.0000000001
 43
0.0000000001
 40
0.0
 40
0.0
 40
0.0
 40
87.43319356089464
 40
87.43319356089464
 40
174.8663871217893
 40
174.8663871217893
 40
174.8663871217893
 10
444.4436761398871
 20
447.4436787893542
 30
0.0
 41
1.0
 10
393.9905399153178
 20
447.4436920382691
 30
0.0
 41
0.8112422564148071
 10
378.0358582642943
 20
495.3077400107255
 30
0.0
 41
1.0
 10
362.0811766132708
 20
543.171787983182
 30
0.0
 41
0.8112422564148071
 10
402.4436787893541
 20
573.4436787893538
 30
0.0
 41
1.0
  0
SPLINE
  5
96
330
1F
100
AcDbEntity
  8
Predefinito
100
AcDbSpline
210
0.0
220
0.0
230
1.0
 70
    24
 71
     2
 72
     6
 73
     3
 74
     0
 42
0.0000000001
 43
0.0000000001
 40
0.0
 40
0.0
 40
0.0
 40
29.4999992100079
 40
29.4999992100079
 40
29.4999992100079
 10
454.3936787893544
 20
615.7653716832026
 30
0.0
 10
454.3936787893544
 20
601.0153720781987
 30
0.0
 10
454.3936787893544
 20
586.2653724731947
 30
0.0
  0
SPLINE
  5
97
330
1F
100
AcDbEntity
  8
Predefinito
100
AcDbSpline
210
0.0
220
0.0
230
1.0
 70
    24
 71
     2
 72
     6
 73
     3
 74
     0
 42
0.0000000001
 43
0.0000000001
 40
0.0
 40
0.0
 40
0.0
 40
0.7071067811865476
 40
0.7071067811865476
 40
0.7071067811865476
 10
434.4936787893543
 20
615.7653724731949
 30
0.0
 10
434.7436787893543
 20
616.0153724731949
 30
0.0
 10
434.9936787893543
 20
616.2653724731949
 30
0.0
  0
SPLINE
  5
98
330
1F
100
AcDbEntity
  8
Predefinito
100
AcDbSpline
210
0.0
220
0.0
230
1.0
 70
    12
 71
     2
 72
     6
 73
     3
 74
     0
 42
0.0000000001
 43
0.0000000001
 40
0.0
 40
0.0
 40
0.0
 40
31.58165418909492
 40
31.58165418909492
 40
31.58165418909492
 10
404.9596478236159
 20
574.7522848588477
 30
0.0
 41
1.0
 10
418.1888424734769
 20
583.8715517295423
 30
0.0
 41
0.9743472308176347
 10
434.0772735347312
 20
586.2653724735889
 30
0.0
 41
1.0
  0
SPLINE
  5
99
330
1F
100
AcDbEntity
  8
Predefinito
100
AcDbSpline
210
0.0
220
0.0
230
1.0
 70
    12
 71
     2
 72
     8
 73
     5
 74
     0
 42
0.0000000001
 43
0.0000000001
 40
0.0
 40
0.0
 40
0.0
 40
0.0914206894668405
 40
0.0914206894668405
 40
0.1828413789336809
 40
0.1828413789336809
 40
0.1828413789336809
 10
404.9294881343003
 20
574.5362019345815
 30
0.0
 41
1.0
 10
404.8818684925835
 20
574.5463991811675
 30
0.0
 41
0.9104307928683546
 10
404.8582265663438
 20
574.5889746839697
 30
0.0
 41
1.0
 10
404.8345846401042
 20
574.6315501867717
 30
0.0
 41
0.9104307928683546
 10
404.8511024551249
 20
574.6773625857716
 30
0.0
 41
1.0
  0
SPLINE
  5
9A
330
1F
100
AcDbEntity
  8
Predefinito
100
AcDbSpline
210
0.0
220
0.0
230
1.0
 70
    24
 71
     2
 72
     6
 73
     3
 74
     0
 42
0.0000000001
 43
0.0000000001
 40
0.0
 40
0.0
 40
0.0
 40
0.6598872323783994
 40
0.6598872323783994
 40
0.6598872323783994
 10
447.9367028146453
 20
642.2238267495899
 30
0.0
 10
448.1700081830619
 20
641.9905213811733
 30
0.0
 10
448.4033135514785
 20
641.7572160127567
 30
0.0
  0
SPLINE
  5
9B
330
1F
100
AcDbEntity
  8
Predefinito
100
AcDbSpline
210
0.0
220
0.0
230
1.0
 70
    24
 71
     2
 72
     6
 73
     3
 74
     0
 42
0.0000000001
 43
0.0000000001
 40
0.0
 40
0.0
 40
0.0
 40
0.7071067811865476
 40
0.7071067811865476
 40
0.7071067811865476
 10
440.9367028146454
 20
659.2238267495899
 30
0.0
 10
440.6867028146454
 20
659.4738267495899
 30
0.0
 10
440.4367028146454
 20
659.7238267495899
 30
0.0
  0
SPLINE
  5
9C
330
1F
100
AcDbEntity
  8
Predefinito
100
AcDbSpline
210
0.0
220
0.0
230
1.0
 70
    24
 71
     2
 72
     6
 73
     3
 74
     0
 42
0.0000000001
 43
0.0000000001
 40
0.0
 40
0.0
 40
0.0
 40
17.5
 40
17.5
 40
17.5
 10
448.4367028146454
 20
641.7238267495899
 30
0.0
 10
448.4367028146454
 20
632.9738267495899
 30
0.0
 10
448.4367028146454
 20
624.2238267495899
 30
0.0
  0
SPLINE
  5
9D
330
1F
100
AcDbEntity
  8
Predefinito
100
AcDbSpline
210
0.0
220
0.0
230
1.0
 70
    24
 71
     2
 72
     6
 73
     3
 74
     0
 42
0.0000000001
 43
0.0000000001
 40
0.0
 40
0.0
 40
0.0
 40
20.99999993956567
 40
20.99999993956567
 40
20.99999993956567
 10
448.4367028146454
 20
624.2238267495899
 30
0.0
 10
448.4367028146454
 20
613.723826779807
 30
0.0
 10
448.4367028146454
 20
603.2238268100242
 30
0.0
  0
SPLINE
  5
9E
330
1F
100
AcDbEntity
  8
Predefinito
100
AcDbSpline
210
0.0
220
0.0
230
1.0
 70
    24
 71
     2
 72
     6
 73
     3
 74
     0
 42
0.0000000001
 43
0.0000000001
 40
0.0
 40
0.0
 40
0.0
 40
20.99999993955828
 40
20.99999993955828
 40
20.99999993955828
 10
440.4367028146454
 20
603.2238268100316
 30
0.0
 10
440.4367028146454
 20
613.7238267798107
 30
0.0
 10
440.4367028146454
 20
624.2238267495899
 30
0.0
  0
SPLINE
  5
9F
330
1F
100
AcDbEntity
  8
Predefinito
100
AcDbSpline
210
0.0
220
0.0
230
1.0
 70
    24
 71
     2
 72
     6
 73
     3
 74
     0
 42
0.0000000001
 43
0.0000000001
 40
0.0
 40
0.0
 40
0.0
 40
17.99999987298327
 40
17.99999987298327
 40
17.99999987298327
 10
448.4367028146454
 20
659.7238264990845
 30
0.0
 10
448.4367028146454
 20
650.7238265625929
 30
0.0
 10
448.4367028146454
 20
641.7238266261012
 30
0.0
  0
SPLINE
  5
A0
330
1F
100
AcDbEntity
  8
Predefinito
100
AcDbSpline
210
0.0
220
0.0
230
1.0
 70
    24
 71
     2
 72
     6
 73
     3
 74
     0
 42
0.0000000001
 43
0.0000000001
 40
0.0
 40
0.0
 40
0.0
 40
21.00000000000216
 40
21.00000000000216
 40
21.00000000000216
 10
448.4367028146454
 20
765.223826749592
 30
0.0
 10
448.4367028146454
 20
754.7238267495909
 30
0.0
 10
448.4367028146454
 20
744.2238267495899
 30
0.0
  0
SPLINE
  5
A1
330
1F
100
AcDbEntity
  8
Predefinito
100
AcDbSpline
210
0.0
220
0.0
230
1.0
 70
    24
 71
     2
 72
     6
 73
     3
 74
     0
 42
0.0000000001
 43
0.0000000001
 40
0.0
 40
0.0
 40
0.0
 40
20.93652550926049
 40
20.93652550926049
 40
20.93652550926049
 10
440.4367028146454
 20
744.2238267495899
 30
0.0
 10
440.4367028146454
 20
754.6920895042201
 30
0.0
 10
440.4367028146454
 20
765.1603522588504
 30
0.0
  0
SPLINE
  5
A2
330
1F
100
AcDbEntity
  8
Predefinito
100
AcDbSpline
210
0.0
220
0.0
230
1.0
 70
    12
 71
     2
 72
     8
 73
     5
 74
     0
 42
0.0000000001
 43
0.0000000001
 40
0.0
 40
0.0
 40
0.0
 40
3.173411032153679
 40
3.173411032153679
 40
6.346822064307358
 40
6.346822064307358
 40
6.346822064307358
 10
440.4374544201442
 20
765.1603522588397
 30
0.0
 41
1.0
 10
440.4104760836939
 20
766.8357023095447
 30
0.0
 41
0.9223151218899874
 10
441.5858058342843
 20
768.0299073172433
 30
0.0
 41
1.0
 10
442.7611355848746
 20
769.2241123249418
 30
0.0
 41
0.9223151218899874
 10
444.4367028146454
 20
769.2238267495898
 30
0.0
 41
1.0
  0
SPLINE
  5
A3
330
1F
100
AcDbEntity
  8
Predefinito
100
AcDbSpline
210
0.0
220
0.0
230
1.0
 70
    12
 71
     2
 72
     6
 73
     3
 74
     0
 42
0.0000000001
 43
0.0000000001
 40
0.0
 40
0.0
 40
0.0
 40
6.219195557548269
 40
6.219195557548269
 40
6.219195557548269
 10
444.4367028146454
 20
769.2238267495899
 30
0.0
 41
1.0
 10
448.3730660012168
 20
769.2233106436819
 30
0.0
 41
0.7127783532071685
 10
448.4359488765847
 20
765.2874497280823
 30
0.0
 41
1.0
  0
SPLINE
  5
A4
330
1F
100
AcDbEntity
  8
Predefinito
100
AcDbSpline
210
0.0
220
0.0
230
1.0
 70
    24
 71
     2
 72
     6
 73
     3
 74
     0
 42
0.0000000001
 43
0.0000000001
 40
0.0
 40
0.0
 40
0.0
 40
84.5
 40
84.5
 40
84.5
 10
440.4367028146454
 20
659.7238267495899
 30
0.0
 10
440.4367028146454
 20
701.9738267495899
 30
0.0
 10
440.4367028146454
 20
744.2238267495899
 30
0.0
  0
SPLINE
  5
A5
330
1F
100
AcDbEntity
  8
Predefinito
100
AcDbSpline
210
0.0
220
0.0
230
1.0
 70
    24
 71
     2
 72
     6
 73
     3
 74
     0
 42
0.0000000001
 43
0.0000000001
 40
0.0
 40
0.0
 40
0.0
 40
84.5
 40
84.5
 40
84.5
 10
448.4367028146454
 20
744.2238267495899
 30
0.0
 10
448.4367028146454
 20
701.9738267495899
 30
0.0
 10
448.4367028146454
 20
659.7238267495899
 30
0.0
  0
SPLINE
  5
A6
330
1F
100
AcDbEntity
  8
Predefinito
100
AcDbSpline
210
0.0
220
0.0
230
1.0
 70
    24
 71
     2
 72
     6
 73
     3
 74
     0
 42
0.0000000001
 43
0.0000000001
 40
0.0
 40
0.0
 40
0.0
 40
27.1113189178111
 40
27.1113189178111
 40
27.1113189178111
 10
317.9436787893544
 20
770.833781533456
 30
0.0
 10
317.9436787893544
 20
757.2781220745504
 30
0.0
 10
317.9436787893544
 20
743.7224626156449
 30
0.0
  0
SPLINE
  5
A7
330
1F
100
AcDbEntity
  8
Predefinito
100
AcDbSpline
210
0.0
220
0.0
230
1.0
 70
    28
 71
     2
 72
     6
 73
     3
 74
     0
 42
0.0000000001
 43
0.0000000001
 40
-56.6664774891259
 40
-56.6664774891259
 40
-56.6664774891259
 40
-46.49557127312894
 40
-46.49557127312894
 40
-46.49557127312894
 10
317.9436787893544
 20
773.1648949630629
 30
0.0
 41
0.8558416188652539
 10
317.9436787893544
 20
773.706025887582
 30
0.0
 41
0.8718592167691145
 10
317.9436787893544
 20
770.833781533456
 30
0.0
 41
1.0
  0
SPLINE
  5
A8
330
1F
100
AcDbEntity
  8
Predefinito
100
AcDbSpline
210
0.0
220
0.0
230
1.0
 70
    28
 71
     2
 72
     8
 73
     5
 74
     0
 42
0.0000000001
 43
0.0000000001
 40
-86.88467182584272
 40
-86.88467182584272
 40
-86.88467182584272
 40
-70.68583470577035
 40
-70.68583470577035
 40
-47.12388980384689
 40
-47.12388980384689
 40
-47.12388980384689
 10
318.1436787893543
 20
743.5208926100454
 30
0.0
 41
0.8741474450410948
 10
318.1436787893544
 20
742.5956462067508
 30
0.0
 41
0.7986359120657514
 10
318.1436787893543
 20
750.2395167102941
 30
0.0
 41
1.0
 10
318.1436787893543
 20
762.7970532752624
 30
0.0
 41
0.7071067811865476
 10
318.1436787893543
 20
771.0012153543222
 30
0.0
 41
1.0
  0
SPLINE
  5
A9
330
1F
100
AcDbEntity
  8
Predefinito
100
AcDbSpline
210
0.0
220
0.0
230
1.0
 70
    24
 71
     2
 72
     6
 73
     3
 74
     0
 42
0.0000000001
 43
0.0000000001
 40
0.0
 40
0.0
 40
0.0
 40
2.442463435031641
 40
2.442463435031641
 40
2.442463435031641
 10
318.1436787893543
 20
773.4436787893538
 30
0.0
 10
318.1436787893543
 20
772.222447071838
 30
0.0
 10
318.1436787893543
 20
771.0012153543222
 30
0.0
  0
SPLINE
  5
AA
330
1F
100
AcDbEntity
  8
Predefinito
100
AcDbSpline
210
0.0
220
0.0
230
1.0
 70
    24
 71
     2
 72
     6
 73
     3
 74
     0
 42
0.0000000001
 43
0.0000000001
 40
0.0
 40
0.0
 40
0.0
 40
1.100000000000023
 40
1.100000000000023
 40
1.100000000000023
 10
318.1436787893543
 20
773.4436787893538
 30
0.0
 10
318.6936787893544
 20
773.4436787893538
 30
0.0
 10
319.2436787893544
 20
773.4436787893538
 30
0.0
  0
SPLINE
  5
AB
330
1F
100
AcDbEntity
  8
Predefinito
100
AcDbSpline
210
0.0
220
0.0
230
1.0
 70
    24
 71
     2
 72
     6
 73
     3
 74
     0
 42
0.0000000001
 43
0.0000000001
 40
0.0
 40
0.0
 40
0.0
 40
2.442463435031641
 40
2.442463435031641
 40
2.442463435031641
 10
319.2436787893544
 20
771.0012153543222
 30
0.0
 10
319.2436787893544
 20
772.222447071838
 30
0.0
 10
319.2436787893544
 20
773.4436787893538
 30
0.0
  0
SPLINE
  5
AC
330
1F
100
AcDbEntity
  8
Predefinito
100
AcDbSpline
210
0.0
220
0.0
230
1.0
 70
    24
 71
     2
 72
     6
 73
     3
 74
     0
 42
0.0000000001
 43
0.0000000001
 40
0.0
 40
0.0
 40
0.0
 40
27.47768809237618
 40
27.47768809237618
 40
27.47768809237618
 10
319.2436787893544
 20
771.0012153543222
 30
0.0
 10
319.2436787893544
 20
757.2623713081341
 30
0.0
 10
319.2436787893544
 20
743.523527261946
 30
0.0
  0
SPLINE
  5
AD
330
1F
100
AcDbEntity
  8
Predefinito
100
AcDbSpline
210
0.0
220
0.0
230
1.0
 70
    28
 71
     2
 72
     8
 73
     5
 74
     0
 42
0.0000000001
 43
0.0000000001
 40
-39.23063826170254
 40
-39.23063826170254
 40
-39.23063826170254
 40
-23.24778563656447
 40
-23.24778563656447
 40
0.0
 40
0.0
 40
0.0
 10
319.4436787893544
 20
743.7198630924362
 30
0.0
 41
0.8741474450410945
 10
319.4436787893544
 20
742.806953307852
 30
0.0
 41
0.7986359120657515
 10
319.4436787893544
 20
750.3489055380148
 30
0.0
 41
1.0
 10
319.4436787893544
 20
762.739008282117
 30
0.0
 41
0.7071067811865475
 10
319.4436787893544
 20
770.833781533456
 30
0.0
 41
1.0
  0
SPLINE
  5
AE
330
1F
100
AcDbEntity
  8
Predefinito
100
AcDbSpline
210
0.0
220
0.0
230
1.0
 70
    24
 71
     2
 72
     6
 73
     3
 74
     0
 42
0.0000000001
 43
0.0000000001
 40
0.0
 40
0.0
 40
0.0
 40
2.333712952815631
 40
2.333712952815631
 40
2.333712952815631
 10
319.4436787893544
 20
770.833781533456
 30
0.0
 10
319.4436787893544
 20
772.0006380098638
 30
0.0
 10
319.4436787893544
 20
773.1674944862716
 30
0.0
  0
SPLINE
  5
AF
330
1F
100
AcDbEntity
  8
Predefinito
100
AcDbSpline
210
0.0
220
0.0
230
1.0
 70
    24
 71
     2
 72
     6
 73
     3
 74
     0
 42
0.0000000001
 43
0.0000000001
 40
0.0
 40
0.0
 40
0.0
 40
0.6244725707721578
 40
0.6244725707721578
 40
0.6244725707721578
 10
465.9436787893544
 20
751.9436787893538
 30
0.0
 10
466.1644631840834
 20
751.7228943946249
 30
0.0
 10
466.3852475788124
 20
751.5021099998959
 30
0.0
  0
SPLINE
  5
B0
330
1F
100
AcDbEntity
  8
Predefinito
100
AcDbSpline
210
0.0
220
0.0
230
1.0
 70
    24
 71
     2
 72
     6
 73
     3
 74
     0
 42
0.0000000001
 43
0.0000000001
 40
0.0
 40
0.0
 40
0.0
 40
14.0
 40
14.0
 40
14.0
 10
465.4436787893544
 20
765.4436787893538
 30
0.0
 10
465.4436787893544
 20
758.4436787893538
 30
0.0
 10
465.4436787893544
 20
751.4436787893538
 30
0.0
  0
SPLINE
  5
B1
330
1F
100
AcDbEntity
  8
Predefinito
100
AcDbSpline
210
0.0
220
0.0
230
1.0
 70
    24
 71
     2
 72
     6
 73
     3
 74
     0
 42
0.0000000001
 43
0.0000000001
 40
0.0
 40
0.0
 40
0.0
 40
13.0
 40
13.0
 40
13.0
 10
465.9436787893544
 20
764.9436787893538
 30
0.0
 10
465.9436787893544
 20
758.4436787893538
 30
0.0
 10
465.9436787893544
 20
751.9436787893538
 30
0.0
  0
SPLINE
  5
B2
330
1F
100
AcDbEntity
  8
Predefinito
100
AcDbSpline
210
0.0
220
0.0
230
1.0
 70
    24
 71
     2
 72
     6
 73
     3
 74
     0
 42
0.0000000001
 43
0.0000000001
 40
0.0
 40
0.0
 40
0.0
 40
0.6244725707721578
 40
0.6244725707721578
 40
0.6244725707721578
 10
465.9436787893544
 20
764.9436787893538
 30
0.0
 10
465.7228943946253
 20
765.1644631840828
 30
0.0
 10
465.5021099998963
 20
765.3852475788118
 30
0.0
  0
SPLINE
  5
B3
330
1F
100
AcDbEntity
  8
Predefinito
100
AcDbSpline
210
0.0
220
0.0
230
1.0
 70
    24
 71
     2
 72
     6
 73
     3
 74
     0
 42
0.0000000001
 43
0.0000000001
 40
0.0
 40
0.0
 40
0.0
 40
14.0
 40
14.0
 40
14.0
 10
466.4436787893544
 20
751.4436787893538
 30
0.0
 10
466.4436787893544
 20
758.4436787893538
 30
0.0
 10
466.4436787893544
 20
765.4436787893538
 30
0.0
  0
SPLINE
  5
B4
330
1F
100
AcDbEntity
  8
Predefinito
100
AcDbSpline
210
0.0
220
0.0
230
1.0
 70
    24
 71
     2
 72
     6
 73
     3
 74
     0
 42
0.0000000001
 43
0.0000000001
 40
0.0
 40
0.0
 40
0.0
 40
14.0
 40
14.0
 40
14.0
 10
469.2436787893544
 20
765.4436787893538
 30
0.0
 10
469.2436787893544
 20
758.4436787893538
 30
0.0
 10
469.2436787893544
 20
751.4436787893538
 30
0.0
  0
SPLINE
  5
B5
330
1F
100
AcDbEntity
  8
Predefinito
100
AcDbSpline
210
0.0
220
0.0
230
1.0
 70
    24
 71
     2
 72
     6
 73
     3
 74
     0
 42
0.0000000001
 43
0.0000000001
 40
0.0
 40
0.0
 40
0.0
 40
0.2002085020602935
 40
0.2002085020602935
 40
0.2002085020602935
 10
469.4436787893544
 20
765.2436787893539
 30
0.0
 10
469.3728943946254
 20
765.3144631840829
 30
0.0
 10
469.3021099998963
 20
765.3852475788119
 30
0.0
  0
SPLINE
  5
B6
330
1F
100
AcDbEntity
  8
Predefinito
100
AcDbSpline
210
0.0
220
0.0
230
1.0
 70
    24
 71
     2
 72
     6
 73
     3
 74
     0
 42
0.0000000001
 43
0.0000000001
 40
0.0
 40
0.0
 40
0.0
 40
13.60000000000002
 40
13.60000000000002
 40
13.60000000000002
 10
469.4436787893544
 20
765.2436787893539
 30
0.0
 10
469.4436787893544
 20
758.443678789354
 30
0.0
 10
469.4436787893544
 20
751.6436787893539
 30
0.0
  0
SPLINE
  5
B7
330
1F
100
AcDbEntity
  8
Predefinito
100
AcDbSpline
210
0.0
220
0.0
230
1.0
 70
    28
 71
     2
 72
     6
 73
     3
 74
     0
 42
0.0000000001
 43
0.0000000001
 40
3.119786421644597
 40
3.119786421644597
 40
3.119786421644597
 40
8.319430457718926
 40
8.319430457718926
 40
8.319430457718926
 10
448.6936787893544
 20
765.3621253912956
 30
0.0
 41
0.9196428571428559
 10
448.6936787893544
 20
765.779678789354
 30
0.0
 41
0.8928571428571412
 10
448.6936787893544
 20
764.2436787893539
 30
0.0
 41
1.0
  0
SPLINE
  5
B8
330
1F
100
AcDbEntity
  8
Predefinito
100
AcDbSpline
210
0.0
220
0.0
230
1.0
 70
    12
 71
     2
 72
     6
 73
     3
 74
     0
 42
0.0000000001
 43
0.0000000001
 40
0.0
 40
0.0
 40
0.0
 40
1.463378901538994
 40
1.463378901538994
 40
1.463378901538994
 10
440.436702814646
 20
762.8099458626208
 30
0.0
 41
1.0
 10
440.1740870653973
 20
763.5028946231757
 30
0.0
 41
0.9811734990229556
 10
440.1936787893544
 20
764.2436787893539
 30
0.0
 41
1.0
  0
SPLINE
  5
B9
330
1F
100
AcDbEntity
  8
Predefinito
100
AcDbSpline
210
0.0
220
0.0
230
1.0
 70
    12
 71
     2
 72
     6
 73
     3
 74
     0
 42
0.0000000001
 43
0.0000000001
 40
0.0
 40
0.0
 40
0.0
 40
1.497367003370082
 40
1.497367003370082
 40
1.497367003370082
 10
448.6936787893544
 20
764.2436787893539
 30
0.0
 41
1.0
 10
448.7148793053584
 20
763.4849815946808
 30
0.0
 41
0.9797486329936761
 10
448.4367028133718
 20
762.7788026270035
 30
0.0
 41
1.0
  0
SPLINE
  5
BA
330
1F
100
AcDbEntity
  8
Predefinito
100
AcDbSpline
210
0.0
220
0.0
230
1.0
 70
    24
 71
     2
 72
     6
 73
     3
 74
     0
 42
0.0000000001
 43
0.0000000001
 40
0.0
 40
0.0
 40
0.0
 40
1.118446601941741
 40
1.118446601941741
 40
1.118446601941741
 10
440.1936787893544
 20
764.2436787893539
 30
0.0
 10
440.1936787893544
 20
764.8029020903248
 30
0.0
 10
440.1936787893544
 20
765.3621253912956
 30
0.0
  0
SPLINE
  5
BB
330
1F
100
AcDbEntity
  8
Predefinito
100
AcDbSpline
210
0.0
220
0.0
230
1.0
 70
    24
 71
     2
 72
     6
 73
     3
 74
     0
 42
0.0000000001
 43
0.0000000001
 40
0.0
 40
0.0
 40
0.0
 40
0.2002085020602533
 40
0.2002085020602533
 40
0.2002085020602533
 10
319.4436787893544
 20
751.6436787893539
 30
0.0
 10
319.5144631840834
 20
751.5728943946249
 30
0.0
 10
319.5852475788124
 20
751.5021099998959
 30
0.0
  0
SPLINE
  5
BC
330
1F
100
AcDbEntity
  8
Predefinito
100
AcDbSpline
210
0.0
220
0.0
230
1.0
 70
    24
 71
     2
 72
     6
 73
     3
 74
     0
 42
0.0000000001
 43
0.0000000001
 40
0.0
 40
0.0
 40
0.0
 40
14.0
 40
14.0
 40
14.0
 10
319.6436787893543
 20
751.4436787893538
 30
0.0
 10
319.6436787893543
 20
758.4436787893538
 30
0.0
 10
319.6436787893543
 20
765.4436787893538
 30
0.0
  0
SPLINE
  5
BD
330
1F
100
AcDbEntity
  8
Predefinito
100
AcDbSpline
210
0.0
220
0.0
230
1.0
 70
    12
 71
     2
 72
     6
 73
     3
 74
     0
 42
0.0000000001
 43
0.0000000001
 40
0.0
 40
0.0
 40
0.0
 40
3.074955997894723
 40
3.074955997894723
 40
3.074955997894723
 10
402.55892211779
 20
573.5275714110894
 30
0.0
 41
1.0
 10
403.8558371053487
 20
574.443678789354
 30
0.0
 41
0.9530945714741705
 10
405.443678789354
 20
574.4436787893538
 30
0.0
 41
1.0
  0
SPLINE
  5
BE
330
1F
100
AcDbEntity
  8
Predefinito
100
AcDbSpline
210
0.0
220
0.0
230
1.0
 70
    12
 71
     2
 72
     8
 73
     5
 74
     0
 42
0.0000000001
 43
0.0000000001
 40
0.0
 40
0.0
 40
0.0
 40
87.43320406787771
 40
87.43320406787771
 40
174.8664081357553
 40
174.8664081357553
 40
174.8664081357553
 10
486.4436787893559
 20
573.4436787893529
 30
0.0
 41
1.0
 10
526.8061951124982
 20
543.1717915469945
 30
0.0
 41
0.8112421851755603
 10
510.8515096528897
 20
495.3077351681737
 30
0.0
 41
1.0
 10
494.8968241932815
 20
447.4436787893529
 30
0.0
 41
0.8112421851755599
 10
444.4436787893528
 20
447.4436787893542
 30
0.0
 41
1.0
  0
SPLINE
  5
BF
330
1F
100
AcDbEntity
  8
Predefinito
100
AcDbSpline
210
0.0
220
0.0
230
1.0
 70
    24
 71
     2
 72
     6
 73
     3
 74
     0
 42
0.0000000001
 43
0.0000000001
 40
0.0
 40
0.0
 40
0.0
 40
84.00000000000057
 40
84.00000000000057
 40
84.00000000000057
 10
486.4436787893546
 20
573.4436787893538
 30
0.0
 10
444.4436787893544
 20
573.4436787893538
 30
0.0
 10
402.4436787893541
 20
573.4436787893538
 30
0.0
  0
SPLINE
  5
C0
330
1F
100
AcDbEntity
  8
Predefinito
100
AcDbSpline
210
0.0
220
0.0
230
1.0
 70
    24
 71
     2
 72
     6
 73
     3
 74
     0
 42
0.0000000001
 43
0.0000000001
 40
0.0
 40
0.0
 40
0.0
 40
77.99804291410175
 40
77.99804291410175
 40
77.99804291410175
 10
405.4436787893541
 20
574.4436787893538
 30
0.0
 10
444.442700246405
 20
574.4436787893538
 30
0.0
 10
483.4417217034559
 20
574.4436787893538
 30
0.0
  0
SPLINE
  5
C1
330
1F
100
AcDbEntity
  8
Predefinito
100
AcDbSpline
210
0.0
220
0.0
230
1.0
 70
    12
 71
     2
 72
     8
 73
     5
 74
     0
 42
0.0000000001
 43
0.0000000001
 40
0.0
 40
0.0
 40
0.0
 40
7.040865845114983
 40
7.040865845114983
 40
14.08173169022997
 40
14.08173169022997
 40
14.08173169022997
 10
444.703285628112
 20
600.0234069063692
 30
0.0
 41
1.0
 10
440.6693125092499
 20
599.7639631755474
 30
0.0
 41
0.81713401522434
 10
439.0718392047139
 20
603.4772271325613
 30
0.0
 41
1.0
 10
437.4743659001779
 20
607.1904910895755
 30
0.0
 41
0.81713401522434
 10
440.4367028146452
 20
609.94091108993
 30
0.0
 41
1.0
  0
SPLINE
  5
C2
330
1F
100
AcDbEntity
  8
Predefinito
100
AcDbSpline
210
0.0
220
0.0
230
1.0
 70
    12
 71
     2
 72
     8
 73
     5
 74
     0
 42
0.0000000001
 43
0.0000000001
 40
0.0
 40
0.0
 40
0.0
 40
6.788477140836393
 40
6.788477140836393
 40
13.57695428167279
 40
13.57695428167279
 40
13.57695428167279
 10
448.4367028146448
 20
609.9724208969576
 30
0.0
 41
1.0
 10
451.2641408919879
 20
607.3530991921145
 30
0.0
 41
0.8302214459488818
 10
449.9100162677394
 20
603.7445539482973
 30
0.0
 41
1.0
 10
448.555891643491
 20
600.1360087044801
 30
0.0
 41
0.8302214459488818
 10
444.7032856281121
 20
600.0234069063691
 30
0.0
 41
1.0
  0
SPLINE
  5
C3
330
1F
100
AcDbEntity
  8
Predefinito
100
AcDbSpline
210
0.0
220
0.0
230
1.0
 70
    24
 71
     2
 72
     6
 73
     3
 74
     0
 42
0.0000000001
 43
0.0000000001
 40
0.0
 40
0.0
 40
0.0
 40
29.49999952600456
 40
29.49999952600456
 40
29.49999952600456
 10
434.4936787893543
 20
586.2653724731949
 30
0.0
 10
434.4936787893543
 20
601.0153722361972
 30
0.0
 10
434.4936787893543
 20
615.7653719991995
 30
0.0
  0
SPLINE
  5
C4
330
1F
100
AcDbEntity
  8
Predefinito
100
AcDbSpline
210
0.0
220
0.0
230
1.0
 70
    24
 71
     2
 72
     6
 73
     3
 74
     0
 42
0.0000000001
 43
0.0000000001
 40
0.0
 40
0.0
 40
0.0
 40
5.943024025291039
 40
5.943024025291039
 40
5.943024025291039
 10
440.4367028146454
 20
615.7653721407555
 30
0.0
 10
437.4651908019999
 20
615.7653720699775
 30
0.0
 10
434.4936787893544
 20
615.7653719991995
 30
0.0
  0
SPLINE
  5
C5
330
1F
100
AcDbEntity
  8
Predefinito
100
AcDbSpline
210
0.0
220
0.0
230
1.0
 70
    24
 71
     2
 72
     6
 73
     3
 74
     0
 42
0.0000000001
 43
0.0000000001
 40
0.0
 40
0.0
 40
0.0
 40
5.956975974709054
 40
5.956975974709054
 40
5.956975974709054
 10
454.3936787893543
 20
615.7653724731949
 30
0.0
 10
451.4151908019998
 20
615.7653724022507
 30
0.0
 10
448.4367028146453
 20
615.7653723313065
 30
0.0
  0
SPLINE
  5
C6
330
1F
100
AcDbEntity
  8
Predefinito
100
AcDbSpline
210
0.0
220
0.0
230
1.0
 70
    24
 71
     2
 72
     6
 73
     3
 74
     0
 42
0.0000000001
 43
0.0000000001
 40
0.0
 40
0.0
 40
0.0
 40
0.7071067811865476
 40
0.7071067811865476
 40
0.7071067811865476
 10
453.8936787893544
 20
616.2653724731949
 30
0.0
 10
454.1436787893544
 20
616.0153724731949
 30
0.0
 10
454.3936787893544
 20
615.7653724731949
 30
0.0
  0
SPLINE
  5
C7
330
1F
100
AcDbEntity
  8
Predefinito
100
AcDbSpline
210
0.0
220
0.0
230
1.0
 70
    24
 71
     2
 72
     6
 73
     3
 74
     0
 42
0.0000000001
 43
0.0000000001
 40
0.0
 40
0.0
 40
0.0
 40
5.443024025294449
 40
5.443024025294449
 40
5.443024025294449
 10
440.4367028146488
 20
616.2653724731949
 30
0.0
 10
437.7151908020015
 20
616.2653724731949
 30
0.0
 10
434.9936787893543
 20
616.2653724731949
 30
0.0
  0
SPLINE
  5
C8
330
1F
100
AcDbEntity
  8
Predefinito
100
AcDbSpline
210
0.0
220
0.0
230
1.0
 70
    24
 71
     2
 72
     6
 73
     3
 74
     0
 42
0.0000000001
 43
0.0000000001
 40
0.0
 40
0.0
 40
0.0
 40
5.456975974712066
 40
5.456975974712066
 40
5.456975974712066
 10
453.8936787893544
 20
616.2653724731949
 30
0.0
 10
451.1651908019984
 20
616.2653724731949
 30
0.0
 10
448.4367028146423
 20
616.2653724731949
 30
0.0
  0
SPLINE
  5
C9
330
1F
100
AcDbEntity
  8
Predefinito
100
AcDbSpline
210
0.0
220
0.0
230
1.0
 70
    12
 71
     2
 72
     8
 73
     5
 74
     0
 42
0.0000000001
 43
0.0000000001
 40
0.0
 40
0.0
 40
0.0
 40
6.357599758346852
 40
6.357599758346852
 40
12.7151995166937
 40
12.7151995166937
 40
12.7151995166937
 10
448.4367028146453
 20
609.6870443032417
 30
0.0
 41
1.0
 10
450.9340120885296
 20
607.1357857087642
 30
0.0
 41
0.8434243277042344
 10
449.6776040849347
 20
603.7940925819457
 30
0.0
 41
1.0
 10
448.4211960813399
 20
600.4523994551272
 30
0.0
 41
0.8434243277042344
 10
444.8616461242605
 20
600.1783955712507
 30
0.0
 41
1.0
  0
SPLINE
  5
CA
330
1F
100
AcDbEntity
  8
Predefinito
100
AcDbSpline
210
0.0
220
0.0
230
1.0
 70
    12
 71
     2
 72
     8
 73
     5
 74
     0
 42
0.0000000001
 43
0.0000000001
 40
0.0
 40
0.0
 40
0.0
 40
6.349338752775343
 40
6.349338752775343
 40
12.69867750555069
 40
12.69867750555069
 40
12.69867750555069
 10
444.0261299845952
 20
600.1783648455141
 30
0.0
 41
1.0
 10
440.4717967533973
 20
600.4490675659858
 30
0.0
 41
0.8437010297235441
 10
439.2111657138719
 20
603.783340209825
 30
0.0
 41
1.0
 10
437.9505346743466
 20
607.1176128536641
 30
0.0
 41
0.8437010297235441
 10
440.4367028146455
 20
609.6721250692216
 30
0.0
 41
1.0
  0
SPLINE
  5
CB
330
1F
100
AcDbEntity
  8
Predefinito
100
AcDbSpline
210
0.0
220
0.0
230
1.0
 70
    12
 71
     2
 72
     8
 73
     5
 74
     0
 42
0.0000000001
 43
0.0000000001
 40
0.0
 40
0.0
 40
0.0
 40
0.0008372197077019
 40
0.0008372197077019
 40
0.1689677380698114
 40
0.1689677380698114
 40
0.1689677380698114
 10
444.8616461242605
 20
600.1783955712506
 30
0.0
 41
1.0
 10
444.8612286586043
 20
600.1783646417143
 30
0.0
 41
0.9999999972035317
 10
444.8608111883264
 20
600.1783337746197
 30
0.0
 41
1.0
 10
444.7769694541648
 20
600.1721123548897
 30
0.0
 41
0.9998753575203412
 10
444.6929730919598
 20
600.1685411384246
 30
0.0
 41
1.0
  0
SPLINE
  5
CC
330
1F
100
AcDbEntity
  8
Predefinito
100
AcDbSpline
210
0.0
220
0.0
230
1.0
 70
    12
 71
     2
 72
     6
 73
     3
 74
     0
 42
0.0000000001
 43
0.0000000001
 40
0.0
 40
0.0
 40
0.0
 40
0.4987525241169051
 40
0.4987525241169051
 40
0.4987525241169051
 10
444.6929730919598
 20
600.1685411384246
 30
0.0
 41
1.0
 10
444.4436788124351
 20
600.1575535456726
 30
0.0
 41
0.9990382658271812
 10
444.1943804757814
 20
600.168448697799
 30
0.0
 41
1.0
  0
SPLINE
  5
CD
330
1F
100
AcDbEntity
  8
Predefinito
100
AcDbSpline
210
0.0
220
0.0
230
1.0
 70
    12
 71
     2
 72
     6
 73
     3
 74
     0
 42
0.0000000001
 43
0.0000000001
 40
0.0
 40
0.0
 40
0.0
 40
0.168547140179057
 40
0.168547140179057
 40
0.168547140179057
 10
444.1943804757814
 20
600.168448697799
 30
0.0
 41
1.0
 10
444.1101911675315
 20
600.172319799802
 30
0.0
 41
0.9999165359341203
 10
444.0261299845952
 20
600.1783648455141
 30
0.0
 41
1.0
  0
SPLINE
  5
CE
330
1F
100
AcDbEntity
  8
Predefinito
100
AcDbSpline
210
0.0
220
0.0
230
1.0
 70
    12
 71
     2
 72
     6
 73
     3
 74
     0
 42
0.0000000001
 43
0.0000000001
 40
0.0
 40
0.0
 40
0.0
 40
31.58160811654412
 40
31.58160811654412
 40
31.58160811654412
 10
483.9277092119451
 20
574.7522848515896
 30
0.0
 41
1.0
 10
470.6983996047301
 20
583.8712602368333
 30
0.0
 41
0.9743515073652377
 10
454.8100840439776
 20
586.2653724735889
 30
0.0
 41
1.0
  0
SPLINE
  5
CF
330
1F
100
AcDbEntity
  8
Predefinito
100
AcDbSpline
210
0.0
220
0.0
230
1.0
 70
    24
 71
     2
 72
     6
 73
     3
 74
     0
 42
0.0000000001
 43
0.0000000001
 40
0.0
 40
0.0
 40
0.0
 40
79.1851526684589
 40
79.1851526684589
 40
79.1851526684589
 10
404.8511024551249
 20
574.6773625857716
 30
0.0
 10
444.4436787893544
 20
574.6773625857716
 30
0.0
 10
484.0362551235838
 20
574.6773625857716
 30
0.0
  0
SPLINE
  5
D0
330
1F
100
AcDbEntity
  8
Predefinito
100
AcDbSpline
210
0.0
220
0.0
230
1.0
 70
    12
 71
     2
 72
     8
 73
     5
 74
     0
 42
0.0000000001
 43
0.0000000001
 40
0.0
 40
0.0
 40
0.0
 40
0.0916291675004695
 40
0.0916291675004695
 40
0.1832583350009389
 40
0.1832583350009389
 40
0.1832583350009389
 10
483.9578684930497
 20
574.5362019345752
 30
0.0
 41
1.0
 10
484.0057292448317
 20
574.5460723425222
 30
0.0
 41
0.9088589881467989
 10
484.0294533036578
 20
574.5887952350624
 30
0.0
 41
1.0
 10
484.0531773624838
 20
574.6315181276028
 30
0.0
 41
0.9088589881467989
 10
484.0362551235839
 20
574.6773625857716
 30
0.0
 41
1.0
  0
SPLINE
  5
D1
330
1F
100
AcDbEntity
  8
Predefinito
100
AcDbSpline
210
0.0
220
0.0
230
1.0
 70
    24
 71
     2
 72
     6
 73
     3
 74
     0
 42
0.0000000001
 43
0.0000000001
 40
0.0
 40
0.0
 40
0.0
 40
20.73281050924618
 40
20.73281050924618
 40
20.73281050924618
 10
434.0772735347313
 20
586.2653724735889
 30
0.0
 10
444.4436787893544
 20
586.2653724735889
 30
0.0
 10
454.8100840439774
 20
586.2653724735889
 30
0.0
  0
SPLINE
  5
D2
330
1F
100
AcDbEntity
  8
Predefinito
100
AcDbSpline
210
0.0
220
0.0
230
1.0
 70
    24
 71
     2
 72
     6
 73
     3
 74
     0
 42
0.0000000001
 43
0.0000000001
 40
0.0
 40
0.0
 40
0.0
 40
0.7071067811865476
 40
0.7071067811865476
 40
0.7071067811865476
 10
440.9367028146454
 20
642.2238267495899
 30
0.0
 10
440.6867028146454
 20
641.9738267495899
 30
0.0
 10
440.4367028146454
 20
641.7238267495899
 30
0.0
  0
SPLINE
  5
D3
330
1F
100
AcDbEntity
  8
Predefinito
100
AcDbSpline
210
0.0
220
0.0
230
1.0
 70
    24
 71
     2
 72
     6
 73
     3
 74
     0
 42
0.0000000001
 43
0.0000000001
 40
0.0
 40
0.0
 40
0.0
 40
3.933221473666322
 40
3.933221473666322
 40
3.933221473666322
 10
448.3699242883117
 20
659.7238267495899
 30
0.0
 10
446.4033135514786
 20
659.7238267495899
 30
0.0
 10
444.4367028146454
 20
659.7238267495899
 30
0.0
  0
SPLINE
  5
D4
330
1F
100
AcDbEntity
  8
Predefinito
100
AcDbSpline
210
0.0
220
0.0
230
1.0
 70
    24
 71
     2
 72
     6
 73
     3
 74
     0
 42
0.0000000001
 43
0.0000000001
 40
0.0
 40
0.0
 40
0.0
 40
3.5
 40
3.5
 40
3.5
 10
444.4367028146454
 20
659.2238267495899
 30
0.0
 10
446.1867028146454
 20
659.2238267495899
 30
0.0
 10
447.9367028146454
 20
659.2238267495899
 30
0.0
  0
SPLINE
  5
D5
330
1F
100
AcDbEntity
  8
Predefinito
100
AcDbSpline
210
0.0
220
0.0
230
1.0
 70
    24
 71
     2
 72
     6
 73
     3
 74
     0
 42
0.0000000001
 43
0.0000000001
 40
0.0
 40
0.0
 40
0.0
 40
0.659887232378319
 40
0.659887232378319
 40
0.659887232378319
 10
447.9367028146454
 20
659.2238267495899
 30
0.0
 10
448.170008183062
 20
659.4571321180065
 30
0.0
 10
448.4033135514786
 20
659.690437486423
 30
0.0
  0
SPLINE
  5
D6
330
1F
100
AcDbEntity
  8
Predefinito
100
AcDbSpline
210
0.0
220
0.0
230
1.0
 70
    24
 71
     2
 72
     6
 73
     3
 74
     0
 42
0.0000000001
 43
0.0000000001
 40
0.0
 40
0.0
 40
0.0
 40
6.941568789458017
 40
6.941568789458017
 40
6.941568789458017
 10
447.9367028146454
 20
642.2238267495899
 30
0.0
 10
444.4659184199164
 20
642.2238267495899
 30
0.0
 10
440.9951340251874
 20
642.2238267495899
 30
0.0
  0
SPLINE
  5
D7
330
1F
100
AcDbEntity
  8
Predefinito
100
AcDbSpline
210
0.0
220
0.0
230
1.0
 70
    24
 71
     2
 72
     6
 73
     3
 74
     0
 42
0.0000000001
 43
0.0000000001
 40
0.0
 40
0.0
 40
0.0
 40
3.441568789458017
 40
3.441568789458017
 40
3.441568789458017
 10
444.4367028146454
 20
659.2238267495899
 30
0.0
 10
442.7159184199164
 20
659.2238267495899
 30
0.0
 10
440.9951340251874
 20
659.2238267495899
 30
0.0
  0
SPLINE
  5
D8
330
1F
100
AcDbEntity
  8
Predefinito
100
AcDbSpline
210
0.0
220
0.0
230
1.0
 70
    24
 71
     2
 72
     6
 73
     3
 74
     0
 42
0.0000000001
 43
0.0000000001
 40
0.0
 40
0.0
 40
0.0
 40
3.933221473666322
 40
3.933221473666322
 40
3.933221473666322
 10
444.4367028146454
 20
624.2238267495899
 30
0.0
 10
446.4033135514786
 20
624.2238267495899
 30
0.0
 10
448.3699242883117
 20
624.2238267495899
 30
0.0
  0
SPLINE
  5
D9
330
1F
100
AcDbEntity
  8
Predefinito
100
AcDbSpline
210
0.0
220
0.0
230
1.0
 70
    24
 71
     2
 72
     6
 73
     3
 74
     0
 42
0.0000000001
 43
0.0000000001
 40
0.0
 40
0.0
 40
0.0
 40
17.5
 40
17.5
 40
17.5
 10
440.4367028146454
 20
624.2238267495899
 30
0.0
 10
440.4367028146454
 20
632.9738267495899
 30
0.0
 10
440.4367028146454
 20
641.7238267495899
 30
0.0
  0
SPLINE
  5
DA
330
1F
100
AcDbEntity
  8
Predefinito
100
AcDbSpline
210
0.0
220
0.0
230
1.0
 70
    24
 71
     2
 72
     6
 73
     3
 74
     0
 42
0.0000000001
 43
0.0000000001
 40
0.0
 40
0.0
 40
0.0
 40
7.933221473666322
 40
7.933221473666322
 40
7.933221473666322
 10
448.3699242883117
 20
641.7238267495899
 30
0.0
 10
444.4033135514786
 20
641.7238267495899
 30
0.0
 10
440.4367028146454
 20
641.7238267495899
 30
0.0
  0
SPLINE
  5
DB
330
1F
100
AcDbEntity
  8
Predefinito
100
AcDbSpline
210
0.0
220
0.0
230
1.0
 70
    24
 71
     2
 72
     6
 73
     3
 74
     0
 42
0.0000000001
 43
0.0000000001
 40
0.0
 40
0.0
 40
0.0
 40
4.0
 40
4.0
 40
4.0
 10
444.4367028146454
 20
624.2238267495899
 30
0.0
 10
442.4367028146454
 20
624.2238267495899
 30
0.0
 10
440.4367028146454
 20
624.2238267495899
 30
0.0
  0
SPLINE
  5
DC
330
1F
100
AcDbEntity
  8
Predefinito
100
AcDbSpline
210
0.0
220
0.0
230
1.0
 70
    12
 71
     2
 72
     6
 73
     3
 74
     0
 42
0.0000000001
 43
0.0000000001
 40
0.0
 40
0.0
 40
0.0
 40
1.79657533105291
 40
1.79657533105291
 40
1.79657533105291
 10
440.4367028146454
 20
603.2238267495899
 30
0.0
 41
1.0
 10
440.4367028146452
 20
602.3101271256184
 30
0.0
 41
0.9748895259265451
 10
440.8334261125545
 20
601.487048983677
 30
0.0
 41
1.0
  0
SPLINE
  5
DD
330
1F
100
AcDbEntity
  8
Predefinito
100
AcDbSpline
210
0.0
220
0.0
230
1.0
 70
    12
 71
     2
 72
     6
 73
     3
 74
     0
 42
0.0000000001
 43
0.0000000001
 40
0.0
 40
0.0
 40
0.0
 40
1.816681243045473
 40
1.816681243045473
 40
1.816681243045473
 10
448.0312041591051
 20
601.4689592090965
 30
0.0
 41
1.0
 10
448.4367028146454
 20
602.2995435289287
 30
0.0
 41
0.9743267768348978
 10
448.4367028146454
 20
603.2238267495899
 30
0.0
 41
1.0
  0
SPLINE
  5
DE
330
1F
100
AcDbEntity
  8
Predefinito
100
AcDbSpline
210
0.0
220
0.0
230
1.0
 70
    24
 71
     2
 72
     6
 73
     3
 74
     0
 42
0.0000000001
 43
0.0000000001
 40
0.0
 40
0.0
 40
0.0
 40
18.0
 40
18.0
 40
18.0
 10
440.4367028146454
 20
641.7238267495899
 30
0.0
 10
440.4367028146454
 20
650.7238267495899
 30
0.0
 10
440.4367028146454
 20
659.7238267495899
 30
0.0
  0
SPLINE
  5
DF
330
1F
100
AcDbEntity
  8
Predefinito
100
AcDbSpline
210
0.0
220
0.0
230
1.0
 70
    28
 71
     2
 72
     8
 73
     5
 74
     0
 42
0.0000000001
 43
0.0000000001
 40
11.78097245096172
 40
11.78097245096172
 40
11.78097245096172
 40
14.13716694115407
 40
14.13716694115407
 40
18.84955592153876
 40
18.84955592153876
 40
18.84955592153876
 10
448.3598439362582
 20
744.2238267495899
 30
0.0
 41
0.9157348061512727
 10
448.5965639450083
 20
744.22382674959
 30
0.0
 41
0.9157348061512726
 10
448.1322209446905
 20
744.2238267495899
 30
0.0
 41
1.0
 10
447.1094173663225
 20
744.2238267495899
 30
0.0
 41
0.8314696123025452
 10
444.4367028146454
 20
744.2238267495899
 30
0.0
 41
1.0
  0
SPLINE
  5
E0
330
1F
100
AcDbEntity
  8
Predefinito
100
AcDbSpline
210
0.0
220
0.0
230
1.0
 70
    24
 71
     2
 72
     6
 73
     3
 74
     0
 42
0.0000000001
 43
0.0000000001
 40
0.0
 40
0.0
 40
0.0
 40
3.933221473666265
 40
3.933221473666265
 40
3.933221473666265
 10
444.4367028146454
 20
744.2238267495899
 30
0.0
 10
442.4700920778123
 20
744.2238267495899
 30
0.0
 10
440.5034813409791
 20
744.2238267495899
 30
0.0
  0
SPLINE
  5
E1
330
1F
100
AcDbEntity
  8
Predefinito
100
AcDbSpline
210
0.0
220
0.0
230
1.0
 70
    24
 71
     2
 72
     6
 73
     3
 74
     0
 42
0.0000000001
 43
0.0000000001
 40
0.0
 40
0.0
 40
0.0
 40
4.0
 40
4.0
 40
4.0
 10
440.4367028146454
 20
659.7238267495899
 30
0.0
 10
442.4367028146454
 20
659.7238267495899
 30
0.0
 10
444.4367028146454
 20
659.7238267495899
 30
0.0
  0
SPLINE
  5
E2
330
1F
100
AcDbEntity
  8
Predefinito
100
AcDbSpline
210
0.0
220
0.0
230
1.0
 70
    24
 71
     2
 72
     6
 73
     3
 74
     0
 42
0.0000000001
 43
0.0000000001
 40
0.0
 40
0.0
 40
0.0
 40
0.0217843741628307
 40
0.0217843741628307
 40
0.0217843741628307
 10
318.126364559326
 20
84.98269216381608
 30
0.0
 10
318.1340664986732
 20
84.99039410316328
 30
0.0
 10
318.1417684380204
 20
84.99809604251048
 30
0.0
  0
SPLINE
  5
E3
330
1F
100
AcDbEntity
  8
Predefinito
100
AcDbSpline
210
0.0
220
0.0
230
1.0
 70
    24
 71
     2
 72
     6
 73
     3
 74
     0
 42
0.0000000001
 43
0.0000000001
 40
0.0
 40
0.0
 40
0.0
 40
0.1843118334116209
 40
0.1843118334116209
 40
0.1843118334116209
 10
317.9436787893544
 20
84.80000639384437
 30
0.0
 10
318.0088428629834
 20
84.86517046747353
 30
0.0
 10
318.0740069366126
 20
84.9303345411027
 30
0.0
  0
SPLINE
  5
E4
330
1F
100
AcDbEntity
  8
Predefinito
100
AcDbSpline
210
0.0
220
0.0
230
1.0
 70
    24
 71
     2
 72
     6
 73
     3
 74
     0
 42
0.0000000001
 43
0.0000000001
 40
0.0
 40
0.0
 40
0.0
 40
0.2282442962622576
 40
0.2282442962622576
 40
0.2282442962622576
 10
318.1050718790085
 20
55.03861330419015
 30
0.0
 10
318.0243753341814
 20
55.11930984901727
 30
0.0
 10
317.9436787893544
 20
55.20000639384438
 30
0.0
  0
SPLINE
  5
E5
330
1F
100
AcDbEntity
  8
Predefinito
100
AcDbSpline
210
0.0
220
0.0
230
1.0
 70
    24
 71
     2
 72
     6
 73
     3
 74
     0
 42
0.0000000001
 43
0.0000000001
 40
0.0
 40
0.0
 40
0.0
 40
1.100000000000023
 40
1.100000000000023
 40
1.100000000000023
 10
319.2436787893544
 20
55.00000639384438
 30
0.0
 10
318.6936787893544
 20
55.00000639384438
 30
0.0
 10
318.1436787893543
 20
55.00000639384438
 30
0.0
  0
SPLINE
  5
E6
330
1F
100
AcDbEntity
  8
Predefinito
100
AcDbSpline
210
0.0
220
0.0
230
1.0
 70
    24
 71
     2
 72
     6
 73
     3
 74
     0
 42
0.0000000001
 43
0.0000000001
 40
0.0
 40
0.0
 40
0.0
 40
1.100000000000023
 40
1.100000000000023
 40
1.100000000000023
 10
318.1436787893543
 20
85.00000639384439
 30
0.0
 10
318.6936787893544
 20
85.00000639384439
 30
0.0
 10
319.2436787893544
 20
85.00000639384439
 30
0.0
  0
SPLINE
  5
E7
330
1F
100
AcDbEntity
  8
Predefinito
100
AcDbSpline
210
0.0
220
0.0
230
1.0
 70
    24
 71
     2
 72
     6
 73
     3
 74
     0
 42
0.0000000001
 43
0.0000000001
 40
0.0
 40
0.0
 40
0.0
 40
0.1843118334116209
 40
0.1843118334116209
 40
0.1843118334116209
 10
319.3133506420961
 20
84.9303345411027
 30
0.0
 10
319.3785147157253
 20
84.86517046747353
 30
0.0
 10
319.4436787893544
 20
84.80000639384437
 30
0.0
  0
SPLINE
  5
E8
330
1F
100
AcDbEntity
  8
Predefinito
100
AcDbSpline
210
0.0
220
0.0
230
1.0
 70
    24
 71
     2
 72
     6
 73
     3
 74
     0
 42
0.0000000001
 43
0.0000000001
 40
0.0
 40
0.0
 40
0.0
 40
0.0093043632545269
 40
0.0093043632545269
 40
0.0093043632545269
 10
319.2455891406883
 20
84.9980960425105
 30
0.0
 10
319.2488787298642
 20
84.99480645333455
 30
0.0
 10
319.2521683190402
 20
84.9915168641586
 30
0.0
  0
SPLINE
  5
E9
330
1F
100
AcDbEntity
  8
Predefinito
100
AcDbSpline
210
0.0
220
0.0
230
1.0
 70
    24
 71
     2
 72
     6
 73
     3
 74
     0
 42
0.0000000001
 43
0.0000000001
 40
0.0
 40
0.0
 40
0.0
 40
0.2263813160373127
 40
0.2263813160373127
 40
0.2263813160373127
 10
319.4436787893544
 20
55.20000639384438
 30
0.0
 10
319.3636409075024
 20
55.11996851199241
 30
0.0
 10
319.2836030256505
 20
55.03993063014045
 30
0.0
  0
SPLINE
  5
EA
330
1F
100
AcDbEntity
  8
Predefinito
100
AcDbSpline
210
0.0
220
0.0
230
1.0
 70
    24
 71
     2
 72
     6
 73
     3
 74
     0
 42
0.0000000001
 43
0.0000000001
 40
0.0
 40
0.0
 40
0.0
 40
120.7930240252913
 40
120.7930240252913
 40
120.7930240252913
 10
440.4367028146456
 20
63.00000639384438
 30
0.0
 10
380.040190802
 20
63.00000639384438
 30
0.0
 10
319.6436787893543
 20
63.00000639384438
 30
0.0
  0
SPLINE
  5
EB
330
1F
100
AcDbEntity
  8
Predefinito
100
AcDbSpline
210
0.0
220
0.0
230
1.0
 70
    24
 71
     2
 72
     6
 73
     3
 74
     0
 42
0.0000000001
 43
0.0000000001
 40
0.0
 40
0.0
 40
0.0
 40
17.00697597470901
 40
17.00697597470901
 40
17.00697597470901
 10
465.4436787893544
 20
63.00000639384438
 30
0.0
 10
456.9401908019998
 20
63.00000639384438
 30
0.0
 10
448.4367028146453
 20
63.00000639384438
 30
0.0
  0
SPLINE
  5
EC
330
1F
100
AcDbEntity
  8
Predefinito
100
AcDbSpline
210
0.0
220
0.0
230
1.0
 70
    24
 71
     2
 72
     6
 73
     3
 74
     0
 42
0.0000000001
 43
0.0000000001
 40
0.0
 40
0.0
 40
0.0
 40
0.6244725707722281
 40
0.6244725707722281
 40
0.6244725707722281
 10
465.9436787893544
 20
76.50000639384439
 30
0.0
 10
466.1644631840834
 20
76.7207907885734
 30
0.0
 10
466.3852475788124
 20
76.94157518330239
 30
0.0
  0
SPLINE
  5
ED
330
1F
100
AcDbEntity
  8
Predefinito
100
AcDbSpline
210
0.0
220
0.0
230
1.0
 70
    24
 71
     2
 72
     6
 73
     3
 74
     0
 42
0.0000000001
 43
0.0000000001
 40
0.0
 40
0.0
 40
0.0
 40
0.6244725707722331
 40
0.6244725707722331
 40
0.6244725707722331
 10
466.3852475788124
 20
63.05843760438637
 30
0.0
 10
466.1644631840834
 20
63.27922199911538
 30
0.0
 10
465.9436787893544
 20
63.50000639384438
 30
0.0
  0
SPLINE
  5
EE
330
1F
100
AcDbEntity
  8
Predefinito
100
AcDbSpline
210
0.0
220
0.0
230
1.0
 70
    24
 71
     2
 72
     6
 73
     3
 74
     0
 42
0.0000000001
 43
0.0000000001
 40
0.0
 40
0.0
 40
0.0
 40
0.6244725707722482
 40
0.6244725707722482
 40
0.6244725707722482
 10
465.5021099998963
 20
76.94157518330242
 30
0.0
 10
465.7228943946253
 20
76.7207907885734
 30
0.0
 10
465.9436787893544
 20
76.50000639384439
 30
0.0
  0
SPLINE
  5
EF
330
1F
100
AcDbEntity
  8
Predefinito
100
AcDbSpline
210
0.0
220
0.0
230
1.0
 70
    24
 71
     2
 72
     6
 73
     3
 74
     0
 42
0.0000000001
 43
0.0000000001
 40
0.0
 40
0.0
 40
0.0
 40
0.6244725707722331
 40
0.6244725707722331
 40
0.6244725707722331
 10
465.9436787893544
 20
63.50000639384438
 30
0.0
 10
465.7228943946253
 20
63.27922199911538
 30
0.0
 10
465.5021099998963
 20
63.05843760438637
 30
0.0
  0
SPLINE
  5
F0
330
1F
100
AcDbEntity
  8
Predefinito
100
AcDbSpline
210
0.0
220
0.0
230
1.0
 70
    24
 71
     2
 72
     6
 73
     3
 74
     0
 42
0.0000000001
 43
0.0000000001
 40
0.0
 40
0.0
 40
0.0
 40
2.800000000000011
 40
2.800000000000011
 40
2.800000000000011
 10
469.2436787893544
 20
63.00000639384438
 30
0.0
 10
467.8436787893544
 20
63.00000639384438
 30
0.0
 10
466.4436787893544
 20
63.00000639384438
 30
0.0
  0
SPLINE
  5
F1
330
1F
100
AcDbEntity
  8
Predefinito
100
AcDbSpline
210
0.0
220
0.0
230
1.0
 70
    24
 71
     2
 72
     6
 73
     3
 74
     0
 42
0.0000000001
 43
0.0000000001
 40
0.0
 40
0.0
 40
0.0
 40
0.2002085020603036
 40
0.2002085020603036
 40
0.2002085020603036
 10
469.3021099998963
 20
76.9415751833024
 30
0.0
 10
469.3728943946254
 20
76.8707907885734
 30
0.0
 10
469.4436787893544
 20
76.80000639384438
 30
0.0
  0
SPLINE
  5
F2
330
1F
100
AcDbEntity
  8
Predefinito
100
AcDbSpline
210
0.0
220
0.0
230
1.0
 70
    24
 71
     2
 72
     6
 73
     3
 74
     0
 42
0.0000000001
 43
0.0000000001
 40
0.0
 40
0.0
 40
0.0
 40
0.2002085020602935
 40
0.2002085020602935
 40
0.2002085020602935
 10
469.4436787893544
 20
63.20000639384437
 30
0.0
 10
469.3728943946254
 20
63.12922199911537
 30
0.0
 10
469.3021099998963
 20
63.05843760438636
 30
0.0
  0
SPLINE
  5
F3
330
1F
100
AcDbEntity
  8
Predefinito
100
AcDbSpline
210
0.0
220
0.0
230
1.0
 70
    24
 71
     2
 72
     6
 73
     3
 74
     0
 42
0.0000000001
 43
0.0000000001
 40
0.0
 40
0.0
 40
0.0
 40
0.2002085020603036
 40
0.2002085020603036
 40
0.2002085020603036
 10
319.4436787893544
 20
76.80000639384437
 30
0.0
 10
319.5144631840834
 20
76.87079078857337
 30
0.0
 10
319.5852475788124
 20
76.94157518330239
 30
0.0
  0
SPLINE
  5
F4
330
1F
100
AcDbEntity
  8
Predefinito
100
AcDbSpline
210
0.0
220
0.0
230
1.0
 70
    24
 71
     2
 72
     6
 73
     3
 74
     0
 42
0.0000000001
 43
0.0000000001
 40
0.0
 40
0.0
 40
0.0
 40
0.2002085020602986
 40
0.2002085020602986
 40
0.2002085020602986
 10
319.5852475788124
 20
63.05843760438637
 30
0.0
 10
319.5144631840834
 20
63.12922199911537
 30
0.0
 10
319.4436787893544
 20
63.20000639384438
 30
0.0
  0
SPLINE
  5
F5
330
1F
100
AcDbEntity
  8
Predefinito
100
AcDbSpline
210
0.0
220
0.0
230
1.0
 70
    12
 71
     2
 72
     8
 73
     5
 74
     0
 42
0.0000000001
 43
0.0000000001
 40
0.0
 40
0.0
 40
0.0
 40
106.4499268315384
 40
106.4499268315384
 40
212.8998536630768
 40
212.8998536630768
 40
212.8998536630768
 10
374.7945223462935
 20
77.00000639384436
 30
0.0
 41
1.0
 10
381.452417073534
 20
143.2454003306495
 30
0.0
 41
0.7245904088257724
 10
447.9480559682061
 20
139.9122654652589
 30
0.0
 41
1.0
 10
514.4436948628784
 20
136.5791305998684
 30
0.0
 41
0.7245904088257724
 10
514.4436787893544
 20
70.00000639384372
 30
0.0
 41
1.0
  0
SPLINE
  5
F6
330
1F
100
AcDbEntity
  8
Predefinito
100
AcDbSpline
210
0.0
220
0.0
230
1.0
 70
    12
 71
     2
 72
     8
 73
     5
 74
     0
 42
0.0000000001
 43
0.0000000001
 40
0.0
 40
0.0
 40
0.0
 40
106.4499205392983
 40
106.4499205392983
 40
212.8998410785966
 40
212.8998410785966
 40
212.8998410785966
 10
514.4436787893544
 20
70.0000063938437
 30
0.0
 41
1.0
 10
514.4437415274018
 20
3.420870625852043
 30
0.0
 41
0.7245901754344101
 10
447.9480911638493
 20
0.0877336132482895
 30
0.0
 41
1.0
 10
381.4524408002969
 20
-3.24540339935545
 30
0.0
 41
0.7245901754344101
 10
374.7945882225035
 20
63.00000639384436
 30
0.0
 41
1.0
  0
SPLINE
  5
F7
330
1F
100
AcDbEntity
  8
Predefinito
100
AcDbSpline
210
0.0
220
0.0
230
1.0
 70
    24
 71
     2
 72
     6
 73
     3
 74
     0
 42
0.0000000001
 43
0.0000000001
 40
0.0
 40
0.0
 40
0.0
 40
41.99999988803943
 40
41.99999988803943
 40
41.99999988803943
 10
440.4367028146453
 20
49.00000643497695
 30
0.0
 10
440.4367028146454
 20
70.00000637899666
 30
0.0
 10
440.4367028146454
 20
91.00000632301638
 30
0.0
  0
SPLINE
  5
F8
330
1F
100
AcDbEntity
  8
Predefinito
100
AcDbSpline
210
0.0
220
0.0
230
1.0
 70
    24
 71
     2
 72
     6
 73
     3
 74
     0
 42
0.0000000001
 43
0.0000000001
 40
0.0
 40
0.0
 40
0.0
 40
41.99999998505656
 40
41.99999998505656
 40
41.99999998505656
 10
448.4367028146454
 20
91.00000639113222
 30
0.0
 10
448.4367028146454
 20
70.00000639860394
 30
0.0
 10
448.4367028146453
 20
49.00000640607566
 30
0.0
  0
SPLINE
  5
F9
330
1F
100
AcDbEntity
  8
Predefinito
100
AcDbSpline
210
0.0
220
0.0
230
1.0
 70
    24
 71
     2
 72
     6
 73
     3
 74
     0
 42
0.0000000001
 43
0.0000000001
 40
0.0
 40
0.0
 40
0.0
 40
6.626442922370039
 40
6.626442922370039
 40
6.626442922370039
 10
317.9436787893544
 20
61.90523314250535
 30
0.0
 10
317.9436787893543
 20
58.59201168132033
 30
0.0
 10
317.9436787893543
 20
55.27879022013531
 30
0.0
  0
SPLINE
  5
FA
330
1F
100
AcDbEntity
  8
Predefinito
100
AcDbSpline
210
0.0
220
0.0
230
1.0
 70
    28
 71
     2
 72
     8
 73
     5
 74
     0
 42
0.0000000001
 43
0.0000000001
 40
-79.91426312569035
 40
-79.91426312569035
 40
-79.91426312569035
 40
-69.7433569096934
 40
-69.7433569096934
 40
-46.49557127312894
 40
-46.49557127312894
 40
-46.49557127312894
 10
317.9436787893543
 20
84.72122256755344
 30
0.0
 41
0.8558416188652539
 10
317.9436787893543
 20
85.26235349207248
 30
0.0
 41
0.8718592167691146
 10
317.9436787893544
 20
82.39010913794647
 30
0.0
 41
1.0
 10
317.9436787893544
 20
74.29533588660743
 30
0.0
 41
0.7071067811865476
 10
317.9436787893544
 20
61.90523314250535
 30
0.0
 41
1.0
  0
SPLINE
  5
FB
330
1F
100
AcDbEntity
  8
Predefinito
100
AcDbSpline
210
0.0
220
0.0
230
1.0
 70
    28
 71
     2
 72
     6
 73
     3
 74
     0
 42
0.0000000001
 43
0.0000000001
 40
-63.32272692391926
 40
-63.32272692391926
 40
-63.32272692391926
 40
-47.12388980384689
 40
-47.12388980384689
 40
-47.12388980384689
 10
318.1436787893543
 20
55.07722021453591
 30
0.0
 41
0.8741474450410945
 10
318.1436787893543
 20
54.15197381124111
 30
0.0
 41
0.7986359120657516
 10
318.1436787893543
 20
61.79584431478455
 30
0.0
 41
1.0
  0
SPLINE
  5
FC
330
1F
100
AcDbEntity
  8
Predefinito
100
AcDbSpline
210
0.0
220
0.0
230
1.0
 70
    24
 71
     2
 72
     6
 73
     3
 74
     0
 42
0.0000000001
 43
0.0000000001
 40
0.0
 40
0.0
 40
0.0
 40
8.204162079059842
 40
8.204162079059842
 40
8.204162079059842
 10
318.1436787893543
 20
70.00000639384439
 30
0.0
 10
318.1436787893543
 20
65.89792535431447
 30
0.0
 10
318.1436787893543
 20
61.79584431478455
 30
0.0
  0
SPLINE
  5
FD
330
1F
100
AcDbEntity
  8
Predefinito
100
AcDbSpline
210
0.0
220
0.0
230
1.0
 70
    28
 71
     2
 72
     8
 73
     5
 74
     0
 42
0.0000000001
 43
0.0000000001
 40
14.41621698036588
 40
14.41621698036588
 40
14.41621698036588
 40
19.22162264048785
 40
19.22162264048785
 40
38.4432452809757
 40
38.4432452809757
 40
38.4432452809757
 10
318.1436787893543
 20
84.99618569117663
 30
0.0
 41
0.925624419314236
 10
318.1436787893543
 20
85.04941702142162
 30
0.0
 41
0.950416279542824
 10
318.1436787893543
 20
84.37642890562604
 30
0.0
 41
1.0
 10
318.1436787893544
 20
81.18497727979
 30
0.0
 41
0.801665118171296
 10
318.1436787893543
 20
70.00000639384439
 30
0.0
 41
1.0
  0
SPLINE
  5
FE
330
1F
100
AcDbEntity
  8
Predefinito
100
AcDbSpline
210
0.0
220
0.0
230
1.0
 70
    24
 71
     2
 72
     6
 73
     3
 74
     0
 42
0.0000000001
 43
0.0000000001
 40
0.0
 40
0.0
 40
0.0
 40
8.199402429827607
 40
8.199402429827607
 40
8.199402429827607
 10
319.2436787893544
 20
61.79584431478454
 30
0.0
 10
319.2436787893544
 20
65.89554552969834
 30
0.0
 10
319.2436787893544
 20
69.99524674461215
 30
0.0
  0
SPLINE
  5
FF
330
1F
100
AcDbEntity
  8
Predefinito
100
AcDbSpline
210
0.0
220
0.0
230
1.0
 70
    28
 71
     2
 72
     8
 73
     5
 74
     0
 42
0.0000000001
 43
0.0000000001
 40
-32.70767282348091
 40
-32.70767282348091
 40
-32.70767282348091
 40
-27.90226716335892
 40
-27.90226716335892
 40
-8.680644522870946
 40
-8.680644522870946
 40
-8.680644522870946
 10
319.2436787893544
 20
84.99618569117663
 30
0.0
 41
0.925624419314236
 10
319.2436787893544
 20
85.04941702142162
 30
0.0
 41
0.950416279542824
 10
319.2436787893544
 20
84.37642890562604
 30
0.0
 41
1.0
 10
319.2436787893544
 20
81.18497727978999
 30
0.0
 41
0.801665118171296
 10
319.2436787893544
 20
70.00000639384439
 30
0.0
 41
1.0
  0
SPLINE
  5
100
330
1F
100
AcDbEntity
  8
Predefinito
100
AcDbSpline
210
0.0
220
0.0
230
1.0
 70
    24
 71
     2
 72
     6
 73
     3
 74
     0
 42
0.0000000001
 43
0.0000000001
 40
0.0
 40
0.0
 40
0.0
 40
6.715989448347997
 40
6.715989448347997
 40
6.715989448347997
 10
319.2436787893544
 20
61.79584431478453
 30
0.0
 10
319.2436787893544
 20
58.43784959061053
 30
0.0
 10
319.2436787893544
 20
55.07985486643653
 30
0.0
  0
SPLINE
  5
101
330
1F
100
AcDbEntity
  8
Predefinito
100
AcDbSpline
210
0.0
220
0.0
230
1.0
 70
    28
 71
     2
 72
     6
 73
     3
 74
     0
 42
0.0000000001
 43
0.0000000001
 40
-15.98285262513807
 40
-15.98285262513807
 40
-15.98285262513807
 40
0.0
 40
0.0
 40
0.0
 10
319.4436787893543
 20
55.27619069692666
 30
0.0
 41
0.8741474450410947
 10
319.4436787893544
 20
54.3632809123425
 30
0.0
 41
0.7986359120657514
 10
319.4436787893544
 20
61.90523314250535
 30
0.0
 41
1.0
  0
SPLINE
  5
102
330
1F
100
AcDbEntity
  8
Predefinito
100
AcDbSpline
210
0.0
220
0.0
230
1.0
 70
    24
 71
     2
 72
     6
 73
     3
 74
     0
 42
0.0000000001
 43
0.0000000001
 40
0.0
 40
0.0
 40
0.0
 40
22.81858894825673
 40
22.81858894825673
 40
22.81858894825673
 10
319.4436787893544
 20
61.90523314250535
 30
0.0
 10
319.4436787893544
 20
73.31452761663371
 30
0.0
 10
319.4436787893544
 20
84.72382209076208
 30
0.0
  0
SPLINE
  5
103
330
1F
100
AcDbEntity
  8
Predefinito
100
AcDbSpline
210
0.0
220
0.0
230
1.0
 70
    24
 71
     2
 72
     6
 73
     3
 74
     0
 42
0.0000000001
 43
0.0000000001
 40
0.0
 40
0.0
 40
0.0
 40
17.00697597470918
 40
17.00697597470918
 40
17.00697597470918
 10
448.4367028146452
 20
77.00000639384439
 30
0.0
 10
456.9401908019997
 20
77.00000639384439
 30
0.0
 10
465.4436787893544
 20
77.00000639384439
 30
0.0
  0
SPLINE
  5
104
330
1F
100
AcDbEntity
  8
Predefinito
100
AcDbSpline
210
0.0
220
0.0
230
1.0
 70
    24
 71
     2
 72
     6
 73
     3
 74
     0
 42
0.0000000001
 43
0.0000000001
 40
0.0
 40
0.0
 40
0.0
 40
120.793024025291
 40
120.793024025291
 40
120.793024025291
 10
319.6436787893543
 20
77.00000639384439
 30
0.0
 10
380.0401908019999
 20
77.00000639384439
 30
0.0
 10
440.4367028146453
 20
77.00000639384439
 30
0.0
  0
SPLINE
  5
105
330
1F
100
AcDbEntity
  8
Predefinito
100
AcDbSpline
210
0.0
220
0.0
230
1.0
 70
    24
 71
     2
 72
     6
 73
     3
 74
     0
 42
0.0000000001
 43
0.0000000001
 40
0.0
 40
0.0
 40
0.0
 40
6.999999999999993
 40
6.999999999999993
 40
6.999999999999993
 10
465.4436787893544
 20
70.00000639384437
 30
0.0
 10
465.4436787893544
 20
66.50000639384437
 30
0.0
 10
465.4436787893544
 20
63.00000639384438
 30
0.0
  0
SPLINE
  5
106
330
1F
100
AcDbEntity
  8
Predefinito
100
AcDbSpline
210
0.0
220
0.0
230
1.0
 70
    24
 71
     2
 72
     6
 73
     3
 74
     0
 42
0.0000000001
 43
0.0000000001
 40
0.0
 40
0.0
 40
0.0
 40
6.500000000000007
 40
6.500000000000007
 40
6.500000000000007
 10
465.9436787893544
 20
70.00000639384439
 30
0.0
 10
465.9436787893544
 20
66.75000639384439
 30
0.0
 10
465.9436787893544
 20
63.50000639384438
 30
0.0
  0
SPLINE
  5
107
330
1F
100
AcDbEntity
  8
Predefinito
100
AcDbSpline
210
0.0
220
0.0
230
1.0
 70
    24
 71
     2
 72
     6
 73
     3
 74
     0
 42
0.0000000001
 43
0.0000000001
 40
0.0
 40
0.0
 40
0.0
 40
6.5
 40
6.5
 40
6.5
 10
465.9436787893544
 20
76.50000639384439
 30
0.0
 10
465.9436787893544
 20
73.25000639384439
 30
0.0
 10
465.9436787893544
 20
70.00000639384439
 30
0.0
  0
SPLINE
  5
108
330
1F
100
AcDbEntity
  8
Predefinito
100
AcDbSpline
210
0.0
220
0.0
230
1.0
 70
    24
 71
     2
 72
     6
 73
     3
 74
     0
 42
0.0000000001
 43
0.0000000001
 40
0.0
 40
0.0
 40
0.0
 40
7.0
 40
7.0
 40
7.0
 10
465.4436787893544
 20
77.00000639384439
 30
0.0
 10
465.4436787893544
 20
73.50000639384439
 30
0.0
 10
465.4436787893544
 20
70.00000639384439
 30
0.0
  0
SPLINE
  5
109
330
1F
100
AcDbEntity
  8
Predefinito
100
AcDbSpline
210
0.0
220
0.0
230
1.0
 70
    24
 71
     2
 72
     6
 73
     3
 74
     0
 42
0.0000000001
 43
0.0000000001
 40
0.0
 40
0.0
 40
0.0
 40
7.000000000000007
 40
7.000000000000007
 40
7.000000000000007
 10
466.4436787893544
 20
63.00000639384438
 30
0.0
 10
466.4436787893544
 20
66.50000639384439
 30
0.0
 10
466.4436787893544
 20
70.00000639384439
 30
0.0
  0
SPLINE
  5
10A
330
1F
100
AcDbEntity
  8
Predefinito
100
AcDbSpline
210
0.0
220
0.0
230
1.0
 70
    24
 71
     2
 72
     6
 73
     3
 74
     0
 42
0.0000000001
 43
0.0000000001
 40
0.0
 40
0.0
 40
0.0
 40
7.0
 40
7.0
 40
7.0
 10
466.4436787893544
 20
77.00000639384439
 30
0.0
 10
466.4436787893544
 20
73.50000639384439
 30
0.0
 10
466.4436787893544
 20
70.00000639384439
 30
0.0
  0
SPLINE
  5
10B
330
1F
100
AcDbEntity
  8
Predefinito
100
AcDbSpline
210
0.0
220
0.0
230
1.0
 70
    24
 71
     2
 72
     6
 73
     3
 74
     0
 42
0.0000000001
 43
0.0000000001
 40
0.0
 40
0.0
 40
0.0
 40
2.800000000000011
 40
2.800000000000011
 40
2.800000000000011
 10
466.4436787893544
 20
77.00000639384439
 30
0.0
 10
467.8436787893544
 20
77.00000639384439
 30
0.0
 10
469.2436787893544
 20
77.00000639384439
 30
0.0
  0
SPLINE
  5
10C
330
1F
100
AcDbEntity
  8
Predefinito
100
AcDbSpline
210
0.0
220
0.0
230
1.0
 70
    24
 71
     2
 72
     6
 73
     3
 74
     0
 42
0.0000000001
 43
0.0000000001
 40
0.0
 40
0.0
 40
0.0
 40
6.799999999999983
 40
6.799999999999983
 40
6.799999999999983
 10
469.4436787893544
 20
76.80000639384437
 30
0.0
 10
469.4436787893544
 20
73.40000639384438
 30
0.0
 10
469.4436787893544
 20
70.00000639384439
 30
0.0
  0
SPLINE
  5
10D
330
1F
100
AcDbEntity
  8
Predefinito
100
AcDbSpline
210
0.0
220
0.0
230
1.0
 70
    24
 71
     2
 72
     6
 73
     3
 74
     0
 42
0.0000000001
 43
0.0000000001
 40
0.0
 40
0.0
 40
0.0
 40
7.0
 40
7.0
 40
7.0
 10
469.2436787893544
 20
77.00000639384439
 30
0.0
 10
469.2436787893544
 20
73.50000639384439
 30
0.0
 10
469.2436787893544
 20
70.00000639384439
 30
0.0
  0
SPLINE
  5
10E
330
1F
100
AcDbEntity
  8
Predefinito
100
AcDbSpline
210
0.0
220
0.0
230
1.0
 70
    24
 71
     2
 72
     6
 73
     3
 74
     0
 42
0.0000000001
 43
0.0000000001
 40
0.0
 40
0.0
 40
0.0
 40
7.0
 40
7.0
 40
7.0
 10
469.2436787893544
 20
70.00000639384437
 30
0.0
 10
469.2436787893544
 20
66.50000639384437
 30
0.0
 10
469.2436787893544
 20
63.00000639384437
 30
0.0
  0
SPLINE
  5
10F
330
1F
100
AcDbEntity
  8
Predefinito
100
AcDbSpline
210
0.0
220
0.0
230
1.0
 70
    24
 71
     2
 72
     6
 73
     3
 74
     0
 42
0.0000000001
 43
0.0000000001
 40
0.0
 40
0.0
 40
0.0
 40
6.800000000000011
 40
6.800000000000011
 40
6.800000000000011
 10
469.4436787893544
 20
70.00000639384439
 30
0.0
 10
469.4436787893544
 20
66.60000639384438
 30
0.0
 10
469.4436787893544
 20
63.20000639384438
 30
0.0
  0
SPLINE
  5
110
330
1F
100
AcDbEntity
  8
Predefinito
100
AcDbSpline
210
0.0
220
0.0
230
1.0
 70
    24
 71
     2
 72
     6
 73
     3
 74
     0
 42
0.0000000001
 43
0.0000000001
 40
0.0
 40
0.0
 40
0.0
 40
7.838367176906232
 40
7.838367176906232
 40
7.838367176906232
 10
448.6936787893544
 20
73.9191899822975
 30
0.0
 10
448.6936787893544
 20
70.00000639384439
 30
0.0
 10
448.6936787893544
 20
66.08082280539126
 30
0.0
  0
SPLINE
  5
111
330
1F
100
AcDbEntity
  8
Predefinito
100
AcDbSpline
210
0.0
220
0.0
230
1.0
 70
    12
 71
     2
 72
     6
 73
     3
 74
     0
 42
0.0000000001
 43
0.0000000001
 40
0.0
 40
0.0
 40
0.0
 40
1.615404793628479
 40
1.615404793628479
 40
1.615404793628479
 10
440.4367028146651
 20
64.50217964438397
 30
0.0
 41
1.0
 10
440.1050550252689
 20
65.25915189884184
 30
0.0
 41
0.966341529105604
 10
440.1936787893544
 20
66.08082280539126
 30
0.0
 41
1.0
  0
SPLINE
  5
112
330
1F
100
AcDbEntity
  8
Predefinito
100
AcDbSpline
210
0.0
220
0.0
230
1.0
 70
    12
 71
     2
 72
     6
 73
     3
 74
     0
 42
0.0000000001
 43
0.0000000001
 40
0.0
 40
0.0
 40
0.0
 40
1.641045469905974
 40
1.641045469905974
 40
1.641045469905974
 10
448.6936787893544
 20
66.08082280539126
 30
0.0
 41
1.0
 10
448.7917910982817
 20
65.24453665814939
 30
0.0
 41
0.9621375385887728
 10
448.4367028139854
 20
64.48104935924567
 30
0.0
 41
1.0
  0
SPLINE
  5
113
330
1F
100
AcDbEntity
  8
Predefinito
100
AcDbSpline
210
0.0
220
0.0
230
1.0
 70
    12
 71
     2
 72
     6
 73
     3
 74
     0
 42
0.0000000001
 43
0.0000000001
 40
0.0
 40
0.0
 40
0.0
 40
1.644154061884638
 40
1.644154061884638
 40
1.644154061884638
 10
448.4367028146416
 20
75.52236220184771
 30
0.0
 41
1.0
 10
448.7906149413317
 20
74.75690981945552
 30
0.0
 41
0.9626578115791969
 10
448.6936787893544
 20
73.9191899822975
 30
0.0
 41
1.0
  0
SPLINE
  5
114
330
1F
100
AcDbEntity
  8
Predefinito
100
AcDbSpline
210
0.0
220
0.0
230
1.0
 70
    12
 71
     2
 72
     6
 73
     3
 74
     0
 42
0.0000000001
 43
0.0000000001
 40
0.0
 40
0.0
 40
0.0
 40
1.612434514221747
 40
1.612434514221747
 40
1.612434514221747
 10
440.1936787893544
 20
73.9191899822975
 30
0.0
 41
1.0
 10
440.1039851670617
 20
74.73948109917347
 30
0.0
 41
0.9658831357695715
 10
440.436702819097
 20
75.49461117163096
 30
0.0
 41
1.0
  0
SPLINE
  5
115
330
1F
100
AcDbEntity
  8
Predefinito
100
AcDbSpline
210
0.0
220
0.0
230
1.0
 70
    24
 71
     2
 72
     6
 73
     3
 74
     0
 42
0.0000000001
 43
0.0000000001
 40
0.0
 40
0.0
 40
0.0
 40
7.838367176906232
 40
7.838367176906232
 40
7.838367176906232
 10
440.1936787893544
 20
66.08082280539126
 30
0.0
 10
440.1936787893544
 20
70.00000639384439
 30
0.0
 10
440.1936787893544
 20
73.9191899822975
 30
0.0
  0
SPLINE
  5
116
330
1F
100
AcDbEntity
  8
Predefinito
100
AcDbSpline
210
0.0
220
0.0
230
1.0
 70
    24
 71
     2
 72
     6
 73
     3
 74
     0
 42
0.0000000001
 43
0.0000000001
 40
0.0
 40
0.0
 40
0.0
 40
7.0
 40
7.0
 40
7.0
 10
319.6436787893543
 20
70.00000639384439
 30
0.0
 10
319.6436787893543
 20
73.50000639384439
 30
0.0
 10
319.6436787893543
 20
77.00000639384439
 30
0.0
  0
SPLINE
  5
117
330
1F
100
AcDbEntity
  8
Predefinito
100
AcDbSpline
210
0.0
220
0.0
230
1.0
 70
    24
 71
     2
 72
     6
 73
     3
 74
     0
 42
0.0000000001
 43
0.0000000001
 40
0.0
 40
0.0
 40
0.0
 40
7.000000000000007
 40
7.000000000000007
 40
7.000000000000007
 10
319.6436787893543
 20
63.00000639384438
 30
0.0
 10
319.6436787893543
 20
66.50000639384439
 30
0.0
 10
319.6436787893543
 20
70.00000639384439
 30
0.0
  0
SPLINE
  5
118
330
1F
100
AcDbEntity
  8
Predefinito
100
AcDbSpline
210
0.0
220
0.0
230
1.0
 70
    12
 71
     2
 72
     8
 73
     5
 74
     0
 42
0.0000000001
 43
0.0000000001
 40
0.0
 40
0.0
 40
0.0
 40
58.94062639815836
 40
58.94062639815836
 40
124.9140721235445
 40
124.9140721235445
 40
124.9140721235445
 10
403.0311203076569
 20
77.00000639384447
 30
0.0
 41
1.0
 10
408.9472000907571
 20
112.000006393844
 30
0.0
 41
0.763762615825978
 10
444.4436787893544
 20
112.0000063938439
 30
0.0
 41
1.0
 10
486.4436787893547
 20
112.0000063938441
 30
0.0
 41
0.707106781186546
 10
486.4436787893546
 20
70.0000063938437
 30
0.0
 41
1.0
  0
SPLINE
  5
119
330
1F
100
AcDbEntity
  8
Predefinito
100
AcDbSpline
210
0.0
220
0.0
230
1.0
 70
    12
 71
     2
 72
     8
 73
     5
 74
     0
 42
0.0000000001
 43
0.0000000001
 40
0.0
 40
0.0
 40
0.0
 40
65.97344572538611
 40
65.97344572538611
 40
124.9140721235458
 40
124.9140721235458
 40
124.9140721235458
 10
486.4436787893546
 20
70.0000063938437
 30
0.0
 41
1.0
 10
486.4436787893546
 20
28.0000063938434
 30
0.0
 41
0.7071067811865474
 10
444.4436787893544
 20
28.00000639384341
 30
0.0
 41
1.0
 10
408.9472000907559
 20
28.00000639384347
 30
0.0
 41
0.7637626158259685
 10
403.0311203076567
 20
63.0000063938443
 30
0.0
 41
1.0
  0
SPLINE
  5
11A
330
1F
100
AcDbEntity
  8
Predefinito
100
AcDbSpline
210
0.0
220
0.0
230
1.0
 70
    12
 71
     2
 72
     6
 73
     3
 74
     0
 42
0.0000000001
 43
0.0000000001
 40
0.0
 40
0.0
 40
0.0
 40
3.741044584110363
 40
3.741044584110363
 40
3.741044584110363
 10
440.4367028145275
 20
60.89250160179677
 30
0.0
 41
1.0
 10
438.7041041641542
 20
61.65478296475866
 30
0.0
 41
0.9823814482345525
 10
437.3724342030027
 20
63.00000639384437
 30
0.0
 41
1.0
  0
SPLINE
  5
11B
330
1F
100
AcDbEntity
  8
Predefinito
100
AcDbSpline
210
0.0
220
0.0
230
1.0
 70
    12
 71
     2
 72
     6
 73
     3
 74
     0
 42
0.0000000001
 43
0.0000000001
 40
0.0
 40
0.0
 40
0.0
 40
3.756282039700117
 40
3.756282039700117
 40
3.756282039700117
 10
451.514923375706
 20
63.00000639384438
 30
0.0
 41
1.0
 10
450.1776987164146
 20
61.6491717320228
 30
0.0
 41
0.9822380607721091
 10
448.4367028148044
 20
60.8863759903121
 30
0.0
 41
1.0
  0
SPLINE
  5
11C
330
1F
100
AcDbEntity
  8
Predefinito
100
AcDbSpline
210
0.0
220
0.0
230
1.0
 70
    12
 71
     2
 72
     6
 73
     3
 74
     0
 42
0.0000000001
 43
0.0000000001
 40
0.0
 40
0.0
 40
0.0
 40
3.7562820398723
 40
3.7562820398723
 40
3.7562820398723
 10
448.4367028146453
 20
79.1136367974453
 30
0.0
 41
1.0
 10
450.1776987163506
 20
78.35084105572913
 30
0.0
 41
0.9822380607704897
 10
451.5149233757049
 20
77.00000639384437
 30
0.0
 41
1.0
  0
SPLINE
  5
11D
330
1F
100
AcDbEntity
  8
Predefinito
100
AcDbSpline
210
0.0
220
0.0
230
1.0
 70
    12
 71
     2
 72
     6
 73
     3
 74
     0
 42
0.0000000001
 43
0.0000000001
 40
0.0
 40
0.0
 40
0.0
 40
3.741044584237646
 40
3.741044584237646
 40
3.741044584237646
 10
437.3724342030038
 20
77.00000639384437
 30
0.0
 41
1.0
 10
438.7041041642019
 20
78.34522982297678
 30
0.0
 41
0.9823814482333538
 10
440.4367028146454
 20
79.10751118594278
 30
0.0
 41
1.0
  0
SPLINE
  5
11E
330
1F
100
AcDbEntity
  8
Predefinito
100
AcDbSpline
210
0.0
220
0.0
230
1.0
 70
    12
 71
     2
 72
     6
 73
     3
 74
     0
 42
0.0000000001
 43
0.0000000001
 40
0.0
 40
0.0
 40
0.0
 40
2.838549276412216
 40
2.838549276412216
 40
2.838549276412216
 10
448.4367028147313
 20
78.5649500091143
 30
0.0
 41
1.0
 10
449.7328126532913
 20
77.96069644278957
 30
0.0
 41
0.9887429971552493
 10
450.7921037913233
 20
77.00000639344213
 30
0.0
 41
1.0
  0
SPLINE
  5
11F
330
1F
100
AcDbEntity
  8
Predefinito
100
AcDbSpline
210
0.0
220
0.0
230
1.0
 70
    12
 71
     2
 72
     6
 73
     3
 74
     0
 42
0.0000000001
 43
0.0000000001
 40
0.0
 40
0.0
 40
0.0
 40
2.823149749203078
 40
2.823149749203078
 40
2.823149749203078
 10
438.0952537873854
 20
77.00000639344212
 30
0.0
 41
1.0
 10
439.1487115042525
 20
77.95540600896487
 30
0.0
 41
0.9888645808942604
 10
440.4367028145696
 20
78.55843168927632
 30
0.0
 41
1.0
  0
SPLINE
  5
120
330
1F
100
AcDbEntity
  8
Predefinito
100
AcDbSpline
210
0.0
220
0.0
230
1.0
 70
    12
 71
     2
 72
     6
 73
     3
 74
     0
 42
0.0000000001
 43
0.0000000001
 40
0.0
 40
0.0
 40
0.0
 40
2.823149749287974
 40
2.823149749287974
 40
2.823149749287974
 10
440.4367028146451
 20
61.44158109837605
 30
0.0
 41
1.0
 10
439.1487115042833
 20
62.0446067786945
 30
0.0
 41
0.9888645808935841
 10
438.0952537873843
 20
63.00000639424662
 30
0.0
 41
1.0
  0
SPLINE
  5
121
330
1F
100
AcDbEntity
  8
Predefinito
100
AcDbSpline
210
0.0
220
0.0
230
1.0
 70
    12
 71
     2
 72
     6
 73
     3
 74
     0
 42
0.0000000001
 43
0.0000000001
 40
0.0
 40
0.0
 40
0.0
 40
2.838549276506148
 40
2.838549276506148
 40
2.838549276506148
 10
450.7921037913244
 20
63.00000639424663
 30
0.0
 41
1.0
 10
449.732812653257
 20
62.03931634486674
 30
0.0
 41
0.98874299715451
 10
448.4367028146476
 20
61.43506277853435
 30
0.0
 41
1.0
  0
SPLINE
  5
122
330
1F
100
AcDbEntity
  8
Predefinito
100
AcDbSpline
210
0.0
220
0.0
230
1.0
 70
    12
 71
     2
 72
     8
 73
     5
 74
     0
 42
0.0000000001
 43
0.0000000001
 40
0.0
 40
0.0
 40
0.0
 40
55.15488246117317
 40
55.15488246117317
 40
117.3467559353274
 40
117.3467559353274
 40
117.3467559353274
 10
405.4748181339311
 20
63.00000639384437
 30
0.0
 41
1.0
 10
411.3294423262309
 20
30.40743005961455
 30
0.0
 41
0.7670726239948575
 10
444.4436787893544
 20
30.40743005961447
 30
0.0
 41
1.0
 10
484.0362551235838
 20
30.40743005961443
 30
0.0
 41
0.7071067811865472
 10
484.0362551235839
 20
70.00000639384392
 30
0.0
 41
1.0
  0
SPLINE
  5
123
330
1F
100
AcDbEntity
  8
Predefinito
100
AcDbSpline
210
0.0
220
0.0
230
1.0
 70
    12
 71
     2
 72
     8
 73
     5
 74
     0
 42
0.0000000001
 43
0.0000000001
 40
0.0
 40
0.0
 40
0.0
 40
62.19187347415422
 40
62.19187347415422
 40
117.3467559353265
 40
117.3467559353265
 40
117.3467559353265
 10
484.0362551235838
 20
70.00000639384393
 30
0.0
 41
1.0
 10
484.0362551235839
 20
109.5925827280735
 30
0.0
 41
0.7071067811865451
 10
444.4436787893544
 20
109.5925827280734
 30
0.0
 41
1.0
 10
411.3294423262316
 20
109.5925827280734
 30
0.0
 41
0.7670726239948633
 10
405.4748181339313
 20
77.00000639384436
 30
0.0
 41
1.0
  0
SPLINE
  5
124
330
1F
100
AcDbEntity
  8
Predefinito
100
AcDbSpline
210
0.0
220
0.0
230
1.0
 70
    12
 71
     2
 72
     6
 73
     3
 74
     0
 42
0.0000000001
 43
0.0000000001
 40
0.0
 40
0.0
 40
0.0
 40
4.499736722234264
 40
4.499736722234264
 40
4.499736722234264
 10
448.4367028218811
 20
60.43349621621169
 30
0.0
 41
1.0
 10
450.5461925815612
 20
61.31398901351902
 30
0.0
 41
0.9765403010185453
 10
452.0897469230393
 20
63.00000639397784
 30
0.0
 41
1.0
  0
SPLINE
  5
125
330
1F
100
AcDbEntity
  8
Predefinito
100
AcDbSpline
210
0.0
220
0.0
230
1.0
 70
    12
 71
     2
 72
     6
 73
     3
 74
     0
 42
0.0000000001
 43
0.0000000001
 40
0.0
 40
0.0
 40
0.0
 40
4.48461359118482
 40
4.48461359118482
 40
4.48461359118482
 10
436.7976106556695
 20
63.00000639397783
 30
0.0
 41
1.0
 10
438.3358115753393
 20
61.31983653178943
 30
0.0
 41
0.9766971127842596
 10
440.4367028145545
 20
60.43933165612515
 30
0.0
 41
1.0
  0
SPLINE
  5
126
330
1F
100
AcDbEntity
  8
Predefinito
100
AcDbSpline
210
0.0
220
0.0
230
1.0
 70
    12
 71
     2
 72
     6
 73
     3
 74
     0
 42
0.0000000001
 43
0.0000000001
 40
0.0
 40
0.0
 40
0.0
 40
4.484613591282092
 40
4.484613591282092
 40
4.484613591282092
 10
440.4367028146453
 20
79.56068113160076
 30
0.0
 41
1.0
 10
438.3358115753749
 20
78.68017625593664
 30
0.0
 41
0.9766971127832623
 10
436.7976106556703
 20
77.00000639371092
 30
0.0
 41
1.0
  0
SPLINE
  5
127
330
1F
100
AcDbEntity
  8
Predefinito
100
AcDbSpline
210
0.0
220
0.0
230
1.0
 70
    12
 71
     2
 72
     6
 73
     3
 74
     0
 42
0.0000000001
 43
0.0000000001
 40
0.0
 40
0.0
 40
0.0
 40
4.499736730074051
 40
4.499736730074051
 40
4.499736730074051
 10
452.0897469230385
 20
77.00000639371093
 30
0.0
 41
1.0
 10
450.5461925787845
 20
78.68602377720144
 30
0.0
 41
0.976540300937112
 10
448.4367028146452
 20
79.56651657449643
 30
0.0
 41
1.0
  0
SPLINE
  5
128
330
1F
100
AcDbEntity
  8
Predefinito
100
AcDbSpline
210
0.0
220
0.0
230
1.0
 70
    12
 71
     2
 72
     6
 73
     3
 74
     0
 42
0.0000000001
 43
0.0000000001
 40
0.0
 40
0.0
 40
0.0
 40
6.28318530717961
 40
6.28318530717961
 40
6.28318530717961
 10
444.4367028146454
 20
95.00000639384396
 30
0.0
 41
1.0
 10
448.4367028146455
 20
95.00000639384398
 30
0.0
 41
0.7071067811865513
 10
448.4367028146455
 20
91.00000639384396
 30
0.0
 41
1.0
  0
SPLINE
  5
129
330
1F
100
AcDbEntity
  8
Predefinito
100
AcDbSpline
210
0.0
220
0.0
230
1.0
 70
    12
 71
     2
 72
     6
 73
     3
 74
     0
 42
0.0000000001
 43
0.0000000001
 40
0.0
 40
0.0
 40
0.0
 40
6.283185307179616
 40
6.283185307179616
 40
6.283185307179616
 10
444.4367028146454
 20
95.00000639384395
 30
0.0
 41
1.0
 10
440.4367028146454
 20
95.00000639384395
 30
0.0
 41
0.7071067811865488
 10
440.4367028146454
 20
91.00000639384393
 30
0.0
 41
1.0
  0
SPLINE
  5
12A
330
1F
100
AcDbEntity
  8
Predefinito
100
AcDbSpline
210
0.0
220
0.0
230
1.0
 70
    12
 71
     2
 72
     8
 73
     5
 74
     0
 42
0.0000000001
 43
0.0000000001
 40
0.0
 40
0.0
 40
0.0
 40
1.569851705040321
 40
1.569851705040321
 40
6.282240685424989
 40
6.282240685424989
 40
6.282240685424989
 10
448.4367027031066
 20
48.99906177209815
 30
0.0
 41
1.0
 10
448.436514922108
 20
48.20390331161349
 30
0.0
 41
0.9808083093862365
 10
448.1322209446905
 20
47.4692726643836
 30
0.0
 41
1.0
 10
447.1094173663226
 20
45.00000639384402
 30
0.0
 41
0.8314696123025611
 10
444.4367028146454
 20
45.0000063938439
 30
0.0
 41
1.0
  0
SPLINE
  5
12B
330
1F
100
AcDbEntity
  8
Predefinito
100
AcDbSpline
210
0.0
220
0.0
230
1.0
 70
    12
 71
     2
 72
     6
 73
     3
 74
     0
 42
0.0000000001
 43
0.0000000001
 40
0.0
 40
0.0
 40
0.0
 40
6.283185307179608
 40
6.283185307179608
 40
6.283185307179608
 10
444.4367028146454
 20
45.00000639384395
 30
0.0
 41
1.0
 10
440.4367028146454
 20
45.00000639384395
 30
0.0
 41
0.7071067811865526
 10
440.4367028146453
 20
49.00000639384395
 30
0.0
 41
1.0
  0
ENDSEC
  0
SECTION
  2
OBJECTS
  0
DICTIONARY
  5
C
330
0
100
AcDbDictionary
281
     1
  3
ACAD_GROUP
350
D
  3
ACAD_LAYOUT
350
1A
  3
ACAD_MLEADERSTYLE
350
12D
  3
ACAD_MLINESTYLE
350
17
  3
ACAD_PLOTSETTINGS
350
19
  3
ACAD_PLOTSTYLENAME
350
E
  3
ACAD_TABLESTYLE
350
12C
  3
ACAD_VISUALSTYLE
350
2A
  0
DICTIONARY
  5
D
102
{ACAD_REACTORS
330
C
102
}
330
C
100
AcDbDictionary
281
     1
  0
DICTIONARY
  5
1A
102
{ACAD_REACTORS
330
C
102
}
330
C
100
AcDbDictionary
281
     1
  3
Layout1
350
1E
  3
Layout2
350
26
  3
Model
350
22
  0
DICTIONARY
  5
12D
102
{ACAD_REACTORS
330
C
102
}
330
C
100
AcDbDictionary
281
     1
  0
DICTIONARY
  5
17
102
{ACAD_REACTORS
330
C
102
}
330
C
100
AcDbDictionary
281
     1
  3
Standard
350
18
  0
DICTIONARY
  5
19
102
{ACAD_REACTORS
330
C
102
}
330
C
100
AcDbDictionary
281
     1
  0
ACDBDICTIONARYWDFLT
  5
E
102
{ACAD_REACTORS
330
C
102
}
330
C
100
AcDbDictionary
281
     1
  3
Normal
350
F
100
AcDbDictionaryWithDefault
340
F
  0
DICTIONARY
  5
12C
102
{ACAD_REACTORS
330
C
102
}
330
C
100
AcDbDictionary
281
     1
  0
DICTIONARY
  5
2A
102
{ACAD_REACTORS
330
C
102
}
330
C
100
AcDbDictionary
281
     1
  3
2dWireframe
350
2F
  3
3D Hidden
350
31
  3
3dWireframe
350
30
  3
Basic
350
32
  3
Brighten
350
36
  3
ColorChange
350
3A
  3
Conceptual
350
34
  3
Dim
350
35
  3
Facepattern
350
39
  3
Flat
350
2B
  3
FlatWithEdges
350
2C
  3
Gouraud
350
2D
  3
GouraudWithEdges
350
2E
  3
Linepattern
350
38
  3
Realistic
350
33
  3
Thicken
350
37
  0
LAYOUT
  5
1E
102
{ACAD_REACTORS
330
1A
102
}
330
1A
100
AcDbPlotSettings
  1

  2
none_device
  4

  6

 40
0.0
 41
0.0
 42
0.0
 43
0.0
 44
0.0
 45
0.0
 46
0.0
 47
0.0
 48
0.0
 49
0.0
140
0.0
141
0.0
142
1.0
143
1.0
 70
   688
 72
     0
 73
     0
 74
     5
  7

 75
    16
 76
     0
 77
     2
 78
   300
147
1.0
148
0.0
149
0.0
100
AcDbLayout
  1
Layout1
 70
     1
 71
     1
 10
0.0
 20
0.0
 11
12.0
 21
9.0
 12
0.0
 22
0.0
 32
0.0
 14
1.000000000000000E+20
 24
1.000000000000000E+20
 34
1.000000000000000E+20
 15
-1.000000000000000E+20
 25
-1.000000000000000E+20
 35
-1.000000000000000E+20
146
0.0
 13
0.0
 23
0.0
 33
0.0
 16
1.0
 26
0.0
 36
0.0
 17
0.0
 27
1.0
 37
0.0
 76
     0
330
1B
  0
LAYOUT
  5
26
102
{ACAD_REACTORS
330
1A
102
}
330
1A
100
AcDbPlotSettings
  1

  2
none_device
  4

  6

 40
0.0
 41
0.0
 42
0.0
 43
0.0
 44
0.0
 45
0.0
 46
0.0
 47
0.0
 48
0.0
 49
0.0
140
0.0
141
0.0
142
1.0
143
1.0
 70
   688
 72
     0
 73
     0
 74
     5
  7

 75
    16
 76
     0
 77
     2
 78
   300
147
1.0
148
0.0
149
0.0
100
AcDbLayout
  1
Layout2
 70
     1
 71
     2
 10
0.0
 20
0.0
 11
0.0
 21
0.0
 12
0.0
 22
0.0
 32
0.0
 14
0.0
 24
0.0
 34
0.0
 15
0.0
 25
0.0
 35
0.0
146
0.0
 13
0.0
 23
0.0
 33
0.0
 16
1.0
 26
0.0
 36
0.0
 17
0.0
 27
1.0
 37
0.0
 76
     0
330
23
  0
LAYOUT
  5
22
102
{ACAD_REACTORS
330
1A
102
}
330
1A
100
AcDbPlotSettings
  1

  2
none_device
  4

  6

 40
0.0
 41
0.0
 42
0.0
 43
0.0
 44
0.0
 45
0.0
 46
0.0
 47
0.0
 48
0.0
 49
0.0
140
0.0
141
0.0
142
1.0
143
1.0
 70
  1712
 72
     0
 73
     0
 74
     0
  7

 75
     0
 76
     0
 77
     2
 78
   300
147
1.0
148
0.0
149
0.0
100
AcDbLayout
  1
Model
 70
     1
 71
     0
 10
0.0
 20
0.0
 11
12.0
 21
9.0
 12
0.0
 22
0.0
 32
0.0
 14
0.0104503632346577
 24
0.0492151439236028
 34
0.0
 15
514.4436787893544
 25
773.443678789354
 35
0.0
146
0.0
 13
0.0
 23
0.0
 33
0.0
 16
1.0
 26
0.0
 36
0.0
 17
0.0
 27
1.0
 37
0.0
 76
     0
330
1F
331
29
  0
MLINESTYLE
  5
18
102
{ACAD_REACTORS
330
17
102
}
330
17
100
AcDbMlineStyle
  2
Standard
 70
     0
  3

 62
   256
 51
90.0
 52
90.0
 71
     2
 49
0.5
 62
   256
  6
BYLAYER
 49
-0.5
 62
   256
  6
BYLAYER
  0
ACDBPLACEHOLDER
  5
F
102
{ACAD_REACTORS
330
E
102
}
330
E
  0
VISUALSTYLE
  5
2F
102
{ACAD_REACTORS
330
2A
102
}
330
2A
100
AcDbVisualStyle
  2
2dWireframe
 70
     4
 71
     0
 72
     2
 73
     0
 90
        0
 40
-0.6
 41
-30.0
 62
     5
 63
     7
421
 16777215
 74
     1
 91
        4
 64
     7
 65
   257
 75
     1
175
     1
 42
1.0
 92
        0
 66
   257
 43
1.0
 76
     1
 77
     6
 78
     2
 67
     7
 79
     5
170
     0
171
     0
290
     0
174
     0
 93
        1
 44
0.0
173
     0
291
     0
 45
0.0
1001
ACAD
1000
AcDbSavedByObjectVersion
1070
     0
  0
VISUALSTYLE
  5
31
102
{ACAD_REACTORS
330
2A
102
}
330
2A
100
AcDbVisualStyle
  2
3D Hidden
 70
     6
 71
     1
 72
     2
 73
     2
 90
        0
 40
-0.6
 41
-30.0
 62
     5
 63
     7
421
 16777215
 74
     2
 91
        2
 64
     7
 65
   257
 75
     2
175
     1
 42
40.0
 92
        0
 66
   257
 43
1.0
 76
     1
 77
     6
 78
     2
 67
     7
 79
     3
170
     0
171
     0
290
     0
174
     0
 93
        1
 44
0.0
173
     0
291
     0
 45
0.0
1001
ACAD
1000
AcDbSavedByObjectVersion
1070
     0
  0
VISUALSTYLE
  5
30
102
{ACAD_REACTORS
330
2A
102
}
330
2A
100
AcDbVisualStyle
  2
3dWireframe
 70
     5
 71
     0
 72
     2
 73
     0
 90
        0
 40
-0.6
 41
-30.0
 62
     5
 63
     7
421
 16777215
 74
     1
 91
        4
 64
     7
 65
   257
 75
     1
175
     1
 42
1.0
 92
        0
 66
   257
 43
1.0
 76
     1
 77
     6
 78
     2
 67
     7
 79
     5
170
     0
171
     0
290
     0
174
     0
 93
        1
 44
0.0
173
     0
291
     0
 45
0.0
1001
ACAD
1000
AcDbSavedByObjectVersion
1070
     0
  0
VISUALSTYLE
  5
32
102
{ACAD_REACTORS
330
2A
102
}
330
2A
100
AcDbVisualStyle
  2
Basic
 70
     7
 71
     1
 72
     0
 73
     1
 90
        0
 40
-0.6
 41
-30.0
 62
     5
 63
     7
421
 16777215
 74
     0
 91
        4
 64
     7
 65
   257
 75
     1
175
     1
 42
1.0
 92
        8
 66
     7
 43
1.0
 76
     1
 77
     6
 78
     2
 67
     7
 79
     5
170
     0
171
     0
290
     0
174
     0
 93
        1
 44
0.0
173
     0
291
     1
 45
0.0
1001
ACAD
1000
AcDbSavedByObjectVersion
1070
     0
  0
VISUALSTYLE
  5
36
102
{ACAD_REACTORS
330
2A
102
}
330
2A
100
AcDbVisualStyle
  2
Brighten
 70
    12
 71
     2
 72
     2
 73
     0
 90
        0
 40
-0.6
 41
-30.0
 62
     5
 63
     7
421
 16777215
 74
     1
 91
        4
 64
     7
 65
   257
 75
     1
175
     1
 42
1.0
 92
        8
 66
     7
 43
1.0
 76
     1
 77
     6
 78
     2
 67
     7
 79
     5
170
     0
171
     0
290
     0
174
     0
 93
        1
 44
50.0
173
     0
291
     1
 45
0.0
1001
ACAD
1000
AcDbSavedByObjectVersion
1070
     0
  0
VISUALSTYLE
  5
3A
102
{ACAD_REACTORS
330
2A
102
}
330
2A
100
AcDbVisualStyle
  2
ColorChange
 70
    16
 71
     2
 72
     2
 73
     3
 90
        0
 40
-0.6
 41
-30.0
 62
     5
 63
     8
421
  8421504
 74
     1
 91
        4
 64
     7
 65
   257
 75
     1
175
     1
 42
1.0
 92
        8
 66
     8
424
  8421504
 43
1.0
 76
     1
 77
     6
 78
     2
 67
     7
 79
     5
170
     0
171
     0
290
     0
174
     0
 93
        1
 44
0.0
173
     0
291
     1
 45
0.0
1001
ACAD
1000
AcDbSavedByObjectVersion
1070
     0
  0
VISUALSTYLE
  5
34
102
{ACAD_REACTORS
330
2A
102
}
330
2A
100
AcDbVisualStyle
  2
Conceptual
 70
     9
 71
     3
 72
     2
 73
     0
 90
        0
 40
-0.6
 41
-30.0
 62
     5
 63
     7
421
 16777215
 74
     2
 91
        2
 64
     7
 65
   257
 75
     1
175
     1
 42
40.0
 92
        8
 66
     7
 43
1.0
 76
     1
 77
     6
 78
     2
 67
     7
 79
     3
170
     0
171
     0
290
     0
174
     0
 93
        1
 44
0.0
173
     0
291
     0
 45
0.0
1001
ACAD
1000
AcDbSavedByObjectVersion
1070
     0
  0
VISUALSTYLE
  5
35
102
{ACAD_REACTORS
330
2A
102
}
330
2A
100
AcDbVisualStyle
  2
Dim
 70
    11
 71
     2
 72
     2
 73
     0
 90
        0
 40
-0.6
 41
-30.0
 62
     5
 63
     7
421
 16777215
 74
     1
 91
        4
 64
     7
 65
   257
 75
     1
175
     1
 42
1.0
 92
        8
 66
     7
 43
1.0
 76
     1
 77
     6
 78
     2
 67
     7
 79
     5
170
     0
171
     0
290
     0
174
     0
 93
        1
 44
-50.0
173
     0
291
     1
 45
0.0
1001
ACAD
1000
AcDbSavedByObjectVersion
1070
     0
  0
VISUALSTYLE
  5
39
102
{ACAD_REACTORS
330
2A
102
}
330
2A
100
AcDbVisualStyle
  2
Facepattern
 70
    15
 71
     2
 72
     2
 73
     0
 90
        0
 40
-0.6
 41
-30.0
 62
     5
 63
     7
421
 16777215
 74
     1
 91
        4
 64
     7
 65
   257
 75
     1
175
     1
 42
1.0
 92
        8
 66
     7
 43
1.0
 76
     1
 77
     6
 78
     2
 67
     7
 79
     5
170
     0
171
     0
290
     0
174
     0
 93
        1
 44
0.0
173
     0
291
     1
 45
0.0
1001
ACAD
1000
AcDbSavedByObjectVersion
1070
     0
  0
VISUALSTYLE
  5
2B
102
{ACAD_REACTORS
330
2A
102
}
330
2A
100
AcDbVisualStyle
  2
Flat
 70
     0
 71
     2
 72
     1
 73
     1
 90
        2
 40
-0.6
 41
30.0
 62
     5
 63
     7
421
 16777215
 74
     0
 91
        4
 64
     7
 65
   257
 75
     1
175
     1
 42
1.0
 92
        8
 66
     7
 43
1.0
 76
     1
 77
     6
 78
     2
 67
     7
 79
     5
170
     0
171
     0
290
     0
174
     0
 93
       13
 44
0.0
173
     0
291
     1
 45
0.0
1001
ACAD
1000
AcDbSavedByObjectVersion
1070
     0
  0
VISUALSTYLE
  5
2C
102
{ACAD_REACTORS
330
2A
102
}
330
2A
100
AcDbVisualStyle
  2
FlatWithEdges
 70
     1
 71
     2
 72
     1
 73
     1
 90
        2
 40
-0.6
 41
30.0
 62
     5
 63
     7
421
 16777215
 74
     1
 91
        4
 64
     7
 65
   257
 75
     1
175
     1
 42
1.0
 92
        0
 66
   257
 43
1.0
 76
     1
 77
     6
 78
     2
 67
     7
 79
     5
170
     0
171
     0
290
     0
174
     0
 93
       13
 44
0.0
173
     0
291
     1
 45
0.0
1001
ACAD
1000
AcDbSavedByObjectVersion
1070
     0
  0
VISUALSTYLE
  5
2D
102
{ACAD_REACTORS
330
2A
102
}
330
2A
100
AcDbVisualStyle
  2
Gouraud
 70
     2
 71
     2
 72
     2
 73
     1
 90
        2
 40
-0.6
 41
30.0
 62
     5
 63
     7
421
 16777215
 74
     0
 91
        4
 64
     7
 65
   257
 75
     1
175
     1
 42
1.0
 92
        0
 66
     7
 43
1.0
 76
     1
 77
     6
 78
     2
 67
     7
 79
     5
170
     0
171
     0
290
     0
174
     0
 93
       13
 44
0.0
173
     0
291
     1
 45
0.0
1001
ACAD
1000
AcDbSavedByObjectVersion
1070
     0
  0
VISUALSTYLE
  5
2E
102
{ACAD_REACTORS
330
2A
102
}
330
2A
100
AcDbVisualStyle
  2
GouraudWithEdges
 70
     3
 71
     2
 72
     2
 73
     1
 90
        2
 40
-0.6
 41
30.0
 62
     5
 63
     7
421
 16777215
 74
     1
 91
        4
 64
     7
 65
   257
 75
     1
175
     1
 42
1.0
 92
        0
 66
   257
 43
1.0
 76
     1
 77
     6
 78
     2
 67
     7
 79
     5
170
     0
171
     0
290
     0
174
     0
 93
       13
 44
0.0
173
     0
291
     1
 45
0.0
1001
ACAD
1000
AcDbSavedByObjectVersion
1070
     0
  0
VISUALSTYLE
  5
38
102
{ACAD_REACTORS
330
2A
102
}
330
2A
100
AcDbVisualStyle
  2
Linepattern
 70
    14
 71
     2
 72
     2
 73
     0
 90
        0
 40
-0.6
 41
-30.0
 62
     5
 63
     7
421
 16777215
 74
     1
 91
        4
 64
     7
 65
   257
 75
     7
175
     7
 42
1.0
 92
        8
 66
     7
 43
1.0
 76
     1
 77
     6
 78
     2
 67
     7
 79
     5
170
     0
171
     0
290
     0
174
     0
 93
        1
 44
0.0
173
     0
291
     1
 45
0.0
1001
ACAD
1000
AcDbSavedByObjectVersion
1070
     0
  0
VISUALSTYLE
  5
33
102
{ACAD_REACTORS
330
2A
102
}
330
2A
100
AcDbVisualStyle
  2
Realistic
 70
     8
 71
     2
 72
     2
 73
     0
 90
        0
 40
-0.6
 41
-30.0
 62
     5
 63
     7
421
 16777215
 74
     1
 91
        0
 64
     7
 65
   257
 75
     1
175
     1
 42
1.0
 92
        8
 66
     8
424
  7895160
 43
1.0
 76
     1
 77
     6
 78
     2
 67
     7
 79
     5
170
     0
171
     0
290
     0
174
     0
 93
       13
 44
0.0
173
     0
291
     0
 45
0.0
1001
ACAD
1000
AcDbSavedByObjectVersion
1070
     0
  0
VISUALSTYLE
  5
37
102
{ACAD_REACTORS
330
2A
102
}
330
2A
100
AcDbVisualStyle
  2
Thicken
 70
    13
 71
     2
 72
     2
 73
     0
 90
        0
 40
-0.6
 41
-30.0
 62
     5
 63
     7
421
 16777215
 74
     1
 91
        4
 64
     7
 65
   257
 75
     1
175
     1
 42
1.0
 92
       12
 66
     7
 43
1.0
 76
     1
 77
     6
 78
     2
 67
     7
 79
     5
170
     0
171
     0
290
     0
174
     0
 93
        1
 44
0.0
173
     0
291
     1
 45
0.0
1001
ACAD
1000
AcDbSavedByObjectVersion
1070
     0
  0
ENDSEC
  0
EOF
