  0
SECTION
  2
HEADER
  9
$ACADVER
  1
AC1018
  9
$ACADMAINTVER
 70
     0
  9
$DWGCODEPAGE
  3
ANSI_1252
  9
$INSBASE
 10
0.0
 20
0.0
 30
0.0
  9
$EXTMIN
 10
770.7176298151611
 20
205.5350683370118
 30
0.0
  9
$EXTMAX
 10
1314.8005796254
 20
510.938706605301
 30
0.0
  9
$LIMMIN
 10
0.0
 20
0.0
  9
$LIMMAX
 10
12.0
 20
9.0
  9
$ORTHOMODE
 70
     0
  9
$REGENMODE
 70
     1
  9
$FILLMODE
 70
     1
  9
$QTEXTMODE
 70
     0
  9
$MIRRTEXT
 70
     1
  9
$LTSCALE
 40
1.0
  9
$ATTMODE
 70
     1
  9
$TEXTSIZE
 40
0.2
  9
$TRACEWID
 40
0.05
  9
$TEXTSTYLE
  7
Standard
  9
$CLAYER
  8
0
  9
$CELTYPE
  6
ByLayer
  9
$CECOLOR
 62
   256
  9
$CELTSCALE
 40
1.0
  9
$DISPSILH
 70
     0
  9
$DIMSCALE
 40
1.0
  9
$DIMASZ
 40
0.18
  9
$DIMEXO
 40
0.0625
  9
$DIMDLI
 40
0.38
  9
$DIMRND
 40
0.0
  9
$DIMDLE
 40
0.0
  9
$DIMEXE
 40
0.18
  9
$DIMTP
 40
0.0
  9
$DIMTM
 40
0.0
  9
$DIMTXT
 40
0.18
  9
$DIMCEN
 40
0.09
  9
$DIMTSZ
 40
0.0
  9
$DIMTOL
 70
     0
  9
$DIMLIM
 70
     0
  9
$DIMTIH
 70
     1
  9
$DIMTOH
 70
     1
  9
$DIMSE1
 70
     0
  9
$DIMSE2
 70
     0
  9
$DIMTAD
 70
     0
  9
$DIMZIN
 70
     0
  9
$DIMBLK
  1

  9
$DIMASO
 70
     1
  9
$DIMSHO
 70
     1
  9
$DIMPOST
  1

  9
$DIMAPOST
  1

  9
$DIMALT
 70
     0
  9
$DIMALTD
 70
     2
  9
$DIMALTF
 40
25.4
  9
$DIMLFAC
 40
1.0
  9
$DIMTOFL
 70
     0
  9
$DIMTVP
 40
0.0
  9
$DIMTIX
 70
     0
  9
$DIMSOXD
 70
     0
  9
$DIMSAH
 70
     0
  9
$DIMBLK1
  1

  9
$DIMBLK2
  1

  9
$DIMSTYLE
  2
Standard
  9
$DIMCLRD
 70
     0
  9
$DIMCLRE
 70
     0
  9
$DIMCLRT
 70
     0
  9
$DIMTFAC
 40
1.0
  9
$DIMGAP
 40
0.09
  9
$DIMJUST
 70
     0
  9
$DIMSD1
 70
     0
  9
$DIMSD2
 70
     0
  9
$DIMTOLJ
 70
     1
  9
$DIMTZIN
 70
     0
  9
$DIMALTZ
 70
     0
  9
$DIMALTTZ
 70
     0
  9
$DIMUPT
 70
     0
  9
$DIMDEC
 70
     4
  9
$DIMTDEC
 70
     4
  9
$DIMALTU
 70
     2
  9
$DIMALTTD
 70
     2
  9
$DIMTXSTY
  7
Standard
  9
$DIMAUNIT
 70
     0
  9
$DIMADEC
 70
     0
  9
$DIMALTRND
 40
0.0
  9
$DIMAZIN
 70
     0
  9
$DIMDSEP
 70
    46
  9
$DIMATFIT
 70
     3
  9
$DIMFRAC
 70
     0
  9
$DIMLDRBLK
  1

  9
$DIMLUNIT
 70
     2
  9
$DIMLWD
 70
    -2
  9
$DIMLWE
 70
    -2
  9
$DIMTMOVE
 70
     2
  9
$LUNITS
 70
     2
  9
$LUPREC
 70
     3
  9
$SKETCHINC
 40
0.1
  9
$FILLETRAD
 40
0.5
  9
$AUNITS
 70
     0
  9
$AUPREC
 70
     0
  9
$MENU
  1
.
  9
$ELEVATION
 40
0.0
  9
$PELEVATION
 40
0.0
  9
$THICKNESS
 40
0.0
  9
$LIMCHECK
 70
     0
  9
$CHAMFERA
 40
0.5
  9
$CHAMFERB
 40
0.5
  9
$CHAMFERC
 40
1.0
  9
$CHAMFERD
 40
0.0
  9
$SKPOLY
 70
     0
  9
$TDCREATE
 40
2456605.522141308
  9
$TDUCREATE
 40
2456605.480474641
  9
$TDUPDATE
 40
2456605.522141319
  9
$TDUUPDATE
 40
2456605.480474653
  9
$TDINDWG
 40
0.0000000116
  9
$TDUSRTIMER
 40
0.0000000116
  9
$USRTIMER
 70
     1
  9
$ANGBASE
 50
0.0
  9
$ANGDIR
 70
     0
  9
$PDMODE
 70
     0
  9
$PDSIZE
 40
0.0
  9
$PLINEWID
 40
0.0
  9
$SPLFRAME
 70
     0
  9
$SPLINETYPE
 70
     6
  9
$SPLINESEGS
 70
     8
  9
$HANDSEED
  5
93
  9
$SURFTAB1
 70
     6
  9
$SURFTAB2
 70
     6
  9
$SURFTYPE
 70
     6
  9
$SURFU
 70
     6
  9
$SURFV
 70
     6
  9
$UCSBASE
  2

  9
$UCSNAME
  2

  9
$UCSORG
 10
0.0
 20
0.0
 30
0.0
  9
$UCSXDIR
 10
1.0
 20
0.0
 30
0.0
  9
$UCSYDIR
 10
0.0
 20
1.0
 30
0.0
  9
$UCSORTHOREF
  2

  9
$UCSORTHOVIEW
 70
     0
  9
$UCSORGTOP
 10
0.0
 20
0.0
 30
0.0
  9
$UCSORGBOTTOM
 10
0.0
 20
0.0
 30
0.0
  9
$UCSORGLEFT
 10
0.0
 20
0.0
 30
0.0
  9
$UCSORGRIGHT
 10
0.0
 20
0.0
 30
0.0
  9
$UCSORGFRONT
 10
0.0
 20
0.0
 30
0.0
  9
$UCSORGBACK
 10
0.0
 20
0.0
 30
0.0
  9
$PUCSBASE
  2

  9
$PUCSNAME
  2

  9
$PUCSORG
 10
0.0
 20
0.0
 30
0.0
  9
$PUCSXDIR
 10
1.0
 20
0.0
 30
0.0
  9
$PUCSYDIR
 10
0.0
 20
1.0
 30
0.0
  9
$PUCSORTHOREF
  2

  9
$PUCSORTHOVIEW
 70
     0
  9
$PUCSORGTOP
 10
0.0
 20
0.0
 30
0.0
  9
$PUCSORGBOTTOM
 10
0.0
 20
0.0
 30
0.0
  9
$PUCSORGLEFT
 10
0.0
 20
0.0
 30
0.0
  9
$PUCSORGRIGHT
 10
0.0
 20
0.0
 30
0.0
  9
$PUCSORGFRONT
 10
0.0
 20
0.0
 30
0.0
  9
$PUCSORGBACK
 10
0.0
 20
0.0
 30
0.0
  9
$USERI1
 70
     0
  9
$USERI2
 70
     0
  9
$USERI3
 70
     0
  9
$USERI4
 70
     0
  9
$USERI5
 70
     0
  9
$USERR1
 40
0.0
  9
$USERR2
 40
0.0
  9
$USERR3
 40
0.0
  9
$USERR4
 40
0.0
  9
$USERR5
 40
0.0
  9
$WORLDVIEW
 70
     1
  9
$SHADEDGE
 70
     3
  9
$SHADEDIF
 70
    70
  9
$TILEMODE
 70
     1
  9
$MAXACTVP
 70
    64
  9
$PINSBASE
 10
0.0
 20
0.0
 30
0.0
  9
$PLIMCHECK
 70
     0
  9
$PEXTMIN
 10
1.000000000000000E+20
 20
1.000000000000000E+20
 30
1.000000000000000E+20
  9
$PEXTMAX
 10
-1.000000000000000E+20
 20
-1.000000000000000E+20
 30
-1.000000000000000E+20
  9
$PLIMMIN
 10
0.0
 20
0.0
  9
$PLIMMAX
 10
12.0
 20
9.0
  9
$UNITMODE
 70
     0
  9
$VISRETAIN
 70
     1
  9
$PLINEGEN
 70
     0
  9
$PSLTSCALE
 70
     1
  9
$TREEDEPTH
 70
  3020
  9
$CMLSTYLE
  2
Standard
  9
$CMLJUST
 70
     0
  9
$CMLSCALE
 40
1.0
  9
$PROXYGRAPHICS
 70
     1
  9
$MEASUREMENT
 70
     0
  9
$CELWEIGHT
370
    -1
  9
$ENDCAPS
280
     0
  9
$JOINSTYLE
280
     0
  9
$LWDISPLAY
290
     0
  9
$INSUNITS
 70
     4
  9
$HYPERLINKBASE
  1

  9
$STYLESHEET
  1

  9
$XEDIT
290
     1
  9
$CEPSNTYPE
380
     0
  9
$PSTYLEMODE
290
     1
  9
$FINGERPRINTGUID
  2
{2251AB8D-E4C8-4CED-A42D-127FEC09CEDB}
  9
$VERSIONGUID
  2
{FAEB1C32-E019-11D5-929B-00C0DF256EC4}
  9
$EXTNAMES
290
     1
  9
$PSVPSCALE
 40
0.0
  9
$OLESTARTUP
290
     0
  9
$SORTENTS
280
   127
  9
$INDEXCTL
280
     0
  9
$HIDETEXT
280
     1
  9
$XCLIPFRAME
290
     0
  9
$HALOGAP
280
     0
  9
$OBSCOLOR
 70
   257
  9
$OBSLTYPE
280
     0
  9
$INTERSECTIONDISPLAY
280
     0
  9
$INTERSECTIONCOLOR
 70
   257
  9
$DIMASSOC
280
     2
  9
$PROJECTNAME
  1

  0
ENDSEC
  0
SECTION
  2
CLASSES
  0
CLASS
  1
ACDBDICTIONARYWDFLT
  2
AcDbDictionaryWithDefault
  3
ObjectDBX Classes
 90
        0
 91
        4
280
     0
281
     0
  0
CLASS
  1
VISUALSTYLE
  2
AcDbVisualStyle
  3
ObjectDBX Classes
 90
     4095
 91
        4
280
     0
281
     0
  0
ENDSEC
  0
SECTION
  2
TABLES
  0
TABLE
  2
VPORT
  5
8
330
0
100
AcDbSymbolTable
 70
     1
  0
VPORT
  5
29
330
8
100
AcDbSymbolTableRecord
100
AcDbViewportTableRecord
  2
*Active
 70
     0
 10
0.0
 20
0.0
 11
1.0
 21
1.0
 12
1042.759104720281
 22
358.2368874711564
 13
0.0
 23
0.0
 14
0.5
 24
0.5
 15
0.5
 25
0.5
 16
0.0
 26
0.0
 36
1.0
 17
0.0
 27
0.0
 37
0.0
 40
311.511711033655
 41
1.781520851864497
 42
50.0
 43
0.0
 44
0.0
 50
0.0
 51
0.0
 71
     0
 72
   100
 73
     1
 74
     3
 75
     0
 76
     0
 77
     0
 78
     0
281
     0
 65
     1
110
0.0
120
0.0
130
0.0
111
1.0
121
0.0
131
0.0
112
0.0
122
1.0
132
0.0
 79
     0
146
0.0
  0
ENDTAB
  0
TABLE
  2
LTYPE
  5
5
330
0
100
AcDbSymbolTable
 70
     1
  0
LTYPE
  5
14
330
5
100
AcDbSymbolTableRecord
100
AcDbLinetypeTableRecord
  2
ByBlock
 70
     0
  3

 72
    65
 73
     0
 40
0.0
  0
LTYPE
  5
15
330
5
100
AcDbSymbolTableRecord
100
AcDbLinetypeTableRecord
  2
ByLayer
 70
     0
  3

 72
    65
 73
     0
 40
0.0
  0
LTYPE
  5
16
330
5
100
AcDbSymbolTableRecord
100
AcDbLinetypeTableRecord
  2
Continuous
 70
     0
  3
Solid line
 72
    65
 73
     0
 40
0.0
  0
ENDTAB
  0
TABLE
  2
LAYER
  5
2
330
0
100
AcDbSymbolTable
 70
     3
  0
LAYER
  5
10
330
2
100
AcDbSymbolTableRecord
100
AcDbLayerTableRecord
  2
0
 70
     0
 62
     7
  6
Continuous
370
    -3
390
F
  0
LAYER
  5
3B
330
2
100
AcDbSymbolTableRecord
100
AcDbLayerTableRecord
  2
Linee visibili 2D
 70
     0
 62
     7
  6
Continuous
370
    -3
390
F
  0
LAYER
  5
59
330
2
100
AcDbSymbolTableRecord
100
AcDbLayerTableRecord
  2
Linee visibili 2D - Tangent
 70
     0
 62
     7
  6
Continuous
370
    -3
390
F
  0
ENDTAB
  0
TABLE
  2
STYLE
  5
3
330
0
100
AcDbSymbolTable
 70
     1
  0
STYLE
  5
11
330
3
100
AcDbSymbolTableRecord
100
AcDbTextStyleTableRecord
  2
Standard
 70
     0
 40
0.0
 41
1.0
 50
0.0
 71
     0
 42
0.2
  3
txt
  4

  0
ENDTAB
  0
TABLE
  2
VIEW
  5
6
330
0
100
AcDbSymbolTable
 70
     0
  0
ENDTAB
  0
TABLE
  2
UCS
  5
7
330
0
100
AcDbSymbolTable
 70
     0
  0
ENDTAB
  0
TABLE
  2
APPID
  5
9
330
0
100
AcDbSymbolTable
 70
     1
  0
APPID
  5
12
330
9
100
AcDbSymbolTableRecord
100
AcDbRegAppTableRecord
  2
ACAD
 70
     0
  0
ENDTAB
  0
TABLE
  2
DIMSTYLE
  5
A
330
0
100
AcDbSymbolTable
 70
     1
100
AcDbDimStyleTable
  0
DIMSTYLE
105
27
330
A
100
AcDbSymbolTableRecord
100
AcDbDimStyleTableRecord
  2
Standard
 70
     0
340
11
  0
ENDTAB
  0
TABLE
  2
BLOCK_RECORD
  5
1
330
0
100
AcDbSymbolTable
 70
     1
  0
BLOCK_RECORD
  5
1F
330
1
100
AcDbSymbolTableRecord
100
AcDbBlockTableRecord
  2
*Model_Space
340
22
  0
BLOCK_RECORD
  5
1B
330
1
100
AcDbSymbolTableRecord
100
AcDbBlockTableRecord
  2
*Paper_Space
340
1E
  0
BLOCK_RECORD
  5
23
330
1
100
AcDbSymbolTableRecord
100
AcDbBlockTableRecord
  2
*Paper_Space0
340
26
  0
ENDTAB
  0
ENDSEC
  0
SECTION
  2
BLOCKS
  0
BLOCK
  5
20
330
1F
100
AcDbEntity
  8
0
100
AcDbBlockBegin
  2
*Model_Space
 70
     0
 10
0.0
 20
0.0
 30
0.0
  3
*Model_Space
  1

  0
ENDBLK
  5
21
330
1F
100
AcDbEntity
  8
0
100
AcDbBlockEnd
  0
BLOCK
  5
1C
330
1B
100
AcDbEntity
 67
     1
  8
0
100
AcDbBlockBegin
  2
*Paper_Space
 70
     0
 10
0.0
 20
0.0
 30
0.0
  3
*Paper_Space
  1

  0
ENDBLK
  5
1D
330
1B
100
AcDbEntity
 67
     1
  8
0
100
AcDbBlockEnd
  0
BLOCK
  5
24
330
23
100
AcDbEntity
  8
0
100
AcDbBlockBegin
  2
*Paper_Space0
 70
     0
 10
0.0
 20
0.0
 30
0.0
  3
*Paper_Space0
  1

  0
ENDBLK
  5
25
330
23
100
AcDbEntity
  8
0
100
AcDbBlockEnd
  0
ENDSEC
  0
SECTION
  2
ENTITIES
  0
SPLINE
  5
3C
330
1F
100
AcDbEntity
  8
Linee visibili 2D
100
AcDbSpline
210
0.0
220
0.0
230
1.0
 70
    24
 71
     2
 72
     6
 73
     3
 74
     0
 42
0.0000000001
 43
0.0000000001
 40
0.0
 40
0.0
 40
0.0
 40
127.4401146223587
 40
127.4401146223587
 40
127.4401146223587
 10
1187.360465003042
 20
466.1459836792622
 30
0.0
 10
1251.080522314221
 20
466.1459836792622
 30
0.0
 10
1314.8005796254
 20
466.1459836792622
 30
0.0
  0
SPLINE
  5
3D
330
1F
100
AcDbEntity
  8
Linee visibili 2D
100
AcDbSpline
210
0.0
220
0.0
230
1.0
 70
    24
 71
     2
 72
     6
 73
     3
 74
     0
 42
0.0000000001
 43
0.0000000001
 40
0.0
 40
0.0
 40
0.0
 40
21.15115974446633
 40
21.15115974446633
 40
21.15115974446633
 10
1187.360465003042
 20
466.1459836792623
 30
0.0
 10
1187.360465003042
 20
476.7215635514954
 30
0.0
 10
1187.360465003042
 20
487.2971434237286
 30
0.0
  0
SPLINE
  5
3E
330
1F
100
AcDbEntity
  8
Linee visibili 2D
100
AcDbSpline
210
0.0
220
0.0
230
1.0
 70
    24
 71
     2
 72
     6
 73
     3
 74
     0
 42
0.0000000001
 43
0.0000000001
 40
0.0
 40
0.0
 40
0.0
 40
127.4401146223586
 40
127.4401146223586
 40
127.4401146223586
 10
1314.8005796254
 20
487.2971434237286
 30
0.0
 10
1251.080522314221
 20
487.2971434237286
 30
0.0
 10
1187.360465003042
 20
487.2971434237286
 30
0.0
  0
SPLINE
  5
3F
330
1F
100
AcDbEntity
  8
Linee visibili 2D
100
AcDbSpline
210
0.0
220
0.0
230
1.0
 70
    24
 71
     2
 72
     6
 73
     3
 74
     0
 42
0.0000000001
 43
0.0000000001
 40
0.0
 40
0.0
 40
0.0
 40
14.0297649222926
 40
14.0297649222926
 40
14.0297649222926
 10
1187.360465003042
 20
487.2971434237286
 30
0.0
 10
1187.360465003042
 20
494.3120258848749
 30
0.0
 10
1187.360465003042
 20
501.3269083460212
 30
0.0
  0
SPLINE
  5
40
330
1F
100
AcDbEntity
  8
Linee visibili 2D
100
AcDbSpline
210
0.0
220
0.0
230
1.0
 70
    24
 71
     2
 72
     6
 73
     3
 74
     0
 42
0.0000000001
 43
0.0000000001
 40
0.0
 40
0.0
 40
0.0
 40
127.4401146223586
 40
127.4401146223586
 40
127.4401146223586
 10
1314.8005796254
 20
501.3269083460212
 30
0.0
 10
1251.080522314221
 20
501.3269083460212
 30
0.0
 10
1187.360465003042
 20
501.3269083460212
 30
0.0
  0
SPLINE
  5
41
330
1F
100
AcDbEntity
  8
Linee visibili 2D
100
AcDbSpline
210
0.0
220
0.0
230
1.0
 70
    24
 71
     2
 72
     6
 73
     3
 74
     0
 42
0.0000000001
 43
0.0000000001
 40
0.0
 40
0.0
 40
0.0
 40
14.0297649222926
 40
14.0297649222926
 40
14.0297649222926
 10
1314.8005796254
 20
487.2971434237286
 30
0.0
 10
1314.8005796254
 20
494.3120258848749
 30
0.0
 10
1314.8005796254
 20
501.3269083460212
 30
0.0
  0
SPLINE
  5
42
330
1F
100
AcDbEntity
  8
Linee visibili 2D
100
AcDbSpline
210
0.0
220
0.0
230
1.0
 70
    24
 71
     2
 72
     6
 73
     3
 74
     0
 42
0.0000000001
 43
0.0000000001
 40
0.0
 40
0.0
 40
0.0
 40
21.15115974446633
 40
21.15115974446633
 40
21.15115974446633
 10
1314.8005796254
 20
466.1459836792623
 30
0.0
 10
1314.8005796254
 20
476.7215635514954
 30
0.0
 10
1314.8005796254
 20
487.2971434237286
 30
0.0
  0
SPLINE
  5
43
330
1F
100
AcDbEntity
  8
Linee visibili 2D
100
AcDbSpline
210
0.0
220
0.0
230
1.0
 70
    12
 71
     2
 72
     6
 73
     3
 74
     0
 42
0.0000000001
 43
0.0000000001
 40
0.0
 40
0.0
 40
0.0
 40
0.6863734738814831
 40
0.6863734738814831
 40
0.6863734738814831
 10
1187.235025184069
 20
482.1150742336897
 30
0.0
 41
1.0
 10
1187.321984381263
 20
482.447061032276
 30
0.0
 41
0.9999999999986587
 10
1187.408944665918
 20
482.7790475460226
 30
0.0
 41
1.0
  0
SPLINE
  5
44
330
1F
100
AcDbEntity
  8
Linee visibili 2D
100
AcDbSpline
210
0.0
220
0.0
230
1.0
 70
    12
 71
     2
 72
     6
 73
     3
 74
     0
 42
0.0000000001
 43
0.0000000001
 40
0.0
 40
0.0
 40
0.0
 40
0.1278469268754503
 40
0.1278469268754503
 40
0.1278469268754503
 10
1187.36046500304
 20
482.0903823618202
 30
0.0
 41
1.0
 10
1187.297745086991
 20
482.1027282643199
 30
0.0
 41
0.9999999999998579
 10
1187.235025184102
 20
482.1150742336725
 30
0.0
 41
1.0
  0
SPLINE
  5
45
330
1F
100
AcDbEntity
  8
Linee visibili 2D
100
AcDbSpline
210
0.0
220
0.0
230
1.0
 70
    24
 71
     2
 72
     6
 73
     3
 74
     0
 42
0.0000000001
 43
0.0000000001
 40
0.0
 40
0.0
 40
0.0
 40
36.1424778821151
 40
36.1424778821151
 40
36.1424778821151
 10
1153.734176104676
 20
510.938706605301
 30
0.0
 10
1170.547320553778
 20
504.3139159974077
 30
0.0
 10
1187.36046500288
 20
497.6891253895143
 30
0.0
  0
SPLINE
  5
46
330
1F
100
AcDbEntity
  8
Linee visibili 2D
100
AcDbSpline
210
0.0
220
0.0
230
1.0
 70
    24
 71
     2
 72
     6
 73
     3
 74
     0
 42
0.0000000001
 43
0.0000000001
 40
0.0
 40
0.0
 40
0.0
 40
33.62628889835
 40
33.62628889835
 40
33.62628889835
 10
1153.734176104692
 20
466.5736085086967
 30
0.0
 10
1170.547320553867
 20
466.5736113884326
 30
0.0
 10
1187.360465003042
 20
466.5736142681685
 30
0.0
  0
SPLINE
  5
47
330
1F
100
AcDbEntity
  8
Linee visibili 2D
100
AcDbSpline
210
0.0
220
0.0
230
1.0
 70
     8
 71
     3
 72
    13
 73
     9
 74
     0
 42
0.0000000001
 43
0.0000000001
 40
0.0
 40
0.0
 40
0.0
 40
0.0
 40
0.6953340323939017
 40
1.482560474682857
 40
3.463825520528097
 40
4.990436540976971
 40
5.465732516677797
 40
5.980516606097459
 40
5.980516606097459
 40
5.980516606097459
 40
5.980516606097459
 10
1166.92137592259
 20
497.8328695641743
 30
0.0
 10
1166.855293565833
 20
498.0608004342477
 30
0.0
 10
1166.606586094962
 20
498.4832119232008
 30
0.0
 10
1165.680909405359
 20
499.234767766293
 30
0.0
 10
1164.358585434471
 20
499.7319553690102
 30
0.0
 10
1162.97343483257
 20
499.8943509240744
 30
0.0
 10
1162.261762616163
 20
499.3527376442175
 30
0.0
 10
1162.365030305608
 20
498.929073920349
 30
0.0
 10
1162.395737047948
 20
498.7949038557804
 30
0.0
  0
SPLINE
  5
48
330
1F
100
AcDbEntity
  8
Linee visibili 2D
100
AcDbSpline
210
0.0
220
0.0
230
1.0
 70
     8
 71
     3
 72
    12
 73
     8
 74
     0
 42
0.0000000001
 43
0.0000000001
 40
0.0
 40
0.0
 40
0.0
 40
0.0
 40
0.7373013708730616
 40
1.568053704706131
 40
3.416913355941202
 40
4.903203044466869
 40
6.034955922441103
 40
6.034955922441103
 40
6.034955922441103
 40
6.034955922441103
 10
1162.395737047948
 20
498.7949038557804
 30
0.0
 10
1162.477539415478
 20
498.5618816624507
 30
0.0
 10
1162.727175566165
 20
498.1013953242269
 30
0.0
 10
1163.557691636178
 20
497.2883079194327
 30
0.0
 10
1164.831629966328
 20
496.720061996125
 30
0.0
 10
1166.400262038035
 20
496.6363167461028
 30
0.0
 10
1167.041303200639
 20
497.4327757176754
 30
0.0
 10
1166.92137592259
 20
497.8328695641743
 30
0.0
  0
SPLINE
  5
49
330
1F
100
AcDbEntity
  8
Linee visibili 2D
100
AcDbSpline
210
0.0
220
0.0
230
1.0
 70
    24
 71
     2
 72
     6
 73
     3
 74
     0
 42
0.0000000001
 43
0.0000000001
 40
0.0
 40
0.0
 40
0.0
 40
44.27536769766448
 40
44.27536769766448
 40
44.27536769766448
 10
1153.734176104676
 20
510.938706605301
 30
0.0
 10
1153.734176104684
 20
488.8010227564687
 30
0.0
 10
1153.734176104692
 20
466.6633389076365
 30
0.0
  0
SPLINE
  5
4A
330
1F
100
AcDbEntity
  8
Linee visibili 2D
100
AcDbSpline
210
0.0
220
0.0
230
1.0
 70
    24
 71
     2
 72
     6
 73
     3
 74
     0
 42
0.0000000001
 43
0.0000000001
 40
0.0
 40
0.0
 40
0.0
 40
5.83364636517489
 40
5.83364636517489
 40
5.83364636517489
 10
925.7147715434104
 20
488.7561575691327
 30
0.0
 10
925.7150984515633
 20
485.8393344048646
 30
0.0
 10
925.7154253597162
 20
482.9225112405966
 30
0.0
  0
SPLINE
  5
4B
330
1F
100
AcDbEntity
  8
Linee visibili 2D
100
AcDbSpline
210
0.0
220
0.0
230
1.0
 70
    24
 71
     2
 72
     6
 73
     3
 74
     0
 42
0.0000000001
 43
0.0000000001
 40
0.0
 40
0.0
 40
0.0
 40
5.833646365157724
 40
5.833646365157724
 40
5.833646365157724
 10
836.2628032522609
 20
482.9225112405966
 30
0.0
 10
836.2631301604137
 20
485.839334404856
 30
0.0
 10
836.2634570685664
 20
488.7561575691155
 30
0.0
  0
SPLINE
  5
4C
330
1F
100
AcDbEntity
  8
Linee visibili 2D
100
AcDbSpline
210
0.0
220
0.0
230
1.0
 70
    12
 71
     2
 72
     6
 73
     3
 74
     0
 42
0.0000000001
 43
0.0000000001
 40
0.0
 40
0.0
 40
0.0
 40
114.9863616434582
 40
114.9863616434582
 40
114.9863616434582
 10
994.7130991296301
 20
501.3269083460212
 30
0.0
 41
1.0
 10
940.9785031753705
 20
478.8060537433848
 30
0.0
 41
0.9802940930527393
 10
882.7153642418432
 20
478.8543860625422
 30
0.0
 41
1.0
  0
SPLINE
  5
4D
330
1F
100
AcDbEntity
  8
Linee visibili 2D
100
AcDbSpline
210
0.0
220
0.0
230
1.0
 70
    24
 71
     2
 72
     6
 73
     3
 74
     0
 42
0.0000000001
 43
0.0000000001
 40
0.0
 40
0.0
 40
0.0
 40
14.03527136503622
 40
14.03527136503622
 40
14.03527136503622
 10
994.319985258832
 20
487.2971434237286
 30
0.0
 10
994.5165421942311
 20
494.3120258848749
 30
0.0
 10
994.7130991296301
 20
501.3269083460212
 30
0.0
  0
SPLINE
  5
4E
330
1F
100
AcDbEntity
  8
Linee visibili 2D
100
AcDbSpline
210
0.0
220
0.0
230
1.0
 70
    12
 71
     2
 72
     8
 73
     5
 74
     0
 42
0.0000000001
 43
0.0000000001
 40
0.0
 40
0.0
 40
0.0
 40
114.2572899231965
 40
114.2572899231965
 40
228.5145802815803
 40
228.5145802815803
 40
228.5145802815803
 10
771.1107436859581
 20
487.2971434237286
 30
0.0
 41
1.0
 10
824.9099847391251
 20
466.1523189578602
 30
0.0
 41
0.982531468948676
 10
882.7153642418444
 20
466.1459836792622
 30
0.0
 41
1.0
 10
940.5207439436773
 20
466.1523190800712
 30
0.0
 41
0.9825314694827093
 10
994.319985258832
 20
487.2971434237286
 30
0.0
 41
1.0
  0
SPLINE
  5
4F
330
1F
100
AcDbEntity
  8
Linee visibili 2D
100
AcDbSpline
210
0.0
220
0.0
230
1.0
 70
    24
 71
     2
 72
     6
 73
     3
 74
     0
 42
0.0000000001
 43
0.0000000001
 40
0.0
 40
0.0
 40
0.0
 40
14.03527136503608
 40
14.03527136503608
 40
14.03527136503608
 10
770.7176298151611
 20
501.3269083460211
 30
0.0
 10
770.9141867505596
 20
494.3120258848749
 30
0.0
 10
771.1107436859581
 20
487.2971434237286
 30
0.0
  0
SPLINE
  5
50
330
1F
100
AcDbEntity
  8
Linee visibili 2D
100
AcDbSpline
210
0.0
220
0.0
230
1.0
 70
    12
 71
     2
 72
     6
 73
     3
 74
     0
 42
0.0000000001
 43
0.0000000001
 40
0.0
 40
0.0
 40
0.0
 40
114.9863611703777
 40
114.9863611703777
 40
114.9863611703777
 10
882.7153642418432
 20
478.8543860625422
 30
0.0
 41
1.0
 10
824.452225566399
 20
478.8060539270517
 30
0.0
 41
0.9802940935178686
 10
770.7176298151611
 20
501.3269083460211
 30
0.0
 41
1.0
  0
SPLINE
  5
51
330
1F
100
AcDbEntity
  8
Linee visibili 2D
100
AcDbSpline
210
0.0
220
0.0
230
1.0
 70
    12
 71
     2
 72
     6
 73
     3
 74
     0
 42
0.0000000001
 43
0.0000000001
 40
0.0
 40
0.0
 40
0.0
 40
1.126616146316189
 40
1.126616146316189
 40
1.126616146316189
 10
899.1383991754667
 20
480.1383683013091
 30
0.0
 41
1.0
 10
898.5761777665783
 20
480.1033854958715
 30
0.0
 41
0.9999982887676041
 10
898.0138307706154
 20
480.0704831339519
 30
0.0
 41
1.0
  0
SPLINE
  5
52
330
1F
100
AcDbEntity
  8
Linee visibili 2D
100
AcDbSpline
210
0.0
220
0.0
230
1.0
 70
    12
 71
     2
 72
     6
 73
     3
 74
     0
 42
0.0000000001
 43
0.0000000001
 40
0.0
 40
0.0
 40
0.0
 40
6.64103364666285
 40
6.64103364666285
 40
6.64103364666285
 10
905.7613060843114
 20
480.6267568743533
 30
0.0
 41
1.0
 10
902.4526351452442
 20
480.3448296407738
 30
0.0
 41
0.9999350869734964
 10
899.1383991754667
 20
480.1383683013091
 30
0.0
 41
1.0
  0
SPLINE
  5
53
330
1F
100
AcDbEntity
  8
Linee visibili 2D
100
AcDbSpline
210
0.0
220
0.0
230
1.0
 70
    12
 71
     2
 72
     6
 73
     3
 74
     0
 42
0.0000000001
 43
0.0000000001
 40
0.0
 40
0.0
 40
0.0
 40
16.70459288609148
 40
16.70459288609148
 40
16.70459288609148
 10
922.3554725665977
 20
482.5212485791654
 30
0.0
 41
1.0
 10
914.0875302182673
 20
481.3187528222335
 30
0.0
 41
0.9995271295733844
 10
905.7613060843114
 20
480.6267568743533
 30
0.0
 41
1.0
  0
SPLINE
  5
54
330
1F
100
AcDbEntity
  8
Linee visibili 2D
100
AcDbSpline
210
0.0
220
0.0
230
1.0
 70
    12
 71
     2
 72
     6
 73
     3
 74
     0
 42
0.0000000001
 43
0.0000000001
 40
0.0
 40
0.0
 40
0.0
 40
3.227394625879525
 40
3.227394625879525
 40
3.227394625879525
 10
925.5470865180721
 20
482.9968120216543
 30
0.0
 41
1.0
 10
923.9588492529601
 20
482.7082282582818
 30
0.0
 41
0.9994936606513976
 10
922.3554725665977
 20
482.5212485791654
 30
0.0
 41
1.0
  0
SPLINE
  5
55
330
1F
100
AcDbEntity
  8
Linee visibili 2D
100
AcDbSpline
210
0.0
220
0.0
230
1.0
 70
    12
 71
     2
 72
     6
 73
     3
 74
     0
 42
0.0000000001
 43
0.0000000001
 40
0.0
 40
0.0
 40
0.0
 40
0.0814816449031255
 40
0.0814816449031255
 40
0.0814816449031255
 10
925.6276019899109
 20
483.0093227012932
 30
0.0
 41
1.0
 10
925.5873458587859
 20
483.0030570334354
 30
0.0
 41
0.9999999670915836
 10
925.5470865180721
 20
482.9968120216543
 30
0.0
 41
1.0
  0
SPLINE
  5
56
330
1F
100
AcDbEntity
  8
Linee visibili 2D
100
AcDbSpline
210
0.0
220
0.0
230
1.0
 70
    12
 71
     2
 72
     6
 73
     3
 74
     0
 42
0.0000000001
 43
0.0000000001
 40
0.0
 40
0.0
 40
0.0
 40
0.1453926757283657
 40
0.1453926757283657
 40
0.1453926757283657
 10
925.6751634432452
 20
482.7790475460114
 30
0.0
 41
1.0
 10
925.6652352928679
 20
482.8510789584042
 30
0.0
 41
0.9996687648059099
 10
925.6516138686609
 20
482.9225040894423
 30
0.0
 41
1.0
  0
SPLINE
  5
57
330
1F
100
AcDbEntity
  8
Linee visibili 2D
100
AcDbSpline
210
0.0
220
0.0
230
1.0
 70
    12
 71
     2
 72
     6
 73
     3
 74
     0
 42
0.0000000001
 43
0.0000000001
 40
0.0
 40
0.0
 40
0.0
 40
0.6657013650043944
 40
0.6657013650043944
 40
0.6657013650043944
 10
925.7153563364777
 20
482.1150742336812
 30
0.0
 41
1.0
 10
925.717863949887
 20
482.4484292017262
 30
0.0
 41
0.9976900911114588
 10
925.6751634432451
 20
482.7790475460114
 30
0.0
 41
1.0
  0
SPLINE
  5
58
330
1F
100
AcDbEntity
  8
Linee visibili 2D
100
AcDbSpline
210
0.0
220
0.0
230
1.0
 70
    12
 71
     2
 72
     6
 73
     3
 74
     0
 42
0.0000000001
 43
0.0000000001
 40
0.0
 40
0.0
 40
0.0
 40
17.03443293826345
 40
17.03443293826345
 40
17.03443293826345
 10
898.0138307706154
 20
480.0704831339519
 30
0.0
 41
1.0
 10
889.5087981936383
 20
479.5710384901909
 30
0.0
 41
0.9995655269553368
 10
880.9891140754364
 20
479.5736101978165
 30
0.0
 41
1.0
  0
SPLINE
  5
5A
330
1F
100
AcDbEntity
  8
Linee visibili 2D - Tangent
100
AcDbSpline
210
0.0
220
0.0
230
1.0
 70
    24
 71
     2
 72
     6
 73
     3
 74
     0
 42
0.0000000001
 43
0.0000000001
 40
0.0
 40
0.0
 40
0.0
 40
31.36509640748454
 40
31.36509640748454
 40
31.36509640748454
 10
880.9891141522871
 20
510.938706605301
 30
0.0
 10
880.9891141138618
 20
495.2561584015587
 30
0.0
 10
880.9891140754364
 20
479.5736101978164
 30
0.0
  0
SPLINE
  5
5B
330
1F
100
AcDbEntity
  8
Linee visibili 2D
100
AcDbSpline
210
0.0
220
0.0
230
1.0
 70
    12
 71
     2
 72
     6
 73
     3
 74
     0
 42
0.0000000001
 43
0.0000000001
 40
0.0
 40
0.0
 40
0.0
 40
17.03443247897819
 40
17.03443247897819
 40
17.03443247897819
 10
863.9643978413612
 20
480.0704831339519
 30
0.0
 41
1.0
 10
872.4694301852775
 20
479.571038411023
 30
0.0
 41
0.9995655266579307
 10
880.9891140754364
 20
479.5736101978164
 30
0.0
 41
1.0
  0
SPLINE
  5
5C
330
1F
100
AcDbEntity
  8
Linee visibili 2D
100
AcDbSpline
210
0.0
220
0.0
230
1.0
 70
    12
 71
     2
 72
     6
 73
     3
 74
     0
 42
0.0000000001
 43
0.0000000001
 40
0.0
 40
0.0
 40
0.0
 40
1.126616146316077
 40
1.126616146316077
 40
1.126616146316077
 10
862.8398294365101
 20
480.138368301309
 30
0.0
 41
1.0
 10
863.4020508453982
 20
480.1033854958699
 30
0.0
 41
0.9999982887675989
 10
863.9643978413612
 20
480.0704831339519
 30
0.0
 41
1.0
  0
SPLINE
  5
5D
330
1F
100
AcDbEntity
  8
Linee visibili 2D
100
AcDbSpline
210
0.0
220
0.0
230
1.0
 70
    12
 71
     2
 72
     6
 73
     3
 74
     0
 42
0.0000000001
 43
0.0000000001
 40
0.0
 40
0.0
 40
0.0
 40
6.641033646675973
 40
6.641033646675973
 40
6.641033646675973
 10
856.2169225276654
 20
480.6267568743533
 30
0.0
 41
1.0
 10
859.525593466606
 20
480.3448296390588
 30
0.0
 41
0.9999350869675966
 10
862.8398294365101
 20
480.138368301309
 30
0.0
 41
1.0
  0
SPLINE
  5
5E
330
1F
100
AcDbEntity
  8
Linee visibili 2D
100
AcDbSpline
210
0.0
220
0.0
230
1.0
 70
    12
 71
     2
 72
     6
 73
     3
 74
     0
 42
0.0000000001
 43
0.0000000001
 40
0.0
 40
0.0
 40
0.0
 40
16.70459289783282
 40
16.70459289783282
 40
16.70459289783282
 10
839.622756045379
 20
482.5212485791654
 30
0.0
 41
1.0
 10
847.8906983287044
 20
481.3187522528447
 30
0.0
 41
0.9995271274652041
 10
856.2169225276652
 20
480.6267568743532
 30
0.0
 41
1.0
  0
SPLINE
  5
5F
330
1F
100
AcDbEntity
  8
Linee visibili 2D
100
AcDbSpline
210
0.0
220
0.0
230
1.0
 70
    12
 71
     2
 72
     6
 73
     3
 74
     0
 42
0.0000000001
 43
0.0000000001
 40
0.0
 40
0.0
 40
0.0
 40
3.22739462588172
 40
3.22739462588172
 40
3.22739462588172
 10
836.4311420939047
 20
482.9968120216543
 30
0.0
 41
1.0
 10
838.0193793590015
 20
482.708228258179
 30
0.0
 41
0.9994936606493489
 10
839.622756045379
 20
482.5212485791654
 30
0.0
 41
1.0
  0
SPLINE
  5
60
330
1F
100
AcDbEntity
  8
Linee visibili 2D
100
AcDbSpline
210
0.0
220
0.0
230
1.0
 70
    12
 71
     2
 72
     6
 73
     3
 74
     0
 42
0.0000000001
 43
0.0000000001
 40
0.0
 40
0.0
 40
0.0
 40
0.0814816449031307
 40
0.0814816449031307
 40
0.0814816449031307
 10
836.3506266220659
 20
483.0093227012932
 30
0.0
 41
1.0
 10
836.3908827531907
 20
483.0030570334353
 30
0.0
 41
0.9999999670915839
 10
836.4311420939047
 20
482.9968120216543
 30
0.0
 41
1.0
  0
SPLINE
  5
61
330
1F
100
AcDbEntity
  8
Linee visibili 2D
100
AcDbSpline
210
0.0
220
0.0
230
1.0
 70
    12
 71
     2
 72
     6
 73
     3
 74
     0
 42
0.0000000001
 43
0.0000000001
 40
0.0
 40
0.0
 40
0.0
 40
0.1453926757283676
 40
0.1453926757283676
 40
0.1453926757283676
 10
836.3030651687316
 20
482.7790475460114
 30
0.0
 41
1.0
 10
836.3129933191086
 20
482.8510789584042
 30
0.0
 41
0.9996687648058699
 10
836.3266147433159
 20
482.9225040894423
 30
0.0
 41
1.0
  0
SPLINE
  5
62
330
1F
100
AcDbEntity
  8
Linee visibili 2D
100
AcDbSpline
210
0.0
220
0.0
230
1.0
 70
    12
 71
     2
 72
     6
 73
     3
 74
     0
 42
0.0000000001
 43
0.0000000001
 40
0.0
 40
0.0
 40
0.0
 40
0.206052825294477
 40
0.206052825294477
 40
0.206052825294477
 10
836.2809891987038
 20
482.5741957207152
 30
0.0
 41
1.0
 10
836.2898919991034
 20
482.6768517327119
 30
0.0
 41
0.9997827900754175
 10
836.3030651687316
 20
482.7790475460114
 30
0.0
 41
1.0
  0
SPLINE
  5
63
330
1F
100
AcDbEntity
  8
Linee visibili 2D
100
AcDbSpline
210
0.0
220
0.0
230
1.0
 70
     8
 71
     3
 72
    14
 73
    10
 74
     0
 42
0.0000000001
 43
0.0000000001
 40
0.0
 40
0.0
 40
0.0
 40
0.0
 40
1.7544723379275
 40
2.26790382233764
 40
2.589053621417766
 40
2.803906742494341
 40
3.130920064470652
 40
4.165450410644103
 40
6.429153334510295
 40
6.429153334510295
 40
6.429153334510295
 40
6.429153334510295
 10
845.0780445534713
 20
497.8322869685973
 30
0.0
 10
845.5599442996747
 20
498.1489410639232
 30
0.0
 10
846.1968210869744
 20
498.6026423923874
 30
0.0
 10
846.7691999556644
 20
499.2172319567771
 30
0.0
 10
846.9632402799448
 20
499.5583802833343
 30
0.0
 10
846.7807307884656
 20
499.817978900798
 30
0.0
 10
846.2261318064589
 20
499.7930782768398
 30
0.0
 10
845.1044591527218
 20
499.3585245315854
 30
0.0
 10
844.1828934466033
 20
498.7245851381818
 30
0.0
 10
843.6274592421464
 20
498.2170422289599
 30
0.0
  0
SPLINE
  5
64
330
1F
100
AcDbEntity
  8
Linee visibili 2D
100
AcDbSpline
210
0.0
220
0.0
230
1.0
 70
     8
 71
     3
 72
    12
 73
     8
 74
     0
 42
0.0000000001
 43
0.0000000001
 40
0.0
 40
0.0
 40
0.0
 40
0.0
 40
1.055824756588073
 40
1.696487815261114
 40
1.97743766255082
 40
2.521059893168584
 40
4.581050983642475
 40
4.581050983642475
 40
4.581050983642475
 40
4.581050983642475
 10
843.6274592421463
 20
498.2170422289599
 30
0.0
 10
843.3024675888917
 20
497.9446141833699
 30
0.0
 10
843.0709690034694
 20
497.6662089700851
 30
0.0
 10
842.4490963935541
 20
496.9899782735418
 30
0.0
 10
842.7963388836797
 20
496.6501400347341
 30
0.0
 10
843.8072289509811
 20
497.0714967679374
 30
0.0
 10
844.4689471150471
 20
497.4299319576008
 30
0.0
 10
845.0780445534713
 20
497.8322869685973
 30
0.0
  0
SPLINE
  5
65
330
1F
100
AcDbEntity
  8
Linee visibili 2D
100
AcDbSpline
210
0.0
220
0.0
230
1.0
 70
     8
 71
     3
 72
    13
 73
     9
 74
     0
 42
0.0000000001
 43
0.0000000001
 40
0.0
 40
0.0
 40
0.0
 40
0.0
 40
1.832543501675679
 40
2.351413615408558
 40
2.691024756858519
 40
3.066200280069806
 40
3.720960070057694
 40
5.482249139883282
 40
5.482249139883282
 40
5.482249139883282
 40
5.482249139883282
 10
916.899280224492
 20
497.8328695641743
 30
0.0
 10
916.3772339721788
 20
498.152948339606
 30
0.0
 10
915.7604842184303
 20
498.6407801364903
 30
0.0
 10
915.1219497691118
 20
499.2688739174592
 30
0.0
 10
915.036503095134
 20
499.7497585496442
 30
0.0
 10
915.5761382292931
 20
499.828599204075
 30
0.0
 10
916.4308648191297
 20
499.5521840311092
 30
0.0
 10
917.1630568158696
 20
499.1422957424417
 30
0.0
 10
917.6255048041337
 20
498.7949038557804
 30
0.0
  0
SPLINE
  5
66
330
1F
100
AcDbEntity
  8
Linee visibili 2D
100
AcDbSpline
210
0.0
220
0.0
230
1.0
 70
     8
 71
     3
 72
    13
 73
     9
 74
     0
 42
0.0000000001
 43
0.0000000001
 40
0.0
 40
0.0
 40
0.0
 40
0.0
 40
1.796056666834448
 40
2.420375949007425
 40
2.753361373078167
 40
2.991907367532538
 40
3.578512948873326
 40
5.50504537627196
 40
5.50504537627196
 40
5.50504537627196
 40
5.50504537627196
 10
917.6255048041337
 20
498.7949038557804
 30
0.0
 10
918.103373040963
 20
498.4520806146253
 30
0.0
 10
918.7348885268868
 20
497.8926793255973
 30
0.0
 10
919.2978992403637
 20
497.2215582462864
 30
0.0
 10
919.4469192465037
 20
496.7556041279997
 30
0.0
 10
919.0075525396194
 20
496.6936468610183
 30
0.0
 10
918.1743527928634
 20
497.0871205470937
 30
0.0
 10
917.4351849765292
 20
497.4741197879068
 30
0.0
 10
916.899280224492
 20
497.8328695641743
 30
0.0
  0
SPLINE
  5
67
330
1F
100
AcDbEntity
  8
Linee visibili 2D
100
AcDbSpline
210
0.0
220
0.0
230
1.0
 70
    12
 71
     2
 72
     6
 73
     3
 74
     0
 42
0.0000000001
 43
0.0000000001
 40
0.0
 40
0.0
 40
0.0
 40
0.5598689540142173
 40
0.5598689540142173
 40
0.5598689540142173
 10
837.9341955127193
 20
482.7498420044867
 30
0.0
 41
1.0
 10
838.0723396356209
 20
482.5063320048422
 30
0.0
 41
0.9998315218063936
 10
838.2193287068058
 20
482.2680566776023
 30
0.0
 41
1.0
  0
SPLINE
  5
68
330
1F
100
AcDbEntity
  8
Linee visibili 2D
100
AcDbSpline
210
0.0
220
0.0
230
1.0
 70
    12
 71
     2
 72
     6
 73
     3
 74
     0
 42
0.0000000001
 43
0.0000000001
 40
0.0
 40
0.0
 40
0.0
 40
66.90820575550791
 40
66.90820575550791
 40
66.90820575550791
 10
880.9891141522871
 20
510.938706605301
 30
0.0
 41
1.0
 10
836.2634574450881
 20
510.9387066054252
 30
0.0
 41
0.707106781186501
 10
836.263457291366
 20
488.7561575571181
 30
0.0
 41
1.0
  0
SPLINE
  5
69
330
1F
100
AcDbEntity
  8
Linee visibili 2D
100
AcDbSpline
210
0.0
220
0.0
230
1.0
 70
    12
 71
     2
 72
     6
 73
     3
 74
     0
 42
0.0000000001
 43
0.0000000001
 40
0.0
 40
0.0
 40
0.0
 40
1.231068591301461
 40
1.231068591301461
 40
1.231068591301461
 10
924.044032977758
 20
482.7498419878842
 30
0.0
 41
1.0
 10
923.739874587852
 20
482.2143419213248
 30
0.0
 41
0.9992284144971518
 10
923.3946228162895
 20
481.7043675477839
 30
0.0
 41
1.0
  0
SPLINE
  5
6A
330
1F
100
AcDbEntity
  8
Linee visibili 2D
100
AcDbSpline
210
0.0
220
0.0
230
1.0
 70
    12
 71
     2
 72
     6
 73
     3
 74
     0
 42
0.0000000001
 43
0.0000000001
 40
0.0
 40
0.0
 40
0.0
 40
66.90820575550792
 40
66.90820575550792
 40
66.90820575550792
 10
880.9891141522871
 20
510.938706605301
 30
0.0
 41
1.0
 10
925.714770859486
 20
510.9387066054252
 30
0.0
 41
0.707106781186501
 10
925.7147711669095
 20
488.7561575571181
 30
0.0
 41
1.0
  0
SPLINE
  5
6B
330
1F
100
AcDbEntity
  8
Linee visibili 2D
100
AcDbSpline
210
0.0
220
0.0
230
1.0
 70
    24
 71
     2
 72
     6
 73
     3
 74
     0
 42
0.0000000001
 43
0.0000000001
 40
0.0
 40
0.0
 40
0.0
 40
33.50084908418148
 40
33.50084908418148
 40
33.50084908418148
 10
925.7147714743144
 20
366.6014718577439
 30
0.0
 10
925.7151413497273
 20
349.8510473197369
 30
0.0
 10
925.7155112251403
 20
333.1006227817299
 30
0.0
  0
SPLINE
  5
6C
330
1F
100
AcDbEntity
  8
Linee visibili 2D
100
AcDbSpline
210
0.0
220
0.0
230
1.0
 70
    24
 71
     2
 72
     6
 73
     3
 74
     0
 42
0.0000000001
 43
0.0000000001
 40
0.0
 40
0.0
 40
0.0
 40
33.50084908418148
 40
33.50084908418148
 40
33.50084908418148
 10
836.2627173868366
 20
333.1006227817299
 30
0.0
 10
836.2630872622494
 20
349.8510473197369
 30
0.0
 10
836.2634571376623
 20
366.6014718577439
 30
0.0
  0
SPLINE
  5
6D
330
1F
100
AcDbEntity
  8
Linee visibili 2D
100
AcDbSpline
210
0.0
220
0.0
230
1.0
 70
    12
 71
     2
 72
     8
 73
     5
 74
     0
 42
0.0000000001
 43
0.0000000001
 40
0.0
 40
0.0
 40
0.0
 40
26.53800603375826
 40
26.53800603375826
 40
53.07601206751653
 40
53.07601206751653
 40
53.07601206751653
 10
882.7155678314432
 20
233.6886699954103
 30
0.0
 41
1.0
 10
898.9842462090527
 20
235.2574248168083
 30
0.0
 41
0.7402624724047653
 10
898.9841533286411
 20
251.6015640671676
 30
0.0
 41
1.0
 10
898.9840604482297
 20
267.9457033175269
 30
0.0
 41
0.7402624724047653
 10
882.7153642418432
 20
269.514273235658
 30
0.0
 41
1.0
  0
SPLINE
  5
6E
330
1F
100
AcDbEntity
  8
Linee visibili 2D
100
AcDbSpline
210
0.0
220
0.0
230
1.0
 70
    12
 71
     2
 72
     8
 73
     5
 74
     0
 42
0.0000000001
 43
0.0000000001
 40
0.0
 40
0.0
 40
0.0
 40
26.80252461171096
 40
26.80252461171096
 40
53.60504922342193
 40
53.60504922342193
 40
53.60504922342193
 10
882.7151909830231
 20
269.5142899398317
 30
0.0
 41
1.0
 10
866.2046206470674
 20
271.106019871517
 30
0.0
 41
0.7353013764419913
 10
863.2752570424528
 20
254.7796189862659
 30
0.0
 41
1.0
 10
860.3458934378383
 20
238.4532181010148
 30
0.0
 41
0.7353013764419913
 10
876.3799369994003
 20
234.2056324267882
 30
0.0
 41
1.0
  0
SPLINE
  5
6F
330
1F
100
AcDbEntity
  8
Linee visibili 2D
100
AcDbSpline
210
0.0
220
0.0
230
1.0
 70
    12
 71
     2
 72
     6
 73
     3
 74
     0
 42
0.0000000001
 43
0.0000000001
 40
0.0
 40
0.0
 40
0.0
 40
6.391568495246528
 40
6.391568495246528
 40
6.391568495246528
 10
876.3799369994003
 20
234.2056324267882
 30
0.0
 41
1.0
 10
879.5001787809094
 20
233.3653912564703
 30
0.0
 41
0.9835512931809863
 10
882.7153642418432
 20
233.6886503648836
 30
0.0
 41
1.0
  0
SPLINE
  5
70
330
1F
100
AcDbEntity
  8
Linee visibili 2D
100
AcDbSpline
210
0.0
220
0.0
230
1.0
 70
    12
 71
     2
 72
     8
 73
     5
 74
     0
 42
0.0000000001
 43
0.0000000001
 40
0.0
 40
0.0
 40
0.0
 40
27.52716693785534
 40
27.52716693785534
 40
55.05433387571068
 40
55.05433387571068
 40
55.05433387571068
 10
880.9891143059883
 20
234.0771230503689
 30
0.0
 41
1.0
 10
898.5134530558903
 20
234.077123050369
 30
0.0
 41
0.7071067811865469
 10
898.5134530558903
 20
251.6014618002708
 30
0.0
 41
1.0
 10
898.5134530558903
 20
269.1258005501727
 30
0.0
 41
0.7071067811865469
 10
880.9891143059883
 20
269.1258005501727
 30
0.0
 41
1.0
  0
SPLINE
  5
71
330
1F
100
AcDbEntity
  8
Linee visibili 2D
100
AcDbSpline
210
0.0
220
0.0
230
1.0
 70
    12
 71
     2
 72
     8
 73
     5
 74
     0
 42
0.0000000001
 43
0.0000000001
 40
0.0
 40
0.0
 40
0.0
 40
27.52716693785533
 40
27.52716693785533
 40
55.05433387571065
 40
55.05433387571065
 40
55.05433387571065
 10
880.9891143059883
 20
234.0771230503689
 30
0.0
 41
1.0
 10
863.4647755560866
 20
234.077123050369
 30
0.0
 41
0.70710678118655
 10
863.4647755560865
 20
251.6014618002708
 30
0.0
 41
1.0
 10
863.4647755560865
 20
269.1258005501726
 30
0.0
 41
0.7071067811865508
 10
880.9891143059883
 20
269.1258005501727
 30
0.0
 41
1.0
  0
SPLINE
  5
72
330
1F
100
AcDbEntity
  8
Linee visibili 2D
100
AcDbSpline
210
0.0
220
0.0
230
1.0
 70
    24
 71
     2
 72
     6
 73
     3
 74
     0
 42
0.0000000001
 43
0.0000000001
 40
0.0
 40
0.0
 40
0.0
 40
65.56533720476676
 40
65.56533720476676
 40
65.56533720476676
 10
836.2829670199278
 20
332.9751829593704
 30
0.0
 10
803.5002984175444
 20
332.9751829593704
 30
0.0
 10
770.7176298151611
 20
332.9751829593704
 30
0.0
  0
SPLINE
  5
73
330
1F
100
AcDbEntity
  8
Linee visibili 2D
100
AcDbSpline
210
0.0
220
0.0
230
1.0
 70
    24
 71
     2
 72
     6
 73
     3
 74
     0
 42
0.0000000001
 43
0.0000000001
 40
0.0
 40
0.0
 40
0.0
 40
127.4401146223586
 40
127.4401146223586
 40
127.4401146223586
 10
770.7176298151611
 20
205.5350683370118
 30
0.0
 10
770.7176298151611
 20
269.2551256481911
 30
0.0
 10
770.7176298151611
 20
332.9751829593704
 30
0.0
  0
SPLINE
  5
74
330
1F
100
AcDbEntity
  8
Linee visibili 2D
100
AcDbSpline
210
0.0
220
0.0
230
1.0
 70
    24
 71
     2
 72
     6
 73
     3
 74
     0
 42
0.0000000001
 43
0.0000000001
 40
0.0
 40
0.0
 40
0.0
 40
127.4401146223586
 40
127.4401146223586
 40
127.4401146223586
 10
994.7130991296301
 20
205.5350683370118
 30
0.0
 10
994.7130991296301
 20
269.2551256481911
 30
0.0
 10
994.7130991296301
 20
332.9751829593704
 30
0.0
  0
SPLINE
  5
75
330
1F
100
AcDbEntity
  8
Linee visibili 2D
100
AcDbSpline
210
0.0
220
0.0
230
1.0
 70
    24
 71
     2
 72
     6
 73
     3
 74
     0
 42
0.0000000001
 43
0.0000000001
 40
0.0
 40
0.0
 40
0.0
 40
69.01783754432108
 40
69.01783754432108
 40
69.01783754432108
 10
994.7130991296301
 20
332.9751829593704
 30
0.0
 10
960.2041803574696
 20
332.9751829593704
 30
0.0
 10
925.695261585309
 20
332.9751829593704
 30
0.0
  0
SPLINE
  5
76
330
1F
100
AcDbEntity
  8
Linee visibili 2D
100
AcDbSpline
210
0.0
220
0.0
230
1.0
 70
    24
 71
     2
 72
     6
 73
     3
 74
     0
 42
0.0000000001
 43
0.0000000001
 40
0.0
 40
0.0
 40
0.0
 40
111.997734887787
 40
111.997734887787
 40
111.997734887787
 10
994.7130991296301
 20
205.5350683370118
 30
0.0
 10
938.7142316857366
 20
205.5350683370118
 30
0.0
 10
882.7153642418432
 20
205.5350683370118
 30
0.0
  0
SPLINE
  5
77
330
1F
100
AcDbEntity
  8
Linee visibili 2D
100
AcDbSpline
210
0.0
220
0.0
230
1.0
 70
    24
 71
     2
 72
     6
 73
     3
 74
     0
 42
0.0000000001
 43
0.0000000001
 40
0.0
 40
0.0
 40
0.0
 40
111.997734426682
 40
111.997734426682
 40
111.997734426682
 10
882.7153642418432
 20
205.5350683370118
 30
0.0
 10
826.7164970285021
 20
205.5350683370118
 30
0.0
 10
770.7176298151611
 20
205.5350683370118
 30
0.0
  0
SPLINE
  5
78
330
1F
100
AcDbEntity
  8
Linee visibili 2D
100
AcDbSpline
210
0.0
220
0.0
230
1.0
 70
    24
 71
     2
 72
     6
 73
     3
 74
     0
 42
0.0000000001
 43
0.0000000001
 40
0.0
 40
0.0
 40
0.0
 40
1.726250089556117
 40
1.726250089556117
 40
1.726250089556117
 10
880.989114152287
 20
225.5058509982644
 30
0.0
 10
881.852239197065
 20
225.5058509982644
 30
0.0
 10
882.7153642418432
 20
225.5058509982644
 30
0.0
  0
SPLINE
  5
79
330
1F
100
AcDbEntity
  8
Linee visibili 2D
100
AcDbSpline
210
0.0
220
0.0
230
1.0
 70
    12
 71
     3
 72
    23
 73
    19
 74
     0
 42
0.0000000001
 43
0.0000000001
 40
-20.39572596093553
 40
-20.39572596093553
 40
-20.39572596093553
 40
-20.39572596093553
 40
0.0
 40
0.0
 40
0.0
 40
6.703408224770204
 40
6.703408224770204
 40
6.703408224770204
 40
49.94484234950755
 40
49.94484234950755
 40
49.94484234950755
 40
54.54198724389473
 40
54.54198724389473
 40
54.54198724389473
 40
58.32683640879741
 40
58.32683640879741
 40
58.32683640879741
 40
86.2446760402334
 40
86.2446760402334
 40
86.2446760402334
 40
86.2446760402334
 10
882.7153642418432
 20
225.5058509982644
 30
0.0
 41
1.0
 10
889.513939562155
 20
225.5058509982644
 30
0.0
 41
1.0
 10
896.3360386766252
 20
225.5058509982644
 30
0.0
 41
1.0
 10
903.1179805148254
 20
225.5058509982643
 30
0.0
 41
1.0
 10
905.5560347432885
 20
225.5038209279224
 30
0.0
 41
0.8436726361247174
 10
907.4236932844701
 20
227.070972520993
 30
0.0
 41
0.8436726361247175
 10
907.845057729284
 20
229.472339745463
 30
0.0
 41
1.0
 10
910.3477078755816
 20
243.6655740210243
 30
0.0
 41
1.0
 10
912.849968889308
 20
257.8566014161091
 30
0.0
 41
1.0
 10
915.3524226679405
 20
272.0487220353008
 30
0.0
 41
1.0
 10
915.636839360469
 20
273.6183737075233
 30
0.0
 41
0.9236582571217371
 10
915.1593270466635
 20
275.1404384949961
 30
0.0
 41
0.923658257121737
 10
914.0292480933697
 20
276.2663251617711
 30
0.0
 41
1.0
 10
913.1175093386039
 20
277.1870624217725
 30
0.0
 41
0.948378042565646
 10
911.921114902661
 20
277.6847219565365
 30
0.0
 41
0.9483780425656461
 10
910.6253454534818
 20
277.682233288102
 30
0.0
 41
1.0
 10
901.3546087111017
 20
277.682233288102
 30
0.0
 41
0.9991257608840256
 10
892.0431554830935
 20
277.6822332881021
 30
0.0
 41
0.9991249950268664
 10
882.7153642418432
 20
277.682233288102
 30
0.0
 41
1.0
  0
SPLINE
  5
7A
330
1F
100
AcDbEntity
  8
Linee visibili 2D
100
AcDbSpline
210
0.0
220
0.0
230
1.0
 70
    12
 71
     3
 72
    26
 73
    22
 74
     0
 42
0.0000000001
 43
0.0000000001
 40
-1.726245717009777
 40
-1.726245717009777
 40
-1.726245717009777
 40
-1.726245717009777
 40
0.0
 40
0.0
 40
0.0
 40
29.65453090689557
 40
29.65453090689557
 40
29.65453090689557
 40
33.41060547990714
 40
33.41060547990714
 40
33.41060547990714
 40
38.03690338258505
 40
38.03690338258505
 40
38.03690338258505
 40
81.2764348642523
 40
81.2764348642523
 40
81.2764348642523
 40
87.98227169613033
 40
87.98227169613033
 40
87.98227169613033
 40
110.1506592078077
 40
110.1506592078077
 40
110.1506592078077
 40
110.1506592078077
 10
882.7153642418432
 20
277.6822332881021
 30
0.0
 41
1.0
 10
882.1399490028399
 20
277.6822332881021
 30
0.0
 41
1.0
 10
881.5645193324176
 20
277.6822332881021
 30
0.0
 41
1.0
 10
880.989114152287
 20
277.6822332881021
 30
0.0
 41
1.0
 10
871.0770526527452
 20
277.682233288102
 30
0.0
 41
1.000114935116228
 10
861.1885770969195
 20
277.6822332881021
 30
0.0
 41
1.001219933338403
 10
851.352883158495
 20
277.6822332881021
 30
0.0
 41
1.003314994666527
 10
850.0675202230286
 20
277.6844916812913
 30
0.0
 41
0.952331980133243
 10
848.8792652220967
 20
277.1943763591773
 30
0.0
 41
0.9523319801332435
 10
847.9692601369429
 20
276.2866023117379
 30
0.0
 41
1.003314994666527
 10
846.8239306484716
 20
275.1603455566556
 30
0.0
 41
0.9256129177680219
 10
846.3385197708011
 20
273.6291335545572
 30
0.0
 41
0.9256129177680218
 10
846.6258059440364
 20
272.0487220353008
 30
0.0
 41
1.003314994666527
 10
849.1280412132703
 20
257.8578406444878
 30
0.0
 41
1.003314994666527
 10
851.6307145400488
 20
243.6644749058877
 30
0.0
 41
1.003314994666527
 10
854.1331708826929
 20
229.472339745463
 30
0.0
 41
1.003314994666527
 10
854.5512483780966
 20
227.0685055939297
 30
0.0
 41
0.8458225720174474
 10
856.4203351925654
 20
225.500155537271
 30
0.0
 41
0.8458225720174464
 10
858.8602480971514
 20
225.5058509982644
 30
0.0
 41
1.003314994666527
 10
866.2249775202603
 20
225.5058509982644
 30
0.0
 41
1.002208777218778
 10
873.5997808240886
 20
225.5058509982644
 30
0.0
 41
1.001103779444857
 10
880.989114152287
 20
225.5058509982645
 30
0.0
 41
1.0
  0
SPLINE
  5
7B
330
1F
100
AcDbEntity
  8
Linee visibili 2D
100
AcDbSpline
210
0.0
220
0.0
230
1.0
 70
    12
 71
     2
 72
     6
 73
     3
 74
     0
 42
0.0000000001
 43
0.0000000001
 40
0.0
 40
0.0
 40
0.0
 40
1.187070018513815
 40
1.187070018513815
 40
1.187070018513815
 10
899.1383991754667
 20
289.9803446448479
 30
0.0
 41
1.0
 10
898.5784250482341
 20
289.7835008030445
 30
0.0
 41
0.9999261021721025
 10
898.0138307706154
 20
289.6003292361833
 30
0.0
 41
1.0
  0
SPLINE
  5
7C
330
1F
100
AcDbEntity
  8
Linee visibili 2D
100
AcDbSpline
210
0.0
220
0.0
230
1.0
 70
    12
 71
     2
 72
     6
 73
     3
 74
     0
 42
0.0000000001
 43
0.0000000001
 40
0.0
 40
0.0
 40
0.0
 40
7.258424639234288
 40
7.258424639234288
 40
7.258424639234288
 10
905.7613060843114
 20
292.9300482667387
 30
0.0
 41
1.0
 10
902.5726544562483
 20
291.179472122617
 30
0.0
 41
0.9965514871468307
 10
899.1383991754667
 20
289.9803446448479
 30
0.0
 41
1.0
  0
SPLINE
  5
7D
330
1F
100
AcDbEntity
  8
Linee visibili 2D
100
AcDbSpline
210
0.0
220
0.0
230
1.0
 70
    12
 71
     2
 72
     6
 73
     3
 74
     0
 42
0.0000000001
 43
0.0000000001
 40
0.0
 40
0.0
 40
0.0
 40
26.3755544219669
 40
26.3755544219669
 40
26.3755544219669
 10
922.3554725665977
 20
312.6519643893606
 30
0.0
 41
1.0
 10
917.8952620048248
 20
299.5626332015777
 30
0.0
 41
0.9319390295822577
 10
905.7613060843114
 20
292.9300482667387
 30
0.0
 41
1.0
  0
SPLINE
  5
7E
330
1F
100
AcDbEntity
  8
Linee visibili 2D
100
AcDbSpline
210
0.0
220
0.0
230
1.0
 70
    12
 71
     3
 72
    10
 73
     6
 74
     0
 42
0.0000000001
 43
0.0000000001
 40
-1.0
 40
-1.0
 40
-1.0
 40
-1.0
 40
-0.4996335842115049
 40
-0.4996335842115049
 40
0.0
 40
0.0
 40
0.0
 40
0.0
 10
925.5470865180721
 20
330.7093688818269
 30
0.0
 41
1.0
 10
925.3373460300102
 20
326.9059120287365
 30
0.0
 41
1.0
 10
925.0218605415454
 20
324.1061842358739
 30
0.0
 41
1.0
 10
924.1292628612788
 20
318.6940261095157
 30
0.0
 41
1.0
 10
923.5676546633196
 20
316.0813274628858
 30
0.0
 41
1.0
 10
922.3554725665977
 20
312.6519643893606
 30
0.0
 41
1.0
  0
SPLINE
  5
7F
330
1F
100
AcDbEntity
  8
Linee visibili 2D
100
AcDbSpline
210
0.0
220
0.0
230
1.0
 70
    12
 71
     2
 72
     6
 73
     3
 74
     0
 42
0.0000000001
 43
0.0000000001
 40
0.0
 40
0.0
 40
0.0
 40
1.88151578777409
 40
1.88151578777409
 40
1.88151578777409
 10
925.6276019899109
 20
332.5891391204822
 30
0.0
 41
1.0
 10
925.5952160122192
 20
331.648916833178
 30
0.0
 41
0.9999649295689677
 10
925.5470865180721
 20
330.7093688818269
 30
0.0
 41
1.0
  0
SPLINE
  5
80
330
1F
100
AcDbEntity
  8
Linee visibili 2D
100
AcDbSpline
210
0.0
220
0.0
230
1.0
 70
    12
 71
     2
 72
     6
 73
     3
 74
     0
 42
0.0000000001
 43
0.0000000001
 40
0.0
 40
0.0
 40
0.0
 40
0.3430121201918376
 40
0.3430121201918376
 40
0.3430121201918376
 10
925.6751634432452
 20
332.9267032964752
 30
0.0
 41
1.0
 10
925.6184906766182
 20
332.7625555664317
 30
0.0
 41
0.9815354370639989
 10
925.6276019899109
 20
332.5891391204822
 30
0.0
 41
1.0
  0
SPLINE
  5
81
330
1F
100
AcDbEntity
  8
Linee visibili 2D
100
AcDbSpline
210
0.0
220
0.0
230
1.0
 70
    12
 71
     2
 72
     6
 73
     3
 74
     0
 42
0.0000000001
 43
0.0000000001
 40
0.0
 40
0.0
 40
0.0
 40
0.1717865873093922
 40
0.1717865873093922
 40
0.1717865873093922
 10
925.7153563364777
 20
333.1006227783096
 30
0.0
 41
1.0
 10
925.7171461462846
 20
333.0131084646615
 30
0.0
 41
0.9721431374461521
 10
925.6788575121391
 20
332.9343941774723
 30
0.0
 41
1.0
  0
SPLINE
  5
82
330
1F
100
AcDbEntity
  8
Linee visibili 2D
100
AcDbSpline
210
0.0
220
0.0
230
1.0
 70
    12
 71
     2
 72
     6
 73
     3
 74
     0
 42
0.0000000001
 43
0.0000000001
 40
0.0
 40
0.0
 40
0.0
 40
17.29543801640606
 40
17.29543801640606
 40
17.29543801640606
 10
898.0138307706154
 20
289.6003292361833
 30
0.0
 41
1.0
 10
889.7106256934943
 20
286.9308203685398
 30
0.0
 41
0.9873108421709592
 10
880.9891140754364
 20
286.9995753191919
 30
0.0
 41
1.0
  0
SPLINE
  5
83
330
1F
100
AcDbEntity
  8
Linee visibili 2D
100
AcDbSpline
210
0.0
220
0.0
230
1.0
 70
    12
 71
     2
 72
     6
 73
     3
 74
     0
 42
0.0000000001
 43
0.0000000001
 40
0.0
 40
0.0
 40
0.0
 40
17.29543757637391
 40
17.29543757637391
 40
17.29543757637391
 10
863.9643978413612
 20
289.6003292361833
 30
0.0
 41
1.0
 10
872.2676026622606
 20
286.9308202375854
 30
0.0
 41
0.9873108391152567
 10
880.9891140754364
 20
286.9995753191919
 30
0.0
 41
1.0
  0
SPLINE
  5
84
330
1F
100
AcDbEntity
  8
Linee visibili 2D
100
AcDbSpline
210
0.0
220
0.0
230
1.0
 70
    12
 71
     2
 72
     6
 73
     3
 74
     0
 42
0.0000000001
 43
0.0000000001
 40
0.0
 40
0.0
 40
0.0
 40
1.187070018513744
 40
1.187070018513744
 40
1.187070018513744
 10
862.8398294365101
 20
289.9803446448479
 30
0.0
 41
1.0
 10
863.3998035637413
 20
289.7835008030403
 30
0.0
 41
0.9999261021720127
 10
863.9643978413612
 20
289.6003292361833
 30
0.0
 41
1.0
  0
SPLINE
  5
85
330
1F
100
AcDbEntity
  8
Linee visibili 2D
100
AcDbSpline
210
0.0
220
0.0
230
1.0
 70
    12
 71
     2
 72
     6
 73
     3
 74
     0
 42
0.0000000001
 43
0.0000000001
 40
0.0
 40
0.0
 40
0.0
 40
7.258424639471047
 40
7.258424639471047
 40
7.258424639471047
 10
856.2169225276654
 20
292.9300482667387
 30
0.0
 41
1.0
 10
859.4055741539802
 20
291.1794721186918
 30
0.0
 41
0.9965514870491501
 10
862.8398294365101
 20
289.9803446448479
 30
0.0
 41
1.0
  0
SPLINE
  5
86
330
1F
100
AcDbEntity
  8
Linee visibili 2D
100
AcDbSpline
210
0.0
220
0.0
230
1.0
 70
    12
 71
     2
 72
     6
 73
     3
 74
     0
 42
0.0000000001
 43
0.0000000001
 40
0.0
 40
0.0
 40
0.0
 40
26.37555416849027
 40
26.37555416849027
 40
26.37555416849027
 10
839.622756045379
 20
312.6519643893606
 30
0.0
 41
1.0
 10
844.0829674811735
 20
299.5626339369859
 30
0.0
 41
0.9319390574963663
 10
856.2169225276654
 20
292.9300482667387
 30
0.0
 41
1.0
  0
SPLINE
  5
87
330
1F
100
AcDbEntity
  8
Linee visibili 2D
100
AcDbSpline
210
0.0
220
0.0
230
1.0
 70
    12
 71
     3
 72
    10
 73
     6
 74
     0
 42
0.0000000001
 43
0.0000000001
 40
-1.0
 40
-1.0
 40
-1.0
 40
-1.0
 40
-0.4996335842115049
 40
-0.4996335842115049
 40
0.0
 40
0.0
 40
0.0
 40
0.0
 10
836.4311420939047
 20
330.7093688818269
 30
0.0
 41
1.0
 10
836.640882582014
 20
326.9059120278752
 30
0.0
 41
1.0
 10
836.9563680704862
 20
324.1061842354026
 30
0.0
 41
1.0
 10
837.8489657506021
 20
318.6940261098636
 30
0.0
 41
1.0
 10
838.4105739483828
 20
316.0813274636628
 30
0.0
 41
1.0
 10
839.622756045379
 20
312.6519643893606
 30
0.0
 41
1.0
  0
SPLINE
  5
88
330
1F
100
AcDbEntity
  8
Linee visibili 2D
100
AcDbSpline
210
0.0
220
0.0
230
1.0
 70
    12
 71
     2
 72
     6
 73
     3
 74
     0
 42
0.0000000001
 43
0.0000000001
 40
0.0
 40
0.0
 40
0.0
 40
1.881515787774089
 40
1.881515787774089
 40
1.881515787774089
 10
836.3506266220659
 20
332.5891391204822
 30
0.0
 41
1.0
 10
836.3830125997576
 20
331.648916833178
 30
0.0
 41
0.9999649295689677
 10
836.4311420939047
 20
330.7093688818269
 30
0.0
 41
1.0
  0
SPLINE
  5
89
330
1F
100
AcDbEntity
  8
Linee visibili 2D
100
AcDbSpline
210
0.0
220
0.0
230
1.0
 70
    12
 71
     2
 72
     6
 73
     3
 74
     0
 42
0.0000000001
 43
0.0000000001
 40
0.0
 40
0.0
 40
0.0
 40
0.3430121201918379
 40
0.3430121201918379
 40
0.3430121201918379
 10
836.3030651687316
 20
332.9267032964752
 30
0.0
 41
1.0
 10
836.3597379353587
 20
332.7625555664316
 30
0.0
 41
0.9815354370639199
 10
836.3506266220659
 20
332.5891391204822
 30
0.0
 41
1.0
  0
SPLINE
  5
8A
330
1F
100
AcDbEntity
  8
Linee visibili 2D
100
AcDbSpline
210
0.0
220
0.0
230
1.0
 70
    12
 71
     2
 72
     6
 73
     3
 74
     0
 42
0.0000000001
 43
0.0000000001
 40
0.0
 40
0.0
 40
0.0
 40
0.1717865873093976
 40
0.1717865873093976
 40
0.1717865873093976
 10
836.262872275499
 20
333.1006227783096
 30
0.0
 41
1.0
 10
836.2610824656916
 20
333.0131084646615
 30
0.0
 41
0.972143137445347
 10
836.2993710998376
 20
332.9343941774723
 30
0.0
 41
1.0
  0
SPLINE
  5
8B
330
1F
100
AcDbEntity
  8
Linee visibili 2D
100
AcDbSpline
210
0.0
220
0.0
230
1.0
 70
     8
 71
     3
 72
    11
 73
     7
 74
     0
 42
0.0000000001
 43
0.0000000001
 40
0.0
 40
0.0
 40
0.0
 40
0.0
 40
0.9967702090191488
 40
1.988593798399975
 40
3.98300914722479
 40
7.87466755922028
 40
7.87466755922028
 40
7.87466755922028
 40
7.87466755922028
 10
845.0780445534713
 20
353.4141146013346
 30
0.0
 10
845.3977169410632
 20
353.467646000799
 30
0.0
 10
846.0297951376035
 20
353.7825734182931
 30
0.0
 10
846.894046256203
 20
354.7718718683724
 30
0.0
 10
847.1506476416071
 20
357.3192800111872
 30
0.0
 10
844.7670872109054
 20
358.5172490304988
 30
0.0
 10
843.6274592421464
 20
357.6489685992174
 30
0.0
  0
SPLINE
  5
8C
330
1F
100
AcDbEntity
  8
Linee visibili 2D
100
AcDbSpline
210
0.0
220
0.0
230
1.0
 70
     8
 71
     3
 72
    12
 73
     8
 74
     0
 42
0.0000000001
 43
0.0000000001
 40
0.0
 40
0.0
 40
0.0
 40
0.0
 40
0.810273675903676
 40
1.535316750097485
 40
3.141577116735605
 40
4.708077301678379
 40
6.195214378810048
 40
6.195214378810048
 40
6.195214378810048
 40
6.195214378810048
 10
843.6274592421463
 20
357.6489685992174
 30
0.0
 10
843.3999590874558
 20
357.5026578047022
 30
0.0
 10
843.0012511300356
 20
357.1737857942113
 30
0.0
 10
842.5040040386186
 20
356.2184521907026
 30
0.0
 10
842.5704171223513
 20
354.8691272185877
 30
0.0
 10
843.5046625681179
 20
353.5241195793787
 30
0.0
 10
844.5965075764674
 20
353.3140032919606
 30
0.0
 10
845.0780445534713
 20
353.4141146013346
 30
0.0
  0
SPLINE
  5
8D
330
1F
100
AcDbEntity
  8
Linee visibili 2D
100
AcDbSpline
210
0.0
220
0.0
230
1.0
 70
     8
 71
     3
 72
    12
 73
     8
 74
     0
 42
0.0000000001
 43
0.0000000001
 40
0.0
 40
0.0
 40
0.0
 40
0.0
 40
0.9283064978212857
 40
1.768252759976975
 40
3.542222587352272
 40
5.402377019918845
 40
7.096273767633726
 40
7.096273767633726
 40
7.096273767633726
 40
7.096273767633726
 10
916.899280224492
 20
353.4142720398218
 30
0.0
 10
916.59444269709
 20
353.4712448194398
 30
0.0
 10
916.029924978809
 20
353.6704363824275
 30
0.0
 10
915.17970304343
 20
354.5489530896572
 30
0.0
 10
914.8961515653366
 20
356.0960282771664
 30
0.0
 10
915.8136822125291
 20
357.7749434349491
 30
0.0
 10
917.0724950200336
 20
358.0909193198047
 30
0.0
 10
917.6255048041337
 20
357.939910914464
 30
0.0
  0
SPLINE
  5
8E
330
1F
100
AcDbEntity
  8
Linee visibili 2D
100
AcDbSpline
210
0.0
220
0.0
230
1.0
 70
    12
 71
     2
 72
     8
 73
     5
 74
     0
 42
0.0000000001
 43
0.0000000001
 40
0.0
 40
0.0
 40
0.0
 40
3.444557174920603
 40
3.444557174920603
 40
6.889114349841205
 40
6.889114349841205
 40
6.889114349841205
 10
917.6255048041337
 20
357.939910914464
 30
0.0
 41
1.0
 10
919.7075052837306
 20
357.4507743040274
 30
0.0
 41
0.7319759033886136
 10
919.3686475641318
 20
355.3391029123143
 30
0.0
 41
1.0
 10
919.0297898445333
 20
353.2274315206013
 30
0.0
 41
0.7319759033886136
 10
916.899280224492
 20
353.4142720398219
 30
0.0
 41
1.0
  0
SPLINE
  5
8F
330
1F
100
AcDbEntity
  8
Linee visibili 2D
100
AcDbSpline
210
0.0
220
0.0
230
1.0
 70
    24
 71
     2
 72
     6
 73
     3
 74
     0
 42
0.0000000001
 43
0.0000000001
 40
0.0
 40
0.0
 40
0.0
 40
44.72565686092116
 40
44.72565686092116
 40
44.72565686092116
 10
880.9891141522871
 20
366.601471857736
 30
0.0
 10
858.6262857218265
 20
366.601471857732
 30
0.0
 10
836.263457291366
 20
366.601471857728
 30
0.0
  0
SPLINE
  5
90
330
1F
100
AcDbEntity
  8
Linee visibili 2D
100
AcDbSpline
210
0.0
220
0.0
230
1.0
 70
    24
 71
     2
 72
     6
 73
     3
 74
     0
 42
0.0000000001
 43
0.0000000001
 40
0.0
 40
0.0
 40
0.0
 40
44.72565701462241
 40
44.72565701462241
 40
44.72565701462241
 10
880.9891141522871
 20
366.601471857736
 30
0.0
 10
903.3519426595983
 20
366.601471857732
 30
0.0
 10
925.7147711669095
 20
366.601471857728
 30
0.0
  0
ENDSEC
  0
SECTION
  2
OBJECTS
  0
DICTIONARY
  5
C
330
0
100
AcDbDictionary
281
     1
  3
ACAD_GROUP
350
D
  3
ACAD_LAYOUT
350
1A
  3
ACAD_MLEADERSTYLE
350
92
  3
ACAD_MLINESTYLE
350
17
  3
ACAD_PLOTSETTINGS
350
19
  3
ACAD_PLOTSTYLENAME
350
E
  3
ACAD_TABLESTYLE
350
91
  3
ACAD_VISUALSTYLE
350
2A
  0
DICTIONARY
  5
D
102
{ACAD_REACTORS
330
C
102
}
330
C
100
AcDbDictionary
281
     1
  0
DICTIONARY
  5
1A
102
{ACAD_REACTORS
330
C
102
}
330
C
100
AcDbDictionary
281
     1
  3
Layout1
350
1E
  3
Layout2
350
26
  3
Model
350
22
  0
DICTIONARY
  5
92
102
{ACAD_REACTORS
330
C
102
}
330
C
100
AcDbDictionary
281
     1
  0
DICTIONARY
  5
17
102
{ACAD_REACTORS
330
C
102
}
330
C
100
AcDbDictionary
281
     1
  3
Standard
350
18
  0
DICTIONARY
  5
19
102
{ACAD_REACTORS
330
C
102
}
330
C
100
AcDbDictionary
281
     1
  0
ACDBDICTIONARYWDFLT
  5
E
102
{ACAD_REACTORS
330
C
102
}
330
C
100
AcDbDictionary
281
     1
  3
Normal
350
F
100
AcDbDictionaryWithDefault
340
F
  0
DICTIONARY
  5
91
102
{ACAD_REACTORS
330
C
102
}
330
C
100
AcDbDictionary
281
     1
  0
DICTIONARY
  5
2A
102
{ACAD_REACTORS
330
C
102
}
330
C
100
AcDbDictionary
281
     1
  3
2dWireframe
350
2F
  3
3D Hidden
350
31
  3
3dWireframe
350
30
  3
Basic
350
32
  3
Brighten
350
36
  3
ColorChange
350
3A
  3
Conceptual
350
34
  3
Dim
350
35
  3
Facepattern
350
39
  3
Flat
350
2B
  3
FlatWithEdges
350
2C
  3
Gouraud
350
2D
  3
GouraudWithEdges
350
2E
  3
Linepattern
350
38
  3
Realistic
350
33
  3
Thicken
350
37
  0
LAYOUT
  5
1E
102
{ACAD_REACTORS
330
1A
102
}
330
1A
100
AcDbPlotSettings
  1

  2
none_device
  4

  6

 40
0.0
 41
0.0
 42
0.0
 43
0.0
 44
0.0
 45
0.0
 46
0.0
 47
0.0
 48
0.0
 49
0.0
140
0.0
141
0.0
142
1.0
143
1.0
 70
   688
 72
     0
 73
     0
 74
     5
  7

 75
    16
 76
     0
 77
     2
 78
   300
147
1.0
148
0.0
149
0.0
100
AcDbLayout
  1
Layout1
 70
     1
 71
     1
 10
0.0
 20
0.0
 11
12.0
 21
9.0
 12
0.0
 22
0.0
 32
0.0
 14
1.000000000000000E+20
 24
1.000000000000000E+20
 34
1.000000000000000E+20
 15
-1.000000000000000E+20
 25
-1.000000000000000E+20
 35
-1.000000000000000E+20
146
0.0
 13
0.0
 23
0.0
 33
0.0
 16
1.0
 26
0.0
 36
0.0
 17
0.0
 27
1.0
 37
0.0
 76
     0
330
1B
  0
LAYOUT
  5
26
102
{ACAD_REACTORS
330
1A
102
}
330
1A
100
AcDbPlotSettings
  1

  2
none_device
  4

  6

 40
0.0
 41
0.0
 42
0.0
 43
0.0
 44
0.0
 45
0.0
 46
0.0
 47
0.0
 48
0.0
 49
0.0
140
0.0
141
0.0
142
1.0
143
1.0
 70
   688
 72
     0
 73
     0
 74
     5
  7

 75
    16
 76
     0
 77
     2
 78
   300
147
1.0
148
0.0
149
0.0
100
AcDbLayout
  1
Layout2
 70
     1
 71
     2
 10
0.0
 20
0.0
 11
0.0
 21
0.0
 12
0.0
 22
0.0
 32
0.0
 14
0.0
 24
0.0
 34
0.0
 15
0.0
 25
0.0
 35
0.0
146
0.0
 13
0.0
 23
0.0
 33
0.0
 16
1.0
 26
0.0
 36
0.0
 17
0.0
 27
1.0
 37
0.0
 76
     0
330
23
  0
LAYOUT
  5
22
102
{ACAD_REACTORS
330
1A
102
}
330
1A
100
AcDbPlotSettings
  1

  2
none_device
  4

  6

 40
0.0
 41
0.0
 42
0.0
 43
0.0
 44
0.0
 45
0.0
 46
0.0
 47
0.0
 48
0.0
 49
0.0
140
0.0
141
0.0
142
1.0
143
1.0
 70
  1712
 72
     0
 73
     0
 74
     0
  7

 75
     0
 76
     0
 77
     2
 78
   300
147
1.0
148
0.0
149
0.0
100
AcDbLayout
  1
Model
 70
     1
 71
     0
 10
0.0
 20
0.0
 11
12.0
 21
9.0
 12
0.0
 22
0.0
 32
0.0
 14
770.7176298151611
 24
205.5350683370118
 34
0.0
 15
1314.8005796254
 25
510.938706605301
 35
0.0
146
0.0
 13
0.0
 23
0.0
 33
0.0
 16
1.0
 26
0.0
 36
0.0
 17
0.0
 27
1.0
 37
0.0
 76
     0
330
1F
331
29
  0
MLINESTYLE
  5
18
102
{ACAD_REACTORS
330
17
102
}
330
17
100
AcDbMlineStyle
  2
Standard
 70
     0
  3

 62
   256
 51
90.0
 52
90.0
 71
     2
 49
0.5
 62
   256
  6
BYLAYER
 49
-0.5
 62
   256
  6
BYLAYER
  0
ACDBPLACEHOLDER
  5
F
102
{ACAD_REACTORS
330
E
102
}
330
E
  0
VISUALSTYLE
  5
2F
102
{ACAD_REACTORS
330
2A
102
}
330
2A
100
AcDbVisualStyle
  2
2dWireframe
 70
     4
 71
     0
 72
     2
 73
     0
 90
        0
 40
-0.6
 41
-30.0
 62
     5
 63
     7
421
 16777215
 74
     1
 91
        4
 64
     7
 65
   257
 75
     1
175
     1
 42
1.0
 92
        0
 66
   257
 43
1.0
 76
     1
 77
     6
 78
     2
 67
     7
 79
     5
170
     0
171
     0
290
     0
174
     0
 93
        1
 44
0.0
173
     0
291
     0
 45
0.0
1001
ACAD
1000
AcDbSavedByObjectVersion
1070
     0
  0
VISUALSTYLE
  5
31
102
{ACAD_REACTORS
330
2A
102
}
330
2A
100
AcDbVisualStyle
  2
3D Hidden
 70
     6
 71
     1
 72
     2
 73
     2
 90
        0
 40
-0.6
 41
-30.0
 62
     5
 63
     7
421
 16777215
 74
     2
 91
        2
 64
     7
 65
   257
 75
     2
175
     1
 42
40.0
 92
        0
 66
   257
 43
1.0
 76
     1
 77
     6
 78
     2
 67
     7
 79
     3
170
     0
171
     0
290
     0
174
     0
 93
        1
 44
0.0
173
     0
291
     0
 45
0.0
1001
ACAD
1000
AcDbSavedByObjectVersion
1070
     0
  0
VISUALSTYLE
  5
30
102
{ACAD_REACTORS
330
2A
102
}
330
2A
100
AcDbVisualStyle
  2
3dWireframe
 70
     5
 71
     0
 72
     2
 73
     0
 90
        0
 40
-0.6
 41
-30.0
 62
     5
 63
     7
421
 16777215
 74
     1
 91
        4
 64
     7
 65
   257
 75
     1
175
     1
 42
1.0
 92
        0
 66
   257
 43
1.0
 76
     1
 77
     6
 78
     2
 67
     7
 79
     5
170
     0
171
     0
290
     0
174
     0
 93
        1
 44
0.0
173
     0
291
     0
 45
0.0
1001
ACAD
1000
AcDbSavedByObjectVersion
1070
     0
  0
VISUALSTYLE
  5
32
102
{ACAD_REACTORS
330
2A
102
}
330
2A
100
AcDbVisualStyle
  2
Basic
 70
     7
 71
     1
 72
     0
 73
     1
 90
        0
 40
-0.6
 41
-30.0
 62
     5
 63
     7
421
 16777215
 74
     0
 91
        4
 64
     7
 65
   257
 75
     1
175
     1
 42
1.0
 92
        8
 66
     7
 43
1.0
 76
     1
 77
     6
 78
     2
 67
     7
 79
     5
170
     0
171
     0
290
     0
174
     0
 93
        1
 44
0.0
173
     0
291
     1
 45
0.0
1001
ACAD
1000
AcDbSavedByObjectVersion
1070
     0
  0
VISUALSTYLE
  5
36
102
{ACAD_REACTORS
330
2A
102
}
330
2A
100
AcDbVisualStyle
  2
Brighten
 70
    12
 71
     2
 72
     2
 73
     0
 90
        0
 40
-0.6
 41
-30.0
 62
     5
 63
     7
421
 16777215
 74
     1
 91
        4
 64
     7
 65
   257
 75
     1
175
     1
 42
1.0
 92
        8
 66
     7
 43
1.0
 76
     1
 77
     6
 78
     2
 67
     7
 79
     5
170
     0
171
     0
290
     0
174
     0
 93
        1
 44
50.0
173
     0
291
     1
 45
0.0
1001
ACAD
1000
AcDbSavedByObjectVersion
1070
     0
  0
VISUALSTYLE
  5
3A
102
{ACAD_REACTORS
330
2A
102
}
330
2A
100
AcDbVisualStyle
  2
ColorChange
 70
    16
 71
     2
 72
     2
 73
     3
 90
        0
 40
-0.6
 41
-30.0
 62
     5
 63
     8
421
  8421504
 74
     1
 91
        4
 64
     7
 65
   257
 75
     1
175
     1
 42
1.0
 92
        8
 66
     8
424
  8421504
 43
1.0
 76
     1
 77
     6
 78
     2
 67
     7
 79
     5
170
     0
171
     0
290
     0
174
     0
 93
        1
 44
0.0
173
     0
291
     1
 45
0.0
1001
ACAD
1000
AcDbSavedByObjectVersion
1070
     0
  0
VISUALSTYLE
  5
34
102
{ACAD_REACTORS
330
2A
102
}
330
2A
100
AcDbVisualStyle
  2
Conceptual
 70
     9
 71
     3
 72
     2
 73
     0
 90
        0
 40
-0.6
 41
-30.0
 62
     5
 63
     7
421
 16777215
 74
     2
 91
        2
 64
     7
 65
   257
 75
     1
175
     1
 42
40.0
 92
        8
 66
     7
 43
1.0
 76
     1
 77
     6
 78
     2
 67
     7
 79
     3
170
     0
171
     0
290
     0
174
     0
 93
        1
 44
0.0
173
     0
291
     0
 45
0.0
1001
ACAD
1000
AcDbSavedByObjectVersion
1070
     0
  0
VISUALSTYLE
  5
35
102
{ACAD_REACTORS
330
2A
102
}
330
2A
100
AcDbVisualStyle
  2
Dim
 70
    11
 71
     2
 72
     2
 73
     0
 90
        0
 40
-0.6
 41
-30.0
 62
     5
 63
     7
421
 16777215
 74
     1
 91
        4
 64
     7
 65
   257
 75
     1
175
     1
 42
1.0
 92
        8
 66
     7
 43
1.0
 76
     1
 77
     6
 78
     2
 67
     7
 79
     5
170
     0
171
     0
290
     0
174
     0
 93
        1
 44
-50.0
173
     0
291
     1
 45
0.0
1001
ACAD
1000
AcDbSavedByObjectVersion
1070
     0
  0
VISUALSTYLE
  5
39
102
{ACAD_REACTORS
330
2A
102
}
330
2A
100
AcDbVisualStyle
  2
Facepattern
 70
    15
 71
     2
 72
     2
 73
     0
 90
        0
 40
-0.6
 41
-30.0
 62
     5
 63
     7
421
 16777215
 74
     1
 91
        4
 64
     7
 65
   257
 75
     1
175
     1
 42
1.0
 92
        8
 66
     7
 43
1.0
 76
     1
 77
     6
 78
     2
 67
     7
 79
     5
170
     0
171
     0
290
     0
174
     0
 93
        1
 44
0.0
173
     0
291
     1
 45
0.0
1001
ACAD
1000
AcDbSavedByObjectVersion
1070
     0
  0
VISUALSTYLE
  5
2B
102
{ACAD_REACTORS
330
2A
102
}
330
2A
100
AcDbVisualStyle
  2
Flat
 70
     0
 71
     2
 72
     1
 73
     1
 90
        2
 40
-0.6
 41
30.0
 62
     5
 63
     7
421
 16777215
 74
     0
 91
        4
 64
     7
 65
   257
 75
     1
175
     1
 42
1.0
 92
        8
 66
     7
 43
1.0
 76
     1
 77
     6
 78
     2
 67
     7
 79
     5
170
     0
171
     0
290
     0
174
     0
 93
       13
 44
0.0
173
     0
291
     1
 45
0.0
1001
ACAD
1000
AcDbSavedByObjectVersion
1070
     0
  0
VISUALSTYLE
  5
2C
102
{ACAD_REACTORS
330
2A
102
}
330
2A
100
AcDbVisualStyle
  2
FlatWithEdges
 70
     1
 71
     2
 72
     1
 73
     1
 90
        2
 40
-0.6
 41
30.0
 62
     5
 63
     7
421
 16777215
 74
     1
 91
        4
 64
     7
 65
   257
 75
     1
175
     1
 42
1.0
 92
        0
 66
   257
 43
1.0
 76
     1
 77
     6
 78
     2
 67
     7
 79
     5
170
     0
171
     0
290
     0
174
     0
 93
       13
 44
0.0
173
     0
291
     1
 45
0.0
1001
ACAD
1000
AcDbSavedByObjectVersion
1070
     0
  0
VISUALSTYLE
  5
2D
102
{ACAD_REACTORS
330
2A
102
}
330
2A
100
AcDbVisualStyle
  2
Gouraud
 70
     2
 71
     2
 72
     2
 73
     1
 90
        2
 40
-0.6
 41
30.0
 62
     5
 63
     7
421
 16777215
 74
     0
 91
        4
 64
     7
 65
   257
 75
     1
175
     1
 42
1.0
 92
        0
 66
     7
 43
1.0
 76
     1
 77
     6
 78
     2
 67
     7
 79
     5
170
     0
171
     0
290
     0
174
     0
 93
       13
 44
0.0
173
     0
291
     1
 45
0.0
1001
ACAD
1000
AcDbSavedByObjectVersion
1070
     0
  0
VISUALSTYLE
  5
2E
102
{ACAD_REACTORS
330
2A
102
}
330
2A
100
AcDbVisualStyle
  2
GouraudWithEdges
 70
     3
 71
     2
 72
     2
 73
     1
 90
        2
 40
-0.6
 41
30.0
 62
     5
 63
     7
421
 16777215
 74
     1
 91
        4
 64
     7
 65
   257
 75
     1
175
     1
 42
1.0
 92
        0
 66
   257
 43
1.0
 76
     1
 77
     6
 78
     2
 67
     7
 79
     5
170
     0
171
     0
290
     0
174
     0
 93
       13
 44
0.0
173
     0
291
     1
 45
0.0
1001
ACAD
1000
AcDbSavedByObjectVersion
1070
     0
  0
VISUALSTYLE
  5
38
102
{ACAD_REACTORS
330
2A
102
}
330
2A
100
AcDbVisualStyle
  2
Linepattern
 70
    14
 71
     2
 72
     2
 73
     0
 90
        0
 40
-0.6
 41
-30.0
 62
     5
 63
     7
421
 16777215
 74
     1
 91
        4
 64
     7
 65
   257
 75
     7
175
     7
 42
1.0
 92
        8
 66
     7
 43
1.0
 76
     1
 77
     6
 78
     2
 67
     7
 79
     5
170
     0
171
     0
290
     0
174
     0
 93
        1
 44
0.0
173
     0
291
     1
 45
0.0
1001
ACAD
1000
AcDbSavedByObjectVersion
1070
     0
  0
VISUALSTYLE
  5
33
102
{ACAD_REACTORS
330
2A
102
}
330
2A
100
AcDbVisualStyle
  2
Realistic
 70
     8
 71
     2
 72
     2
 73
     0
 90
        0
 40
-0.6
 41
-30.0
 62
     5
 63
     7
421
 16777215
 74
     1
 91
        0
 64
     7
 65
   257
 75
     1
175
     1
 42
1.0
 92
        8
 66
     8
424
  7895160
 43
1.0
 76
     1
 77
     6
 78
     2
 67
     7
 79
     5
170
     0
171
     0
290
     0
174
     0
 93
       13
 44
0.0
173
     0
291
     0
 45
0.0
1001
ACAD
1000
AcDbSavedByObjectVersion
1070
     0
  0
VISUALSTYLE
  5
37
102
{ACAD_REACTORS
330
2A
102
}
330
2A
100
AcDbVisualStyle
  2
Thicken
 70
    13
 71
     2
 72
     2
 73
     0
 90
        0
 40
-0.6
 41
-30.0
 62
     5
 63
     7
421
 16777215
 74
     1
 91
        4
 64
     7
 65
   257
 75
     1
175
     1
 42
1.0
 92
       12
 66
     7
 43
1.0
 76
     1
 77
     6
 78
     2
 67
     7
 79
     5
170
     0
171
     0
290
     0
174
     0
 93
        1
 44
0.0
173
     0
291
     1
 45
0.0
1001
ACAD
1000
AcDbSavedByObjectVersion
1070
     0
  0
ENDSEC
  0
EOF
