  0
SECTION
  2
HEADER
  9
$ACADVER
  1
AC1018
  9
$ACADMAINTVER
 70
     0
  9
$DWGCODEPAGE
  3
ANSI_1252
  9
$INSBASE
 10
0.0
 20
0.0
 30
0.0
  9
$EXTMIN
 10
1430.957970324856
 20
622.9668156007847
 30
0.0
  9
$EXTMAX
 10
2164.832356353793
 20
1080.18564564805
 30
0.0
  9
$LIMMIN
 10
0.0
 20
0.0
  9
$LIMMAX
 10
12.0
 20
9.0
  9
$ORTHOMODE
 70
     0
  9
$REGENMODE
 70
     1
  9
$FILLMODE
 70
     1
  9
$QTEXTMODE
 70
     0
  9
$MIRRTEXT
 70
     1
  9
$LTSCALE
 40
1.0
  9
$ATTMODE
 70
     1
  9
$TEXTSIZE
 40
0.2
  9
$TRACEWID
 40
0.05
  9
$TEXTSTYLE
  7
Standard
  9
$CLAYER
  8
0
  9
$CELTYPE
  6
ByLayer
  9
$CECOLOR
 62
   256
  9
$CELTSCALE
 40
1.0
  9
$DISPSILH
 70
     0
  9
$DIMSCALE
 40
1.0
  9
$DIMASZ
 40
0.18
  9
$DIMEXO
 40
0.0625
  9
$DIMDLI
 40
0.38
  9
$DIMRND
 40
0.0
  9
$DIMDLE
 40
0.0
  9
$DIMEXE
 40
0.18
  9
$DIMTP
 40
0.0
  9
$DIMTM
 40
0.0
  9
$DIMTXT
 40
0.18
  9
$DIMCEN
 40
0.09
  9
$DIMTSZ
 40
0.0
  9
$DIMTOL
 70
     0
  9
$DIMLIM
 70
     0
  9
$DIMTIH
 70
     1
  9
$DIMTOH
 70
     1
  9
$DIMSE1
 70
     0
  9
$DIMSE2
 70
     0
  9
$DIMTAD
 70
     0
  9
$DIMZIN
 70
     0
  9
$DIMBLK
  1

  9
$DIMASO
 70
     1
  9
$DIMSHO
 70
     1
  9
$DIMPOST
  1

  9
$DIMAPOST
  1

  9
$DIMALT
 70
     0
  9
$DIMALTD
 70
     2
  9
$DIMALTF
 40
25.4
  9
$DIMLFAC
 40
1.0
  9
$DIMTOFL
 70
     0
  9
$DIMTVP
 40
0.0
  9
$DIMTIX
 70
     0
  9
$DIMSOXD
 70
     0
  9
$DIMSAH
 70
     0
  9
$DIMBLK1
  1

  9
$DIMBLK2
  1

  9
$DIMSTYLE
  2
Standard
  9
$DIMCLRD
 70
     0
  9
$DIMCLRE
 70
     0
  9
$DIMCLRT
 70
     0
  9
$DIMTFAC
 40
1.0
  9
$DIMGAP
 40
0.09
  9
$DIMJUST
 70
     0
  9
$DIMSD1
 70
     0
  9
$DIMSD2
 70
     0
  9
$DIMTOLJ
 70
     1
  9
$DIMTZIN
 70
     0
  9
$DIMALTZ
 70
     0
  9
$DIMALTTZ
 70
     0
  9
$DIMUPT
 70
     0
  9
$DIMDEC
 70
     4
  9
$DIMTDEC
 70
     4
  9
$DIMALTU
 70
     2
  9
$DIMALTTD
 70
     2
  9
$DIMTXSTY
  7
Standard
  9
$DIMAUNIT
 70
     0
  9
$DIMADEC
 70
     0
  9
$DIMALTRND
 40
0.0
  9
$DIMAZIN
 70
     0
  9
$DIMDSEP
 70
    46
  9
$DIMATFIT
 70
     3
  9
$DIMFRAC
 70
     0
  9
$DIMLDRBLK
  1

  9
$DIMLUNIT
 70
     2
  9
$DIMLWD
 70
    -2
  9
$DIMLWE
 70
    -2
  9
$DIMTMOVE
 70
     2
  9
$LUNITS
 70
     2
  9
$LUPREC
 70
     3
  9
$SKETCHINC
 40
0.1
  9
$FILLETRAD
 40
0.5
  9
$AUNITS
 70
     0
  9
$AUPREC
 70
     0
  9
$MENU
  1
.
  9
$ELEVATION
 40
0.0
  9
$PELEVATION
 40
0.0
  9
$THICKNESS
 40
0.0
  9
$LIMCHECK
 70
     0
  9
$CHAMFERA
 40
0.5
  9
$CHAMFERB
 40
0.5
  9
$CHAMFERC
 40
1.0
  9
$CHAMFERD
 40
0.0
  9
$SKPOLY
 70
     0
  9
$TDCREATE
 40
2456595.466415972
  9
$TDUCREATE
 40
2456595.424749305
  9
$TDUPDATE
 40
2456595.466415984
  9
$TDUUPDATE
 40
2456595.424749317
  9
$TDINDWG
 40
0.0000000116
  9
$TDUSRTIMER
 40
0.0000000116
  9
$USRTIMER
 70
     1
  9
$ANGBASE
 50
0.0
  9
$ANGDIR
 70
     0
  9
$PDMODE
 70
     0
  9
$PDSIZE
 40
0.0
  9
$PLINEWID
 40
0.0
  9
$SPLFRAME
 70
     0
  9
$SPLINETYPE
 70
     6
  9
$SPLINESEGS
 70
     8
  9
$HANDSEED
  5
18A
  9
$SURFTAB1
 70
     6
  9
$SURFTAB2
 70
     6
  9
$SURFTYPE
 70
     6
  9
$SURFU
 70
     6
  9
$SURFV
 70
     6
  9
$UCSBASE
  2

  9
$UCSNAME
  2

  9
$UCSORG
 10
0.0
 20
0.0
 30
0.0
  9
$UCSXDIR
 10
1.0
 20
0.0
 30
0.0
  9
$UCSYDIR
 10
0.0
 20
1.0
 30
0.0
  9
$UCSORTHOREF
  2

  9
$UCSORTHOVIEW
 70
     0
  9
$UCSORGTOP
 10
0.0
 20
0.0
 30
0.0
  9
$UCSORGBOTTOM
 10
0.0
 20
0.0
 30
0.0
  9
$UCSORGLEFT
 10
0.0
 20
0.0
 30
0.0
  9
$UCSORGRIGHT
 10
0.0
 20
0.0
 30
0.0
  9
$UCSORGFRONT
 10
0.0
 20
0.0
 30
0.0
  9
$UCSORGBACK
 10
0.0
 20
0.0
 30
0.0
  9
$PUCSBASE
  2

  9
$PUCSNAME
  2

  9
$PUCSORG
 10
0.0
 20
0.0
 30
0.0
  9
$PUCSXDIR
 10
1.0
 20
0.0
 30
0.0
  9
$PUCSYDIR
 10
0.0
 20
1.0
 30
0.0
  9
$PUCSORTHOREF
  2

  9
$PUCSORTHOVIEW
 70
     0
  9
$PUCSORGTOP
 10
0.0
 20
0.0
 30
0.0
  9
$PUCSORGBOTTOM
 10
0.0
 20
0.0
 30
0.0
  9
$PUCSORGLEFT
 10
0.0
 20
0.0
 30
0.0
  9
$PUCSORGRIGHT
 10
0.0
 20
0.0
 30
0.0
  9
$PUCSORGFRONT
 10
0.0
 20
0.0
 30
0.0
  9
$PUCSORGBACK
 10
0.0
 20
0.0
 30
0.0
  9
$USERI1
 70
     0
  9
$USERI2
 70
     0
  9
$USERI3
 70
     0
  9
$USERI4
 70
     0
  9
$USERI5
 70
     0
  9
$USERR1
 40
0.0
  9
$USERR2
 40
0.0
  9
$USERR3
 40
0.0
  9
$USERR4
 40
0.0
  9
$USERR5
 40
0.0
  9
$WORLDVIEW
 70
     1
  9
$SHADEDGE
 70
     3
  9
$SHADEDIF
 70
    70
  9
$TILEMODE
 70
     1
  9
$MAXACTVP
 70
    64
  9
$PINSBASE
 10
0.0
 20
0.0
 30
0.0
  9
$PLIMCHECK
 70
     0
  9
$PEXTMIN
 10
1.000000000000000E+20
 20
1.000000000000000E+20
 30
1.000000000000000E+20
  9
$PEXTMAX
 10
-1.000000000000000E+20
 20
-1.000000000000000E+20
 30
-1.000000000000000E+20
  9
$PLIMMIN
 10
0.0
 20
0.0
  9
$PLIMMAX
 10
12.0
 20
9.0
  9
$UNITMODE
 70
     0
  9
$VISRETAIN
 70
     1
  9
$PLINEGEN
 70
     0
  9
$PSLTSCALE
 70
     1
  9
$TREEDEPTH
 70
  3020
  9
$CMLSTYLE
  2
Standard
  9
$CMLJUST
 70
     0
  9
$CMLSCALE
 40
1.0
  9
$PROXYGRAPHICS
 70
     1
  9
$MEASUREMENT
 70
     0
  9
$CELWEIGHT
370
    -1
  9
$ENDCAPS
280
     0
  9
$JOINSTYLE
280
     0
  9
$LWDISPLAY
290
     0
  9
$INSUNITS
 70
     4
  9
$HYPERLINKBASE
  1

  9
$STYLESHEET
  1

  9
$XEDIT
290
     1
  9
$CEPSNTYPE
380
     0
  9
$PSTYLEMODE
290
     1
  9
$FINGERPRINTGUID
  2
{8C38AD32-1AD2-4F5A-98CC-FADA6E4D084A}
  9
$VERSIONGUID
  2
{FAEB1C32-E019-11D5-929B-00C0DF256EC4}
  9
$EXTNAMES
290
     1
  9
$PSVPSCALE
 40
0.0
  9
$OLESTARTUP
290
     0
  9
$SORTENTS
280
   127
  9
$INDEXCTL
280
     0
  9
$HIDETEXT
280
     1
  9
$XCLIPFRAME
290
     0
  9
$HALOGAP
280
     0
  9
$OBSCOLOR
 70
   257
  9
$OBSLTYPE
280
     0
  9
$INTERSECTIONDISPLAY
280
     0
  9
$INTERSECTIONCOLOR
 70
   257
  9
$DIMASSOC
280
     2
  9
$PROJECTNAME
  1

  0
ENDSEC
  0
SECTION
  2
CLASSES
  0
CLASS
  1
ACDBDICTIONARYWDFLT
  2
AcDbDictionaryWithDefault
  3
ObjectDBX Classes
 90
        0
 91
        4
280
     0
281
     0
  0
CLASS
  1
VISUALSTYLE
  2
AcDbVisualStyle
  3
ObjectDBX Classes
 90
     4095
 91
        4
280
     0
281
     0
  0
ENDSEC
  0
SECTION
  2
TABLES
  0
TABLE
  2
VPORT
  5
8
330
0
100
AcDbSymbolTable
 70
     1
  0
VPORT
  5
29
330
8
100
AcDbSymbolTableRecord
100
AcDbViewportTableRecord
  2
*Active
 70
     0
 10
0.0
 20
0.0
 11
1.0
 21
1.0
 12
1797.895163339324
 22
851.5762306244172
 13
0.0
 23
0.0
 14
0.5
 24
0.5
 15
0.5
 25
0.5
 16
0.0
 26
0.0
 36
1.0
 17
0.0
 27
0.0
 37
0.0
 40
466.3632066482104
 41
1.605083469447381
 42
50.0
 43
0.0
 44
0.0
 50
0.0
 51
0.0
 71
     0
 72
   100
 73
     1
 74
     3
 75
     0
 76
     0
 77
     0
 78
     0
281
     0
 65
     1
110
0.0
120
0.0
130
0.0
111
1.0
121
0.0
131
0.0
112
0.0
122
1.0
132
0.0
 79
     0
146
0.0
  0
ENDTAB
  0
TABLE
  2
LTYPE
  5
5
330
0
100
AcDbSymbolTable
 70
     1
  0
LTYPE
  5
14
330
5
100
AcDbSymbolTableRecord
100
AcDbLinetypeTableRecord
  2
ByBlock
 70
     0
  3

 72
    65
 73
     0
 40
0.0
  0
LTYPE
  5
15
330
5
100
AcDbSymbolTableRecord
100
AcDbLinetypeTableRecord
  2
ByLayer
 70
     0
  3

 72
    65
 73
     0
 40
0.0
  0
LTYPE
  5
16
330
5
100
AcDbSymbolTableRecord
100
AcDbLinetypeTableRecord
  2
Continuous
 70
     0
  3
Solid line
 72
    65
 73
     0
 40
0.0
  0
ENDTAB
  0
TABLE
  2
LAYER
  5
2
330
0
100
AcDbSymbolTable
 70
     3
  0
LAYER
  5
10
330
2
100
AcDbSymbolTableRecord
100
AcDbLayerTableRecord
  2
0
 70
     0
 62
     7
  6
Continuous
370
    -3
390
F
  0
LAYER
  5
3B
330
2
100
AcDbSymbolTableRecord
100
AcDbLayerTableRecord
  2
Linee visibili 2D
 70
     0
 62
     7
  6
Continuous
370
    -3
390
F
  0
LAYER
  5
51
330
2
100
AcDbSymbolTableRecord
100
AcDbLayerTableRecord
  2
Linee visibili 2D - Tangent
 70
     0
 62
     7
  6
Continuous
370
    -3
390
F
  0
ENDTAB
  0
TABLE
  2
STYLE
  5
3
330
0
100
AcDbSymbolTable
 70
     1
  0
STYLE
  5
11
330
3
100
AcDbSymbolTableRecord
100
AcDbTextStyleTableRecord
  2
Standard
 70
     0
 40
0.0
 41
1.0
 50
0.0
 71
     0
 42
0.2
  3
txt
  4

  0
ENDTAB
  0
TABLE
  2
VIEW
  5
6
330
0
100
AcDbSymbolTable
 70
     0
  0
ENDTAB
  0
TABLE
  2
UCS
  5
7
330
0
100
AcDbSymbolTable
 70
     0
  0
ENDTAB
  0
TABLE
  2
APPID
  5
9
330
0
100
AcDbSymbolTable
 70
     1
  0
APPID
  5
12
330
9
100
AcDbSymbolTableRecord
100
AcDbRegAppTableRecord
  2
ACAD
 70
     0
  0
ENDTAB
  0
TABLE
  2
DIMSTYLE
  5
A
330
0
100
AcDbSymbolTable
 70
     1
100
AcDbDimStyleTable
  0
DIMSTYLE
105
27
330
A
100
AcDbSymbolTableRecord
100
AcDbDimStyleTableRecord
  2
Standard
 70
     0
340
11
  0
ENDTAB
  0
TABLE
  2
BLOCK_RECORD
  5
1
330
0
100
AcDbSymbolTable
 70
     1
  0
BLOCK_RECORD
  5
1F
330
1
100
AcDbSymbolTableRecord
100
AcDbBlockTableRecord
  2
*Model_Space
340
22
  0
BLOCK_RECORD
  5
1B
330
1
100
AcDbSymbolTableRecord
100
AcDbBlockTableRecord
  2
*Paper_Space
340
1E
  0
BLOCK_RECORD
  5
23
330
1
100
AcDbSymbolTableRecord
100
AcDbBlockTableRecord
  2
*Paper_Space0
340
26
  0
ENDTAB
  0
ENDSEC
  0
SECTION
  2
BLOCKS
  0
BLOCK
  5
20
330
1F
100
AcDbEntity
  8
0
100
AcDbBlockBegin
  2
*Model_Space
 70
     0
 10
0.0
 20
0.0
 30
0.0
  3
*Model_Space
  1

  0
ENDBLK
  5
21
330
1F
100
AcDbEntity
  8
0
100
AcDbBlockEnd
  0
BLOCK
  5
1C
330
1B
100
AcDbEntity
 67
     1
  8
0
100
AcDbBlockBegin
  2
*Paper_Space
 70
     0
 10
0.0
 20
0.0
 30
0.0
  3
*Paper_Space
  1

  0
ENDBLK
  5
1D
330
1B
100
AcDbEntity
 67
     1
  8
0
100
AcDbBlockEnd
  0
BLOCK
  5
24
330
23
100
AcDbEntity
  8
0
100
AcDbBlockBegin
  2
*Paper_Space0
 70
     0
 10
0.0
 20
0.0
 30
0.0
  3
*Paper_Space0
  1

  0
ENDBLK
  5
25
330
23
100
AcDbEntity
  8
0
100
AcDbBlockEnd
  0
ENDSEC
  0
SECTION
  2
ENTITIES
  0
SPLINE
  5
3C
330
1F
100
AcDbEntity
  8
Linee visibili 2D
100
AcDbSpline
210
0.0
220
0.0
230
1.0
 70
    12
 71
     2
 72
     6
 73
     3
 74
     0
 42
0.0000000001
 43
0.0000000001
 40
0.0
 40
0.0
 40
0.0
 40
70.62742068830525
 40
70.62742068830525
 40
70.62742068830525
 10
2007.856862529932
 20
1039.247476787195
 30
0.0
 41
1.0
 10
1972.610241016823
 20
1041.423773279446
 30
0.0
 41
0.999998522782311
 10
1937.356346343245
 20
1043.478890029137
 30
0.0
 41
1.0
  0
SPLINE
  5
3D
330
1F
100
AcDbEntity
  8
Linee visibili 2D
100
AcDbSpline
210
0.0
220
0.0
230
1.0
 70
    24
 71
     2
 72
     6
 73
     3
 74
     0
 42
0.0000000001
 43
0.0000000001
 40
0.0
 40
0.0
 40
0.0
 40
2.946727961539106
 40
2.946727961539106
 40
2.946727961539106
 10
1936.457697311006
 20
1043.606162098108
 30
0.0
 10
1934.99889100588
 20
1043.812766996291
 30
0.0
 10
1933.540084700753
 20
1044.019371894473
 30
0.0
  0
SPLINE
  5
3E
330
1F
100
AcDbEntity
  8
Linee visibili 2D
100
AcDbSpline
210
0.0
220
0.0
230
1.0
 70
    12
 71
     2
 72
     6
 73
     3
 74
     0
 42
0.0000000001
 43
0.0000000001
 40
0.0
 40
0.0
 40
0.0
 40
4.75997103147574
 40
4.75997103147574
 40
4.75997103147574
 10
1992.566574375898
 20
1001.871407563076
 30
0.0
 41
1.0
 10
1994.222956299581
 20
1003.580611037542
 30
0.0
 41
0.9999144028894869
 10
1995.923493185944
 20
1005.245889360329
 30
0.0
 41
1.0
  0
SPLINE
  5
3F
330
1F
100
AcDbEntity
  8
Linee visibili 2D
100
AcDbSpline
210
0.0
220
0.0
230
1.0
 70
    12
 71
     2
 72
     6
 73
     3
 74
     0
 42
0.0000000001
 43
0.0000000001
 40
0.0
 40
0.0
 40
0.0
 40
0.667125481236897
 40
0.667125481236897
 40
0.667125481236897
 10
2114.942744674026
 20
1033.715918884082
 30
0.0
 41
1.0
 10
2115.275419190355
 20
1033.691592599351
 30
0.0
 41
0.9999999999999969
 10
2115.608093702836
 20
1033.667266262184
 30
0.0
 41
1.0
  0
SPLINE
  5
40
330
1F
100
AcDbEntity
  8
Linee visibili 2D
100
AcDbSpline
210
0.0
220
0.0
230
1.0
 70
    12
 71
     2
 72
     6
 73
     3
 74
     0
 42
0.0000000001
 43
0.0000000001
 40
0.0
 40
0.0
 40
0.0
 40
2.449059216175223
 40
2.449059216175223
 40
2.449059216175223
 10
2120.068363037715
 20
1080.079783067799
 30
0.0
 41
1.0
 10
2118.843967151122
 20
1080.061686825113
 30
0.0
 41
0.9999999999890969
 10
2117.619571095574
 20
1080.04360201757
 30
0.0
 41
1.0
  0
SPLINE
  5
41
330
1F
100
AcDbEntity
  8
Linee visibili 2D
100
AcDbSpline
210
0.0
220
0.0
230
1.0
 70
    12
 71
     2
 72
     6
 73
     3
 74
     0
 42
0.0000000001
 43
0.0000000001
 40
0.0
 40
0.0
 40
0.0
 40
3.487535342236791
 40
3.487535342236791
 40
3.487535342236791
 10
2129.357964369558
 20
1080.18564564805
 30
0.0
 41
1.0
 10
2127.61415998773
 20
1080.190897714799
 30
0.0
 41
0.9999616191081031
 10
2125.870531289542
 20
1080.165594174686
 30
0.0
 41
1.0
  0
SPLINE
  5
42
330
1F
100
AcDbEntity
  8
Linee visibili 2D
100
AcDbSpline
210
0.0
220
0.0
230
1.0
 70
    12
 71
     2
 72
     6
 73
     3
 74
     0
 42
0.0000000001
 43
0.0000000001
 40
0.0
 40
0.0
 40
0.0
 40
2.134247856736981
 40
2.134247856736981
 40
2.134247856736981
 10
2132.761370423902
 20
1080.147823739529
 30
0.0
 41
1.0
 10
2131.69443422885
 20
1080.168320862324
 30
0.0
 41
0.9999871586363439
 10
2130.62734508928
 20
1080.1780030399
 30
0.0
 41
1.0
  0
SPLINE
  5
43
330
1F
100
AcDbEntity
  8
Linee visibili 2D
100
AcDbSpline
210
0.0
220
0.0
230
1.0
 70
    12
 71
     2
 72
     6
 73
     3
 74
     0
 42
0.0000000001
 43
0.0000000001
 40
0.0
 40
0.0
 40
0.0
 40
31.12939288926433
 40
31.12939288926433
 40
31.12939288926433
 10
2164.477444655917
 20
1077.21246849353
 30
0.0
 41
1.0
 10
2149.105787607525
 20
1079.836308031343
 30
0.0
 41
0.9971850672331299
 10
2133.514606344321
 20
1080.132012531634
 30
0.0
 41
1.0
  0
SPLINE
  5
44
330
1F
100
AcDbEntity
  8
Linee visibili 2D
100
AcDbSpline
210
0.0
220
0.0
230
1.0
 70
    12
 71
     2
 72
     6
 73
     3
 74
     0
 42
0.0000000001
 43
0.0000000001
 40
0.0
 40
0.0
 40
0.0
 40
2.206500032406439
 40
2.206500032406439
 40
2.206500032406439
 10
2057.805043448135
 20
1058.156941109915
 30
0.0
 41
1.0
 10
2058.697777286265
 20
1058.805165733283
 30
0.0
 41
0.9999949042612755
 10
2059.594631698221
 20
1059.447677236557
 30
0.0
 41
1.0
  0
SPLINE
  5
45
330
1F
100
AcDbEntity
  8
Linee visibili 2D
100
AcDbSpline
210
0.0
220
0.0
230
1.0
 70
    12
 71
     2
 72
     6
 73
     3
 74
     0
 42
0.0000000001
 43
0.0000000001
 40
0.0
 40
0.0
 40
0.0
 40
1.504696163686812
 40
1.504696163686812
 40
1.504696163686812
 10
2055.312032670571
 20
1056.330629612434
 30
0.0
 41
1.0
 10
2055.917103625674
 20
1056.777751830148
 30
0.0
 41
0.9999980097811065
 10
2056.52395386961
 20
1057.222456136084
 30
0.0
 41
1.0
  0
SPLINE
  5
46
330
1F
100
AcDbEntity
  8
Linee visibili 2D
100
AcDbSpline
210
0.0
220
0.0
230
1.0
 70
    12
 71
     2
 72
     6
 73
     3
 74
     0
 42
0.0000000001
 43
0.0000000001
 40
0.0
 40
0.0
 40
0.0
 40
3.753904818899041
 40
3.753904818899041
 40
3.753904818899041
 10
2050.580334776544
 20
1052.780826149742
 30
0.0
 41
1.0
 10
2052.073847936887
 20
1053.917669983269
 30
0.0
 41
0.9999903956826768
 10
2053.577268641355
 20
1055.041378863417
 30
0.0
 41
1.0
  0
SPLINE
  5
47
330
1F
100
AcDbEntity
  8
Linee visibili 2D
100
AcDbSpline
210
0.0
220
0.0
230
1.0
 70
    12
 71
     2
 72
     6
 73
     3
 74
     0
 42
0.0000000001
 43
0.0000000001
 40
0.0
 40
0.0
 40
0.0
 40
70.50393042299035
 40
70.50393042299035
 40
70.50393042299035
 10
1996.01755219888
 20
1005.33855725163
 30
0.0
 41
1.0
 10
2021.239904385072
 20
1030.021615853
 30
0.0
 41
0.9983622822455148
 10
2049.116674380508
 20
1051.661997696777
 30
0.0
 41
1.0
  0
SPLINE
  5
48
330
1F
100
AcDbEntity
  8
Linee visibili 2D
100
AcDbSpline
210
0.0
220
0.0
230
1.0
 70
    12
 71
     2
 72
     6
 73
     3
 74
     0
 42
0.0000000001
 43
0.0000000001
 40
0.0
 40
0.0
 40
0.0
 40
1.487193788403463
 40
1.487193788403463
 40
1.487193788403463
 10
2061.094742236849
 20
1060.374474587894
 30
0.0
 41
1.0
 10
2061.755931836262
 20
1060.719697869966
 30
0.0
 41
0.9953963532707493
 10
2062.470844540498
 20
1060.932419815658
 30
0.0
 41
1.0
  0
SPLINE
  5
49
330
1F
100
AcDbEntity
  8
Linee visibili 2D
100
AcDbSpline
210
0.0
220
0.0
230
1.0
 70
    24
 71
     2
 72
     6
 73
     3
 74
     0
 42
0.0000000001
 43
0.0000000001
 40
0.0
 40
0.0
 40
0.0
 40
64.99696709149686
 40
64.99696709149686
 40
64.99696709149686
 10
2115.652441021551
 20
1033.665472639552
 30
0.0
 10
2140.158172532481
 20
1055.010742745304
 30
0.0
 10
2164.663904043412
 20
1076.356012851054
 30
0.0
  0
SPLINE
  5
4A
330
1F
100
AcDbEntity
  8
Linee visibili 2D
100
AcDbSpline
210
0.0
220
0.0
230
1.0
 70
    12
 71
     2
 72
     6
 73
     3
 74
     0
 42
0.0000000001
 43
0.0000000001
 40
0.0
 40
0.0
 40
0.0
 40
18.51543074007486
 40
18.51543074007486
 40
18.51543074007486
 10
2111.12943634222
 20
1079.947829770151
 30
0.0
 41
1.0
 10
2101.872727401708
 20
1079.811324674503
 30
0.0
 41
0.9999999984433311
 10
2092.616003285604
 20
1079.675852578254
 30
0.0
 41
1.0
  0
SPLINE
  5
4B
330
1F
100
AcDbEntity
  8
Linee visibili 2D
100
AcDbSpline
210
0.0
220
0.0
230
1.0
 70
    12
 71
     2
 72
     6
 73
     3
 74
     0
 42
0.0000000001
 43
0.0000000001
 40
0.0
 40
0.0
 40
0.0
 40
11.82436499533079
 40
11.82436499533079
 40
11.82436499533079
 10
2072.158149225007
 20
1075.687642759418
 30
0.0
 41
1.0
 10
2066.618611573344
 20
1073.562593566471
 30
0.0
 41
0.9947065829950117
 10
2061.630467541104
 20
1070.350004177791
 30
0.0
 41
1.0
  0
SPLINE
  5
4C
330
1F
100
AcDbEntity
  8
Linee visibili 2D
100
AcDbSpline
210
0.0
220
0.0
230
1.0
 70
    12
 71
     2
 72
     6
 73
     3
 74
     0
 42
0.0000000001
 43
0.0000000001
 40
0.0
 40
0.0
 40
0.0
 40
61.38382895589382
 40
61.38382895589382
 40
61.38382895589382
 10
2060.288871036011
 20
1069.486154733803
 30
0.0
 41
1.0
 10
2033.984363963989
 20
1053.671730356587
 30
0.0
 41
0.9999765161921982
 10
2007.899083166157
 20
1037.498257124686
 30
0.0
 41
1.0
  0
SPLINE
  5
4D
330
1F
100
AcDbEntity
  8
Linee visibili 2D
100
AcDbSpline
210
0.0
220
0.0
230
1.0
 70
    12
 71
     2
 72
     6
 73
     3
 74
     0
 42
0.0000000001
 43
0.0000000001
 40
0.0
 40
0.0
 40
0.0
 40
1.263166474320309
 40
1.263166474320309
 40
1.263166474320309
 10
2061.519227451919
 20
1070.278067524409
 30
0.0
 41
1.0
 10
2060.988644945072
 20
1069.935459883931
 30
0.0
 41
0.9999992358491936
 10
2060.457216966873
 20
1069.594165149319
 30
0.0
 41
1.0
  0
SPLINE
  5
4E
330
1F
100
AcDbEntity
  8
Linee visibili 2D
100
AcDbSpline
210
0.0
220
0.0
230
1.0
 70
    12
 71
     3
 72
    10
 73
     6
 74
     0
 42
0.0000000001
 43
0.0000000001
 40
0.0
 40
0.0
 40
0.0
 40
0.0
 40
0.5008888159452493
 40
0.5008888159452493
 40
1.0
 40
1.0
 40
1.0
 40
1.0
 10
1998.070611080584
 20
1009.283165802401
 30
0.0
 41
1.0
 10
1996.085284544851
 20
1007.499967526442
 30
0.0
 41
1.0
 10
1994.461533170028
 20
1005.74497791531
 30
0.0
 41
1.0
 10
1992.214542932701
 20
1003.579129109221
 30
0.0
 41
1.0
 10
1991.611421666654
 20
1003.033855742424
 30
0.0
 41
1.0
 10
1991.611365492683
 20
1003.033653148307
 30
0.0
 41
1.0
  0
SPLINE
  5
4F
330
1F
100
AcDbEntity
  8
Linee visibili 2D
100
AcDbSpline
210
0.0
220
0.0
230
1.0
 70
    12
 71
     2
 72
     6
 73
     3
 74
     0
 42
0.0000000001
 43
0.0000000001
 40
0.0
 40
0.0
 40
0.0
 40
23.907603913883
 40
23.907603913883
 40
23.907603913883
 10
2006.947667042093
 20
1034.758720800159
 30
0.0
 41
1.0
 10
2003.045155691475
 20
1023.459591463444
 30
0.0
 41
0.9999656889699334
 10
1999.330372333787
 20
1012.097360027017
 30
0.0
 41
1.0
  0
SPLINE
  5
50
330
1F
100
AcDbEntity
  8
Linee visibili 2D
100
AcDbSpline
210
0.0
220
0.0
230
1.0
 70
    12
 71
     2
 72
     6
 73
     3
 74
     0
 42
0.0000000001
 43
0.0000000001
 40
0.0
 40
0.0
 40
0.0
 40
1.541472269954198
 40
1.541472269954198
 40
1.541472269954198
 10
2007.452419516398
 20
1036.215210207139
 30
0.0
 41
1.0
 10
2007.199590572501
 20
1035.487122391058
 30
0.0
 41
0.9999998067813078
 10
2006.947667042093
 20
1034.758720800159
 30
0.0
 41
1.0
  0
SPLINE
  5
52
330
1F
100
AcDbEntity
  8
Linee visibili 2D - Tangent
100
AcDbSpline
210
0.0
220
0.0
230
1.0
 70
    12
 71
     2
 72
     6
 73
     3
 74
     0
 42
0.0000000001
 43
0.0000000001
 40
0.0
 40
0.0
 40
0.0
 40
74.05650128089177
 40
74.05650128089177
 40
74.05650128089177
 10
1933.540084155195
 20
1040.832523090791
 30
0.0
 41
1.0
 10
1970.502285135345
 20
1038.620445605341
 30
0.0
 41
0.9999965852498076
 10
2007.452419516398
 20
1036.215210207139
 30
0.0
 41
1.0
  0
SPLINE
  5
53
330
1F
100
AcDbEntity
  8
Linee visibili 2D
100
AcDbSpline
210
0.0
220
0.0
230
1.0
 70
    12
 71
     2
 72
     6
 73
     3
 74
     0
 42
0.0000000001
 43
0.0000000001
 40
0.0
 40
0.0
 40
0.0
 40
0.8724169246380936
 40
0.8724169246380936
 40
0.8724169246380936
 10
2007.452419516398
 20
1036.215210207139
 30
0.0
 41
1.0
 10
2007.595957638456
 20
1036.627258206763
 30
0.0
 41
0.9995709045871833
 10
2007.715120590022
 20
1037.047004484236
 30
0.0
 41
1.0
  0
SPLINE
  5
54
330
1F
100
AcDbEntity
  8
Linee visibili 2D
100
AcDbSpline
210
0.0
220
0.0
230
1.0
 70
     8
 71
     3
 72
    10
 73
     6
 74
     0
 42
0.0000000001
 43
0.0000000001
 40
0.0
 40
0.0
 40
0.0
 40
0.0
 40
1.551363989147108
 40
2.027606666502132
 40
2.272654187672698
 40
2.272654187672698
 40
2.272654187672698
 40
2.272654187672698
 10
2007.718102496902
 20
1037.057542287554
 30
0.0
 10
2007.855767596446
 20
1037.554102665091
 30
0.0
 10
2008.018755442607
 20
1038.217405330841
 30
0.0
 10
2008.042643318026
 20
1038.974576967667
 30
0.0
 10
2007.962561480583
 20
1039.214155506757
 30
0.0
 10
2007.881472876629
 20
1039.247819715994
 30
0.0
  0
SPLINE
  5
55
330
1F
100
AcDbEntity
  8
Linee visibili 2D - Tangent
100
AcDbSpline
210
0.0
220
0.0
230
1.0
 70
    12
 71
     2
 72
     6
 73
     3
 74
     0
 42
0.0000000001
 43
0.0000000001
 40
0.0
 40
0.0
 40
0.0
 40
64.95197540877413
 40
64.95197540877413
 40
64.95197540877413
 10
1933.540084702846
 20
1001.896004283401
 30
0.0
 41
1.0
 10
1965.806425083598
 20
1005.580175236572
 30
0.0
 41
0.9999999574733746
 10
1998.070611080584
 20
1009.283165802397
 30
0.0
 41
1.0
  0
SPLINE
  5
56
330
1F
100
AcDbEntity
  8
Linee visibili 2D
100
AcDbSpline
210
0.0
220
0.0
230
1.0
 70
    12
 71
     2
 72
     6
 73
     3
 74
     0
 42
0.0000000001
 43
0.0000000001
 40
0.0
 40
0.0
 40
0.0
 40
3.096345726531319
 40
3.096345726531319
 40
3.096345726531319
 10
1999.330372333786
 20
1012.097360027017
 30
0.0
 41
1.0
 10
1998.926337000325
 20
1010.589164295777
 30
0.0
 41
0.9873628156931985
 10
1998.070611080584
 20
1009.283165802401
 30
0.0
 41
1.0
  0
SPLINE
  5
57
330
1F
100
AcDbEntity
  8
Linee visibili 2D - Tangent
100
AcDbSpline
210
0.0
220
0.0
230
1.0
 70
    12
 71
     2
 72
     6
 73
     3
 74
     0
 42
0.0000000001
 43
0.0000000001
 40
0.0
 40
0.0
 40
0.0
 40
66.18738124762088
 40
66.18738124762088
 40
66.18738124762088
 10
1999.330372333787
 20
1012.097360027016
 30
0.0
 41
1.0
 10
1966.429786117312
 20
1008.527284894334
 30
0.0
 41
0.9999988695590118
 10
1933.540084748074
 20
1004.858285891468
 30
0.0
 41
1.0
  0
SPLINE
  5
58
330
1F
100
AcDbEntity
  8
Linee visibili 2D
100
AcDbSpline
210
0.0
220
0.0
230
1.0
 70
    12
 71
     2
 72
     6
 73
     3
 74
     0
 42
0.0000000001
 43
0.0000000001
 40
0.0
 40
0.0
 40
0.0
 40
58.36249892828346
 40
58.36249892828346
 40
58.36249892828346
 10
1991.611365500411
 20
1003.033653368643
 30
0.0
 41
1.0
 10
1962.575725105295
 20
1000.122140391056
 30
0.0
 41
0.9999999999999999
 10
1933.54008471465
 20
997.210627486457
 30
0.0
 41
1.0
  0
SPLINE
  5
59
330
1F
100
AcDbEntity
  8
Linee visibili 2D
100
AcDbSpline
210
0.0
220
0.0
230
1.0
 70
    24
 71
     2
 72
     6
 73
     3
 74
     0
 42
0.0000000001
 43
0.0000000001
 40
0.0
 40
0.0
 40
0.0
 40
4.685376812975392
 40
4.685376812975392
 40
4.685376812975392
 10
1933.540084700322
 20
997.2106274704316
 30
0.0
 10
1933.540084701584
 20
999.5533158769193
 30
0.0
 10
1933.540084702845
 20
1001.896004283407
 30
0.0
  0
SPLINE
  5
5A
330
1F
100
AcDbEntity
  8
Linee visibili 2D
100
AcDbSpline
210
0.0
220
0.0
230
1.0
 70
    24
 71
     2
 72
     6
 73
     3
 74
     0
 42
0.0000000001
 43
0.0000000001
 40
0.0
 40
0.0
 40
0.0
 40
2.962281608060835
 40
2.962281608060835
 40
2.962281608060835
 10
1933.540084748074
 20
1004.858285891468
 30
0.0
 10
1933.54008472546
 20
1003.377145087437
 30
0.0
 10
1933.540084702845
 20
1001.896004283407
 30
0.0
  0
SPLINE
  5
5B
330
1F
100
AcDbEntity
  8
Linee visibili 2D
100
AcDbSpline
210
0.0
220
0.0
230
1.0
 70
    12
 71
     2
 72
     6
 73
     3
 74
     0
 42
0.0000000001
 43
0.0000000001
 40
0.0
 40
0.0
 40
0.0
 40
35.9742371993228
 40
35.9742371993228
 40
35.9742371993228
 10
1933.540084752759
 20
1004.858285891468
 30
0.0
 41
1.0
 10
1933.540083430559
 20
1022.845404491129
 30
0.0
 41
0.9999999999999983
 10
1933.540084149712
 20
1040.832523090791
 30
0.0
 41
1.0
  0
SPLINE
  5
5C
330
1F
100
AcDbEntity
  8
Linee visibili 2D
100
AcDbSpline
210
0.0
220
0.0
230
1.0
 70
    12
 71
     2
 72
     6
 73
     3
 74
     0
 42
0.0000000001
 43
0.0000000001
 40
0.0
 40
0.0
 40
0.0
 40
2.867796954113052
 40
2.867796954113052
 40
2.867796954113052
 10
1933.540084698742
 20
1043.700320044903
 30
0.0
 41
1.0
 10
1933.54008409412
 20
1042.266421567847
 30
0.0
 41
0.9999999999999731
 10
1933.5400841559
 20
1040.832523090791
 30
0.0
 41
1.0
  0
SPLINE
  5
5D
330
1F
100
AcDbEntity
  8
Linee visibili 2D
100
AcDbSpline
210
0.0
220
0.0
230
1.0
 70
    12
 71
     2
 72
     6
 73
     3
 74
     0
 42
0.0000000001
 43
0.0000000001
 40
0.0
 40
0.0
 40
0.0
 40
0.5062807961626037
 40
0.5062807961626037
 40
0.5062807961626037
 10
1950.972141120428
 20
1042.604380410498
 30
0.0
 41
1.0
 10
1950.72134747491
 20
1042.6391408851
 30
0.0
 41
0.9996995314830556
 10
1950.469151608804
 20
1042.661568286768
 30
0.0
 41
1.0
  0
SPLINE
  5
5E
330
1F
100
AcDbEntity
  8
Linee visibili 2D - Tangent
100
AcDbSpline
210
0.0
220
0.0
230
1.0
 70
    12
 71
     2
 72
     6
 73
     3
 74
     0
 42
0.0000000001
 43
0.0000000001
 40
0.0
 40
0.0
 40
0.0
 40
9.365748628161892
 40
9.365748628161892
 40
9.365748628161892
 10
1937.465425559863
 20
1043.472530297663
 30
0.0
 41
1.0
 10
1942.140394167913
 20
1043.200533903267
 30
0.0
 41
0.999999942428555
 10
1946.815177107894
 20
1042.925364884532
 30
0.0
 41
1.0
  0
SPLINE
  5
5F
330
1F
100
AcDbEntity
  8
Linee visibili 2D - Tangent
100
AcDbSpline
210
0.0
220
0.0
230
1.0
 70
    12
 71
     2
 72
     6
 73
     3
 74
     0
 42
0.0000000001
 43
0.0000000001
 40
0.0
 40
0.0
 40
0.0
 40
3.61330686489504
 40
3.61330686489504
 40
3.61330686489504
 10
1933.540084698491
 20
1043.700320044904
 30
0.0
 41
1.0
 10
1935.343719274798
 20
1043.595921863055
 30
0.0
 41
0.9999999907510427
 10
1937.147325386604
 20
1043.491033071079
 30
0.0
 41
1.0
  0
SPLINE
  5
60
330
1F
100
AcDbEntity
  8
Linee visibili 2D
100
AcDbSpline
210
0.0
220
0.0
230
1.0
 70
    28
 71
     2
 72
     6
 73
     3
 74
     0
 42
0.0000000001
 43
0.0000000001
 40
0.0
 40
0.0
 40
0.0
 40
0.3190518459786063
 40
0.3190518459786063
 40
0.3190518459786063
 10
1933.540084700605
 20
1044.019371890882
 30
0.0
 41
1.0
 10
1933.540084699328
 20
1043.859845967893
 30
0.0
 41
1.0
 10
1933.540084698051
 20
1043.700320044903
 30
0.0
 41
1.0
  0
SPLINE
  5
61
330
1F
100
AcDbEntity
  8
Linee visibili 2D
100
AcDbSpline
210
0.0
220
0.0
230
1.0
 70
    24
 71
     2
 72
     6
 73
     3
 74
     0
 42
0.0000000001
 43
0.0000000001
 40
0.0
 40
0.0
 40
0.0
 40
3.854344765427043
 40
3.854344765427043
 40
3.854344765427043
 10
1937.356346343257
 20
1043.478890029161
 30
0.0
 10
1935.448215521751
 20
1043.749130960022
 30
0.0
 10
1933.540084700245
 20
1044.019371890882
 30
0.0
  0
SPLINE
  5
62
330
1F
100
AcDbEntity
  8
Linee visibili 2D
100
AcDbSpline
210
0.0
220
0.0
230
1.0
 70
    12
 71
     2
 72
     6
 73
     3
 74
     0
 42
0.0000000001
 43
0.0000000001
 40
0.0
 40
0.0
 40
0.0
 40
0.5975737909968541
 40
0.5975737909968541
 40
0.5975737909968541
 10
2023.629192700519
 20
1042.21933116158
 30
0.0
 41
1.0
 10
2023.379499959738
 20
1042.055236031179
 30
0.0
 41
0.9999994312581236
 10
2023.130157811129
 20
1041.890608665452
 30
0.0
 41
1.0
  0
SPLINE
  5
63
330
1F
100
AcDbEntity
  8
Linee visibili 2D
100
AcDbSpline
210
0.0
220
0.0
230
1.0
 70
    12
 71
     2
 72
     6
 73
     3
 74
     0
 42
0.0000000001
 43
0.0000000001
 40
0.0
 40
0.0
 40
0.0
 40
0.7782784615801863
 40
0.7782784615801863
 40
0.7782784615801863
 10
2024.419246772239
 20
1042.736634035951
 30
0.0
 41
1.0
 10
2024.093326093906
 20
1042.524018775469
 30
0.0
 41
0.9999990262042372
 10
2023.768000119657
 20
1042.310494659655
 30
0.0
 41
1.0
  0
SPLINE
  5
64
330
1F
100
AcDbEntity
  8
Linee visibili 2D
100
AcDbSpline
210
0.0
220
0.0
230
1.0
 70
    12
 71
     2
 72
     6
 73
     3
 74
     0
 42
0.0000000001
 43
0.0000000001
 40
0.0
 40
0.0
 40
0.0
 40
0.5884734420711948
 40
0.5884734420711948
 40
0.5884734420711948
 10
2059.696056579624
 20
1065.685907755654
 30
0.0
 41
1.0
 10
2059.420624021964
 20
1065.58240173459
 30
0.0
 41
0.9999883726311654
 10
2059.146202537557
 20
1065.476244120113
 30
0.0
 41
1.0
  0
SPLINE
  5
65
330
1F
100
AcDbEntity
  8
Linee visibili 2D
100
AcDbSpline
210
0.0
220
0.0
230
1.0
 70
    12
 71
     2
 72
     8
 73
     5
 74
     0
 42
0.0000000001
 43
0.0000000001
 40
0.0
 40
0.0
 40
0.0
 40
0.7002824834571726
 40
0.7002824834571726
 40
1.400564966914345
 40
1.400564966914345
 40
1.400564966914345
 10
1992.561162158908
 20
1001.876603082222
 30
0.0
 41
1.0
 10
1992.326841373042
 20
1001.526385012729
 30
0.0
 41
0.764681226865621
 10
1991.941977914754
 20
1001.697963115534
 30
0.0
 41
1.0
 10
1991.557114456465
 20
1001.869541218339
 30
0.0
 41
0.764681226865621
 10
1991.660985959848
 20
1002.277915602542
 30
0.0
 41
1.0
  0
SPLINE
  5
66
330
1F
100
AcDbEntity
  8
Linee visibili 2D
100
AcDbSpline
210
0.0
220
0.0
230
1.0
 70
    12
 71
     2
 72
     6
 73
     3
 74
     0
 42
0.0000000001
 43
0.0000000001
 40
0.0
 40
0.0
 40
0.0
 40
28.19731893631061
 40
28.19731893631061
 40
28.19731893631061
 10
2113.660263322402
 20
1035.245440695513
 30
0.0
 41
1.0
 10
2104.40810961227
 20
1045.972432519588
 30
0.0
 41
0.9929026987685654
 10
2092.884281963879
 20
1054.210884934929
 30
0.0
 41
1.0
  0
SPLINE
  5
67
330
1F
100
AcDbEntity
  8
Linee visibili 2D
100
AcDbSpline
210
0.0
220
0.0
230
1.0
 70
     8
 71
     3
 72
    15
 73
    11
 74
     0
 42
0.0000000001
 43
0.0000000001
 40
0.0
 40
0.0
 40
0.0
 40
0.0
 40
14.41745664565633
 40
27.70942585971583
 40
39.67743951861398
 40
51.39724612345148
 40
57.65102293124971
 40
71.02049814060318
 40
90.13340444547245
 40
128.8086401316957
 40
128.8086401316957
 40
128.8086401316957
 40
128.8086401316957
 10
2117.618618520646
 20
1080.035752843824
 30
0.0
 10
2112.81085915326
 20
1079.967287622056
 30
0.0
 10
2103.585217992139
 20
1079.514168993174
 30
0.0
 10
2090.463887593855
 20
1077.633174852726
 30
0.0
 10
2078.535768932578
 20
1074.497557370931
 30
0.0
 10
2069.19940130707
 20
1070.877446758314
 30
0.0
 10
2060.007120138681
 20
1065.905362132563
 30
0.0
 10
2048.869350346265
 20
1059.373238557281
 30
0.0
 10
2028.809772801895
 20
1046.690325710421
 30
0.0
 10
2013.760401499649
 20
1034.587904950016
 30
0.0
 10
2004.01006223705
 20
1026.167668245505
 30
0.0
  0
SPLINE
  5
68
330
1F
100
AcDbEntity
  8
Linee visibili 2D - Tangent
100
AcDbSpline
210
0.0
220
0.0
230
1.0
 70
    12
 71
     2
 72
     6
 73
     3
 74
     0
 42
0.0000000001
 43
0.0000000001
 40
0.0
 40
0.0
 40
0.0
 40
5.007036032032177
 40
5.007036032032177
 40
5.007036032032177
 10
1991.660985959848
 20
1002.277915602542
 30
0.0
 41
1.0
 10
1993.401866285021
 20
1004.077259296637
 30
0.0
 41
0.9999162953356406
 10
1995.188721132641
 20
1005.830955903691
 30
0.0
 41
1.0
  0
SPLINE
  5
69
330
1F
100
AcDbEntity
  8
Linee visibili 2D - Tangent
100
AcDbSpline
210
0.0
220
0.0
230
1.0
 70
    12
 71
     2
 72
     6
 73
     3
 74
     0
 42
0.0000000001
 43
0.0000000001
 40
0.0
 40
0.0
 40
0.0
 40
0.753399259471188
 40
0.753399259471188
 40
0.753399259471188
 10
2132.761354139247
 20
1080.146970593629
 30
0.0
 41
1.0
 10
2133.137982579148
 20
1080.139626684224
 30
0.0
 41
0.9999983948259252
 10
2133.51458228407
 20
1080.130933180851
 30
0.0
 41
1.0
  0
SPLINE
  5
6A
330
1F
100
AcDbEntity
  8
Linee visibili 2D - Tangent
100
AcDbSpline
210
0.0
220
0.0
230
1.0
 70
    12
 71
     2
 72
     6
 73
     3
 74
     0
 42
0.0000000001
 43
0.0000000001
 40
0.0
 40
0.0
 40
0.0
 40
1.269404388265408
 40
1.269404388265408
 40
1.269404388265408
 10
2129.357963733611
 20
1080.185400742894
 30
0.0
 41
1.0
 10
2129.992665148307
 20
1080.183503660793
 30
0.0
 41
0.9999951417916482
 10
2130.627342402207
 20
1080.177649762792
 30
0.0
 41
1.0
  0
SPLINE
  5
6B
330
1F
100
AcDbEntity
  8
Linee visibili 2D - Tangent
100
AcDbSpline
210
0.0
220
0.0
230
1.0
 70
     8
 71
     3
 72
    14
 73
    10
 74
     0
 42
0.0000000001
 43
0.0000000001
 40
0.0
 40
0.0
 40
0.0
 40
0.0
 40
27.89923550315335
 40
52.98349623446698
 40
78.48426287825203
 40
90.51939174781116
 40
96.98834093134984
 40
123.7283187123859
 40
154.9941295324031
 40
154.9941295324031
 40
154.9941295324031
 40
154.9941295324031
 10
1995.188721132641
 20
1005.830955903691
 30
0.0
 10
2001.82135663609
 20
1012.349841608656
 30
0.0
 10
2014.744341513719
 20
1024.394534659473
 30
0.0
 10
2034.522547410622
 20
1041.523166200885
 30
0.0
 10
2050.952172313309
 20
1054.416473202056
 30
0.0
 10
2062.813485856434
 20
1063.035917145404
 30
0.0
 10
2075.551936501045
 20
1071.173558312704
 30
0.0
 10
2096.134255247179
 20
1078.190645483244
 30
0.0
 10
2115.436046341097
 20
1080.020030739585
 30
0.0
 10
2125.870535600972
 20
1080.16527180084
 30
0.0
  0
SPLINE
  5
6C
330
1F
100
AcDbEntity
  8
Linee visibili 2D - Tangent
100
AcDbSpline
210
0.0
220
0.0
230
1.0
 70
    12
 71
     2
 72
     8
 73
     5
 74
     0
 42
0.0000000001
 43
0.0000000001
 40
0.0
 40
0.0
 40
0.0
 40
0.6459416886900219
 40
0.6459416886900219
 40
1.291883377380044
 40
1.291883377380044
 40
1.291883377380044
 10
1996.017383247831
 20
1005.338331398279
 30
0.0
 41
1.0
 10
1995.741972023518
 20
1005.081856237863
 30
0.0
 41
0.8002515240006397
 10
1995.418479332189
 20
1005.274166739513
 30
0.0
 41
1.0
 10
1995.09498664086
 20
1005.466477241163
 30
0.0
 41
0.8002515240006397
 10
1995.188721132641
 20
1005.830955903691
 30
0.0
 41
1.0
  0
SPLINE
  5
6D
330
1F
100
AcDbEntity
  8
Linee visibili 2D
100
AcDbSpline
210
0.0
220
0.0
230
1.0
 70
    24
 71
     2
 72
     6
 73
     3
 74
     0
 42
0.0000000001
 43
0.0000000001
 40
0.0
 40
0.0
 40
0.0
 40
1.080145354447926
 40
1.080145354447926
 40
1.080145354447926
 10
1991.660985959848
 20
1002.277915602542
 30
0.0
 10
1991.794255862129
 20
1002.801287009699
 30
0.0
 10
1991.927525764411
 20
1003.324658416856
 30
0.0
  0
SPLINE
  5
6E
330
1F
100
AcDbEntity
  8
Linee visibili 2D
100
AcDbSpline
210
0.0
220
0.0
230
1.0
 70
    12
 71
     2
 72
     8
 73
     5
 74
     0
 42
0.0000000001
 43
0.0000000001
 40
0.0
 40
0.0
 40
0.0
 40
0.4695033333025491
 40
0.4695033333025491
 40
0.9390066666050981
 40
0.9390066666050981
 40
0.9390066666050981
 10
2164.47771962016
 20
1077.212358314504
 30
0.0
 41
1.0
 10
2164.720915238511
 20
1077.140205144932
 30
0.0
 41
0.8917789194683435
 10
2164.806303554843
 20
1076.901334836817
 30
0.0
 41
1.0
 10
2164.891691871174
 20
1076.662464528702
 30
0.0
 41
0.8917789194683435
 10
2164.749346562928
 20
1076.452493097585
 30
0.0
 41
1.0
  0
SPLINE
  5
6F
330
1F
100
AcDbEntity
  8
Linee visibili 2D
100
AcDbSpline
210
0.0
220
0.0
230
1.0
 70
    12
 71
     2
 72
     6
 73
     3
 74
     0
 42
0.0000000001
 43
0.0000000001
 40
0.0
 40
0.0
 40
0.0
 40
0.1292328482814269
 40
0.1292328482814269
 40
0.1292328482814269
 10
2164.749346562928
 20
1076.452493097585
 30
0.0
 41
1.0
 10
2164.712888634898
 20
1076.398706194677
 30
0.0
 41
0.9916615081236919
 10
2164.663894223769
 20
1076.35602412445
 30
0.0
 41
1.0
  0
SPLINE
  5
70
330
1F
100
AcDbEntity
  8
Linee visibili 2D
100
AcDbSpline
210
0.0
220
0.0
230
1.0
 70
    12
 71
     2
 72
     6
 73
     3
 74
     0
 42
0.0000000001
 43
0.0000000001
 40
0.0
 40
0.0
 40
0.0
 40
3.002904819978118
 40
3.002904819978118
 40
3.002904819978118
 10
2062.471159477128
 20
1060.93250657307
 30
0.0
 41
1.0
 10
2063.913512775489
 20
1061.351438020238
 30
0.0
 41
0.9994922347346364
 10
2065.379620867928
 20
1061.677649080755
 30
0.0
 41
1.0
  0
SPLINE
  5
71
330
1F
100
AcDbEntity
  8
Linee visibili 2D
100
AcDbSpline
210
0.0
220
0.0
230
1.0
 70
    12
 71
     2
 72
     6
 73
     3
 74
     0
 42
0.0000000001
 43
0.0000000001
 40
0.0
 40
0.0
 40
0.0
 40
0.8833946083397438
 40
0.8833946083397438
 40
0.8833946083397438
 10
2018.054103765121
 20
1037.987547029127
 30
0.0
 41
1.0
 10
2018.423063193957
 20
1038.230375570554
 30
0.0
 41
0.9999990306864043
 10
2018.792697394086
 20
1038.472175733399
 30
0.0
 41
1.0
  0
SPLINE
  5
72
330
1F
100
AcDbEntity
  8
Linee visibili 2D
100
AcDbSpline
210
0.0
220
0.0
230
1.0
 70
     8
 71
     3
 72
    12
 73
     8
 74
     0
 42
0.0000000001
 43
0.0000000001
 40
0.0
 40
0.0
 40
0.0
 40
0.0
 40
5.6048387569981
 40
11.27796864873943
 40
24.12208670071271
 40
41.22336552807045
 40
60.08576225782634
 40
60.08576225782634
 40
60.08576225782634
 40
60.08576225782634
 10
2065.379620867928
 20
1061.677649080755
 30
0.0
 10
2067.211457481906
 20
1062.082160499039
 30
0.0
 10
2070.947306678592
 20
1062.492706418226
 30
0.0
 10
2079.032257995394
 20
1061.646915174309
 30
0.0
 10
2090.009614030807
 20
1056.805328935712
 30
0.0
 10
2103.114262815614
 20
1047.081206167069
 30
0.0
 10
2111.583783128678
 20
1038.539995295176
 30
0.0
 10
2115.611407344671
 20
1033.712581917793
 30
0.0
  0
SPLINE
  5
73
330
1F
100
AcDbEntity
  8
Linee visibili 2D
100
AcDbSpline
210
0.0
220
0.0
230
1.0
 70
    12
 71
     2
 72
     6
 73
     3
 74
     0
 42
0.0000000001
 43
0.0000000001
 40
0.0
 40
0.0
 40
0.0
 40
0.5981645823716137
 40
0.5981645823716137
 40
0.5981645823716137
 10
2009.509720397034
 20
1030.862158668348
 30
0.0
 41
1.0
 10
2009.686895145647
 20
1031.103114128302
 30
0.0
 41
0.9999982532826515
 10
2009.864969381192
 20
1031.343405601022
 30
0.0
 41
1.0
  0
SPLINE
  5
74
330
1F
100
AcDbEntity
  8
Linee visibili 2D - Tangent
100
AcDbSpline
210
0.0
220
0.0
230
1.0
 70
    12
 71
     2
 72
     6
 73
     3
 74
     0
 42
0.0000000001
 43
0.0000000001
 40
0.0
 40
0.0
 40
0.0
 40
1.84230867687867
 40
1.84230867687867
 40
1.84230867687867
 10
2050.579684687846
 20
1052.781680267223
 30
0.0
 41
1.0
 10
2049.846608686596
 20
1052.223892472721
 30
0.0
 41
0.9999979387147224
 10
2049.115803801241
 20
1051.663132393148
 30
0.0
 41
1.0
  0
SPLINE
  5
75
330
1F
100
AcDbEntity
  8
Linee visibili 2D - Tangent
100
AcDbSpline
210
0.0
220
0.0
230
1.0
 70
    12
 71
     2
 72
     6
 73
     3
 74
     0
 42
0.0000000001
 43
0.0000000001
 40
0.0
 40
0.0
 40
0.0
 40
2.161386756991135
 40
2.161386756991135
 40
2.161386756991135
 10
2055.311914776695
 20
1056.330789157794
 30
0.0
 41
1.0
 10
2054.442694108511
 20
1055.688637092561
 30
0.0
 41
0.9999963610720862
 10
2053.57695080832
 20
1055.041804515262
 30
0.0
 41
1.0
  0
SPLINE
  5
76
330
1F
100
AcDbEntity
  8
Linee visibili 2D - Tangent
100
AcDbSpline
210
0.0
220
0.0
230
1.0
 70
    12
 71
     2
 72
     6
 73
     3
 74
     0
 42
0.0000000001
 43
0.0000000001
 40
0.0
 40
0.0
 40
0.0
 40
1.585703779669131
 40
1.585703779669131
 40
1.585703779669131
 10
2057.805055057213
 20
1058.156925120938
 30
0.0
 41
1.0
 10
2057.163474716278
 20
1057.69110244736
 30
0.0
 41
0.9999976401982185
 10
2056.523924392154
 20
1057.222496557506
 30
0.0
 41
1.0
  0
SPLINE
  5
77
330
1F
100
AcDbEntity
  8
Linee visibili 2D - Tangent
100
AcDbSpline
210
0.0
220
0.0
230
1.0
 70
     8
 71
     3
 72
    13
 73
     9
 74
     0
 42
0.0000000001
 43
0.0000000001
 40
0.0
 40
0.0
 40
0.0
 40
0.0
 40
15.91741464601766
 40
32.46947717008648
 40
62.03823525277313
 40
86.69667246724529
 40
97.31868406984546
 40
109.3552380445778
 40
109.3552380445778
 40
109.3552380445778
 40
109.3552380445778
 10
2164.663894223769
 20
1076.35602412445
 30
0.0
 10
2159.437903296702
 20
1077.265858187732
 30
0.0
 10
2148.683734546908
 20
1078.593614485562
 30
0.0
 10
2128.031892874189
 20
1079.710095062116
 30
0.0
 10
2104.384530916017
 20
1078.461427681113
 30
0.0
 10
2083.306380505537
 20
1073.108808977377
 30
0.0
 10
2069.048070602022
 20
1066.21956315052
 30
0.0
 10
2062.900999940879
 20
1061.800106547739
 30
0.0
 10
2059.634112865889
 20
1059.475896555998
 30
0.0
  0
SPLINE
  5
78
330
1F
100
AcDbEntity
  8
Linee visibili 2D
100
AcDbSpline
210
0.0
220
0.0
230
1.0
 70
     8
 71
     3
 72
    11
 73
     7
 74
     0
 42
0.0000000001
 43
0.0000000001
 40
0.0
 40
0.0
 40
0.0
 40
0.0
 40
9.427703146453858
 40
18.37838078640408
 40
33.60848925946663
 40
68.58012424310076
 40
68.58012424310076
 40
68.58012424310076
 40
68.58012424310076
 10
2059.988915731104
 20
1065.932075178815
 30
0.0
 10
2057.254697423183
 20
1064.382265926496
 30
0.0
 10
2051.963111730719
 20
1061.296543744154
 30
0.0
 10
2042.373828297806
 20
1055.501259953438
 30
0.0
 10
2025.969518033161
 20
1044.546532058109
 30
0.0
 10
2012.899822011732
 20
1034.054681814317
 30
0.0
 10
2004.095183085172
 20
1026.419305261099
 30
0.0
  0
SPLINE
  5
79
330
1F
100
AcDbEntity
  8
Linee visibili 2D - Tangent
100
AcDbSpline
210
0.0
220
0.0
230
1.0
 70
    12
 71
     2
 72
     6
 73
     3
 74
     0
 42
0.0000000001
 43
0.0000000001
 40
0.0
 40
0.0
 40
0.0
 40
1.618631758547045
 40
1.618631758547045
 40
1.618631758547045
 10
2104.160005525346
 20
1078.482608130292
 30
0.0
 41
1.0
 10
2104.947127407313
 20
1078.293665743751
 30
0.0
 41
0.9996933742733263
 10
2105.723929710388
 20
1078.065985563587
 30
0.0
 41
1.0
  0
SPLINE
  5
7A
330
1F
100
AcDbEntity
  8
Linee visibili 2D - Tangent
100
AcDbSpline
210
0.0
220
0.0
230
1.0
 70
    12
 71
     3
 72
    12
 73
     8
 74
     0
 42
0.0000000001
 43
0.0000000001
 40
0.0
 40
0.0
 40
0.0
 40
0.0
 40
0.25
 40
0.25
 40
0.5
 40
0.5
 40
0.6006870686039606
 40
0.6006870686039606
 40
0.6006870686039606
 40
0.6006870686039606
 10
2061.501713172696
 20
1069.786949407367
 30
0.0
 41
1.0
 10
2064.961266189532
 20
1072.300461262856
 30
0.0
 41
1.0
 10
2069.29585150111
 20
1074.593807489724
 30
0.0
 41
1.0
 10
2078.514431136053
 20
1077.915394940546
 30
0.0
 41
1.0
 10
2083.341742920706
 20
1078.941285748101
 30
0.0
 41
1.0
 10
2089.418900724672
 20
1079.565300413705
 30
0.0
 41
1.0
 10
2091.068689695383
 20
1079.655318970347
 30
0.0
 41
1.0
 10
2092.615980391313
 20
1079.677470741697
 30
0.0
 41
1.0
  0
SPLINE
  5
7B
330
1F
100
AcDbEntity
  8
Linee visibili 2D - Tangent
100
AcDbSpline
210
0.0
220
0.0
230
1.0
 70
     8
 71
     3
 72
    11
 73
     7
 74
     0
 42
0.0000000001
 43
0.0000000001
 40
0.0
 40
0.0
 40
0.0
 40
0.0
 40
21.22669313250995
 40
39.07690298456819
 40
52.29456004977072
 40
62.5561336380003
 40
62.5561336380003
 40
62.5561336380003
 40
62.5561336380003
 10
2007.27112661163
 20
1035.692753915512
 30
0.0
 10
2013.344501119508
 20
1039.322882072409
 30
0.0
 10
2024.498372206191
 20
1046.050498100178
 30
0.0
 10
2039.340897391951
 20
1055.192002792092
 30
0.0
 10
2050.970761776139
 20
1062.5777825668
 30
0.0
 10
2057.479455387221
 20
1066.925642204919
 30
0.0
 10
2060.270687726187
 20
1068.903186676595
 30
0.0
  0
SPLINE
  5
7C
330
1F
100
AcDbEntity
  8
Linee visibili 2D - Tangent
100
AcDbSpline
210
0.0
220
0.0
230
1.0
 70
    12
 71
     2
 72
     6
 73
     3
 74
     0
 42
0.0000000001
 43
0.0000000001
 40
0.0
 40
0.0
 40
0.0
 40
1.515415147294566
 40
1.515415147294566
 40
1.515415147294566
 10
2060.270687726187
 20
1068.903186676595
 30
0.0
 41
1.0
 10
2060.888614935767
 20
1069.341704815627
 30
0.0
 41
0.9999850721107212
 10
2061.501713172696
 20
1069.786949407367
 30
0.0
 41
1.0
  0
SPLINE
  5
7D
330
1F
100
AcDbEntity
  8
Linee visibili 2D - Tangent
100
AcDbSpline
210
0.0
220
0.0
230
1.0
 70
    12
 71
     2
 72
     6
 73
     3
 74
     0
 42
0.0000000001
 43
0.0000000001
 40
0.0
 40
0.0
 40
0.0
 40
0.6076894275813316
 40
0.6076894275813316
 40
0.6076894275813316
 10
2061.501713172696
 20
1069.786949407367
 30
0.0
 41
1.0
 10
2061.393794532141
 20
1070.107940243688
 30
0.0
 41
0.8527427574889721
 10
2061.630710402492
 20
1070.349916317624
 30
0.0
 41
1.0
  0
SPLINE
  5
7E
330
1F
100
AcDbEntity
  8
Linee visibili 2D - Tangent
100
AcDbSpline
210
0.0
220
0.0
230
1.0
 70
    12
 71
     2
 72
     6
 73
     3
 74
     0
 42
0.0000000001
 43
0.0000000001
 40
0.0
 40
0.0
 40
0.0
 40
0.735351748065834
 40
0.735351748065834
 40
0.735351748065834
 10
2060.446599052547
 20
1069.587012327627
 30
0.0
 41
1.0
 10
2060.175570342668
 20
1069.292194287773
 30
0.0
 41
0.881581414012764
 10
2060.270687726187
 20
1068.903186676595
 30
0.0
 41
1.0
  0
SPLINE
  5
7F
330
1F
100
AcDbEntity
  8
Linee visibili 2D
100
AcDbSpline
210
0.0
220
0.0
230
1.0
 70
    12
 71
     2
 72
     6
 73
     3
 74
     0
 42
0.0000000001
 43
0.0000000001
 40
0.0
 40
0.0
 40
0.0
 40
0.7970498782655068
 40
0.7970498782655068
 40
0.7970498782655068
 10
1661.163950178938
 20
1040.13329561679
 30
0.0
 41
1.0
 10
1661.458066509869
 20
1039.864376029133
 30
0.0
 41
0.9999998411659181
 10
1661.751879516767
 20
1039.595125072359
 30
0.0
 41
1.0
  0
SPLINE
  5
80
330
1F
100
AcDbEntity
  8
Linee visibili 2D
100
AcDbSpline
210
0.0
220
0.0
230
1.0
 70
    12
 71
     2
 72
     6
 73
     3
 74
     0
 42
0.0000000001
 43
0.0000000001
 40
0.0
 40
0.0
 40
0.0
 40
4.543801927716006
 40
4.543801927716006
 40
4.543801927716006
 10
1660.866502237202
 20
1008.316997958579
 30
0.0
 41
1.0
 10
1660.195941405193
 20
1006.146270344682
 30
0.0
 41
0.9999743960250089
 10
1659.556515590604
 20
1003.966168321657
 30
0.0
 41
1.0
  0
SPLINE
  5
81
330
1F
100
AcDbEntity
  8
Linee visibili 2D
100
AcDbSpline
210
0.0
220
0.0
230
1.0
 70
    12
 71
     2
 72
     6
 73
     3
 74
     0
 42
0.0000000001
 43
0.0000000001
 40
0.0
 40
0.0
 40
0.0
 40
0.7970498131957992
 40
0.7970498131957992
 40
0.7970498131957992
 10
1540.47937601018
 20
1039.595125146076
 30
0.0
 41
1.0
 10
1540.773188993121
 20
1039.864376080835
 30
0.0
 41
0.9999998411659402
 10
1541.067305300051
 20
1040.133295646528
 30
0.0
 41
1.0
  0
SPLINE
  5
82
330
1F
100
AcDbEntity
  8
Linee visibili 2D
100
AcDbSpline
210
0.0
220
0.0
230
1.0
 70
    12
 71
     2
 72
     6
 73
     3
 74
     0
 42
0.0000000001
 43
0.0000000001
 40
0.0
 40
0.0
 40
0.0
 40
4.543726265147829
 40
4.543726265147829
 40
4.543726265147829
 10
1542.674705937963
 20
1003.966283189978
 30
0.0
 41
1.0
 10
1542.035290442743
 20
1006.146348814941
 30
0.0
 41
0.9999743954712348
 10
1541.364740113991
 20
1008.317040078406
 30
0.0
 41
1.0
  0
SPLINE
  5
83
330
1F
100
AcDbEntity
  8
Linee visibili 2D
100
AcDbSpline
210
0.0
220
0.0
230
1.0
 70
    12
 71
     2
 72
     6
 73
     3
 74
     0
 42
0.0000000001
 43
0.0000000001
 40
0.0
 40
0.0
 40
0.0
 40
42.75614031764125
 40
42.75614031764125
 40
42.75614031764125
 10
1601.115620512698
 20
1001.65463066671
 30
0.0
 41
1.0
 10
1579.696011550524
 20
1001.790136938544
 30
0.0
 41
0.9970636993855138
 10
1558.548303166375
 20
1005.194904205357
 30
0.0
 41
1.0
  0
SPLINE
  5
84
330
1F
100
AcDbEntity
  8
Linee visibili 2D
100
AcDbSpline
210
0.0
220
0.0
230
1.0
 70
    12
 71
     2
 72
     6
 73
     3
 74
     0
 42
0.0000000001
 43
0.0000000001
 40
0.0
 40
0.0
 40
0.0
 40
42.75613720678664
 40
42.75613720678664
 40
42.75613720678664
 10
1643.682952454953
 20
1005.194904205354
 30
0.0
 41
1.0
 10
1622.535210523685
 20
1001.790459233275
 30
0.0
 41
0.9970648539006166
 10
1601.115621709707
 20
1001.654630666483
 30
0.0
 41
1.0
  0
SPLINE
  5
85
330
1F
100
AcDbEntity
  8
Linee visibili 2D
100
AcDbSpline
210
0.0
220
0.0
230
1.0
 70
     8
 71
     3
 72
    18
 73
    14
 74
     0
 42
0.0000000001
 43
0.0000000001
 40
0.0
 40
0.0
 40
0.0
 40
0.0
 40
8.949545811319892
 40
15.94424541661687
 40
21.36486606658472
 40
26.2034469908985
 40
31.25837948659217
 40
37.39412246170667
 40
45.27907279257547
 40
54.97172345957534
 40
79.45560627923592
 40
109.6135123844808
 40
173.5589571900858
 40
173.5589571900858
 40
173.5589571900858
 40
173.5589571900858
 10
1750.121736043902
 20
1078.80508148582
 30
0.0
 10
1753.071054511446
 20
1078.39955452921
 30
0.0
 10
1758.325216271603
 20
1077.428767247946
 30
0.0
 10
1765.023153696703
 20
1074.948060892176
 30
0.0
 10
1769.654836760398
 20
1071.297424785804
 30
0.0
 10
1771.619181929789
 20
1066.390107382913
 30
0.0
 10
1770.941125503411
 20
1060.935641252653
 30
0.0
 10
1767.66742513488
 20
1055.402765329024
 30
0.0
 10
1762.149713159386
 20
1049.696105508746
 30
0.0
 10
1750.923290848554
 20
1041.245962355258
 30
0.0
 10
1732.027790935251
 20
1030.97930671733
 30
0.0
 10
1695.335543188197
 20
1016.170714715908
 30
0.0
 10
1664.770731427575
 20
1008.529029097383
 30
0.0
 10
1643.720792993895
 20
1005.200825854537
 30
0.0
  0
SPLINE
  5
86
330
1F
100
AcDbEntity
  8
Linee visibili 2D
100
AcDbSpline
210
0.0
220
0.0
230
1.0
 70
    12
 71
     2
 72
     6
 73
     3
 74
     0
 42
0.0000000001
 43
0.0000000001
 40
0.0
 40
0.0
 40
0.0
 40
2.77374997796826
 40
2.77374997796826
 40
2.77374997796826
 10
1746.260242839783
 20
1079.264060129825
 30
0.0
 41
1.0
 10
1747.64015009915
 20
1079.124519962002
 30
0.0
 41
0.999924646464362
 10
1749.016215704751
 20
1078.951144785079
 30
0.0
 41
1.0
  0
SPLINE
  5
87
330
1F
100
AcDbEntity
  8
Linee visibili 2D
100
AcDbSpline
210
0.0
220
0.0
230
1.0
 70
    12
 71
     2
 72
     6
 73
     3
 74
     0
 42
0.0000000001
 43
0.0000000001
 40
0.0
 40
0.0
 40
0.0
 40
1.966857074733904
 40
1.966857074733904
 40
1.966857074733904
 10
1743.262742169018
 20
1079.534147664966
 30
0.0
 41
1.0
 10
1744.243115237081
 20
1079.456484255038
 30
0.0
 41
0.999975751442075
 10
1745.222311554586
 20
1079.36517418107
 30
0.0
 41
1.0
  0
SPLINE
  5
88
330
1F
100
AcDbEntity
  8
Linee visibili 2D
100
AcDbSpline
210
0.0
220
0.0
230
1.0
 70
    12
 71
     2
 72
     6
 73
     3
 74
     0
 42
0.0000000001
 43
0.0000000001
 40
0.0
 40
0.0
 40
0.0
 40
4.120787932177404
 40
4.120787932177404
 40
4.120787932177404
 10
1737.034438695821
 20
1079.912829500585
 30
0.0
 41
1.0
 10
1739.0929165677
 20
1079.82218185114
 30
0.0
 41
0.9999426133299691
 10
1741.1489798171
 20
1079.687452270746
 30
0.0
 41
1.0
  0
SPLINE
  5
89
330
1F
100
AcDbEntity
  8
Linee visibili 2D
100
AcDbSpline
210
0.0
220
0.0
230
1.0
 70
    12
 71
     2
 72
     6
 73
     3
 74
     0
 42
0.0000000001
 43
0.0000000001
 40
0.0
 40
0.0
 40
0.0
 40
6.636845107470783
 40
6.636845107470783
 40
6.636845107470783
 10
1730.167385394358
 20
1080.124148310422
 30
0.0
 41
1.0
 10
1733.485433500945
 20
1080.064256379273
 30
0.0
 41
0.999924949902613
 10
1736.801018166651
 20
1079.923087666102
 30
0.0
 41
1.0
  0
SPLINE
  5
8A
330
1F
100
AcDbEntity
  8
Linee visibili 2D
100
AcDbSpline
210
0.0
220
0.0
230
1.0
 70
    12
 71
     2
 72
     6
 73
     3
 74
     0
 42
0.0000000001
 43
0.0000000001
 40
0.0
 40
0.0
 40
0.0
 40
5.39934584014453
 40
5.39934584014453
 40
5.39934584014453
 10
1721.901787183939
 20
1080.185072117459
 30
0.0
 41
1.0
 10
1724.601486579787
 20
1080.192584543318
 30
0.0
 41
0.9999794822934788
 10
1727.30106065641
 20
1080.165509290737
 30
0.0
 41
1.0
  0
SPLINE
  5
8B
330
1F
100
AcDbEntity
  8
Linee visibili 2D
100
AcDbSpline
210
0.0
220
0.0
230
1.0
 70
    12
 71
     2
 72
     6
 73
     3
 74
     0
 42
0.0000000001
 43
0.0000000001
 40
0.0
 40
0.0
 40
0.0
 40
15.49341062772072
 40
15.49341062772072
 40
15.49341062772072
 10
1701.27187329147
 20
1079.81467830986
 30
0.0
 41
1.0
 10
1709.01527520895
 20
1080.047242732566
 30
0.0
 41
0.9999635555959249
 10
1716.76151918627
 20
1080.14756077768
 30
0.0
 41
1.0
  0
SPLINE
  5
8C
330
1F
100
AcDbEntity
  8
Linee visibili 2D
100
AcDbSpline
210
0.0
220
0.0
230
1.0
 70
    12
 71
     2
 72
     6
 73
     3
 74
     0
 42
0.0000000001
 43
0.0000000001
 40
0.0
 40
0.0
 40
0.0
 40
4.446340294323655
 40
4.446340294323655
 40
4.446340294323655
 10
1694.664007514977
 20
1079.610452118098
 30
0.0
 41
1.0
 10
1696.885988569802
 20
1079.683187048219
 30
0.0
 41
0.9999992906162244
 10
1699.108136591629
 20
1079.750628483198
 30
0.0
 41
1.0
  0
SPLINE
  5
8D
330
1F
100
AcDbEntity
  8
Linee visibili 2D
100
AcDbSpline
210
0.0
220
0.0
230
1.0
 70
    12
 71
     2
 72
     6
 73
     3
 74
     0
 42
0.0000000001
 43
0.0000000001
 40
0.0
 40
0.0
 40
0.0
 40
4.810361355386327
 40
4.810361355386327
 40
4.810361355386327
 10
1687.954024626241
 20
1079.38238096937
 30
0.0
 41
1.0
 10
1690.357723317315
 20
1079.466814731365
 30
0.0
 41
0.9999996933456574
 10
1692.761551306878
 20
1079.547483524743
 30
0.0
 41
1.0
  0
SPLINE
  5
8E
330
1F
100
AcDbEntity
  8
Linee visibili 2D
100
AcDbSpline
210
0.0
220
0.0
230
1.0
 70
    12
 71
     2
 72
     6
 73
     3
 74
     0
 42
0.0000000001
 43
0.0000000001
 40
0.0
 40
0.0
 40
0.0
 40
5.049261616075817
 40
5.049261616075817
 40
5.049261616075817
 10
1681.148061801533
 20
1079.139075022922
 30
0.0
 41
1.0
 10
1683.671031643047
 20
1079.230641999375
 30
0.0
 41
0.9999999275773068
 10
1686.194070451816
 20
1079.320288537576
 30
0.0
 41
1.0
  0
SPLINE
  5
8F
330
1F
100
AcDbEntity
  8
Linee visibili 2D
100
AcDbSpline
210
0.0
220
0.0
230
1.0
 70
    12
 71
     2
 72
     6
 73
     3
 74
     0
 42
0.0000000001
 43
0.0000000001
 40
0.0
 40
0.0
 40
0.0
 40
5.151966252227251
 40
5.151966252227251
 40
5.151966252227251
 10
1674.263238220057
 20
1078.888511641352
 30
0.0
 41
1.0
 10
1676.83751410308
 20
1078.982281275083
 30
0.0
 41
0.9999999999890897
 10
1679.411790862023
 20
1079.076026858831
 30
0.0
 41
1.0
  0
SPLINE
  5
90
330
1F
100
AcDbEntity
  8
Linee visibili 2D
100
AcDbSpline
210
0.0
220
0.0
230
1.0
 70
    12
 71
     2
 72
     6
 73
     3
 74
     0
 42
0.0000000001
 43
0.0000000001
 40
0.0
 40
0.0
 40
0.0
 40
8.620774432557118
 40
8.620774432557118
 40
8.620774432557118
 10
1663.805525790824
 20
1078.51404078957
 30
0.0
 41
1.0
 10
1668.113270886743
 20
1078.664956633028
 30
0.0
 41
0.9999997800405402
 10
1672.420811998557
 20
1078.821586685231
 30
0.0
 41
1.0
  0
SPLINE
  5
91
330
1F
100
AcDbEntity
  8
Linee visibili 2D
100
AcDbSpline
210
0.0
220
0.0
230
1.0
 70
    12
 71
     2
 72
     6
 73
     3
 74
     0
 42
0.0000000001
 43
0.0000000001
 40
0.0
 40
0.0
 40
0.0
 40
1.800100458999225
 40
1.800100458999225
 40
1.800100458999225
 10
1654.970865781517
 20
1078.215872588683
 30
0.0
 41
1.0
 10
1655.870443559449
 20
1078.245032219337
 30
0.0
 41
0.99999995649729
 10
1656.7700039786
 20
1078.274722536064
 30
0.0
 41
1.0
  0
SPLINE
  5
92
330
1F
100
AcDbEntity
  8
Linee visibili 2D
100
AcDbSpline
210
0.0
220
0.0
230
1.0
 70
    12
 71
     2
 72
     6
 73
     3
 74
     0
 42
0.0000000001
 43
0.0000000001
 40
0.0
 40
0.0
 40
0.0
 40
2.068275043183386
 40
2.068275043183386
 40
2.068275043183386
 10
1646.045922263011
 20
1077.941556466159
 30
0.0
 41
1.0
 10
1647.079628158529
 20
1077.971434202248
 30
0.0
 41
0.999999899027157
 10
1648.113306783412
 20
1078.002240987257
 30
0.0
 41
1.0
  0
SPLINE
  5
93
330
1F
100
AcDbEntity
  8
Linee visibili 2D
100
AcDbSpline
210
0.0
220
0.0
230
1.0
 70
    12
 71
     2
 72
     6
 73
     3
 74
     0
 42
0.0000000001
 43
0.0000000001
 40
0.0
 40
0.0
 40
0.0
 40
3.640868598609686
 40
3.640868598609686
 40
3.640868598609686
 10
1638.852162508209
 20
1077.745897207094
 30
0.0
 41
1.0
 10
1640.672009165591
 20
1077.792168341789
 30
0.0
 41
0.9999995844416654
 10
1642.491768431292
 20
1077.841757546108
 30
0.0
 41
1.0
  0
SPLINE
  5
94
330
1F
100
AcDbEntity
  8
Linee visibili 2D
100
AcDbSpline
210
0.0
220
0.0
230
1.0
 70
    12
 71
     2
 72
     6
 73
     3
 74
     0
 42
0.0000000001
 43
0.0000000001
 40
0.0
 40
0.0
 40
0.0
 40
4.502873794509364
 40
4.502873794509364
 40
4.502873794509364
 10
1630.046871743476
 20
1077.543338400261
 30
0.0
 41
1.0
 10
1632.297837743709
 20
1077.58944673341
 30
0.0
 41
0.9999991403181339
 10
1634.548675084965
 20
1077.641458037971
 30
0.0
 41
1.0
  0
SPLINE
  5
95
330
1F
100
AcDbEntity
  8
Linee visibili 2D
100
AcDbSpline
210
0.0
220
0.0
230
1.0
 70
    12
 71
     2
 72
     6
 73
     3
 74
     0
 42
0.0000000001
 43
0.0000000001
 40
0.0
 40
0.0
 40
0.0
 40
12.91124415569059
 40
12.91124415569059
 40
12.91124415569059
 10
1613.52348486556
 20
1077.292910378173
 30
0.0
 41
1.0
 10
1619.97885173945
 20
1077.354797072329
 30
0.0
 41
0.9999903715648947
 10
1626.433426850315
 20
1077.473336422892
 30
0.0
 41
1.0
  0
SPLINE
  5
96
330
1F
100
AcDbEntity
  8
Linee visibili 2D
100
AcDbSpline
210
0.0
220
0.0
230
1.0
 70
    12
 71
     2
 72
     6
 73
     3
 74
     0
 42
0.0000000001
 43
0.0000000001
 40
0.0
 40
0.0
 40
0.0
 40
8.595242266255822
 40
8.595242266255822
 40
8.595242266255822
 10
1601.115627809438
 20
1077.233047210169
 30
0.0
 41
1.0
 10
1605.413264774269
 20
1077.233281107298
 30
0.0
 41
0.9999944720637268
 10
1609.710805155688
 20
1077.262094407546
 30
0.0
 41
1.0
  0
SPLINE
  5
97
330
1F
100
AcDbEntity
  8
Linee visibili 2D
100
AcDbSpline
210
0.0
220
0.0
230
1.0
 70
    12
 71
     2
 72
     6
 73
     3
 74
     0
 42
0.0000000001
 43
0.0000000001
 40
0.0
 40
0.0
 40
0.0
 40
6.488768909590464
 40
6.488768909590464
 40
6.488768909590464
 10
1576.851454199703
 20
1077.45444842607
 30
0.0
 41
1.0
 10
1580.095340520711
 20
1077.397312368141
 30
0.0
 41
0.9999976841607658
 10
1583.339442720611
 20
1077.354139351708
 30
0.0
 41
1.0
  0
SPLINE
  5
98
330
1F
100
AcDbEntity
  8
Linee visibili 2D
100
AcDbSpline
210
0.0
220
0.0
230
1.0
 70
    12
 71
     2
 72
     6
 73
     3
 74
     0
 42
0.0000000001
 43
0.0000000001
 40
0.0
 40
0.0
 40
0.0
 40
5.887226112408395
 40
5.887226112408395
 40
5.887226112408395
 10
1567.688856216915
 20
1077.641332746289
 30
0.0
 41
1.0
 10
1570.631685629196
 20
1077.573286625658
 30
0.0
 41
0.9999984939482343
 10
1573.574733506535
 20
1077.515455699564
 30
0.0
 41
1.0
  0
SPLINE
  5
99
330
1F
100
AcDbEntity
  8
Linee visibili 2D
100
AcDbSpline
210
0.0
220
0.0
230
1.0
 70
    12
 71
     2
 72
     6
 73
     3
 74
     0
 42
0.0000000001
 43
0.0000000001
 40
0.0
 40
0.0
 40
0.0
 40
2.799359402720308
 40
2.799359402720308
 40
2.799359402720308
 10
1561.484461207833
 20
1077.795095254287
 30
0.0
 41
1.0
 10
1562.883653507158
 20
1077.758151402096
 30
0.0
 41
0.9999997426229434
 10
1564.282897377729
 20
1077.723215326568
 30
0.0
 41
1.0
  0
SPLINE
  5
9A
330
1F
100
AcDbEntity
  8
Linee visibili 2D
100
AcDbSpline
210
0.0
220
0.0
230
1.0
 70
    12
 71
     2
 72
     6
 73
     3
 74
     0
 42
0.0000000001
 43
0.0000000001
 40
0.0
 40
0.0
 40
0.0
 40
6.000686254169501
 40
6.000686254169501
 40
6.000686254169501
 10
1551.9841017835
 20
1078.066828280751
 30
0.0
 41
1.0
 10
1554.983035581296
 20
1077.974823629613
 30
0.0
 41
0.9999991752605815
 10
1557.982195812393
 20
1077.890522457639
 30
0.0
 41
1.0
  0
SPLINE
  5
9B
330
1F
100
AcDbEntity
  8
Linee visibili 2D
100
AcDbSpline
210
0.0
220
0.0
230
1.0
 70
    12
 71
     2
 72
     6
 73
     3
 74
     0
 42
0.0000000001
 43
0.0000000001
 40
0.0
 40
0.0
 40
0.0
 40
21.90372851806854
 40
21.90372851806854
 40
21.90372851806854
 10
1529.824429406591
 20
1078.821082438755
 30
0.0
 41
1.0
 10
1540.768888309851
 20
1078.417636485902
 30
0.0
 41
0.9999961321072318
 10
1551.715422105678
 20
1078.075076740981
 30
0.0
 41
1.0
  0
SPLINE
  5
9C
330
1F
100
AcDbEntity
  8
Linee visibili 2D
100
AcDbSpline
210
0.0
220
0.0
230
1.0
 70
    12
 71
     2
 72
     6
 73
     3
 74
     0
 42
0.0000000001
 43
0.0000000001
 40
0.0
 40
0.0
 40
0.0
 40
5.138838509910205
 40
5.138838509910205
 40
5.138838509910205
 10
1522.834835834859
 20
1079.075468127668
 30
0.0
 41
1.0
 10
1525.402553068683
 20
1078.981961363495
 30
0.0
 41
0.9999999999906333
 10
1527.97026949297
 20
1078.888432371959
 30
0.0
 41
1.0
  0
SPLINE
  5
9D
330
1F
100
AcDbEntity
  8
Linee visibili 2D
100
AcDbSpline
210
0.0
220
0.0
230
1.0
 70
    12
 71
     2
 72
     6
 73
     3
 74
     0
 42
0.0000000001
 43
0.0000000001
 40
0.0
 40
0.0
 40
0.0
 40
5.032579205152296
 40
5.032579205152296
 40
5.032579205152296
 10
1516.053857034789
 20
1079.319695580592
 30
0.0
 41
1.0
 10
1518.568559661199
 20
1079.23033859214
 30
0.0
 41
0.9999999281446893
 10
1521.083193815826
 20
1079.139075023062
 30
0.0
 41
1.0
  0
SPLINE
  5
9E
330
1F
100
AcDbEntity
  8
Linee visibili 2D
100
AcDbSpline
210
0.0
220
0.0
230
1.0
 70
    12
 71
     2
 72
     6
 73
     3
 74
     0
 42
0.0000000001
 43
0.0000000001
 40
0.0
 40
0.0
 40
0.0
 40
3.174825345996667
 40
3.174825345996667
 40
3.174825345996667
 10
1503.142094161255
 20
1079.750393379315
 30
0.0
 41
1.0
 10
1504.728776483305
 20
1079.702231533822
 30
0.0
 41
0.999999595197785
 10
1506.315369566078
 20
1079.651214437046
 30
0.0
 41
1.0
  0
SPLINE
  5
9F
330
1F
100
AcDbEntity
  8
Linee visibili 2D
100
AcDbSpline
210
0.0
220
0.0
230
1.0
 70
    12
 71
     2
 72
     6
 73
     3
 74
     0
 42
0.0000000001
 43
0.0000000001
 40
0.0
 40
0.0
 40
0.0
 40
31.72181529062163
 40
31.72181529062163
 40
31.72181529062163
 10
1470.059729417221
 20
1080.080516397354
 30
0.0
 41
1.0
 10
1485.921953698596
 20
1080.35134640431
 30
0.0
 41
0.9996569559802074
 10
1501.776597718775
 20
1079.791193711983
 30
0.0
 41
1.0
  0
SPLINE
  5
A0
330
1F
100
AcDbEntity
  8
Linee visibili 2D
100
AcDbSpline
210
0.0
220
0.0
230
1.0
 70
    12
 71
     2
 72
     6
 73
     3
 74
     0
 42
0.0000000001
 43
0.0000000001
 40
0.0
 40
0.0
 40
0.0
 40
8.80472290796878
 40
8.80472290796878
 40
8.80472290796878
 10
1461.085998230844
 20
1079.687921542386
 30
0.0
 41
1.0
 10
1465.479892551683
 20
1079.970200475266
 30
0.0
 41
0.9997987323943562
 10
1469.881573867212
 20
1080.075984666751
 30
0.0
 41
1.0
  0
SPLINE
  5
A1
330
1F
100
AcDbEntity
  8
Linee visibili 2D
100
AcDbSpline
210
0.0
220
0.0
230
1.0
 70
    12
 71
     2
 72
     6
 73
     3
 74
     0
 42
0.0000000001
 43
0.0000000001
 40
0.0
 40
0.0
 40
0.0
 40
2.646426550092356
 40
2.646426550092356
 40
2.646426550092356
 10
1457.00829758456
 20
1079.36509583784
 30
0.0
 41
1.0
 10
1458.325849259383
 20
1079.487765757855
 30
0.0
 41
0.9999584717941127
 10
1459.645417872216
 20
1079.586401456935
 30
0.0
 41
1.0
  0
SPLINE
  5
A2
330
1F
100
AcDbEntity
  8
Linee visibili 2D
100
AcDbSpline
210
0.0
220
0.0
230
1.0
 70
     8
 71
     3
 72
    19
 73
    15
 74
     0
 42
0.0000000001
 43
0.0000000001
 40
0.0
 40
0.0
 40
0.0
 40
0.0
 40
32.88166079117334
 40
65.31963212257702
 40
95.57089356335531
 40
120.5948620752314
 40
130.1369892065022
 40
137.7677327055814
 40
143.6196888516826
 40
148.9250728737711
 40
153.8192810729414
 40
159.7441284980217
 40
167.371062579316
 40
177.4464870528469
 40
177.4464870528469
 40
177.4464870528469
 40
177.4464870528469
 10
1558.510462627336
 20
1005.200825854537
 30
0.0
 10
1547.678943140142
 20
1006.895135817892
 30
0.0
 10
1526.34352092362
 20
1011.319096287183
 30
0.0
 10
1495.810021300385
 20
1020.552008784883
 30
0.0
 10
1468.740352058575
 20
1031.664800622277
 30
0.0
 10
1449.77260009503
 20
1042.158909385968
 30
0.0
 10
1438.71577557592
 20
1050.911726895768
 30
0.0
 10
1433.588795889158
 20
1056.687039811412
 30
0.0
 10
1430.817974765683
 20
1062.393704889811
 30
0.0
 10
1430.875062948459
 20
1067.961742641092
 30
0.0
 10
1433.836170698575
 20
1072.651760172266
 30
0.0
 10
1439.202396458135
 20
1075.875462180622
 30
0.0
 10
1446.761239912322
 20
1078.112439440169
 30
0.0
 10
1452.634818408093
 20
1078.92109266497
 30
0.0
 10
1455.969581761554
 20
1079.263998450535
 30
0.0
  0
SPLINE
  5
A3
330
1F
100
AcDbEntity
  8
Linee visibili 2D - Tangent
100
AcDbSpline
210
0.0
220
0.0
230
1.0
 70
    12
 71
     2
 72
     6
 73
     3
 74
     0
 42
0.0000000001
 43
0.0000000001
 40
0.0
 40
0.0
 40
0.0
 40
6.361297800040864
 40
6.361297800040864
 40
6.361297800040864
 10
1657.170618977576
 20
1001.896004283407
 30
0.0
 41
1.0
 10
1658.084338265181
 20
1004.942747395808
 30
0.0
 41
0.999925937424162
 10
1659.071941803345
 20
1007.966348854484
 30
0.0
 41
1.0
  0
SPLINE
  5
A4
330
1F
100
AcDbEntity
  8
Linee visibili 2D - Tangent
100
AcDbSpline
210
0.0
220
0.0
230
1.0
 70
    12
 71
     2
 72
     6
 73
     3
 74
     0
 42
0.0000000001
 43
0.0000000001
 40
0.0
 40
0.0
 40
0.0
 40
4.47934233903668
 40
4.47934233903668
 40
4.47934233903668
 10
1601.115815406563
 20
1001.689969789401
 30
0.0
 41
1.0
 10
1601.116032206488
 20
999.4502986150987
 30
0.0
 41
0.9999999897684729
 10
1601.115608240375
 20
997.2106274704316
 30
0.0
 41
1.0
  0
SPLINE
  5
A5
330
1F
100
AcDbEntity
  8
Linee visibili 2D - Tangent
100
AcDbSpline
210
0.0
220
0.0
230
1.0
 70
    12
 71
     2
 72
     6
 73
     3
 74
     0
 42
0.0000000001
 43
0.0000000001
 40
0.0
 40
0.0
 40
0.0
 40
6.361344284778481
 40
6.361344284778481
 40
6.361344284778481
 10
1545.06063646883
 20
1001.896004283407
 30
0.0
 41
1.0
 10
1544.146910606996
 20
1004.942769695001
 30
0.0
 41
0.9999259353787068
 10
1543.15929893747
 20
1007.966392954285
 30
0.0
 41
1.0
  0
SPLINE
  5
A6
330
1F
100
AcDbEntity
  8
Linee visibili 2D
100
AcDbSpline
210
0.0
220
0.0
230
1.0
 70
    12
 71
     3
 72
    11
 73
     7
 74
     0
 42
0.0000000001
 43
0.0000000001
 40
0.0
 40
0.0
 40
0.0
 40
0.0
 40
46.23257606222079
 40
46.23257606222079
 40
46.23257606222079
 40
46.41201427554508
 40
46.41201427554508
 40
46.41201427554508
 40
46.41201427554508
 10
1601.115608240375
 20
997.2106274704316
 30
0.0
 41
1.0
 10
1585.691945522058
 20
997.2133472780681
 30
0.0
 41
0.9983407611152899
 10
1570.30686188611
 20
998.3035676964265
 30
0.0
 41
0.9983407611152898
 10
1555.036939919569
 20
1000.475861917173
 30
0.0
 41
1.0
 10
1551.711505435989
 20
1000.949242705918
 30
0.0
 41
1.0
 10
1548.38607095241
 20
1001.422623494662
 30
0.0
 41
1.0
 10
1545.06063646883
 20
1001.896004283407
 30
0.0
 41
1.0
  0
SPLINE
  5
A7
330
1F
100
AcDbEntity
  8
Linee visibili 2D
100
AcDbSpline
210
0.0
220
0.0
230
1.0
 70
    12
 71
     2
 72
     8
 73
     5
 74
     0
 42
0.0000000001
 43
0.0000000001
 40
0.0
 40
0.0
 40
0.0
 40
46.23261502759573
 40
46.23261502759573
 40
56.30939910190222
 40
56.30939910190222
 40
56.30939910190222
 10
1601.115608240375
 20
997.2106274704316
 30
0.0
 41
1.0
 10
1624.270363443697
 20
997.214707817682
 30
0.0
 41
0.9975111374692929
 10
1647.19431552684
 20
1000.475861917813
 30
0.0
 41
1.0
 10
1652.182505556693
 20
1001.186157612644
 30
0.0
 41
1.0
 10
1657.170611656113
 20
1001.896222300524
 30
0.0
 41
1.0
  0
SPLINE
  5
A8
330
1F
100
AcDbEntity
  8
Linee visibili 2D
100
AcDbSpline
210
0.0
220
0.0
230
1.0
 70
    12
 71
     2
 72
     6
 73
     3
 74
     0
 42
0.0000000001
 43
0.0000000001
 40
0.0
 40
0.0
 40
0.0
 40
3.334258928457026
 40
3.334258928457026
 40
3.334258928457026
 10
1659.541103399108
 20
1003.970790601819
 30
0.0
 41
1.0
 10
1659.036027354832
 20
1002.156294139295
 30
0.0
 41
0.8362782425959003
 10
1657.170618977576
 20
1001.896004283407
 30
0.0
 41
1.0
  0
SPLINE
  5
A9
330
1F
100
AcDbEntity
  8
Linee visibili 2D
100
AcDbSpline
210
0.0
220
0.0
230
1.0
 70
    12
 71
     2
 72
     6
 73
     3
 74
     0
 42
0.0000000001
 43
0.0000000001
 40
0.0
 40
0.0
 40
0.0
 40
3.333872734773342
 40
3.333872734773342
 40
3.333872734773342
 10
1545.06063646883
 20
1001.896004283407
 30
0.0
 41
1.0
 10
1543.194557241348
 20
1002.155690969662
 30
0.0
 41
0.8357700951990507
 10
1542.69202295635
 20
1003.971496066764
 30
0.0
 41
1.0
  0
SPLINE
  5
AA
330
1F
100
AcDbEntity
  8
Linee visibili 2D - Tangent
100
AcDbSpline
210
0.0
220
0.0
230
1.0
 70
    12
 71
     2
 72
     6
 73
     3
 74
     0
 42
0.0000000001
 43
0.0000000001
 40
0.0
 40
0.0
 40
0.0
 40
0.7565330817947767
 40
0.7565330817947767
 40
0.7565330817947767
 10
1659.89801084117
 20
1039.89804104822
 30
0.0
 41
1.0
 10
1660.163683217672
 20
1039.628775816835
 30
0.0
 41
0.9999999973447113
 10
1660.429394836064
 20
1039.359549309372
 30
0.0
 41
1.0
  0
SPLINE
  5
AB
330
1F
100
AcDbEntity
  8
Linee visibili 2D - Tangent
100
AcDbSpline
210
0.0
220
0.0
230
1.0
 70
    12
 71
     2
 72
     6
 73
     3
 74
     0
 42
0.0000000001
 43
0.0000000001
 40
0.0
 40
0.0
 40
0.0
 40
0.755699254231881
 40
0.755699254231881
 40
0.755699254231881
 10
1542.332659367548
 20
1039.897447543315
 30
0.0
 41
1.0
 10
1542.067279820881
 20
1039.628479074105
 30
0.0
 41
0.999999997339982
 10
1541.801861040683
 20
1039.359549320571
 30
0.0
 41
1.0
  0
SPLINE
  5
AC
330
1F
100
AcDbEntity
  8
Linee visibili 2D - Tangent
100
AcDbSpline
210
0.0
220
0.0
230
1.0
 70
    24
 71
     2
 72
     6
 73
     3
 74
     0
 42
0.0000000001
 43
0.0000000001
 40
0.0
 40
0.0
 40
0.0
 40
0.1259602851964132
 40
0.1259602851964132
 40
0.1259602851964132
 10
1601.115627810616
 20
1033.698011999232
 30
0.0
 10
1601.115627810616
 20
1033.635031856634
 30
0.0
 10
1601.115627810616
 20
1033.572051714036
 30
0.0
  0
SPLINE
  5
AD
330
1F
100
AcDbEntity
  8
Linee visibili 2D
100
AcDbSpline
210
0.0
220
0.0
230
1.0
 70
     8
 71
     3
 72
    13
 73
     9
 74
     0
 42
0.0000000001
 43
0.0000000001
 40
0.0
 40
0.0
 40
0.0
 40
0.0
 40
0.773228995015079
 40
2.056849047143141
 40
6.154406382196038
 40
17.56294339621536
 40
46.58362542259827
 40
105.320074992926
 40
105.320074992926
 40
105.320074992926
 40
105.320074992926
 10
1736.104916290875
 20
1062.182341514216
 30
0.0
 10
1735.949983383845
 20
1061.973840898855
 30
0.0
 10
1735.42092731792
 20
1061.533873928277
 30
0.0
 10
1733.679367900995
 20
1060.443859616778
 30
0.0
 10
1728.654505581519
 20
1057.968521024988
 30
0.0
 10
1714.801072193734
 20
1052.605366744793
 30
0.0
 10
1683.093107099337
 20
1043.175296909573
 30
0.0
 10
1654.257991475267
 20
1037.839620722541
 30
0.0
 10
1634.798088232573
 20
1035.679063355789
 30
0.0
  0
SPLINE
  5
AE
330
1F
100
AcDbEntity
  8
Linee visibili 2D
100
AcDbSpline
210
0.0
220
0.0
230
1.0
 70
     8
 71
     3
 72
    15
 73
    11
 74
     0
 42
0.0000000001
 43
0.0000000001
 40
0.0
 40
0.0
 40
0.0
 40
0.0
 40
14.79051175039195
 40
29.90291442086433
 40
58.61449207672381
 40
87.6275204789374
 40
99.0428546173828
 40
103.1392719009433
 40
104.4318614796615
 40
105.1974936830379
 40
105.1974936830379
 40
105.1974936830379
 40
105.1974936830379
 10
1567.311365811817
 20
1035.692419882902
 30
0.0
 10
1562.410441247021
 20
1036.230482911158
 30
0.0
 10
1552.525140110716
 20
1037.519095965233
 30
0.0
 10
1533.253475966937
 20
1040.760183580149
 30
0.0
 10
1509.538564284646
 20
1046.020113959874
 30
0.0
 10
1487.43311573821
 20
1052.611238981199
 30
0.0
 10
1473.579537260566
 20
1057.965714027443
 30
0.0
 10
1468.550578201213
 20
1060.446286233312
 30
0.0
 10
1466.807993265087
 20
1061.533687907519
 30
0.0
 10
1466.280037766835
 20
1061.976421739569
 30
0.0
 10
1466.126350766536
 20
1062.182346102295
 30
0.0
  0
SPLINE
  5
AF
330
1F
100
AcDbEntity
  8
Linee visibili 2D
100
AcDbSpline
210
0.0
220
0.0
230
1.0
 70
    12
 71
     2
 72
     6
 73
     3
 74
     0
 42
0.0000000001
 43
0.0000000001
 40
0.0
 40
0.0
 40
0.0
 40
4.307761692370312
 40
4.307761692370312
 40
4.307761692370312
 10
1576.375801135399
 20
1034.813924018671
 30
0.0
 41
1.0
 10
1574.229406014152
 20
1034.993677247128
 30
0.0
 41
0.9999805132944285
 10
1572.085422492938
 20
1035.200215138113
 30
0.0
 41
1.0
  0
SPLINE
  5
B0
330
1F
100
AcDbEntity
  8
Linee visibili 2D - Tangent
100
AcDbSpline
210
0.0
220
0.0
230
1.0
 70
    12
 71
     2
 72
     6
 73
     3
 74
     0
 42
0.0000000001
 43
0.0000000001
 40
0.0
 40
0.0
 40
0.0
 40
0.1866333117506557
 40
0.1866333117506557
 40
0.1866333117506557
 10
1601.115627810615
 20
1001.876603082222
 30
0.0
 41
1.0
 10
1601.115625200959
 20
1001.783286426381
 30
0.0
 41
0.9999999999685973
 10
1601.115621112236
 20
1001.689969770593
 30
0.0
 41
1.0
  0
SPLINE
  5
B1
330
1F
100
AcDbEntity
  8
Linee visibili 2D - Tangent
100
AcDbSpline
210
0.0
220
0.0
230
1.0
 70
    12
 71
     2
 72
     6
 73
     3
 74
     0
 42
0.0000000001
 43
0.0000000001
 40
0.0
 40
0.0
 40
0.0
 40
3.812806412554087
 40
3.812806412554087
 40
3.812806412554087
 10
1613.523487706756
 20
1077.292629647068
 30
0.0
 41
1.0
 10
1611.617168437213
 20
1077.274608383937
 30
0.0
 41
0.9999990221602065
 10
1609.710806220135
 20
1077.261918992567
 30
0.0
 41
1.0
  0
SPLINE
  5
B2
330
1F
100
AcDbEntity
  8
Linee visibili 2D - Tangent
100
AcDbSpline
210
0.0
220
0.0
230
1.0
 70
    12
 71
     2
 72
     6
 73
     3
 74
     0
 42
0.0000000001
 43
0.0000000001
 40
0.0
 40
0.0
 40
0.0
 40
3.614127760191599
 40
3.614127760191599
 40
3.614127760191599
 10
1630.046905228619
 20
1077.541768972593
 30
0.0
 41
1.0
 10
1628.240215790801
 20
1077.504947723454
 30
0.0
 41
0.9999993885217887
 10
1626.433449332755
 20
1077.472122501633
 30
0.0
 41
1.0
  0
SPLINE
  5
B3
330
1F
100
AcDbEntity
  8
Linee visibili 2D - Tangent
100
AcDbSpline
210
0.0
220
0.0
230
1.0
 70
    12
 71
     2
 72
     6
 73
     3
 74
     0
 42
0.0000000001
 43
0.0000000001
 40
0.0
 40
0.0
 40
0.0
 40
4.304761107495285
 40
4.304761107495285
 40
4.304761107495285
 10
1638.852228268622
 20
1077.743348349435
 30
0.0
 41
1.0
 10
1636.70053607958
 20
1077.688878748908
 30
0.0
 41
0.9999993256244628
 10
1634.548723177487
 20
1077.639407058512
 30
0.0
 41
1.0
  0
SPLINE
  5
B4
330
1F
100
AcDbEntity
  8
Linee visibili 2D - Tangent
100
AcDbSpline
210
0.0
220
0.0
230
1.0
 70
    12
 71
     2
 72
     6
 73
     3
 74
     0
 42
0.0000000001
 43
0.0000000001
 40
0.0
 40
0.0
 40
0.0
 40
3.555560166497767
 40
3.555560166497767
 40
3.555560166497767
 10
1646.046019567572
 20
1077.938221220696
 30
0.0
 41
1.0
 10
1644.268976037766
 20
1077.887037548422
 30
0.0
 41
0.9999996557341155
 10
1642.491850012912
 20
1077.838803049127
 30
0.0
 41
1.0
  0
SPLINE
  5
B5
330
1F
100
AcDbEntity
  8
Linee visibili 2D - Tangent
100
AcDbSpline
210
0.0
220
0.0
230
1.0
 70
    12
 71
     2
 72
     6
 73
     3
 74
     0
 42
0.0000000001
 43
0.0000000001
 40
0.0
 40
0.0
 40
0.0
 40
6.860895525985365
 40
6.860895525985365
 40
6.860895525985365
 10
1654.970999298827
 20
1078.211773847187
 30
0.0
 41
1.0
 10
1651.542349056466
 20
1078.100673744784
 30
0.0
 41
0.9999991165071269
 10
1648.113415564854
 20
1077.998689298432
 30
0.0
 41
1.0
  0
SPLINE
  5
B6
330
1F
100
AcDbEntity
  8
Linee visibili 2D - Tangent
100
AcDbSpline
210
0.0
220
0.0
230
1.0
 70
    12
 71
     2
 72
     6
 73
     3
 74
     0
 42
0.0000000001
 43
0.0000000001
 40
0.0
 40
0.0
 40
0.0
 40
7.039598982337221
 40
7.039598982337221
 40
7.039598982337221
 10
1663.805677041967
 20
1078.509716230506
 30
0.0
 41
1.0
 10
1660.288026990738
 20
1078.386694096569
 30
0.0
 41
0.9999995235499953
 10
1656.770143463546
 20
1078.270539813577
 30
0.0
 41
1.0
  0
SPLINE
  5
B7
330
1F
100
AcDbEntity
  8
Linee visibili 2D - Tangent
100
AcDbSpline
210
0.0
220
0.0
230
1.0
 70
    12
 71
     2
 72
     6
 73
     3
 74
     0
 42
0.0000000001
 43
0.0000000001
 40
0.0
 40
0.0
 40
0.0
 40
1.843641722236283
 40
1.843641722236283
 40
1.843641722236283
 10
1674.263389661318
 20
1078.88434569137
 30
0.0
 41
1.0
 10
1673.342179998607
 20
1078.850782918064
 30
0.0
 41
0.9999999978547633
 10
1672.420965946964
 20
1078.817340826652
 30
0.0
 41
1.0
  0
SPLINE
  5
B8
330
1F
100
AcDbEntity
  8
Linee visibili 2D - Tangent
100
AcDbSpline
210
0.0
220
0.0
230
1.0
 70
    12
 71
     2
 72
     6
 73
     3
 74
     0
 42
0.0000000001
 43
0.0000000001
 40
0.0
 40
0.0
 40
0.0
 40
1.737414788930243
 40
1.737414788930243
 40
1.737414788930243
 10
1681.148196343108
 20
1079.135362462738
 30
0.0
 41
1.0
 10
1680.280061809571
 20
1079.103819307759
 30
0.0
 41
0.9999999982639876
 10
1679.411930999354
 20
1079.072173845273
 30
0.0
 41
1.0
  0
SPLINE
  5
B9
330
1F
100
AcDbEntity
  8
Linee visibili 2D - Tangent
100
AcDbSpline
210
0.0
220
0.0
230
1.0
 70
    12
 71
     2
 72
     6
 73
     3
 74
     0
 42
0.0000000001
 43
0.0000000001
 40
0.0
 40
0.0
 40
0.0
 40
1.761048008651631
 40
1.761048008651631
 40
1.761048008651631
 10
1687.954130689427
 20
1079.379359420678
 30
0.0
 41
1.0
 10
1687.07415131756
 20
1079.348394138034
 30
0.0
 41
0.9999999792544348
 10
1686.194184633583
 20
1079.317070365431
 30
0.0
 41
1.0
  0
SPLINE
  5
BA
330
1F
100
AcDbEntity
  8
Linee visibili 2D - Tangent
100
AcDbSpline
210
0.0
220
0.0
230
1.0
 70
    12
 71
     2
 72
     6
 73
     3
 74
     0
 42
0.0000000001
 43
0.0000000001
 40
0.0
 40
0.0
 40
0.0
 40
1.903496158676481
 40
1.903496158676481
 40
1.903496158676481
 10
1694.664079921801
 20
1079.608236321735
 30
0.0
 41
1.0
 10
1693.712844018823
 20
1079.577015131387
 30
0.0
 41
0.999999917767656
 10
1692.761633751768
 20
1079.54502241829
 30
0.0
 41
1.0
  0
SPLINE
  5
BB
330
1F
100
AcDbEntity
  8
Linee visibili 2D - Tangent
100
AcDbSpline
210
0.0
220
0.0
230
1.0
 70
    12
 71
     2
 72
     6
 73
     3
 74
     0
 42
0.0000000001
 43
0.0000000001
 40
0.0
 40
0.0
 40
0.0
 40
2.164682505677562
 40
2.164682505677562
 40
2.164682505677562
 10
1701.271911756796
 20
1079.813342950686
 30
0.0
 41
1.0
 10
1700.19002548934
 20
1079.781956776712
 30
0.0
 41
0.999999743890603
 10
1699.108185256026
 20
1079.749022035019
 30
0.0
 41
1.0
  0
SPLINE
  5
BC
330
1F
100
AcDbEntity
  8
Linee visibili 2D - Tangent
100
AcDbSpline
210
0.0
220
0.0
230
1.0
 70
    12
 71
     2
 72
     6
 73
     3
 74
     0
 42
0.0000000001
 43
0.0000000001
 40
0.0
 40
0.0
 40
0.0
 40
5.140421235011734
 40
5.140421235011734
 40
5.140421235011734
 10
1721.901787685395
 20
1080.18487755951
 30
0.0
 41
1.0
 10
1719.331567287453
 20
1080.17808099231
 30
0.0
 41
0.9999890476990937
 10
1716.761523106397
 20
1080.147226580118
 30
0.0
 41
1.0
  0
SPLINE
  5
BD
330
1F
100
AcDbEntity
  8
Linee visibili 2D - Tangent
100
AcDbSpline
210
0.0
220
0.0
230
1.0
 70
    12
 71
     2
 72
     6
 73
     3
 74
     0
 42
0.0000000001
 43
0.0000000001
 40
0.0
 40
0.0
 40
0.0
 40
2.866628337064051
 40
2.866628337064051
 40
2.866628337064051
 10
1730.167379263783
 20
1080.123828208461
 30
0.0
 41
1.0
 10
1728.734304036088
 20
1080.150449850268
 30
0.0
 41
0.9999913061543547
 10
1727.301056629553
 20
1080.165119264179
 30
0.0
 41
1.0
  0
SPLINE
  5
BE
330
1F
100
AcDbEntity
  8
Linee visibili 2D - Tangent
100
AcDbSpline
210
0.0
220
0.0
230
1.0
 70
    12
 71
     2
 72
     6
 73
     3
 74
     0
 42
0.0000000001
 43
0.0000000001
 40
0.0
 40
0.0
 40
0.0
 40
1.633096356149451
 40
1.633096356149451
 40
1.633096356149451
 10
1733.815848542481
 20
1080.033420141858
 30
0.0
 41
1.0
 10
1732.999696228789
 20
1080.058920119626
 30
0.0
 41
0.9999955895790179
 10
1732.183406844833
 20
1080.079571745464
 30
0.0
 41
1.0
  0
SPLINE
  5
BF
330
1F
100
AcDbEntity
  8
Linee visibili 2D - Tangent
100
AcDbSpline
210
0.0
220
0.0
230
1.0
 70
    12
 71
     2
 72
     6
 73
     3
 74
     0
 42
0.0000000001
 43
0.0000000001
 40
0.0
 40
0.0
 40
0.0
 40
0.233644938209721
 40
0.233644938209721
 40
0.233644938209721
 10
1737.034392305761
 20
1079.911782592155
 30
0.0
 41
1.0
 10
1736.917686358149
 20
1079.91699925871
 30
0.0
 41
0.999999860949962
 10
1736.800974973411
 20
1079.922092832167
 30
0.0
 41
1.0
  0
SPLINE
  5
C0
330
1F
100
AcDbEntity
  8
Linee visibili 2D - Tangent
100
AcDbSpline
210
0.0
220
0.0
230
1.0
 70
    12
 71
     2
 72
     6
 73
     3
 74
     0
 42
0.0000000001
 43
0.0000000001
 40
0.0
 40
0.0
 40
0.0
 40
2.119310759313962
 40
2.119310759313962
 40
2.119310759313962
 10
1743.262648877636
 20
1079.532989734315
 30
0.0
 41
1.0
 10
1742.206267667669
 20
1079.616419249529
 30
0.0
 41
0.9999784790839585
 10
1741.148882723409
 20
1079.685980908725
 30
0.0
 41
1.0
  0
SPLINE
  5
C1
330
1F
100
AcDbEntity
  8
Linee visibili 2D - Tangent
100
AcDbSpline
210
0.0
220
0.0
230
1.0
 70
    12
 71
     2
 72
     6
 73
     3
 74
     0
 42
0.0000000001
 43
0.0000000001
 40
0.0
 40
0.0
 40
0.0
 40
1.042842375927168
 40
1.042842375927168
 40
1.042842375927168
 10
1746.260202865574
 20
1079.263678933741
 30
0.0
 41
1.0
 10
1745.741432419417
 20
1079.316217275342
 30
0.0
 41
0.9999917302091768
 10
1745.222251802949
 20
1079.364534359574
 30
0.0
 41
1.0
  0
SPLINE
  5
C2
330
1F
100
AcDbEntity
  8
Linee visibili 2D - Tangent
100
AcDbSpline
210
0.0
220
0.0
230
1.0
 70
    12
 71
     2
 72
     6
 73
     3
 74
     0
 42
0.0000000001
 43
0.0000000001
 40
0.0
 40
0.0
 40
0.0
 40
1.115133162803304
 40
1.115133162803304
 40
1.115133162803304
 10
1750.121718279652
 20
1078.804947668018
 30
0.0
 41
1.0
 10
1749.569379882488
 20
1078.88116839203
 30
0.0
 41
0.9999835686632882
 10
1749.016203920153
 20
1078.951051569152
 30
0.0
 41
1.0
  0
SPLINE
  5
C3
330
1F
100
AcDbEntity
  8
Linee visibili 2D - Tangent
100
AcDbSpline
210
0.0
220
0.0
230
1.0
 70
    12
 71
     2
 72
     6
 73
     3
 74
     0
 42
0.0000000001
 43
0.0000000001
 40
0.0
 40
0.0
 40
0.0
 40
0.2287505480681794
 40
0.2287505480681794
 40
0.2287505480681794
 10
1643.606064907229
 20
1005.477612713728
 30
0.0
 41
1.0
 10
1643.629931983902
 20
1005.365457896221
 30
0.0
 41
0.9961984371553176
 10
1643.672902822038
 20
1005.259147748498
 30
0.0
 41
1.0
  0
SPLINE
  5
C4
330
1F
100
AcDbEntity
  8
Linee visibili 2D - Tangent
100
AcDbSpline
210
0.0
220
0.0
230
1.0
 70
    12
 71
     2
 72
     6
 73
     3
 74
     0
 42
0.0000000001
 43
0.0000000001
 40
0.0
 40
0.0
 40
0.0
 40
0.7804922115052904
 40
0.7804922115052904
 40
0.7804922115052904
 10
1601.115631315376
 20
1077.232985160041
 30
0.0
 41
1.0
 10
1601.116047281528
 20
1076.842739126938
 30
0.0
 41
0.9999994271246585
 10
1601.115627810615
 20
1076.452493097585
 30
0.0
 41
1.0
  0
SPLINE
  5
C5
330
1F
100
AcDbEntity
  8
Linee visibili 2D - Tangent
100
AcDbSpline
210
0.0
220
0.0
230
1.0
 70
    12
 71
     2
 72
     6
 73
     3
 74
     0
 42
0.0000000001
 43
0.0000000001
 40
0.0
 40
0.0
 40
0.0
 40
17.77673117638075
 40
17.77673117638075
 40
17.77673117638075
 10
1583.33943456917
 20
1077.353532324369
 30
0.0
 41
1.0
 10
1592.22713293488
 20
1077.234531545593
 30
0.0
 41
0.9999781603614053
 10
1601.115627809073
 20
1077.233016085138
 30
0.0
 41
1.0
  0
SPLINE
  5
C6
330
1F
100
AcDbEntity
  8
Linee visibili 2D - Tangent
100
AcDbSpline
210
0.0
220
0.0
230
1.0
 70
    12
 71
     2
 72
     6
 73
     3
 74
     0
 42
0.0000000001
 43
0.0000000001
 40
0.0
 40
0.0
 40
0.0
 40
3.277291302564274
 40
3.277291302564274
 40
3.277291302564274
 10
1573.574704466006
 20
1077.51400027144
 30
0.0
 41
1.0
 10
1575.213037991566
 20
1077.481989527645
 30
0.0
 41
0.9999994809734247
 10
1576.851433343955
 20
1077.453317276874
 30
0.0
 41
1.0
  0
SPLINE
  5
C7
330
1F
100
AcDbEntity
  8
Linee visibili 2D - Tangent
100
AcDbSpline
210
0.0
220
0.0
230
1.0
 70
    12
 71
     2
 72
     6
 73
     3
 74
     0
 42
0.0000000001
 43
0.0000000001
 40
0.0
 40
0.0
 40
0.0
 40
3.406947982701472
 40
3.406947982701472
 40
3.406947982701472
 10
1564.282832529098
 20
1077.720656590716
 30
0.0
 41
1.0
 10
1565.985781954325
 20
1077.678365291124
 30
0.0
 41
0.9999995710387977
 10
1567.688806801385
 20
1077.63922874559
 30
0.0
 41
1.0
  0
SPLINE
  5
C8
330
1F
100
AcDbEntity
  8
Linee visibili 2D - Tangent
100
AcDbSpline
210
0.0
220
0.0
230
1.0
 70
    12
 71
     2
 72
     6
 73
     3
 74
     0
 42
0.0000000001
 43
0.0000000001
 40
0.0
 40
0.0
 40
0.0
 40
3.50357064008448
 40
3.50357064008448
 40
3.50357064008448
 10
1557.982100924245
 20
1077.887175261061
 30
0.0
 41
1.0
 10
1559.733201466879
 20
1077.83818371529
 30
0.0
 41
0.9999996396450785
 10
1561.484382667789
 20
1077.792165419497
 30
0.0
 41
1.0
  0
SPLINE
  5
C9
330
1F
100
AcDbEntity
  8
Linee visibili 2D - Tangent
100
AcDbSpline
210
0.0
220
0.0
230
1.0
 70
    12
 71
     2
 72
     6
 73
     3
 74
     0
 42
0.0000000001
 43
0.0000000001
 40
0.0
 40
0.0
 40
0.0
 40
0.2688061823864438
 40
0.2688061823864438
 40
0.2688061823864438
 10
1551.715302259997
 20
1078.071193590506
 30
0.0
 41
1.0
 10
1551.849642099263
 20
1078.067070661541
 30
0.0
 41
0.9999999985467688
 10
1551.983982382295
 20
1078.062962217556
 30
0.0
 41
1.0
  0
SPLINE
  5
CA
330
1F
100
AcDbEntity
  8
Linee visibili 2D - Tangent
100
AcDbSpline
210
0.0
220
0.0
230
1.0
 70
    12
 71
     2
 72
     6
 73
     3
 74
     0
 42
0.0000000001
 43
0.0000000001
 40
0.0
 40
0.0
 40
0.0
 40
1.855383125635378
 40
1.855383125635378
 40
1.855383125635378
 10
1527.970116092633
 20
1078.884212926695
 30
0.0
 41
1.0
 10
1528.897192540604
 20
1078.850435747314
 30
0.0
 41
0.9999999978145048
 10
1529.824273446724
 20
1078.816781152701
 30
0.0
 41
1.0
  0
SPLINE
  5
CB
330
1F
100
AcDbEntity
  8
Linee visibili 2D - Tangent
100
AcDbSpline
210
0.0
220
0.0
230
1.0
 70
    12
 71
     2
 72
     6
 73
     3
 74
     0
 42
0.0000000001
 43
0.0000000001
 40
0.0
 40
0.0
 40
0.0
 40
1.75279603218578
 40
1.75279603218578
 40
1.75279603218578
 10
1521.083057656907
 20
1079.135318379774
 30
0.0
 41
1.0
 10
1521.958877700814
 20
1079.103494880586
 30
0.0
 41
0.999999998244509
 10
1522.834693967261
 20
1079.071567590751
 30
0.0
 41
1.0
  0
SPLINE
  5
CC
330
1F
100
AcDbEntity
  8
Linee visibili 2D - Tangent
100
AcDbSpline
210
0.0
220
0.0
230
1.0
 70
    12
 71
     2
 72
     6
 73
     3
 74
     0
 42
0.0000000001
 43
0.0000000001
 40
0.0
 40
0.0
 40
0.0
 40
9.74412412103579
 40
9.74412412103579
 40
9.74412412103579
 10
1506.315295923518
 20
1079.648919700676
 30
0.0
 41
1.0
 10
1511.18479844061
 20
1079.490872982019
 30
0.0
 41
0.9999985842468837
 10
1516.053741489652
 20
1079.316439285644
 30
0.0
 41
1.0
  0
SPLINE
  5
CD
330
1F
100
AcDbEntity
  8
Linee visibili 2D - Tangent
100
AcDbSpline
210
0.0
220
0.0
230
1.0
 70
    12
 71
     2
 72
     6
 73
     3
 74
     0
 42
0.0000000001
 43
0.0000000001
 40
0.0
 40
0.0
 40
0.0
 40
1.366104161992396
 40
1.366104161992396
 40
1.366104161992396
 10
1501.77654501534
 20
1079.789400464969
 30
0.0
 41
1.0
 10
1502.459298791642
 20
1079.76921416895
 30
0.0
 41
0.9999999031488882
 10
1503.142034534816
 20
1079.7484268989
 30
0.0
 41
1.0
  0
SPLINE
  5
CE
330
1F
100
AcDbEntity
  8
Linee visibili 2D - Tangent
100
AcDbSpline
210
0.0
220
0.0
230
1.0
 70
    12
 71
     2
 72
     6
 73
     3
 74
     0
 42
0.0000000001
 43
0.0000000001
 40
0.0
 40
0.0
 40
0.0
 40
10.4261033717524
 40
10.4261033717524
 40
10.4261033717524
 10
1459.647413199949
 20
1079.559900585585
 30
0.0
 41
1.0
 10
1464.847446407344
 20
1079.94267941216
 30
0.0
 41
0.9996977248305188
 10
1470.060009318934
 20
1080.069379375877
 30
0.0
 41
1.0
  0
SPLINE
  5
CF
330
1F
100
AcDbEntity
  8
Linee visibili 2D - Tangent
100
AcDbSpline
210
0.0
220
0.0
230
1.0
 70
    12
 71
     2
 72
     6
 73
     3
 74
     0
 42
0.0000000001
 43
0.0000000001
 40
0.0
 40
0.0
 40
0.0
 40
1.043372887374429
 40
1.043372887374429
 40
1.043372887374429
 10
1455.972694204979
 20
1079.233444534789
 30
0.0
 41
1.0
 10
1456.491661491686
 20
1079.28666720912
 30
0.0
 41
0.9999918644959124
 10
1457.011041258051
 20
1079.335701442315
 30
0.0
 41
1.0
  0
SPLINE
  5
D0
330
1F
100
AcDbEntity
  8
Linee visibili 2D - Tangent
100
AcDbSpline
210
0.0
220
0.0
230
1.0
 70
    12
 71
     2
 72
     6
 73
     3
 74
     0
 42
0.0000000001
 43
0.0000000001
 40
0.0
 40
0.0
 40
0.0
 40
0.2287505480682353
 40
0.2287505480682353
 40
0.2287505480682353
 10
1558.625190714004
 20
1005.477612713728
 30
0.0
 41
1.0
 10
1558.60132363733
 20
1005.365457896221
 30
0.0
 41
0.9961984371553066
 10
1558.558352799194
 20
1005.259147748498
 30
0.0
 41
1.0
  0
SPLINE
  5
D1
330
1F
100
AcDbEntity
  8
Linee visibili 2D
100
AcDbSpline
210
0.0
220
0.0
230
1.0
 70
     8
 71
     3
 72
    15
 73
    11
 74
     0
 42
0.0000000001
 43
0.0000000001
 40
0.0
 40
0.0
 40
0.0
 40
0.0
 40
17.29880614372929
 40
36.18444248031815
 40
75.12548573742187
 40
115.2840296188784
 40
131.8830828138201
 40
137.2950259797384
 40
138.8799445515716
 40
139.5791661545367
 40
139.5791661545367
 40
139.5791661545367
 40
139.5791661545367
 10
1601.115627810616
 20
1033.572051714036
 30
0.0
 10
1606.883420002749
 20
1033.569323033391
 30
0.0
 10
1618.940301323698
 20
1033.945202361102
 30
0.0
 10
1643.902973169748
 20
1036.111361058219
 30
0.0
 10
1676.17091013475
 20
1041.342704427117
 30
0.0
 10
1707.124255266007
 20
1049.228333223188
 30
0.0
 10
1726.673498240043
 20
1056.156411219777
 30
0.0
 10
1733.821978124627
 20
1059.462685008175
 30
0.0
 10
1735.976976940903
 20
1060.865208776154
 30
0.0
 10
1736.516591714633
 20
1061.4258660295
 30
0.0
 10
1736.512128258986
 20
1061.677649080755
 30
0.0
  0
SPLINE
  5
D2
330
1F
100
AcDbEntity
  8
Linee visibili 2D
100
AcDbSpline
210
0.0
220
0.0
230
1.0
 70
     8
 71
     3
 72
    16
 73
    12
 74
     0
 42
0.0000000001
 43
0.0000000001
 40
0.0
 40
0.0
 40
0.0
 40
0.0
 40
0.5861198870976545
 40
1.481344877186485
 40
2.978454439940854
 40
5.21746929653744
 40
10.62960370027601
 40
32.37848099385509
 40
47.63779454790214
 40
80.02592675722046
 40
139.4718847139831
 40
139.4718847139831
 40
139.4718847139831
 40
139.4718847139831
 10
1736.512128258986
 20
1061.677649080755
 30
0.0
 10
1736.503881560485
 20
1061.890619839198
 30
0.0
 10
1736.131099484867
 20
1062.271211134529
 30
0.0
 10
1735.103364648189
 20
1062.32623756531
 30
0.0
 10
1733.59307641302
 20
1062.066885709489
 30
0.0
 10
1730.627772982737
 20
1061.316253912285
 30
0.0
 10
1721.378901716721
 20
1058.07850044256
 30
0.0
 10
1708.12765037597
 20
1053.137696286319
 30
0.0
 10
1686.095763449046
 20
1046.064534329297
 30
0.0
 10
1651.504218798533
 20
1037.145056631196
 30
0.0
 10
1620.936996252169
 20
1033.674801816342
 30
0.0
 10
1601.115628203308
 20
1033.664135672017
 30
0.0
  0
SPLINE
  5
D3
330
1F
100
AcDbEntity
  8
Linee visibili 2D
100
AcDbSpline
210
0.0
220
0.0
230
1.0
 70
     8
 71
     3
 72
    16
 73
    12
 74
     0
 42
0.0000000001
 43
0.0000000001
 40
0.0
 40
0.0
 40
0.0
 40
0.0
 40
0.5861198870978509
 40
1.481344877186585
 40
2.978454439940969
 40
5.217469296537422
 40
10.60475648432118
 40
32.34214707731712
 40
47.6377945212822
 40
79.97000326092638
 40
139.4718844825854
 40
139.4718844825854
 40
139.4718844825854
 40
139.4718844825854
 10
1465.719127362245
 20
1061.677649080754
 30
0.0
 10
1465.727239341438
 20
1061.890200197595
 30
0.0
 10
1466.100434594989
 20
1062.272078568039
 30
0.0
 10
1467.127369107499
 20
1062.324611594963
 30
0.0
 10
1468.639053567133
 20
1062.069613459287
 30
0.0
 10
1471.594271390519
 20
1061.314642901024
 30
0.0
 10
1480.832554285568
 20
1058.084092127367
 30
0.0
 10
1494.085682616267
 20
1053.14775030905
 30
0.0
 10
1516.105825176286
 20
1046.074116508228
 30
0.0
 10
1550.709784807658
 20
1037.148975734669
 30
0.0
 10
1581.275062534806
 20
1033.672846757409
 30
0.0
 10
1601.115627810616
 20
1033.664135672019
 30
0.0
  0
SPLINE
  5
D4
330
1F
100
AcDbEntity
  8
Linee visibili 2D
100
AcDbSpline
210
0.0
220
0.0
230
1.0
 70
     8
 71
     3
 72
    15
 73
    11
 74
     0
 42
0.0000000001
 43
0.0000000001
 40
0.0
 40
0.0
 40
0.0
 40
0.0
 40
0.2628907474062404
 40
0.7133018309335631
 40
2.23276431901147
 40
7.539925715357203
 40
23.82010707362065
 40
64.92007878000415
 40
103.4708077604921
 40
139.581495812355
 40
139.581495812355
 40
139.581495812355
 40
139.581495812355
 10
1465.719127362245
 20
1061.677649080754
 30
0.0
 10
1465.705496827757
 20
1061.591753344185
 30
0.0
 10
1465.780349837465
 20
1061.350498792619
 30
0.0
 10
1466.311994346872
 20
1060.824752564275
 30
0.0
 10
1468.354291406904
 20
1059.499676741646
 30
0.0
 10
1475.34415686179
 20
1056.24356968368
 30
0.0
 10
1495.052647541806
 20
1049.241327853557
 30
0.0
 10
1526.079484227002
 20
1041.334953815
 30
0.0
 10
1564.204082077191
 20
1035.165363180481
 30
0.0
 10
1589.077604396079
 20
1033.571980517678
 30
0.0
 10
1601.115627810616
 20
1033.572051714036
 30
0.0
  0
SPLINE
  5
D5
330
1F
100
AcDbEntity
  8
Linee visibili 2D - Tangent
100
AcDbSpline
210
0.0
220
0.0
230
1.0
 70
    12
 71
     2
 72
     6
 73
     3
 74
     0
 42
0.0000000001
 43
0.0000000001
 40
0.0
 40
0.0
 40
0.0
 40
42.6783419336081
 40
42.6783419336081
 40
42.6783419336081
 10
1558.625190714004
 20
1005.477612713728
 30
0.0
 41
1.0
 10
1579.735165730235
 20
1002.084734516991
 30
0.0
 41
0.9970753793414041
 10
1601.115627810614
 20
1001.948687196816
 30
0.0
 41
1.0
  0
SPLINE
  5
D6
330
1F
100
AcDbEntity
  8
Linee visibili 2D - Tangent
100
AcDbSpline
210
0.0
220
0.0
230
1.0
 70
     8
 71
     3
 72
    22
 73
    18
 74
     0
 42
0.0000000001
 43
0.0000000001
 40
0.0
 40
0.0
 40
0.0
 40
0.0
 40
38.61722261071024
 40
94.41358450976888
 40
109.6007673316265
 40
135.7708321892307
 40
148.9088038765808
 40
158.7308732280884
 40
165.9685170035697
 40
171.5799439306701
 40
179.3148628786406
 40
183.8613614609502
 40
189.3680980055782
 40
204.0125741345534
 40
223.1484952086817
 40
270.3733326305346
 40
321.1539315271872
 40
321.1539315271872
 40
321.1539315271872
 40
321.1539315271872
 10
1601.115627808533
 20
1076.35602412445
 30
0.0
 10
1588.243317590409
 20
1076.360051667976
 30
0.0
 10
1556.772512256122
 20
1076.832776874591
 30
0.0
 10
1520.268404166253
 20
1078.353205461594
 30
0.0
 10
1487.899131427511
 20
1079.309062825686
 30
0.0
 10
1469.726467283443
 20
1079.420843213215
 30
0.0
 10
1453.375197856588
 20
1078.294037507221
 30
0.0
 10
1443.456228649802
 20
1076.443129798527
 30
0.0
 10
1436.378210789415
 20
1073.624953727713
 30
0.0
 10
1431.297392137944
 20
1068.631445763298
 30
0.0
 10
1431.139694490947
 20
1062.10213155536
 30
0.0
 10
1433.987618595828
 20
1056.900271757616
 30
0.0
 10
1439.25761285102
 20
1050.511747570124
 30
0.0
 10
1449.765466398829
 20
1042.569048488445
 30
0.0
 10
1473.401015624252
 20
1029.438836182901
 30
0.0
 10
1510.024456518874
 20
1015.545031210521
 30
0.0
 10
1541.894240614922
 20
1008.089364822347
 30
0.0
 10
1558.625190714004
 20
1005.477612713728
 30
0.0
  0
SPLINE
  5
D7
330
1F
100
AcDbEntity
  8
Linee visibili 2D - Tangent
100
AcDbSpline
210
0.0
220
0.0
230
1.0
 70
     8
 71
     3
 72
    22
 73
    18
 74
     0
 42
0.0000000001
 43
0.0000000001
 40
0.0
 40
0.0
 40
0.0
 40
0.0
 40
38.61722261487549
 40
94.41358451393381
 40
109.6007673357912
 40
135.7708321933956
 40
148.9088038807457
 40
158.7308732322532
 40
165.9685170077346
 40
171.579943934835
 40
179.3148628828056
 40
183.8613614651152
 40
189.3680980097431
 40
204.0125741387185
 40
223.1484952128468
 40
270.3733326346996
 40
321.1539315313518
 40
321.1539315313518
 40
321.1539315313518
 40
321.1539315313518
 10
1601.115627808533
 20
1076.35602412445
 30
0.0
 10
1613.987938028046
 20
1076.360051667935
 30
0.0
 10
1645.458743363722
 20
1076.832776874535
 30
0.0
 10
1681.962851454979
 20
1078.353205461594
 30
0.0
 10
1714.332124193722
 20
1079.309062825687
 30
0.0
 10
1732.504788337788
 20
1079.420843213215
 30
0.0
 10
1748.856057764646
 20
1078.294037507222
 30
0.0
 10
1758.775026971427
 20
1076.443129798529
 30
0.0
 10
1765.853044831817
 20
1073.624953727714
 30
0.0
 10
1770.933863483287
 20
1068.6314457633
 30
0.0
 10
1771.091561130286
 20
1062.102131555361
 30
0.0
 10
1768.243637025403
 20
1056.900271757616
 30
0.0
 10
1762.973642770213
 20
1050.511747570127
 30
0.0
 10
1752.465789222403
 20
1042.569048488446
 30
0.0
 10
1728.83023999698
 20
1029.438836182902
 30
0.0
 10
1692.206799102359
 20
1015.545031210521
 30
0.0
 10
1660.337015006311
 20
1008.089364822347
 30
0.0
 10
1643.606064907227
 20
1005.477612713728
 30
0.0
  0
SPLINE
  5
D8
330
1F
100
AcDbEntity
  8
Linee visibili 2D - Tangent
100
AcDbSpline
210
0.0
220
0.0
230
1.0
 70
    12
 71
     2
 72
     6
 73
     3
 74
     0
 42
0.0000000001
 43
0.0000000001
 40
0.0
 40
0.0
 40
0.0
 40
42.67834193361303
 40
42.67834193361303
 40
42.67834193361303
 10
1643.606064907229
 20
1005.477612713728
 30
0.0
 41
1.0
 10
1622.496089890994
 20
1002.084734516991
 30
0.0
 41
0.9970753793414026
 10
1601.115627810614
 20
1001.948687196817
 30
0.0
 41
1.0
  0
SPLINE
  5
D9
330
1F
100
AcDbEntity
  8
Linee visibili 2D
100
AcDbSpline
210
0.0
220
0.0
230
1.0
 70
    12
 71
     2
 72
     6
 73
     3
 74
     0
 42
0.0000000001
 43
0.0000000001
 40
0.0
 40
0.0
 40
0.0
 40
8.142125911459031
 40
8.142125911459031
 40
8.142125911459031
 10
1537.05797951664
 20
1078.513390779834
 30
0.0
 41
1.0
 10
1532.98932944532
 20
1078.653548277065
 30
0.0
 41
0.9999998218229386
 10
1528.920849608891
 20
1078.798563267496
 30
0.0
 41
1.0
  0
SPLINE
  5
DA
330
1F
100
AcDbEntity
  8
Linee visibili 2D
100
AcDbSpline
210
0.0
220
0.0
230
1.0
 70
    12
 71
     2
 72
     6
 73
     3
 74
     0
 42
0.0000000001
 43
0.0000000001
 40
0.0
 40
0.0
 40
0.0
 40
8.142992801066711
 40
8.142992801066711
 40
8.142992801066711
 10
1673.310406012442
 20
1078.798563267503
 30
0.0
 41
1.0
 10
1669.241492983908
 20
1078.653533409001
 30
0.0
 41
0.9999998211049366
 10
1665.172409366201
 20
1078.513371339454
 30
0.0
 41
1.0
  0
SPLINE
  5
DB
330
1F
100
AcDbEntity
  8
Linee visibili 2D
100
AcDbSpline
210
0.0
220
0.0
230
1.0
 70
    12
 71
     3
 72
    17
 73
    13
 74
     0
 42
0.0000000001
 43
0.0000000001
 40
5.816471940899575
 40
5.816471940899575
 40
5.816471940899575
 40
5.816471940899575
 40
6.0
 40
6.0
 40
6.0
 40
7.0
 40
7.0
 40
7.0
 40
8.0
 40
8.0
 40
8.0
 40
8.423294815834753
 40
8.423294815834753
 40
8.423294815834753
 40
8.423294815834753
 10
1552.359217229489
 20
1037.63692225406
 30
0.0
 41
1.0
 10
1552.306335968522
 20
1037.670014494202
 30
0.0
 41
1.0
 10
1552.253453966291
 20
1037.703009013848
 30
0.0
 41
1.0
 10
1552.200571197443
 20
1037.735905008496
 30
0.0
 41
1.0
 10
1552.068893396821
 20
1037.8178158334
 30
0.0
 41
1.0
 10
1551.430970284333
 20
1037.951273091344
 30
0.0
 41
1.0
 10
1550.759637426409
 20
1038.038872523876
 30
0.0
 41
1.0
 10
1549.94769665687
 20
1038.144817534088
 30
0.0
 41
1.0
 10
1549.135622382747
 20
1038.25065456357
 30
0.0
 41
1.0
 10
1548.323364561403
 20
1038.356431038129
 30
0.0
 41
1.0
 10
1547.384502786227
 20
1038.478696594806
 30
0.0
 41
1.0
 10
1546.445515657878
 20
1038.600866303006
 30
0.0
 41
1.0
 10
1545.506329501217
 20
1038.723008807032
 30
0.0
 41
1.0
  0
SPLINE
  5
DC
330
1F
100
AcDbEntity
  8
Linee visibili 2D
100
AcDbSpline
210
0.0
220
0.0
230
1.0
 70
    12
 71
     3
 72
    17
 73
    13
 74
     0
 42
0.0000000001
 43
0.0000000001
 40
-0.4232899180195424
 40
-0.4232899180195424
 40
-0.4232899180195424
 40
-0.4232899180195424
 40
0.0
 40
0.0
 40
0.0
 40
1.0
 40
1.0
 40
1.0
 40
2.0
 40
2.0
 40
2.0
 40
2.183528243936648
 40
2.183528243936648
 40
2.183528243936648
 40
2.183528243936648
 10
1656.724927983358
 20
1038.72300906393
 30
0.0
 41
1.0
 10
1655.785750506033
 20
1038.600867692145
 30
0.0
 41
1.0
 10
1654.846763372633
 20
1038.478697986129
 30
0.0
 41
1.0
 10
1653.907890885003
 20
1038.356431038129
 30
0.0
 41
1.0
 10
1653.095637709089
 20
1038.250655168523
 30
0.0
 41
1.0
 10
1652.283563900693
 20
1038.144818201011
 30
0.0
 41
1.0
 10
1651.471618019993
 20
1038.038872523876
 30
0.0
 41
1.0
 10
1650.799941301461
 20
1037.951228222404
 30
0.0
 41
1.0
 10
1650.162429495722
 20
1037.817857788603
 30
0.0
 41
1.0
 10
1650.030684248963
 20
1037.735905008496
 30
0.0
 41
1.0
 10
1649.977801426855
 20
1037.703008980718
 30
0.0
 41
1.0
 10
1649.924919371366
 20
1037.670014427743
 30
0.0
 41
1.0
 10
1649.872038057143
 20
1037.636922154076
 30
0.0
 41
1.0
  0
SPLINE
  5
DD
330
1F
100
AcDbEntity
  8
Linee visibili 2D
100
AcDbSpline
210
0.0
220
0.0
230
1.0
 70
    24
 71
     2
 72
     6
 73
     3
 74
     0
 42
0.0000000001
 43
0.0000000001
 40
0.0
 40
0.0
 40
0.0
 40
135.6988326638299
 40
135.6988326638299
 40
135.6988326638299
 10
1533.266490946894
 20
693.1691937140051
 30
0.0
 10
1601.115907278809
 20
693.1691937140051
 30
0.0
 10
1668.965323610724
 20
693.1691937140051
 30
0.0
  0
SPLINE
  5
DE
330
1F
100
AcDbEntity
  8
Linee visibili 2D
100
AcDbSpline
210
0.0
220
0.0
230
1.0
 70
    12
 71
     2
 72
     6
 73
     3
 74
     0
 42
0.0000000001
 43
0.0000000001
 40
0.0
 40
0.0
 40
0.0
 40
2.497906479221898
 40
2.497906479221898
 40
2.497906479221898
 10
1660.343409687053
 20
834.7357624740237
 30
0.0
 41
1.0
 10
1660.387805848192
 20
833.4875501433557
 30
0.0
 41
0.9999419006422706
 10
1660.459100074212
 20
832.2405849574377
 30
0.0
 41
1.0
  0
SPLINE
  5
DF
330
1F
100
AcDbEntity
  8
Linee visibili 2D
100
AcDbSpline
210
0.0
220
0.0
230
1.0
 70
    12
 71
     2
 72
     6
 73
     3
 74
     0
 42
0.0000000001
 43
0.0000000001
 40
0.0
 40
0.0
 40
0.0
 40
50.43000022475365
 40
50.43000022475365
 40
50.43000022475365
 10
1660.554086920631
 20
830.6697977161593
 30
0.0
 41
1.0
 10
1662.201561459437
 20
805.5086708070145
 30
0.0
 41
0.9999997062421244
 10
1663.887605842458
 20
780.3500990265535
 30
0.0
 41
1.0
  0
SPLINE
  5
E0
330
1F
100
AcDbEntity
  8
Linee visibili 2D
100
AcDbSpline
210
0.0
220
0.0
230
1.0
 70
    12
 71
     2
 72
     6
 73
     3
 74
     0
 42
0.0000000001
 43
0.0000000001
 40
0.0
 40
0.0
 40
0.0
 40
2.497906805904219
 40
2.497906805904219
 40
2.497906805904219
 10
1541.772743468652
 20
832.2405831012572
 30
0.0
 41
1.0
 10
1541.84399720713
 20
833.487550577625
 30
0.0
 41
0.9999421252555633
 10
1541.888404909861
 20
834.735762474021
 30
0.0
 41
1.0
  0
SPLINE
  5
E1
330
1F
100
AcDbEntity
  8
Linee visibili 2D
100
AcDbSpline
210
0.0
220
0.0
230
1.0
 70
    12
 71
     2
 72
     6
 73
     3
 74
     0
 42
0.0000000001
 43
0.0000000001
 40
0.0
 40
0.0
 40
0.0
 40
50.43000027678185
 40
50.43000027678185
 40
50.43000027678185
 10
1538.34420875445
 20
780.3500990265534
 30
0.0
 41
1.0
 10
1540.030253139262
 20
805.508670832967
 30
0.0
 41
0.999999706242123
 10
1541.677727679709
 20
830.6697977680749
 30
0.0
 41
1.0
  0
SPLINE
  5
E2
330
1F
100
AcDbEntity
  8
Linee visibili 2D
100
AcDbSpline
210
0.0
220
0.0
230
1.0
 70
     8
 71
     3
 72
    14
 73
    10
 74
     0
 42
0.0000000001
 43
0.0000000001
 40
0.0
 40
0.0
 40
0.0
 40
0.0
 40
3.613847038027626
 40
8.172180519885366
 40
19.76106603830344
 40
33.50895305495354
 40
49.29137277630139
 40
84.33696938717486
 40
120.7797263575985
 40
120.7797263575985
 40
120.7797263575985
 40
120.7797263575985
 10
1735.996450059517
 20
724.6382243845532
 30
0.0
 10
1735.667575910256
 20
725.8001637129152
 30
0.0
 10
1734.489263027209
 20
728.2724193726217
 30
0.0
 10
1730.548049297549
 20
733.584301861247
 30
0.0
 10
1723.14533395542
 20
740.3249490037547
 30
0.0
 10
1711.734848103843
 20
747.9575710482372
 30
0.0
 10
1692.595255483612
 20
757.8754231718309
 30
0.0
 10
1665.151190475071
 20
767.782569410251
 30
0.0
 10
1641.782824795562
 20
772.6949311745982
 30
0.0
 10
1629.738340440839
 20
774.3067308315593
 30
0.0
  0
SPLINE
  5
E3
330
1F
100
AcDbEntity
  8
Linee visibili 2D
100
AcDbSpline
210
0.0
220
0.0
230
1.0
 70
    12
 71
     2
 72
     6
 73
     3
 74
     0
 42
0.0000000001
 43
0.0000000001
 40
0.0
 40
0.0
 40
0.0
 40
8.1062390747804
 40
8.1062390747804
 40
8.1062390747804
 10
1713.255378631785
 20
697.9336761789085
 30
0.0
 41
1.0
 10
1717.149169963036
 20
699.1565559769363
 30
0.0
 41
0.989673333738254
 10
1720.535994476086
 20
701.4339372909786
 30
0.0
 41
1.0
  0
SPLINE
  5
E4
330
1F
100
AcDbEntity
  8
Linee visibili 2D
100
AcDbSpline
210
0.0
220
0.0
230
1.0
 70
    12
 71
     2
 72
     6
 73
     3
 74
     0
 42
0.0000000001
 43
0.0000000001
 40
0.0
 40
0.0
 40
0.0
 40
3.034400259517575
 40
3.034400259517575
 40
3.034400259517575
 10
1707.756359969709
 20
696.6129995647391
 30
0.0
 41
1.0
 10
1709.25279279376
 20
696.8667649129684
 30
0.0
 41
0.9994101300734142
 10
1710.728276378427
 20
697.222652873197
 30
0.0
 41
1.0
  0
SPLINE
  5
E5
330
1F
100
AcDbEntity
  8
Linee visibili 2D
100
AcDbSpline
210
0.0
220
0.0
230
1.0
 70
    12
 71
     2
 72
     6
 73
     3
 74
     0
 42
0.0000000001
 43
0.0000000001
 40
0.0
 40
0.0
 40
0.0
 40
3.034420204513743
 40
3.034420204513743
 40
3.034420204513743
 10
1491.503521194978
 20
697.2226570607276
 30
0.0
 41
1.0
 10
1492.979010450713
 20
696.8667472808023
 30
0.0
 41
0.9994094853302103
 10
1494.475459955794
 20
696.6130167269105
 30
0.0
 41
1.0
  0
SPLINE
  5
E6
330
1F
100
AcDbEntity
  8
Linee visibili 2D
100
AcDbSpline
210
0.0
220
0.0
230
1.0
 70
    12
 71
     2
 72
     6
 73
     3
 74
     0
 42
0.0000000001
 43
0.0000000001
 40
0.0
 40
0.0
 40
0.0
 40
10.62532086717701
 40
10.62532086717701
 40
10.62532086717701
 10
1481.695886687947
 20
701.4338431505511
 30
0.0
 41
1.0
 10
1486.169042620785
 20
698.4622428729637
 30
0.0
 41
0.9839929768807476
 10
1491.400251183656
 20
697.248163311737
 30
0.0
 41
1.0
  0
SPLINE
  5
E7
330
1F
100
AcDbEntity
  8
Linee visibili 2D
100
AcDbSpline
210
0.0
220
0.0
230
1.0
 70
     8
 71
     3
 72
    17
 73
    13
 74
     0
 42
0.0000000001
 43
0.0000000001
 40
0.0
 40
0.0
 40
0.0
 40
0.0
 40
14.08061048669321
 40
25.73458427814033
 40
35.52313915395592
 40
44.11876422066035
 40
54.87823529918704
 40
67.99554027109454
 40
99.14811760842171
 40
136.1457870357379
 40
174.4376898762654
 40
253.0434676587591
 40
253.0434676587591
 40
253.0434676587591
 40
253.0434676587591
 10
1747.41813425259
 20
754.444902365809
 30
0.0
 10
1751.224368766071
 20
751.7236050085953
 30
0.0
 10
1757.998182741309
 20
746.3561788321331
 30
0.0
 10
1765.851719325028
 20
737.4975082194178
 30
0.0
 10
1770.72093709574
 20
728.5467270005761
 30
0.0
 10
1771.748809031156
 20
718.7303634439326
 30
0.0
 10
1769.159622210652
 20
708.0912028447402
 30
0.0
 10
1760.713741642019
 20
691.6916087198249
 30
0.0
 10
1742.274603645473
 20
671.4817194147037
 30
0.0
 10
1713.162447945459
 20
650.978935751854
 30
0.0
 10
1666.290004241695
 20
629.5617058900242
 30
0.0
 10
1627.319608982086
 20
622.9555342232591
 30
0.0
 10
1601.116097655669
 20
622.9668156007847
 30
0.0
  0
SPLINE
  5
E8
330
1F
100
AcDbEntity
  8
Linee visibili 2D
100
AcDbSpline
210
0.0
220
0.0
230
1.0
 70
     8
 71
     3
 72
    18
 73
    14
 74
     0
 42
0.0000000001
 43
0.0000000001
 40
0.0
 40
0.0
 40
0.0
 40
0.0
 40
39.70399590670271
 40
78.9696311683222
 40
117.6283145777585
 40
153.9869583107819
 40
185.0036825163024
 40
197.8214919678986
 40
208.9645440707543
 40
217.5765197433159
 40
227.3460791946567
 40
239.1635250790097
 40
253.0750414353531
 40
253.0750414353531
 40
253.0750414353531
 40
253.0750414353531
 10
1601.115754801129
 20
622.966815601277
 30
0.0
 10
1587.885649979387
 20
622.9653434079722
 30
0.0
 10
1561.547596823874
 20
625.2035795499642
 30
0.0
 10
1523.500859052144
 20
635.1936314857292
 30
0.0
 10
1488.720131651894
 20
651.1787016185248
 30
0.0
 10
1459.792617663952
 20
671.6754251216851
 30
0.0
 10
1441.582218127539
 20
691.6210474286311
 30
0.0
 10
1433.118100468636
 20
707.9823236975246
 30
0.0
 10
1430.461884125398
 20
718.6448680853123
 30
0.0
 10
1431.533006995741
 20
728.5904627377141
 30
0.0
 10
1436.432470317491
 20
737.5806314948094
 30
0.0
 10
1444.301280415357
 20
746.4164301379511
 30
0.0
 10
1451.077177486924
 20
751.774756670338
 30
0.0
 10
1454.838894766757
 20
754.4629089976606
 30
0.0
  0
SPLINE
  5
E9
330
1F
100
AcDbEntity
  8
Linee visibili 2D
100
AcDbSpline
210
0.0
220
0.0
230
1.0
 70
    24
 71
     2
 72
     6
 73
     3
 74
     0
 42
0.0000000001
 43
0.0000000001
 40
0.0
 40
0.0
 40
0.0
 40
0.7294011452639542
 40
0.7294011452639542
 40
0.7294011452639542
 10
1671.654492431969
 20
680.3742690830672
 30
0.0
 10
1671.656144863361
 20
680.0095722539769
 30
0.0
 10
1671.657797294753
 20
679.6448754248865
 30
0.0
  0
SPLINE
  5
EA
330
1F
100
AcDbEntity
  8
Linee visibili 2D
100
AcDbSpline
210
0.0
220
0.0
230
1.0
 70
    24
 71
     2
 72
     6
 73
     3
 74
     0
 42
0.0000000001
 43
0.0000000001
 40
0.0
 40
0.0
 40
0.0
 40
0.363055832121725
 40
0.363055832121725
 40
0.363055832121725
 10
1671.649649312365
 20
681.4431608815138
 30
0.0
 10
1671.650471801962
 20
681.2616348287823
 30
0.0
 10
1671.651294291559
 20
681.0801087760509
 30
0.0
  0
SPLINE
  5
EB
330
1F
100
AcDbEntity
  8
Linee visibili 2D
100
AcDbSpline
210
0.0
220
0.0
230
1.0
 70
    24
 71
     2
 72
     6
 73
     3
 74
     0
 42
0.0000000001
 43
0.0000000001
 40
0.0
 40
0.0
 40
0.0
 40
27.08038651419362
 40
27.08038651419362
 40
27.08038651419362
 10
1530.430878120978
 20
654.3630761257821
 30
0.0
 10
1530.518431049382
 20
667.9029863147109
 30
0.0
 10
1530.605983977785
 20
681.4428965036398
 30
0.0
  0
SPLINE
  5
EC
330
1F
100
AcDbEntity
  8
Linee visibili 2D
100
AcDbSpline
210
0.0
220
0.0
230
1.0
 70
    24
 71
     2
 72
     6
 73
     3
 74
     0
 42
0.0000000001
 43
0.0000000001
 40
0.0
 40
0.0
 40
0.0
 40
2.660506948221014
 40
2.660506948221014
 40
2.660506948221014
 10
1533.266490946552
 20
681.4428986488158
 30
0.0
 10
1531.936237472442
 20
681.4428991649288
 30
0.0
 10
1530.605983998331
 20
681.4428996810418
 30
0.0
  0
SPLINE
  5
ED
330
1F
100
AcDbEntity
  8
Linee visibili 2D
100
AcDbSpline
210
0.0
220
0.0
230
1.0
 70
    24
 71
     2
 72
     6
 73
     3
 74
     0
 42
0.0000000001
 43
0.0000000001
 40
0.0
 40
0.0
 40
0.0
 40
2.659283794978933
 40
2.659283794978933
 40
2.659283794978933
 10
1671.624607405361
 20
681.4428810950837
 30
0.0
 10
1670.294965507872
 20
681.442881095146
 30
0.0
 10
1668.965323610382
 20
681.4428810952083
 30
0.0
  0
SPLINE
  5
EE
330
1F
100
AcDbEntity
  8
Linee visibili 2D
100
AcDbSpline
210
0.0
220
0.0
230
1.0
 70
    12
 71
     2
 72
     6
 73
     3
 74
     0
 42
0.0000000001
 43
0.0000000001
 40
0.0
 40
0.0
 40
0.0
 40
0.1892823927840187
 40
0.1892823927840187
 40
0.1892823927840187
 10
1671.624616993042
 20
681.4433006972353
 30
0.0
 41
1.0
 10
1671.626778928427
 20
681.537917197329
 30
0.0
 41
0.999999999992386
 10
1671.628941602258
 20
681.6325336805468
 30
0.0
 41
1.0
  0
SPLINE
  5
EF
330
1F
100
AcDbEntity
  8
Linee visibili 2D
100
AcDbSpline
210
0.0
220
0.0
230
1.0
 70
    12
 71
     2
 72
     6
 73
     3
 74
     0
 42
0.0000000001
 43
0.0000000001
 40
0.0
 40
0.0
 40
0.0
 40
0.1896015403038973
 40
0.1896015403038973
 40
0.1896015403038973
 10
1530.60287375113
 20
681.6324982321116
 30
0.0
 41
1.0
 10
1530.60442906197
 20
681.5377102211099
 30
0.0
 41
0.9999999999923036
 10
1530.60598362904
 20
681.4429221979068
 30
0.0
 41
1.0
  0
SPLINE
  5
F0
330
1F
100
AcDbEntity
  8
Linee visibili 2D
100
AcDbSpline
210
0.0
220
0.0
230
1.0
 70
    24
 71
     2
 72
     6
 73
     3
 74
     0
 42
0.0000000001
 43
0.0000000001
 40
0.0
 40
0.0
 40
0.0
 40
2.800896002943091
 40
2.800896002943091
 40
2.800896002943091
 10
1530.602873169482
 20
681.6325336805468
 30
0.0
 10
1530.602873169482
 20
683.0329816820183
 30
0.0
 10
1530.602873169482
 20
684.4334296834899
 30
0.0
  0
SPLINE
  5
F1
330
1F
100
AcDbEntity
  8
Linee visibili 2D
100
AcDbSpline
210
0.0
220
0.0
230
1.0
 70
    24
 71
     2
 72
     6
 73
     3
 74
     0
 42
0.0000000001
 43
0.0000000001
 40
0.0
 40
0.0
 40
0.0
 40
2.6620647613762
 40
2.6620647613762
 40
2.6620647613762
 10
1533.266490946552
 20
681.6325336805468
 30
0.0
 10
1531.935458565864
 20
681.6325336805468
 30
0.0
 10
1530.604426185176
 20
681.6325336805468
 30
0.0
  0
SPLINE
  5
F2
330
1F
100
AcDbEntity
  8
Linee visibili 2D
100
AcDbSpline
210
0.0
220
0.0
230
1.0
 70
    24
 71
     2
 72
     6
 73
     3
 74
     0
 42
0.0000000001
 43
0.0000000001
 40
0.0
 40
0.0
 40
0.0
 40
2.663617991874617
 40
2.663617991874617
 40
2.663617991874617
 10
1671.628941602257
 20
681.6325336805469
 30
0.0
 10
1670.297132606319
 20
681.6325336805469
 30
0.0
 10
1668.965323610382
 20
681.6325336805469
 30
0.0
  0
SPLINE
  5
F3
330
1F
100
AcDbEntity
  8
Linee visibili 2D
100
AcDbSpline
210
0.0
220
0.0
230
1.0
 70
    24
 71
     2
 72
     6
 73
     3
 74
     0
 42
0.0000000001
 43
0.0000000001
 40
0.0
 40
0.0
 40
0.0
 40
2.800851034715947
 40
2.800851034715947
 40
2.800851034715947
 10
1671.628941602257
 20
684.43342968349
 30
0.0
 10
1671.628941602257
 20
683.0330041661321
 30
0.0
 10
1671.628941602257
 20
681.632578648774
 30
0.0
  0
SPLINE
  5
F4
330
1F
100
AcDbEntity
  8
Linee visibili 2D
100
AcDbSpline
210
0.0
220
0.0
230
1.0
 70
    24
 71
     2
 72
     6
 73
     3
 74
     0
 42
0.0000000001
 43
0.0000000001
 40
0.0
 40
0.0
 40
0.0
 40
2.663617777069931
 40
2.663617777069931
 40
2.663617777069931
 10
1533.266490946552
 20
684.4334296834899
 30
0.0
 10
1531.934682058017
 20
684.4334296834899
 30
0.0
 10
1530.602873169482
 20
684.4334296834899
 30
0.0
  0
SPLINE
  5
F5
330
1F
100
AcDbEntity
  8
Linee visibili 2D
100
AcDbSpline
210
0.0
220
0.0
230
1.0
 70
    24
 71
     2
 72
     6
 73
     3
 74
     0
 42
0.0000000001
 43
0.0000000001
 40
0.0
 40
0.0
 40
0.0
 40
2.663617991874617
 40
2.663617991874617
 40
2.663617991874617
 10
1671.628941602257
 20
684.43342968349
 30
0.0
 10
1670.297132606319
 20
684.43342968349
 30
0.0
 10
1668.965323610382
 20
684.43342968349
 30
0.0
  0
SPLINE
  5
F6
330
1F
100
AcDbEntity
  8
Linee visibili 2D
100
AcDbSpline
210
0.0
220
0.0
230
1.0
 70
    24
 71
     2
 72
     6
 73
     3
 74
     0
 42
0.0000000001
 43
0.0000000001
 40
0.0
 40
0.0
 40
0.0
 40
2.565517589113938
 40
2.565517589113938
 40
2.565517589113938
 10
1671.783559050568
 20
654.3630965363752
 30
0.0
 10
1670.500800256011
 20
654.3630965363752
 30
0.0
 10
1669.218041461454
 20
654.3630965363752
 30
0.0
  0
SPLINE
  5
F7
330
1F
100
AcDbEntity
  8
Linee visibili 2D
100
AcDbSpline
210
0.0
220
0.0
230
1.0
 70
    24
 71
     2
 72
     6
 73
     3
 74
     0
 42
0.0000000001
 43
0.0000000001
 40
0.0
 40
0.0
 40
0.0
 40
6.845569555541416
 40
6.845569555541416
 40
6.845569555541416
 10
1671.794769324469
 20
654.363053385777
 30
0.0
 10
1671.797102840967
 20
650.940269403455
 30
0.0
 10
1671.799436357466
 20
647.5174854211331
 30
0.0
  0
SPLINE
  5
F8
330
1F
100
AcDbEntity
  8
Linee visibili 2D
100
AcDbSpline
210
0.0
220
0.0
230
1.0
 70
    24
 71
     2
 72
     6
 73
     3
 74
     0
 42
0.0000000001
 43
0.0000000001
 40
0.0
 40
0.0
 40
0.0
 40
6.845601671766512
 40
6.845601671766512
 40
6.845601671766512
 10
1530.427711359381
 20
654.3630855019944
 30
0.0
 10
1530.430044886827
 20
650.9402854615637
 30
0.0
 10
1530.432378414273
 20
647.5174854211328
 30
0.0
  0
SPLINE
  5
F9
330
1F
100
AcDbEntity
  8
Linee visibili 2D
100
AcDbSpline
210
0.0
220
0.0
230
1.0
 70
    24
 71
     2
 72
     6
 73
     3
 74
     0
 42
0.0000000001
 43
0.0000000001
 40
0.0
 40
0.0
 40
0.0
 40
2.837226579000344
 40
2.837226579000344
 40
2.837226579000344
 10
1533.266490946552
 20
654.3630965363749
 30
0.0
 10
1531.847877657052
 20
654.3630965363749
 30
0.0
 10
1530.429264367552
 20
654.3630965363749
 30
0.0
  0
SPLINE
  5
FA
330
1F
100
AcDbEntity
  8
Linee visibili 2D
100
AcDbSpline
210
0.0
220
0.0
230
1.0
 70
    24
 71
     2
 72
     6
 73
     3
 74
     0
 42
0.0000000001
 43
0.0000000001
 40
0.0
 40
0.0
 40
0.0
 40
0.2527178510722479
 40
0.2527178510722479
 40
0.2527178510722479
 10
1669.218041461454
 20
654.3630965363751
 30
0.0
 10
1669.091682535918
 20
654.3630965363751
 30
0.0
 10
1668.965323610382
 20
654.3630965363751
 30
0.0
  0
SPLINE
  5
FB
330
1F
100
AcDbEntity
  8
Linee visibili 2D - Tangent
100
AcDbSpline
210
0.0
220
0.0
230
1.0
 70
    24
 71
     2
 72
     6
 73
     3
 74
     0
 42
0.0000000001
 43
0.0000000001
 40
0.0
 40
0.0
 40
0.0
 40
6.845612706149604
 40
6.845612706149604
 40
6.845612706149604
 10
1669.222708523869
 20
647.5174854211331
 30
0.0
 10
1669.220374992662
 20
650.9402909787541
 30
0.0
 10
1669.218041461454
 20
654.3630965363751
 30
0.0
  0
SPLINE
  5
FC
330
1F
100
AcDbEntity
  8
Linee visibili 2D
100
AcDbSpline
210
0.0
220
0.0
230
1.0
 70
    24
 71
     2
 72
     6
 73
     3
 74
     0
 42
0.0000000001
 43
0.0000000001
 40
0.0
 40
0.0
 40
0.0
 40
2.576727833596465
 40
2.576727833596465
 40
2.576727833596465
 10
1671.799436357466
 20
647.5174854211331
 30
0.0
 10
1670.511072440667
 20
647.5174854211331
 30
0.0
 10
1669.222708523869
 20
647.5174854211331
 30
0.0
  0
SPLINE
  5
FD
330
1F
100
AcDbEntity
  8
Linee visibili 2D
100
AcDbSpline
210
0.0
220
0.0
230
1.0
 70
    24
 71
     2
 72
     6
 73
     3
 74
     0
 42
0.0000000001
 43
0.0000000001
 40
0.0
 40
0.0
 40
0.0
 40
5.458005643820997
 40
5.458005643820997
 40
5.458005643820997
 10
1671.799436431369
 20
642.0594797773122
 30
0.0
 10
1671.799436394418
 20
644.7884825992226
 30
0.0
 10
1671.799436357466
 20
647.5174854211331
 30
0.0
  0
SPLINE
  5
FE
330
1F
100
AcDbEntity
  8
Linee visibili 2D
100
AcDbSpline
210
0.0
220
0.0
230
1.0
 70
    12
 71
     3
 72
    17
 73
    13
 74
     0
 42
0.0000000001
 43
0.0000000001
 40
345.5775452770155
 40
345.5775452770155
 40
345.5775452770155
 40
345.5775452770155
 40
351.3496749654496
 40
351.3496749654496
 40
351.3496749654496
 40
351.4798942458083
 40
351.4798942458083
 40
351.4798942458083
 40
352.8531176223859
 40
352.8531176223859
 40
352.8531176223859
 40
368.8253426623551
 40
368.8253426623551
 40
368.8253426623551
 40
368.8253426623551
 10
1654.432771643479
 20
635.3703126560132
 30
0.0
 41
1.0
 10
1654.564286912354
 20
637.2898558524412
 30
0.0
 41
1.007471160440627
 10
1654.695802181229
 20
639.2093990488692
 30
0.0
 41
1.014998139119583
 10
1654.827317450104
 20
641.1289422452973
 30
0.0
 41
1.022581353063883
 10
1654.830286432328
 20
641.172278019462
 30
0.0
 41
1.021125788557538
 10
1654.836079437727
 20
641.2153273547223
 30
0.0
 41
1.021125788557537
 10
1654.84467172863
 20
641.2579064190022
 30
0.0
 41
1.022581353063883
 10
1654.943805226865
 20
641.7456692177248
 30
0.0
 41
0.8683775997480885
 10
1655.329477211835
 20
642.0603072928195
 30
0.0
 41
0.8683775997480885
 10
1655.8272113914
 20
642.0594797773122
 30
0.0
 41
1.022581353063883
 10
1661.151286404723
 20
642.0594797773122
 30
0.0
 41
1.02258135306387
 10
1666.475361418046
 20
642.0594797773122
 30
0.0
 41
1.022581353063857
 10
1671.799436431369
 20
642.059479777312
 30
0.0
 41
1.022581353063843
  0
SPLINE
  5
FF
330
1F
100
AcDbEntity
  8
Linee visibili 2D
100
AcDbSpline
210
0.0
220
0.0
230
1.0
 70
    12
 71
     2
 72
     8
 73
     5
 74
     0
 42
0.0000000001
 43
0.0000000001
 40
0.0
 40
0.0
 40
0.0
 40
5.062048953392312
 40
5.062048953392312
 40
10.79114019132527
 40
10.79114019132527
 40
10.79114019132527
 10
1643.983239393532
 20
632.6818617016348
 30
0.0
 41
1.0
 10
1646.450715660993
 20
633.2460738525821
 30
0.0
 41
0.999919275059901
 10
1648.903058570162
 20
633.8728024522252
 30
0.0
 41
1.0
 10
1651.67858875212
 20
634.5821440023437
 30
0.0
 41
0.9998984102797651
 10
1654.432771643479
 20
635.3703126560132
 30
0.0
 41
1.0
  0
SPLINE
  5
100
330
1F
100
AcDbEntity
  8
Linee visibili 2D
100
AcDbSpline
210
0.0
220
0.0
230
1.0
 70
    12
 71
     3
 72
    26
 73
    22
 74
     0
 42
0.0000000001
 43
0.0000000001
 40
324.4484123623435
 40
324.4484123623435
 40
324.4484123623435
 40
324.4484123623435
 40
328.1841190773984
 40
328.1841190773984
 40
328.1841190773984
 40
329.083377956128
 40
329.083377956128
 40
329.083377956128
 40
329.7440043715074
 40
329.7440043715074
 40
329.7440043715074
 40
334.6091405016543
 40
334.6091405016543
 40
334.6091405016543
 40
335.9823638782319
 40
335.9823638782319
 40
335.9823638782319
 40
336.1125831585907
 40
336.1125831585907
 40
336.1125831585907
 40
344.5794664041109
 40
344.5794664041109
 40
344.5794664041109
 40
344.5794664041109
 10
1636.499526803903
 20
637.3348212535161
 30
0.0
 41
1.0
 10
1636.512907844545
 20
638.5799849281955
 30
0.0
 41
0.9997813747683857
 10
1636.526288885187
 20
639.825148602875
 30
0.0
 41
0.9995627973337633
 10
1636.53966992583
 20
641.0703122775542
 30
0.0
 41
0.9993442676856832
 10
1636.542990840382
 20
641.3806130746858
 30
0.0
 41
0.9331143220303506
 10
1636.680860009976
 20
641.6586233357372
 30
0.0
 41
0.9331143220303505
 10
1636.925866257384
 20
641.8490690022786
 30
0.0
 41
0.9993442676856832
 10
1637.102972768193
 20
641.986724233752
 30
0.0
 41
0.9633171156590132
 10
1637.315155859529
 20
642.059484213642
 30
0.0
 41
0.9633171156590133
 10
1637.539467426113
 20
642.0594797773122
 30
0.0
 41
0.9993442676856832
 10
1639.161179469495
 20
642.0594797773122
 30
0.0
 41
0.9993442676856832
 10
1640.782891512877
 20
642.0594797773122
 30
0.0
 41
0.9993442676856832
 10
1642.40460355626
 20
642.0594797773122
 30
0.0
 41
0.9993442676856832
 10
1642.902337735825
 20
642.0603072928194
 30
0.0
 41
0.8486446324243915
 10
1643.288009720796
 20
641.7456692177248
 30
0.0
 41
0.848644632424391
 10
1643.38714321903
 20
641.2579064190021
 30
0.0
 41
0.9993442676856832
 10
1643.395735509933
 20
641.2153273547223
 30
0.0
 41
0.9979217793511577
 10
1643.401528515331
 20
641.1722780194619
 30
0.0
 41
0.9979217793511578
 10
1643.404497497555
 20
641.1289422452971
 30
0.0
 41
0.9993442676856832
 10
1643.597411462881
 20
638.313248730743
 30
0.0
 41
0.9919333742998766
 10
1643.790325428206
 20
635.497555216189
 30
0.0
 41
0.9845774382921746
 10
1643.983239393532
 20
632.681861701635
 30
0.0
 41
0.977276052112063
  0
SPLINE
  5
101
330
1F
100
AcDbEntity
  8
Linee visibili 2D
100
AcDbSpline
210
0.0
220
0.0
230
1.0
 70
    12
 71
     2
 72
     8
 73
     5
 74
     0
 42
0.0000000001
 43
0.0000000001
 40
0.0
 40
0.0
 40
0.0
 40
1.157674991041093
 40
1.157674991041093
 40
2.809825502184514
 40
2.809825502184514
 40
2.809825502184514
 10
1633.7378527247
 20
636.8170088499271
 30
0.0
 41
1.0
 10
1634.307556859668
 20
636.919440057815
 30
0.0
 41
0.9999952824261856
 10
1634.876620978449
 20
637.0253691967001
 30
0.0
 41
1.0
 10
1635.688750867162
 20
637.1765448584266
 30
0.0
 41
0.9999904284220507
 10
1636.499526803903
 20
637.3348212535161
 30
0.0
 41
1.0
  0
SPLINE
  5
102
330
1F
100
AcDbEntity
  8
Linee visibili 2D
100
AcDbSpline
210
0.0
220
0.0
230
1.0
 70
    12
 71
     3
 72
    26
 73
    22
 74
     0
 42
0.0000000001
 43
0.0000000001
 40
305.5088163964525
 40
305.5088163964525
 40
305.5088163964525
 40
305.5088163964525
 40
310.920909474959
 40
310.920909474959
 40
310.920909474959
 40
311.8201683536885
 40
311.8201683536885
 40
311.8201683536885
 40
312.4807947690679
 40
312.4807947690679
 40
312.4807947690679
 40
317.6336748425124
 40
317.6336748425124
 40
317.6336748425124
 40
318.2943012578916
 40
318.2943012578916
 40
318.2943012578916
 40
319.1935601366213
 40
319.1935601366213
 40
319.1935601366213
 40
323.4471091542753
 40
323.4471091542753
 40
323.4471091542753
 40
323.4471091542753
 10
1626.481512685165
 20
635.6585316807142
 30
0.0
 41
1.0
 10
1626.500898424723
 20
637.4624585463274
 30
0.0
 41
0.9997813747683857
 10
1626.520284164282
 20
639.2663854119407
 30
0.0
 41
0.9995627973337633
 10
1626.539669903839
 20
641.0703122775542
 30
0.0
 41
0.9993442676856832
 10
1626.542990818391
 20
641.3806130746857
 30
0.0
 41
0.9331143220303695
 10
1626.680859987985
 20
641.6586233357369
 30
0.0
 41
0.9331143220303695
 10
1626.925866235394
 20
641.8490690022785
 30
0.0
 41
0.9993442676856832
 10
1627.102972746202
 20
641.9867242337519
 30
0.0
 41
0.9633171156590681
 10
1627.31515583754
 20
642.059484213642
 30
0.0
 41
0.9633171156590679
 10
1627.539467404123
 20
642.0594797773122
 30
0.0
 41
0.9993442676856832
 10
1629.257094095271
 20
642.0594797773122
 30
0.0
 41
0.9993442676856832
 10
1630.974720786419
 20
642.0594797773122
 30
0.0
 41
0.9993442676856832
 10
1632.692347477567
 20
642.0594797773122
 30
0.0
 41
0.9993442676856832
 10
1632.91665904415
 20
642.0594842136418
 30
0.0
 41
0.9633171156591164
 10
1633.128842135487
 20
641.9867242337519
 30
0.0
 41
0.9633171156591165
 10
1633.305948646296
 20
641.8490690022785
 30
0.0
 41
0.9993442676856832
 10
1633.550954893705
 20
641.6586233357369
 30
0.0
 41
0.9331143220304586
 10
1633.688824063297
 20
641.3806130746858
 30
0.0
 41
0.9331143220304587
 10
1633.69214497785
 20
641.0703122775541
 30
0.0
 41
0.9993442676856832
 10
1633.707380893467
 20
639.6525444683451
 30
0.0
 41
0.9995627973337633
 10
1633.722616809083
 20
638.2347766591362
 30
0.0
 41
0.9997813747683857
 10
1633.7378527247
 20
636.8170088499271
 30
0.0
 41
1.0
  0
SPLINE
  5
103
330
1F
100
AcDbEntity
  8
Linee visibili 2D
100
AcDbSpline
210
0.0
220
0.0
230
1.0
 70
    12
 71
     2
 72
     8
 73
     5
 74
     0
 42
0.0000000001
 43
0.0000000001
 40
0.0
 40
0.0
 40
0.0
 40
1.201609822301521
 40
1.201609822301521
 40
2.751036873513456
 40
2.751036873513456
 40
2.751036873513456
 10
1623.754172063108
 20
635.2984218203492
 30
0.0
 41
1.0
 10
1624.350374850825
 20
635.3726598964153
 30
0.0
 41
0.9999947749875516
 10
1624.946085209634
 20
635.4507510254061
 30
0.0
 41
1.0
 10
1625.714231212682
 20
635.5514470615128
 30
0.0
 41
0.9999913440478747
 10
1626.481512685165
 20
635.6585316807142
 30
0.0
 41
1.0
  0
SPLINE
  5
104
330
1F
100
AcDbEntity
  8
Linee visibili 2D
100
AcDbSpline
210
0.0
220
0.0
230
1.0
 70
    12
 71
     3
 72
    26
 73
    22
 74
     0
 42
0.0000000001
 43
0.0000000001
 40
283.9293088051722
 40
283.9293088051722
 40
283.9293088051722
 40
283.9293088051722
 40
290.4626387947441
 40
290.4626387947441
 40
290.4626387947441
 40
291.3618976734738
 40
291.3618976734738
 40
291.3618976734738
 40
292.0225240888531
 40
292.0225240888531
 40
292.0225240888531
 40
297.1754041622976
 40
297.1754041622976
 40
297.1754041622976
 40
297.836030577677
 40
297.836030577677
 40
297.836030577677
 40
298.7352894564066
 40
298.7352894564066
 40
298.7352894564066
 40
304.5075131883845
 40
304.5075131883845
 40
304.5075131883845
 40
304.5075131883845
 10
1616.469464086169
 20
634.5373595072601
 30
0.0
 41
1.0
 10
1616.492866018062
 20
636.7150104306914
 30
0.0
 41
0.9997813747683857
 10
1616.516267949956
 20
638.8926613541228
 30
0.0
 41
0.9995627973337634
 10
1616.539669881849
 20
641.0703122775541
 30
0.0
 41
0.9993442676856835
 10
1616.542990796402
 20
641.3806130746858
 30
0.0
 41
0.9331143220303865
 10
1616.680859965995
 20
641.6586233357369
 30
0.0
 41
0.9331143220303864
 10
1616.925866213403
 20
641.8490690022785
 30
0.0
 41
0.9993442676856835
 10
1617.102972724213
 20
641.9867242337519
 30
0.0
 41
0.9633171156590636
 10
1617.315155815549
 20
642.0594842136419
 30
0.0
 41
0.9633171156590635
 10
1617.539467382132
 20
642.059479777312
 30
0.0
 41
0.9993442676856835
 10
1619.25709407328
 20
642.059479777312
 30
0.0
 41
0.9993442676856835
 10
1620.974720764428
 20
642.059479777312
 30
0.0
 41
0.9993442676856835
 10
1622.692347455577
 20
642.059479777312
 30
0.0
 41
0.9993442676856835
 10
1622.91665902216
 20
642.0594842136419
 30
0.0
 41
0.9633171156590389
 10
1623.128842113497
 20
641.9867242337519
 30
0.0
 41
0.963317115659039
 10
1623.305948624305
 20
641.8490690022786
 30
0.0
 41
0.9993442676856835
 10
1623.550954871715
 20
641.658623335737
 30
0.0
 41
0.9331143220303251
 10
1623.688824041308
 20
641.3806130746859
 30
0.0
 41
0.9331143220303247
 10
1623.69214495586
 20
641.0703122775542
 30
0.0
 41
0.9993442676856835
 10
1623.712820658276
 20
639.1463487918192
 30
0.0
 41
0.9995627973337637
 10
1623.733496360692
 20
637.2223853060841
 30
0.0
 41
0.9997813747683861
 10
1623.754172063108
 20
635.2984218203492
 30
0.0
 41
1.0
  0
SPLINE
  5
105
330
1F
100
AcDbEntity
  8
Linee visibili 2D
100
AcDbSpline
210
0.0
220
0.0
230
1.0
 70
    12
 71
     2
 72
     8
 73
     5
 74
     0
 42
0.0000000001
 43
0.0000000001
 40
0.0
 40
0.0
 40
0.0
 40
1.255076745538509
 40
1.255076745538509
 40
2.712910897439485
 40
2.712910897439485
 40
2.712910897439485
 10
1613.764589650316
 20
634.329018251753
 30
0.0
 41
1.0
 10
1614.390616099854
 20
634.3725884515605
 30
0.0
 41
0.9999941560232725
 10
1615.016330005136
 20
634.4204380761162
 30
0.0
 41
1.0
 10
1615.743128829183
 20
634.4760181175029
 30
0.0
 41
0.9999921403758233
 10
1616.469464086169
 20
634.5373595072601
 30
0.0
 41
1.0
  0
SPLINE
  5
106
330
1F
100
AcDbEntity
  8
Linee visibili 2D
100
AcDbSpline
210
0.0
220
0.0
230
1.0
 70
    12
 71
     3
 72
    26
 73
    22
 74
     0
 42
0.0000000001
 43
0.0000000001
 40
257.035552866461
 40
257.035552866461
 40
257.035552866461
 40
257.035552866461
 40
270.2734288017379
 40
270.2734288017379
 40
270.2734288017379
 40
270.4036480820967
 40
270.4036480820967
 40
270.4036480820967
 40
271.7768714586742
 40
271.7768714586742
 40
271.7768714586742
 40
274.6296613632456
 40
274.6296613632456
 40
274.6296613632456
 40
275.2902877786249
 40
275.2902877786249
 40
275.2902877786249
 40
276.1895466573545
 40
276.1895466573545
 40
276.1895466573545
 40
282.9312299322675
 40
282.9312299322675
 40
282.9312299322675
 40
282.9312299322675
 10
1607.934807196611
 20
627.9220276098024
 30
0.0
 41
1.0
 10
1608.236425993647
 20
632.3243324883007
 30
0.0
 41
1.007471160440631
 10
1608.538044790683
 20
636.726637366799
 30
0.0
 41
1.014998139119591
 10
1608.839663587719
 20
641.1289422452971
 30
0.0
 41
1.022581353063895
 10
1608.842632569944
 20
641.1722780194619
 30
0.0
 41
1.021125788557154
 10
1608.848425575341
 20
641.2153273547224
 30
0.0
 41
1.021125788557154
 10
1608.857017866245
 20
641.2579064190022
 30
0.0
 41
1.022581353063895
 10
1608.95615136448
 20
641.7456692177249
 30
0.0
 41
0.868377599748021
 10
1609.341823349449
 20
642.0603072928195
 30
0.0
 41
0.8683775997480205
 10
1609.839557529015
 20
642.0594797773122
 30
0.0
 41
1.022581353063895
 10
1610.790487497206
 20
642.059479777312
 30
0.0
 41
1.022581353063895
 10
1611.741417465396
 20
642.059479777312
 30
0.0
 41
1.022581353063895
 10
1612.692347433587
 20
642.0594797773122
 30
0.0
 41
1.022581353063895
 10
1612.91665900017
 20
642.0594842136419
 30
0.0
 41
0.9857164857127252
 10
1613.128842091507
 20
641.9867242337519
 30
0.0
 41
0.985716485712725
 10
1613.305948602315
 20
641.8490690022785
 30
0.0
 41
1.022581353063895
 10
1613.550954849724
 20
641.658623335737
 30
0.0
 41
0.9548114066785319
 10
1613.688824019318
 20
641.3806130746858
 30
0.0
 41
0.954811406678532
 10
1613.69214493387
 20
641.0703122775541
 30
0.0
 41
1.022581353063895
 10
1613.716293172685
 20
638.8232142689538
 30
0.0
 41
1.022804964036053
 10
1613.7404414115
 20
636.5761162603535
 30
0.0
 41
1.023028623905903
 10
1613.764589650316
 20
634.3290182517532
 30
0.0
 41
1.023252332684136
  0
SPLINE
  5
107
330
1F
100
AcDbEntity
  8
Linee visibili 2D
100
AcDbSpline
210
0.0
220
0.0
230
1.0
 70
    12
 71
     2
 72
     8
 73
     5
 74
     0
 42
0.0000000001
 43
0.0000000001
 40
0.0
 40
0.0
 40
0.0
 40
6.820393647448312
 40
6.820393647448312
 40
13.64078738313399
 40
13.64078738313399
 40
13.64078738313399
 10
1594.297007663308
 20
627.9220276066071
 30
0.0
 41
1.0
 10
1597.705337613838
 20
627.7984431306999
 30
0.0
 41
0.9998359816821124
 10
1601.115907385869
 20
627.7983762727773
 30
0.0
 41
1.0
 10
1604.526477202034
 20
627.7984431307028
 30
0.0
 41
0.9998359816778848
 10
1607.934807196611
 20
627.9220276098025
 30
0.0
 41
1.0
  0
SPLINE
  5
108
330
1F
100
AcDbEntity
  8
Linee visibili 2D
100
AcDbSpline
210
0.0
220
0.0
230
1.0
 70
    12
 71
     3
 72
    26
 73
    22
 74
     0
 42
0.0000000001
 43
0.0000000001
 40
230.1417968365866
 40
230.1417968365866
 40
230.1417968365866
 40
230.1417968365866
 40
236.8834801114996
 40
236.8834801114996
 40
236.8834801114996
 40
237.7827389902292
 40
237.7827389902292
 40
237.7827389902292
 40
238.4433654056085
 40
238.4433654056085
 40
238.4433654056085
 40
241.2961553981407
 40
241.2961553981407
 40
241.2961553981407
 40
242.6693787747182
 40
242.6693787747182
 40
242.6693787747182
 40
242.799598055077
 40
242.799598055077
 40
242.799598055077
 40
256.0374739935564
 40
256.0374739935564
 40
256.0374739935564
 40
256.0374739935564
 10
1588.467225121423
 20
634.3290182517534
 30
0.0
 41
1.0
 10
1588.491373360238
 20
636.5761162603535
 30
0.0
 41
0.9997813747683815
 10
1588.515521599053
 20
638.8232142689538
 30
0.0
 41
0.9995627973337549
 10
1588.539669837869
 20
641.0703122775541
 30
0.0
 41
0.9993442676856706
 10
1588.542990752422
 20
641.3806130746857
 30
0.0
 41
0.933114322030351
 10
1588.680859922014
 20
641.6586233357369
 30
0.0
 41
0.9331143220303515
 10
1588.925866169423
 20
641.8490690022786
 30
0.0
 41
0.9993442676856706
 10
1589.102972680232
 20
641.9867242337519
 30
0.0
 41
0.9633171156590765
 10
1589.315155771568
 20
642.0594842136418
 30
0.0
 41
0.9633171156590769
 10
1589.539467338152
 20
642.0594797773122
 30
0.0
 41
0.9993442676856706
 10
1590.490397335663
 20
642.0594797773122
 30
0.0
 41
0.9993442676856706
 10
1591.441327333173
 20
642.0594797773122
 30
0.0
 41
0.9993442676856706
 10
1592.392257330684
 20
642.0594797773122
 30
0.0
 41
0.9993442676856706
 10
1592.88999151025
 20
642.0603072928194
 30
0.0
 41
0.8486446324244212
 10
1593.275663495219
 20
641.7456692177245
 30
0.0
 41
0.848644632424421
 10
1593.374796993454
 20
641.2579064190022
 30
0.0
 41
0.9993442676856706
 10
1593.383389284357
 20
641.2153273547224
 30
0.0
 41
0.9979217793510801
 10
1593.389182289756
 20
641.1722780194619
 30
0.0
 41
0.99792177935108
 10
1593.39215127198
 20
641.1289422452971
 30
0.0
 41
0.9993442676856706
 10
1593.693770069089
 20
636.7266373657337
 30
0.0
 41
0.9919333742998601
 10
1593.995388866198
 20
632.3243324861704
 30
0.0
 41
0.9845774382921544
 10
1594.297007663308
 20
627.9220276066071
 30
0.0
 41
0.977276052112039
  0
SPLINE
  5
109
330
1F
100
AcDbEntity
  8
Linee visibili 2D
100
AcDbSpline
210
0.0
220
0.0
230
1.0
 70
    12
 71
     2
 72
     8
 73
     5
 74
     0
 42
0.0000000001
 43
0.0000000001
 40
0.0
 40
0.0
 40
0.0
 40
1.457834151900861
 40
1.457834151900861
 40
2.71291089743947
 40
2.71291089743947
 40
2.71291089743947
 10
1585.76235068557
 20
634.5373595072601
 30
0.0
 41
1.0
 10
1586.488685942555
 20
634.4760181175029
 30
0.0
 41
0.9999921403758232
 10
1587.215484766603
 20
634.4204380761163
 30
0.0
 41
1.0
 10
1587.841198671885
 20
634.3725884515608
 30
0.0
 41
0.9999941560232725
 10
1588.467225121423
 20
634.3290182517534
 30
0.0
 41
1.0
  0
SPLINE
  5
10A
330
1F
100
AcDbEntity
  8
Linee visibili 2D
100
AcDbSpline
210
0.0
220
0.0
230
1.0
 70
    12
 71
     3
 72
    26
 73
    22
 74
     0
 42
0.0000000001
 43
0.0000000001
 40
208.5622892453064
 40
208.5622892453064
 40
208.5622892453064
 40
208.5622892453064
 40
214.3345129772843
 40
214.3345129772843
 40
214.3345129772843
 40
215.2337718560141
 40
215.2337718560141
 40
215.2337718560141
 40
215.8943982713932
 40
215.8943982713932
 40
215.8943982713932
 40
221.0472783448378
 40
221.0472783448378
 40
221.0472783448378
 40
221.7079047602172
 40
221.7079047602172
 40
221.7079047602172
 40
222.6071636389468
 40
222.6071636389468
 40
222.6071636389468
 40
229.1404936285187
 40
229.1404936285187
 40
229.1404936285187
 40
229.1404936285187
 10
1578.477642708631
 20
635.2984218203491
 30
0.0
 41
1.0
 10
1578.498318411047
 20
637.222385306084
 30
0.0
 41
0.9997813747683792
 10
1578.518994113463
 20
639.1463487918192
 30
0.0
 41
0.9995627973337504
 10
1578.539669815879
 20
641.0703122775541
 30
0.0
 41
0.999344267685664
 10
1578.542990730431
 20
641.3806130746857
 30
0.0
 41
0.9331143220301801
 10
1578.680859900024
 20
641.6586233357372
 30
0.0
 41
0.93311432203018
 10
1578.925866147433
 20
641.8490690022786
 30
0.0
 41
0.999344267685664
 10
1579.102972658241
 20
641.9867242337518
 30
0.0
 41
0.9633171156591197
 10
1579.315155749578
 20
642.0594842136418
 30
0.0
 41
0.9633171156591199
 10
1579.539467316162
 20
642.0594797773123
 30
0.0
 41
0.999344267685664
 10
1581.25709400731
 20
642.0594797773122
 30
0.0
 41
0.999344267685664
 10
1582.974720698458
 20
642.0594797773122
 30
0.0
 41
0.999344267685664
 10
1584.692347389607
 20
642.0594797773122
 30
0.0
 41
0.999344267685664
 10
1584.916658956189
 20
642.0594842136418
 30
0.0
 41
0.9633171156590453
 10
1585.128842047526
 20
641.9867242337518
 30
0.0
 41
0.9633171156590453
 10
1585.305948558335
 20
641.8490690022786
 30
0.0
 41
0.999344267685664
 10
1585.550954805744
 20
641.658623335737
 30
0.0
 41
0.9331143220302464
 10
1585.688823975337
 20
641.3806130746857
 30
0.0
 41
0.9331143220302468
 10
1585.69214488989
 20
641.0703122775542
 30
0.0
 41
0.999344267685664
 10
1585.715546821783
 20
638.8926613541228
 30
0.0
 41
0.9995627973337483
 10
1585.738948753677
 20
636.7150104306914
 30
0.0
 41
0.9997813747683749
 10
1585.76235068557
 20
634.5373595072601
 30
0.0
 41
0.9999999999999933
  0
SPLINE
  5
10B
330
1F
100
AcDbEntity
  8
Linee visibili 2D
100
AcDbSpline
210
0.0
220
0.0
230
1.0
 70
    12
 71
     2
 72
     8
 73
     5
 74
     0
 42
0.0000000001
 43
0.0000000001
 40
0.0
 40
0.0
 40
0.0
 40
1.549427051212048
 40
1.549427051212048
 40
2.751036873513452
 40
2.751036873513452
 40
2.751036873513452
 10
1575.750302086573
 20
635.6585316807141
 30
0.0
 41
1.0
 10
1576.517583559057
 20
635.5514470615128
 30
0.0
 41
0.9999913440478754
 10
1577.285729562105
 20
635.450751025406
 30
0.0
 41
1.0
 10
1577.881439920914
 20
635.3726598964154
 30
0.0
 41
0.9999947749875523
 10
1578.477642708631
 20
635.2984218203492
 30
0.0
 41
1.0
  0
SPLINE
  5
10C
330
1F
100
AcDbEntity
  8
Linee visibili 2D
100
AcDbSpline
210
0.0
220
0.0
230
1.0
 70
    12
 71
     3
 72
    26
 73
    22
 74
     0
 42
0.0000000001
 43
0.0000000001
 40
189.6226932794154
 40
189.6226932794154
 40
189.6226932794154
 40
189.6226932794154
 40
193.8762422970694
 40
193.8762422970694
 40
193.8762422970694
 40
194.775501175799
 40
194.775501175799
 40
194.775501175799
 40
195.4361275911782
 40
195.4361275911782
 40
195.4361275911782
 40
200.5890076646228
 40
200.5890076646228
 40
200.5890076646228
 40
201.2496340800022
 40
201.2496340800022
 40
201.2496340800022
 40
202.1488929587318
 40
202.1488929587318
 40
202.1488929587318
 40
207.5609860372383
 40
207.5609860372383
 40
207.5609860372383
 40
207.5609860372383
 10
1568.493962047039
 20
636.8170088499271
 30
0.0
 41
1.0
 10
1568.509197962655
 20
638.2347766591363
 30
0.0
 41
0.9997813747683776
 10
1568.524433878272
 20
639.6525444683451
 30
0.0
 41
0.9995627973337471
 10
1568.539669793889
 20
641.070312277554
 30
0.0
 41
0.999344267685659
 10
1568.542990708441
 20
641.3806130746856
 30
0.0
 41
0.9331143220303055
 10
1568.680859878034
 20
641.6586233357369
 30
0.0
 41
0.9331143220303055
 10
1568.925866125443
 20
641.8490690022786
 30
0.0
 41
0.999344267685659
 10
1569.102972636251
 20
641.9867242337518
 30
0.0
 41
0.9633171156590604
 10
1569.315155727588
 20
642.0594842136418
 30
0.0
 41
0.9633171156590604
 10
1569.539467294171
 20
642.059479777312
 30
0.0
 41
0.999344267685659
 10
1571.25709398532
 20
642.059479777312
 30
0.0
 41
0.999344267685659
 10
1572.974720676468
 20
642.059479777312
 30
0.0
 41
0.999344267685659
 10
1574.692347367616
 20
642.059479777312
 30
0.0
 41
0.999344267685659
 10
1574.9166589342
 20
642.0594842136419
 30
0.0
 41
0.9633171156591073
 10
1575.128842025536
 20
641.9867242337518
 30
0.0
 41
0.963317115659107
 10
1575.305948536345
 20
641.8490690022786
 30
0.0
 41
0.999344267685659
 10
1575.550954783754
 20
641.6586233357369
 30
0.0
 41
0.9331143220302529
 10
1575.688823953347
 20
641.3806130746857
 30
0.0
 41
0.9331143220302526
 10
1575.692144867899
 20
641.070312277554
 30
0.0
 41
0.999344267685659
 10
1575.711530607457
 20
639.2663854119407
 30
0.0
 41
0.9995627973337455
 10
1575.730916347015
 20
637.4624585463273
 30
0.0
 41
0.9997813747683744
 10
1575.750302086573
 20
635.658531680714
 30
0.0
 41
0.999999999999995
  0
SPLINE
  5
10D
330
1F
100
AcDbEntity
  8
Linee visibili 2D
100
AcDbSpline
210
0.0
220
0.0
230
1.0
 70
    12
 71
     2
 72
     8
 73
     5
 74
     0
 42
0.0000000001
 43
0.0000000001
 40
0.0
 40
0.0
 40
0.0
 40
1.652150511143663
 40
1.652150511143663
 40
2.809825502184529
 40
2.809825502184529
 40
2.809825502184529
 10
1565.732287967836
 20
637.3348212535161
 30
0.0
 41
1.0
 10
1566.543063904576
 20
637.1765448584264
 30
0.0
 41
0.9999904284220503
 10
1567.35519379329
 20
637.0253691967
 30
0.0
 41
1.0
 10
1567.924257912071
 20
636.9194400578149
 30
0.0
 41
0.9999952824261858
 10
1568.493962047039
 20
636.8170088499271
 30
0.0
 41
1.0
  0
SPLINE
  5
10E
330
1F
100
AcDbEntity
  8
Linee visibili 2D
100
AcDbSpline
210
0.0
220
0.0
230
1.0
 70
    12
 71
     3
 72
    26
 73
    22
 74
     0
 42
0.0000000001
 43
0.0000000001
 40
168.4935603647433
 40
168.4935603647433
 40
168.4935603647433
 40
168.4935603647433
 40
176.9604436102636
 40
176.9604436102636
 40
176.9604436102636
 40
177.0906628906224
 40
177.0906628906224
 40
177.0906628906224
 40
178.4638862672
 40
178.4638862672
 40
178.4638862672
 40
183.3290223973469
 40
183.3290223973469
 40
183.3290223973469
 40
183.9896488127263
 40
183.9896488127263
 40
183.9896488127263
 40
184.8889076914559
 40
184.8889076914559
 40
184.8889076914559
 40
188.6246144065108
 40
188.6246144065108
 40
188.6246144065108
 40
188.6246144065108
 10
1558.248575378207
 20
632.6818617016352
 30
0.0
 41
1.0
 10
1558.441489343533
 20
635.4975552161891
 30
0.0
 41
1.007471160440615
 10
1558.634403308858
 20
638.3132487307431
 30
0.0
 41
1.01499813911956
 10
1558.827317274183
 20
641.1289422452971
 30
0.0
 41
1.022581353063849
 10
1558.830286256408
 20
641.172278019462
 30
0.0
 41
1.021125788557261
 10
1558.836079261805
 20
641.2153273547224
 30
0.0
 41
1.021125788557261
 10
1558.844671552709
 20
641.2579064190022
 30
0.0
 41
1.022581353063849
 10
1558.943805050943
 20
641.7456692177249
 30
0.0
 41
0.8683775997478803
 10
1559.329477035914
 20
642.0603072928196
 30
0.0
 41
0.8683775997478798
 10
1559.827211215479
 20
642.059479777312
 30
0.0
 41
1.022581353063849
 10
1561.448923258862
 20
642.059479777312
 30
0.0
 41
1.022581353063849
 10
1563.070635302244
 20
642.059479777312
 30
0.0
 41
1.022581353063849
 10
1564.692347345626
 20
642.059479777312
 30
0.0
 41
1.022581353063849
 10
1564.91665891221
 20
642.0594842136419
 30
0.0
 41
0.9857164857126544
 10
1565.128842003546
 20
641.9867242337518
 30
0.0
 41
0.9857164857126544
 10
1565.305948514355
 20
641.8490690022785
 30
0.0
 41
1.022581353063849
 10
1565.550954761764
 20
641.6586233357369
 30
0.0
 41
0.9548114066785566
 10
1565.688823931356
 20
641.3806130746857
 30
0.0
 41
0.9548114066785569
 10
1565.692144845909
 20
641.0703122775541
 30
0.0
 41
1.022581353063849
 10
1565.705525886552
 20
639.8251486028748
 30
0.0
 41
1.022804964036016
 10
1565.718906927194
 20
638.5799849281954
 30
0.0
 41
1.023028623905873
 10
1565.732287967836
 20
637.3348212535161
 30
0.0
 41
1.023252332684115
  0
SPLINE
  5
10F
330
1F
100
AcDbEntity
  8
Linee visibili 2D
100
AcDbSpline
210
0.0
220
0.0
230
1.0
 70
    12
 71
     2
 72
     8
 73
     5
 74
     0
 42
0.0000000001
 43
0.0000000001
 40
0.0
 40
0.0
 40
0.0
 40
5.727866359589415
 40
5.727866359589415
 40
10.7911401913282
 40
10.7911401913282
 40
10.7911401913282
 10
1547.79904312826
 20
635.3703126560131
 30
0.0
 41
1.0
 10
1550.552637103073
 20
634.5823125607446
 30
0.0
 41
0.9998984539145553
 10
1553.327569460512
 20
633.8731057221472
 30
0.0
 41
1.0
 10
1555.780501989501
 20
633.2462104131447
 30
0.0
 41
0.9999192361538466
 10
1558.248575378207
 20
632.6818617016352
 30
0.0
 41
1.0
  0
SPLINE
  5
110
330
1F
100
AcDbEntity
  8
Linee visibili 2D
100
AcDbSpline
210
0.0
220
0.0
230
1.0
 70
    12
 71
     3
 72
    17
 73
    13
 74
     0
 42
0.0000000001
 43
0.0000000001
 40
144.2483357105333
 40
144.2483357105333
 40
144.2483357105333
 40
144.2483357105333
 40
160.2205607505024
 40
160.2205607505024
 40
160.2205607505024
 40
161.5937841270802
 40
161.5937841270802
 40
161.5937841270802
 40
161.724003407439
 40
161.724003407439
 40
161.724003407439
 40
167.4961330958731
 40
167.4961330958731
 40
167.4961330958731
 40
167.4961330958731
 10
1530.432378340369
 20
642.059479777312
 30
0.0
 41
1.0
 10
1535.756453353692
 20
642.059479777312
 30
0.0
 41
1.0
 10
1541.080528367015
 20
642.059479777312
 30
0.0
 41
1.0
 10
1546.404603380338
 20
642.059479777312
 30
0.0
 41
1.0
 10
1546.902337559904
 20
642.0603072928196
 30
0.0
 41
0.8492014812768218
 10
1547.288009544875
 20
641.7456692177249
 30
0.0
 41
0.8492014812768216
 10
1547.387143043109
 20
641.2579064190021
 30
0.0
 41
1.0
 10
1547.395735334012
 20
641.2153273547224
 30
0.0
 41
0.9985765782817031
 10
1547.40152833941
 20
641.1722780194619
 30
0.0
 41
0.9985765782817035
 10
1547.404497321634
 20
641.128942245297
 30
0.0
 41
1.0
 10
1547.536012590509
 20
639.209399048869
 30
0.0
 41
0.9925842438632705
 10
1547.667527859384
 20
637.2898558524411
 30
0.0
 41
0.9852234811656204
 10
1547.799043128259
 20
635.3703126560131
 30
0.0
 41
0.9779173040891165
  0
SPLINE
  5
111
330
1F
100
AcDbEntity
  8
Linee visibili 2D
100
AcDbSpline
210
0.0
220
0.0
230
1.0
 70
    24
 71
     2
 72
     6
 73
     3
 74
     0
 42
0.0000000001
 43
0.0000000001
 40
0.0
 40
0.0
 40
0.0
 40
5.458005643820798
 40
5.458005643820798
 40
5.458005643820798
 10
1530.432378414273
 20
647.5174854211328
 30
0.0
 10
1530.432378377321
 20
644.7884825992224
 30
0.0
 10
1530.432378340369
 20
642.059479777312
 30
0.0
  0
SPLINE
  5
112
330
1F
100
AcDbEntity
  8
Linee visibili 2D
100
AcDbSpline
210
0.0
220
0.0
230
1.0
 70
    24
 71
     2
 72
     6
 73
     3
 74
     0
 42
0.0000000001
 43
0.0000000001
 40
0.0
 40
0.0
 40
0.0
 40
138.7903301095963
 40
138.7903301095963
 40
138.7903301095963
 10
1669.222708523869
 20
647.5174854211331
 30
0.0
 10
1599.827543469071
 20
647.517485421133
 30
0.0
 10
1530.432378414273
 20
647.5174854211328
 30
0.0
  0
SPLINE
  5
113
330
1F
100
AcDbEntity
  8
Linee visibili 2D
100
AcDbSpline
210
0.0
220
0.0
230
1.0
 70
    24
 71
     2
 72
     6
 73
     3
 74
     0
 42
0.0000000001
 43
0.0000000001
 40
0.0
 40
0.0
 40
0.0
 40
25.28213998869156
 40
25.28213998869156
 40
25.28213998869156
 10
1671.657797294753
 20
679.6448754248865
 30
0.0
 10
1671.715073050419
 20
667.0039351873187
 30
0.0
 10
1671.772348806086
 20
654.3629949497508
 30
0.0
  0
SPLINE
  5
114
330
1F
100
AcDbEntity
  8
Linee visibili 2D
100
AcDbSpline
210
0.0
220
0.0
230
1.0
 70
    24
 71
     2
 72
     6
 73
     3
 74
     0
 42
0.0000000001
 43
0.0000000001
 40
0.0
 40
0.0
 40
0.0
 40
0.7058469382899442
 40
0.7058469382899442
 40
0.7058469382899442
 10
1671.651294291559
 20
681.0801087760509
 30
0.0
 10
1671.652893361764
 20
680.7271889295591
 30
0.0
 10
1671.654492431969
 20
680.3742690830672
 30
0.0
  0
SPLINE
  5
115
330
1F
100
AcDbEntity
  8
Linee visibili 2D
100
AcDbSpline
210
0.0
220
0.0
230
1.0
 70
    24
 71
     3
 72
     9
 73
     5
 74
     0
 42
0.0000000001
 43
0.0000000001
 40
0.0
 40
0.0
 40
0.0
 40
0.0
 40
0.2979114793132709
 40
40.1774477144089
 40
40.1774477144089
 40
40.1774477144089
 40
40.1774477144089
 10
1533.266490946552
 20
693.1557749418643
 30
0.0
 10
1533.266490946552
 20
693.0805820968899
 30
0.0
 10
1533.266490946552
 20
679.685232643651
 30
0.0
 10
1533.266490946552
 20
666.2952845781647
 30
0.0
 10
1533.266490946552
 20
653.0011636672306
 30
0.0
  0
SPLINE
  5
116
330
1F
100
AcDbEntity
  8
Linee visibili 2D
100
AcDbSpline
210
0.0
220
0.0
230
1.0
 70
    24
 71
     2
 72
     6
 73
     3
 74
     0
 42
0.0000000001
 43
0.0000000001
 40
0.0
 40
0.0
 40
0.0
 40
135.69883266383
 40
135.69883266383
 40
135.69883266383
 10
1668.965323610382
 20
653.0011636672306
 30
0.0
 10
1601.115907278467
 20
653.0011636672306
 30
0.0
 10
1533.266490946552
 20
653.0011636672306
 30
0.0
  0
SPLINE
  5
117
330
1F
100
AcDbEntity
  8
Linee visibili 2D
100
AcDbSpline
210
0.0
220
0.0
230
1.0
 70
    24
 71
     3
 72
     9
 73
     5
 74
     0
 42
0.0000000001
 43
0.0000000001
 40
0.0
 40
0.0
 40
0.0
 40
0.0
 40
0.2979114793132709
 40
40.17744771440898
 40
40.17744771440898
 40
40.17744771440898
 40
40.17744771440898
 10
1668.965323610382
 20
693.1557749418641
 30
0.0
 10
1668.965323610382
 20
693.0805820968901
 30
0.0
 10
1668.965323610382
 20
679.685232643651
 30
0.0
 10
1668.965323610382
 20
666.2952845781648
 30
0.0
 10
1668.965323610382
 20
653.0011636672306
 30
0.0
  0
SPLINE
  5
118
330
1F
100
AcDbEntity
  8
Linee visibili 2D - Tangent
100
AcDbSpline
210
0.0
220
0.0
230
1.0
 70
    12
 71
     2
 72
     6
 73
     3
 74
     0
 42
0.0000000001
 43
0.0000000001
 40
0.0
 40
0.0
 40
0.0
 40
23.64270456862556
 40
23.64270456862556
 40
23.64270456862556
 10
1659.012814429872
 20
854.2622109184381
 30
0.0
 41
1.0
 10
1659.781190927022
 20
842.4658567710561
 30
0.0
 41
0.9999999797022437
 10
1660.554320897945
 20
830.66981321146
 30
0.0
 41
1.0
  0
SPLINE
  5
119
330
1F
100
AcDbEntity
  8
Linee visibili 2D
100
AcDbSpline
210
0.0
220
0.0
230
1.0
 70
    12
 71
     2
 72
     6
 73
     3
 74
     0
 42
0.0000000001
 43
0.0000000001
 40
0.0
 40
0.0
 40
0.0
 40
0.2816396509401077
 40
0.2816396509401077
 40
0.2816396509401077
 10
1663.884274891184
 20
780.3498755572351
 30
0.0
 41
1.0
 10
1663.919096356676
 20
780.201249172086
 30
0.0
 41
0.8876961245650474
 10
1663.817660158645
 20
780.0871744836115
 30
0.0
 41
1.0
  0
SPLINE
  5
11A
330
1F
100
AcDbEntity
  8
Linee visibili 2D
100
AcDbSpline
210
0.0
220
0.0
230
1.0
 70
     8
 71
     3
 72
    11
 73
     7
 74
     0
 42
0.0000000001
 43
0.0000000001
 40
0.0
 40
0.0
 40
0.0
 40
0.0
 40
0.4646256949765791
 40
1.221640015861581
 40
2.254374976395245
 40
3.347239431568836
 40
3.347239431568836
 40
3.347239431568836
 40
3.347239431568836
 10
1663.817660158645
 20
780.0871744836115
 30
0.0
 10
1663.713669209128
 20
779.9669282973434
 30
0.0
 10
1663.327576238436
 20
779.8116273379645
 30
0.0
 10
1662.575677448228
 20
779.7471049476233
 30
0.0
 10
1661.615217514571
 20
779.8204184567535
 30
0.0
 10
1660.918521591842
 20
779.9527728178565
 30
0.0
 10
1660.565197617781
 20
780.0423779283545
 30
0.0
  0
SPLINE
  5
11B
330
1F
100
AcDbEntity
  8
Linee visibili 2D - Tangent
100
AcDbSpline
210
0.0
220
0.0
230
1.0
 70
    12
 71
     2
 72
     6
 73
     3
 74
     0
 42
0.0000000001
 43
0.0000000001
 40
0.0
 40
0.0
 40
0.0
 40
9.684723625195986
 40
9.684723625195986
 40
9.684723625195986
 10
1660.003756243437
 20
844.5830305837426
 30
0.0
 41
1.0
 10
1659.839568328979
 20
849.422608079976
 30
0.0
 41
0.9999999971470687
 10
1659.676111552282
 20
854.2622103255594
 30
0.0
 41
1.0
  0
SPLINE
  5
11C
330
1F
100
AcDbEntity
  8
Linee visibili 2D - Tangent
100
AcDbSpline
210
0.0
220
0.0
230
1.0
 70
    12
 71
     2
 72
     6
 73
     3
 74
     0
 42
0.0000000001
 43
0.0000000001
 40
0.0
 40
0.0
 40
0.0
 40
0.1683642811005238
 40
0.1683642811005238
 40
0.1683642811005238
 10
1660.339511681155
 20
834.7356604680243
 30
0.0
 41
1.0
 10
1660.336627485146
 20
834.8197931858045
 30
0.0
 41
0.9999999999932376
 10
1660.333743907947
 20
834.903925924796
 30
0.0
 41
1.0
  0
SPLINE
  5
11D
330
1F
100
AcDbEntity
  8
Linee visibili 2D
100
AcDbSpline
210
0.0
220
0.0
230
1.0
 70
     8
 71
     3
 72
    11
 73
     7
 74
     0
 42
0.0000000001
 43
0.0000000001
 40
0.0
 40
0.0
 40
0.0
 40
0.0
 40
1.092767313727781
 40
2.125327859802595
 40
2.882541498759776
 40
3.347240610108224
 40
3.347240610108224
 40
3.347240610108224
 40
3.347240610108224
 10
1541.666617376404
 20
780.0423779358937
 30
0.0
 10
1541.313324835131
 20
779.9527816428496
 30
0.0
 10
1540.616718326291
 20
779.8204398500375
 30
0.0
 10
1539.656285506982
 20
779.7471095339705
 30
0.0
 10
1538.904350796922
 20
779.8115943095507
 30
0.0
 10
1538.518162611222
 20
779.9669081102534
 30
0.0
 10
1538.41415443827
 20
780.0871744836115
 30
0.0
  0
SPLINE
  5
11E
330
1F
100
AcDbEntity
  8
Linee visibili 2D
100
AcDbSpline
210
0.0
220
0.0
230
1.0
 70
    12
 71
     2
 72
     6
 73
     3
 74
     0
 42
0.0000000001
 43
0.0000000001
 40
0.0
 40
0.0
 40
0.0
 40
0.281639650940198
 40
0.281639650940198
 40
0.281639650940198
 10
1538.41415443827
 20
780.0871744836115
 30
0.0
 41
1.0
 10
1538.312718240239
 20
780.2012491720859
 30
0.0
 41
0.8876961245662689
 10
1538.34753970573
 20
780.3498755572351
 30
0.0
 41
1.0
  0
SPLINE
  5
11F
330
1F
100
AcDbEntity
  8
Linee visibili 2D - Tangent
100
AcDbSpline
210
0.0
220
0.0
230
1.0
 70
    12
 71
     2
 72
     6
 73
     3
 74
     0
 42
0.0000000001
 43
0.0000000001
 40
0.0
 40
0.0
 40
0.0
 40
23.64270451659692
 40
23.64270451659692
 40
23.64270451659692
 10
1541.677493702373
 20
830.6698132633769
 30
0.0
 41
1.0
 10
1542.450623671581
 20
842.4658567970151
 30
0.0
 41
0.9999999797022439
 10
1543.219000167037
 20
854.2622109184376
 30
0.0
 41
1.0
  0
SPLINE
  5
120
330
1F
100
AcDbEntity
  8
Linee visibili 2D - Tangent
100
AcDbSpline
210
0.0
220
0.0
230
1.0
 70
    12
 71
     2
 72
     6
 73
     3
 74
     0
 42
0.0000000001
 43
0.0000000001
 40
0.0
 40
0.0
 40
0.0
 40
9.684723573943392
 40
9.684723573943392
 40
9.684723573943392
 10
1542.555703044629
 20
854.262210325563
 30
0.0
 41
1.0
 10
1542.392246268796
 20
849.4226081055916
 30
0.0
 41
0.9999999971470687
 10
1542.228058355205
 20
844.5830306349695
 30
0.0
 41
1.0
  0
SPLINE
  5
121
330
1F
100
AcDbEntity
  8
Linee visibili 2D
100
AcDbSpline
210
0.0
220
0.0
230
1.0
 70
    12
 71
     2
 72
     6
 73
     3
 74
     0
 42
0.0000000001
 43
0.0000000001
 40
0.0
 40
0.0
 40
0.0
 40
0.6632971224157118
 40
0.6632971224157118
 40
0.6632971224157118
 10
1659.676111552285
 20
854.2622103255644
 30
0.0
 41
1.0
 10
1659.344462991078
 20
854.2622116397306
 30
0.0
 41
0.9999999999952917
 10
1659.01281442987
 20
854.2622109184518
 30
0.0
 41
1.0
  0
SPLINE
  5
122
330
1F
100
AcDbEntity
  8
Linee visibili 2D
100
AcDbSpline
210
0.0
220
0.0
230
1.0
 70
    12
 71
     2
 72
     6
 73
     3
 74
     0
 42
0.0000000001
 43
0.0000000001
 40
0.0
 40
0.0
 40
0.0
 40
2.902077298244483
 40
2.902077298244483
 40
2.902077298244483
 10
1656.110737131626
 20
854.2622103760305
 30
0.0
 41
1.0
 10
1657.561775780748
 20
854.2622104266889
 30
0.0
 41
0.9999999999999885
 10
1659.01281442987
 20
854.2622109192465
 30
0.0
 41
1.0
  0
SPLINE
  5
123
330
1F
100
AcDbEntity
  8
Linee visibili 2D
100
AcDbSpline
210
0.0
220
0.0
230
1.0
 70
    12
 71
     2
 72
     6
 73
     3
 74
     0
 42
0.0000000001
 43
0.0000000001
 40
0.0
 40
0.0
 40
0.0
 40
2.902077298244256
 40
2.902077298244256
 40
2.902077298244256
 10
1543.219000167044
 20
854.2622109180602
 30
0.0
 41
1.0
 10
1544.670038816165
 20
854.2622104253351
 30
0.0
 41
0.9999999999999885
 10
1546.121077465288
 20
854.2622103743336
 30
0.0
 41
1.0
  0
SPLINE
  5
124
330
1F
100
AcDbEntity
  8
Linee visibili 2D
100
AcDbSpline
210
0.0
220
0.0
230
1.0
 70
    12
 71
     2
 72
     6
 73
     3
 74
     0
 42
0.0000000001
 43
0.0000000001
 40
0.0
 40
0.0
 40
0.0
 40
0.6632971224146885
 40
0.6632971224146885
 40
0.6632971224146885
 10
1543.219000167044
 20
854.2622109184385
 30
0.0
 41
1.0
 10
1542.887351605836
 20
854.2622116397283
 30
0.0
 41
0.9999999999952917
 10
1542.55570304463
 20
854.2622103255733
 30
0.0
 41
1.0
  0
SPLINE
  5
125
330
1F
100
AcDbEntity
  8
Linee visibili 2D
100
AcDbSpline
210
0.0
220
0.0
230
1.0
 70
    12
 71
     2
 72
     8
 73
     5
 74
     0
 42
0.0000000001
 43
0.0000000001
 40
0.0
 40
0.0
 40
0.0
 40
3.376059042905813
 40
3.376059042905813
 40
6.752118085811627
 40
6.752118085811627
 40
6.752118085811627
 10
1651.915953113958
 20
838.8434666472783
 30
0.0
 41
1.0
 10
1651.91612352487
 20
836.6945964510867
 30
0.0
 41
0.7072859726452818
 10
1654.064993531375
 20
836.6936776121349
 30
0.0
 41
1.0
 10
1656.213863537879
 20
836.6927587731832
 30
0.0
 41
0.7072859726452818
 10
1656.215871626459
 20
838.8416280378666
 30
0.0
 41
1.0
  0
SPLINE
  5
126
330
1F
100
AcDbEntity
  8
Linee visibili 2D
100
AcDbSpline
210
0.0
220
0.0
230
1.0
 70
    12
 71
     2
 72
    12
 73
     9
 74
     0
 42
0.0000000001
 43
0.0000000001
 40
0.0
 40
0.0
 40
0.0
 40
1.689037370642009
 40
1.689037370642009
 40
3.378074741284018
 40
3.378074741284018
 40
5.067112111926027
 40
5.067112111926027
 40
6.756149482568035
 40
6.756149482568035
 40
6.756149482568035
 10
1656.215871626459
 20
838.8416280378666
 30
0.0
 41
1.0
 10
1656.216636216419
 20
839.732441392391
 30
0.0
 41
0.9238383204174
 10
1655.587140944295
 20
840.3627466514282
 30
0.0
 41
1.0
 10
1654.957645672171
 20
840.9930519104654
 30
0.0
 41
0.9238383204174
 10
1654.066832070957
 20
840.9934328149561
 30
0.0
 41
1.0
 10
1653.176018469742
 20
840.9938137194468
 30
0.0
 41
0.9238383204174
 10
1652.545984401325
 20
840.3640470246855
 30
0.0
 41
1.0
 10
1651.915950332908
 20
839.7342803299241
 30
0.0
 41
0.9238383204174
 10
1651.915953113958
 20
838.8434666472783
 30
0.0
 41
1.0
  0
SPLINE
  5
127
330
1F
100
AcDbEntity
  8
Linee visibili 2D
100
AcDbSpline
210
0.0
220
0.0
230
1.0
 70
    12
 71
     2
 72
     6
 73
     3
 74
     0
 42
0.0000000001
 43
0.0000000001
 40
0.0
 40
0.0
 40
0.0
 40
2.496791760914003
 40
2.496791760914003
 40
2.496791760914003
 10
1653.908101555481
 20
781.6267244964023
 30
0.0
 41
1.0
 10
1652.690949195368
 20
781.9042942120855
 30
0.0
 41
0.9999939651526017
 10
1651.471897595247
 20
782.1734001596857
 30
0.0
 41
1.0
  0
SPLINE
  5
128
330
1F
100
AcDbEntity
  8
Linee visibili 2D
100
AcDbSpline
210
0.0
220
0.0
230
1.0
 70
    12
 71
     2
 72
     6
 73
     3
 74
     0
 42
0.0000000001
 43
0.0000000001
 40
0.0
 40
0.0
 40
0.0
 40
6.843062227582889
 40
6.843062227582889
 40
6.843062227582889
 10
1660.565197617781
 20
780.0423779283547
 30
0.0
 41
1.0
 10
1657.244148431078
 20
780.8659071712389
 30
0.0
 41
0.9999556086655362
 10
1653.908170460257
 20
781.626708783076
 30
0.0
 41
1.0
  0
SPLINE
  5
129
330
1F
100
AcDbEntity
  8
Linee visibili 2D - Tangent
100
AcDbSpline
210
0.0
220
0.0
230
1.0
 70
    12
 71
     2
 72
     6
 73
     3
 74
     0
 42
0.0000000001
 43
0.0000000001
 40
0.0
 40
0.0
 40
0.0
 40
74.35340916388414
 40
74.35340916388414
 40
74.35340916388414
 10
1656.110737131625
 20
854.2622103751426
 30
0.0
 41
1.0
 10
1658.28532943976
 20
817.1491349745645
 30
0.0
 41
0.9999989940252336
 10
1660.565197617781
 20
780.0423779283547
 30
0.0
 41
1.0
  0
SPLINE
  5
12A
330
1F
100
AcDbEntity
  8
Linee visibili 2D
100
AcDbSpline
210
0.0
220
0.0
230
1.0
 70
    24
 71
     2
 72
     6
 73
     3
 74
     0
 42
0.0000000001
 43
0.0000000001
 40
0.0
 40
0.0
 40
0.0
 40
54.99484902508311
 40
54.99484902508311
 40
54.99484902508311
 10
1601.115888106543
 20
854.2622103733886
 30
0.0
 10
1628.613312619084
 20
854.2622103742656
 30
0.0
 10
1656.110737131626
 20
854.2622103751427
 30
0.0
  0
SPLINE
  5
12B
330
1F
100
AcDbEntity
  8
Linee visibili 2D
100
AcDbSpline
210
0.0
220
0.0
230
1.0
 70
    12
 71
     2
 72
     8
 73
     5
 74
     0
 42
0.0000000001
 43
0.0000000001
 40
0.0
 40
0.0
 40
0.0
 40
3.376332315278225
 40
3.376332315278225
 40
6.752664630556451
 40
6.752664630556451
 40
6.752664630556451
 10
1546.015861482956
 20
838.8434666472783
 30
0.0
 41
1.0
 10
1546.016013736416
 20
840.992610008609
 30
0.0
 41
0.70724103825692
 10
1548.165157000587
 20
840.9932739404692
 30
0.0
 41
1.0
 10
1550.314300264756
 20
840.9939378723292
 30
0.0
 41
0.70724103825692
 10
1550.315780381841
 20
838.8447950152845
 30
0.0
 41
1.0
  0
SPLINE
  5
12C
330
1F
100
AcDbEntity
  8
Linee visibili 2D
100
AcDbSpline
210
0.0
220
0.0
230
1.0
 70
    12
 71
     2
 72
    12
 73
     9
 74
     0
 42
0.0000000001
 43
0.0000000001
 40
0.0
 40
0.0
 40
0.0
 40
1.688911548648002
 40
1.688911548648002
 40
3.377823097296005
 40
3.377823097296005
 40
5.066734645944008
 40
5.066734645944008
 40
6.75564619459201
 40
6.75564619459201
 40
6.75564619459201
 10
1550.315780381841
 20
838.8447950152845
 30
0.0
 41
1.0
 10
1550.316334949566
 20
837.954055216025
 30
0.0
 41
0.923849521205733
 10
1549.68678010186
 20
837.3239136515651
 30
0.0
 41
1.0
 10
1549.057225254154
 20
836.6937720871052
 30
0.0
 41
0.923849521205733
 10
1548.166485324765
 20
836.6934969120491
 30
0.0
 41
1.0
 10
1547.275745395375
 20
836.6932217369931
 30
0.0
 41
0.923849521205733
 10
1546.645801330346
 20
837.3229742061936
 30
0.0
 41
1.0
 10
1546.015857265316
 20
837.952726675394
 30
0.0
 41
0.923849521205733
 10
1546.015861482956
 20
838.8434666472783
 30
0.0
 41
1.0
  0
SPLINE
  5
12D
330
1F
100
AcDbEntity
  8
Linee visibili 2D
100
AcDbSpline
210
0.0
220
0.0
230
1.0
 70
    12
 71
     2
 72
     6
 73
     3
 74
     0
 42
0.0000000001
 43
0.0000000001
 40
0.0
 40
0.0
 40
0.0
 40
2.496791760758748
 40
2.496791760758748
 40
2.496791760758748
 10
1548.323713041579
 20
781.6267244964355
 30
0.0
 41
1.0
 10
1549.540865401889
 20
781.9042942108891
 30
0.0
 41
0.9999939651560598
 10
1550.759917001663
 20
782.173400159685
 30
0.0
 41
1.0
  0
SPLINE
  5
12E
330
1F
100
AcDbEntity
  8
Linee visibili 2D
100
AcDbSpline
210
0.0
220
0.0
230
1.0
 70
    12
 71
     2
 72
     6
 73
     3
 74
     0
 42
0.0000000001
 43
0.0000000001
 40
0.0
 40
0.0
 40
0.0
 40
6.843061838946523
 40
6.843061838946523
 40
6.843061838946523
 10
1541.666617376404
 20
780.0423779358937
 30
0.0
 41
1.0
 10
1544.987666379569
 20
780.8659071098454
 30
0.0
 41
0.999955608844685
 10
1548.323644136657
 20
781.6267087830759
 30
0.0
 41
1.0
  0
SPLINE
  5
12F
330
1F
100
AcDbEntity
  8
Linee visibili 2D - Tangent
100
AcDbSpline
210
0.0
220
0.0
230
1.0
 70
    12
 71
     2
 72
     6
 73
     3
 74
     0
 42
0.0000000001
 43
0.0000000001
 40
0.0
 40
0.0
 40
0.0
 40
74.35340913256019
 40
74.35340913256019
 40
74.35340913256019
 10
1546.121077465286
 20
854.2622103751426
 30
0.0
 41
1.0
 10
1543.946485357755
 20
817.1491349784976
 30
0.0
 41
0.9999989940251583
 10
1541.666617376405
 20
780.0423779358935
 30
0.0
 41
1.0
  0
SPLINE
  5
130
330
1F
100
AcDbEntity
  8
Linee visibili 2D
100
AcDbSpline
210
0.0
220
0.0
230
1.0
 70
    24
 71
     2
 72
     6
 73
     3
 74
     0
 42
0.0000000001
 43
0.0000000001
 40
0.0
 40
0.0
 40
0.0
 40
54.99481064125496
 40
54.99481064125496
 40
54.99481064125496
 10
1601.115888106543
 20
854.2622103733886
 30
0.0
 10
1573.618482785915
 20
854.2622103742656
 30
0.0
 10
1546.121077465288
 20
854.2622103751426
 30
0.0
  0
SPLINE
  5
131
330
1F
100
AcDbEntity
  8
Linee visibili 2D - Tangent
100
AcDbSpline
210
0.0
220
0.0
230
1.0
 70
    12
 71
     2
 72
    10
 73
     7
 74
     0
 42
0.0000000001
 43
0.0000000001
 40
-0.9999999999999978
 40
-0.9999999999999978
 40
-0.9999999999999978
 40
-0.2229214629720286
 40
-0.2229214629720286
 40
-0.1303641142918314
 40
-0.1303641142918314
 40
0.0
 40
0.0
 40
0.0
 10
1601.115907373864
 20
842.2622103749193
 30
0.0
 41
1.0
 10
1601.115899322172
 20
846.9246815964923
 30
0.0
 41
1.0
 10
1601.115891270479
 20
851.5871528180654
 30
0.0
 41
1.0
 10
1601.115890613643
 20
852.1424969100758
 30
0.0
 41
1.0
 10
1601.115889956808
 20
852.6978410020861
 30
0.0
 41
1.0
 10
1601.115889031675
 20
853.4800256877373
 30
0.0
 41
1.0
 10
1601.115888106543
 20
854.2622103733886
 30
0.0
 41
1.0
  0
SPLINE
  5
132
330
1F
100
AcDbEntity
  8
Linee visibili 2D - Tangent
100
AcDbSpline
210
0.0
220
0.0
230
1.0
 70
    12
 71
     2
 72
     8
 73
     5
 74
     0
 42
0.0000000001
 43
0.0000000001
 40
-1.0
 40
-1.0
 40
-1.0
 40
-0.9959436619794968
 40
-0.9959436619794968
 40
0.0
 40
0.0
 40
0.0
 10
1601.115907960415
 20
781.3846308511304
 30
0.0
 41
1.0
 10
1601.11590788707
 20
781.5081008713397
 30
0.0
 41
1.0
 10
1601.115907813724
 20
781.631570891549
 30
0.0
 41
1.0
 10
1601.115907593794
 20
811.9468906332341
 30
0.0
 41
1.0
 10
1601.115907373864
 20
842.2622103749193
 30
0.0
 41
1.0
  0
SPLINE
  5
133
330
1F
100
AcDbEntity
  8
Linee visibili 2D
100
AcDbSpline
210
0.0
220
0.0
230
1.0
 70
     8
 71
     3
 72
    14
 73
    10
 74
     0
 42
0.0000000001
 43
0.0000000001
 40
0.0
 40
0.0
 40
0.0
 40
0.0
 40
3.869257840446723
 40
9.565922769021512
 40
23.40464906062627
 40
40.9461829568679
 40
62.37286685630552
 40
107.1914746443024
 40
151.8791536606147
 40
151.8791536606147
 40
151.8791536606147
 40
151.8791536606147
 10
1736.216260021245
 20
722.6317223221733
 30
0.0
 10
1736.307212148782
 20
723.9391843641483
 30
0.0
 10
1735.429783794945
 20
727.0446781297429
 30
0.0
 10
1731.191025866391
 20
733.6833779426064
 30
0.0
 10
1721.963602385421
 20
742.0367533201938
 30
0.0
 10
1706.984382968255
 20
751.3523603722215
 30
0.0
 10
1681.502639519185
 20
762.919413651643
 30
0.0
 10
1645.77728345949
 20
773.0121721083472
 30
0.0
 10
1616.027894194867
 20
776.332824093704
 30
0.0
 10
1601.11590738587
 20
776.3346977846235
 30
0.0
  0
SPLINE
  5
134
330
1F
100
AcDbEntity
  8
Linee visibili 2D
100
AcDbSpline
210
0.0
220
0.0
230
1.0
 70
     8
 71
     3
 72
    14
 73
    10
 74
     0
 42
0.0000000001
 43
0.0000000001
 40
0.0
 40
0.0
 40
0.0
 40
0.0
 40
4.486185467531835
 40
10.1099652630139
 40
25.18299750988687
 40
44.17005945758616
 40
67.08872327737679
 40
114.2464528863032
 40
159.8725784350013
 40
159.8725784350013
 40
159.8725784350013
 40
159.8725784350013
 10
1743.659621870866
 20
724.9579636156099
 30
0.0
 10
1743.53631251173
 20
726.4532017411302
 30
0.0
 10
1742.468459348101
 20
729.6952250654967
 30
0.0
 10
1737.733746325448
 20
736.6981160589377
 30
0.0
 10
1727.765292880209
 20
745.5318069144262
 30
0.0
 10
1711.64628855528
 20
755.6344943688381
 30
0.0
 10
1684.588329584833
 20
768.0105678290491
 30
0.0
 10
1647.239863074943
 20
778.3218123514696
 30
0.0
 10
1616.329099149401
 20
781.1391836027399
 30
0.0
 10
1601.11590738587
 20
781.1315711132307
 30
0.0
  0
SPLINE
  5
135
330
1F
100
AcDbEntity
  8
Linee visibili 2D
100
AcDbSpline
210
0.0
220
0.0
230
1.0
 70
     8
 71
     3
 72
    15
 73
    11
 74
     0
 42
0.0000000001
 43
0.0000000001
 40
0.0
 40
0.0
 40
0.0
 40
0.0
 40
22.30145753226671
 40
44.70022245307002
 40
89.50814051157786
 40
109.99341736195
 40
128.4653434348103
 40
142.3093746287306
 40
148.0068616295742
 40
151.8787761288802
 40
151.8787761288802
 40
151.8787761288802
 40
151.8787761288802
 10
1601.11590738587
 20
776.3346977846235
 30
0.0
 10
1593.686405505808
 20
776.3222805657842
 30
0.0
 10
1578.77691670246
 20
775.5141694231995
 30
0.0
 10
1549.275225848908
 20
770.9769481542203
 30
0.0
 10
1521.023377059052
 20
763.003673788508
 30
0.0
 10
1495.533279941043
 20
751.495234602414
 30
0.0
 10
1480.507830284929
 20
742.2485129997661
 30
0.0
 10
1471.042812294729
 20
733.6889244809967
 30
0.0
 10
1466.806633499016
 20
727.0436147143735
 30
0.0
 10
1465.919488999325
 20
723.9450565078558
 30
0.0
 10
1466.015554750495
 20
722.6317223221732
 30
0.0
  0
SPLINE
  5
136
330
1F
100
AcDbEntity
  8
Linee visibili 2D - Tangent
100
AcDbSpline
210
0.0
220
0.0
230
1.0
 70
    24
 71
     2
 72
     6
 73
     3
 74
     0
 42
0.0000000001
 43
0.0000000001
 40
0.0
 40
0.0
 40
0.0
 40
4.796873328607319
 40
4.796873328607319
 40
4.796873328607319
 10
1601.11590738587
 20
781.1315711132307
 30
0.0
 10
1601.11590738587
 20
778.7331344489271
 30
0.0
 10
1601.11590738587
 20
776.3346977846235
 30
0.0
  0
SPLINE
  5
137
330
1F
100
AcDbEntity
  8
Linee visibili 2D
100
AcDbSpline
210
0.0
220
0.0
230
1.0
 70
     8
 71
     3
 72
    13
 73
     9
 74
     0
 42
0.0000000001
 43
0.0000000001
 40
0.0
 40
0.0
 40
0.0
 40
0.0
 40
4.982728894125482
 40
10.87832004119692
 40
26.53069982194033
 40
46.86080327968266
 40
68.3480897088081
 40
159.8558733712043
 40
159.8558733712043
 40
159.8558733712043
 40
159.8558733712043
 10
1458.572192900873
 20
724.9579636156097
 30
0.0
 10
1458.748990445951
 20
726.610548096022
 30
0.0
 10
1459.964538717643
 20
730.0836011117233
 30
0.0
 10
1465.08809975669
 20
737.3585597289934
 30
0.0
 10
1475.759204106419
 20
746.511796605874
 30
0.0
 10
1492.163743615122
 20
756.4573351812378
 30
0.0
 10
1532.882287137889
 20
774.5028965203496
 30
0.0
 10
1570.636556476981
 20
781.035223414041
 30
0.0
 10
1601.11590738587
 20
781.1315711132307
 30
0.0
  0
SPLINE
  5
138
330
1F
100
AcDbEntity
  8
Linee visibili 2D - Tangent
100
AcDbSpline
210
0.0
220
0.0
230
1.0
 70
    24
 71
     2
 72
     6
 73
     3
 74
     0
 42
0.0000000001
 43
0.0000000001
 40
0.0
 40
0.0
 40
0.0
 40
7.798399462690722
 40
7.798399462690722
 40
7.798399462690722
 10
1736.216260021245
 20
722.6317223221733
 30
0.0
 10
1739.937940946056
 20
723.7948429688915
 30
0.0
 10
1743.659621870866
 20
724.9579636156099
 30
0.0
  0
SPLINE
  5
139
330
1F
100
AcDbEntity
  8
Linee visibili 2D
100
AcDbSpline
210
0.0
220
0.0
230
1.0
 70
     8
 71
     3
 72
    14
 73
    10
 74
     0
 42
0.0000000001
 43
0.0000000001
 40
0.0
 40
0.0
 40
0.0
 40
0.0
 40
3.837523663516666
 40
7.175038650426385
 40
14.50831216114135
 40
17.58027380595817
 40
19.89379914836752
 40
21.19610696681506
 40
26.83633761600969
 40
26.83633761600969
 40
26.83633761600969
 40
26.83633761600969
 10
1728.589790020432
 20
703.7621977517341
 30
0.0
 10
1729.662552065896
 20
704.4565910217065
 30
0.0
 10
1731.614338410737
 20
705.849387898435
 30
0.0
 10
1735.273657597981
 20
709.0107574623466
 30
0.0
 10
1738.29562607545
 20
712.4929378812153
 30
0.0
 10
1740.564147686256
 20
716.0728202386307
 30
0.0
 10
1741.662078114692
 20
718.0190333977877
 30
0.0
 10
1742.980429826999
 20
720.7991220044793
 30
0.0
 10
1743.578736677381
 20
723.0825577381968
 30
0.0
 10
1743.659621870866
 20
724.9579636156099
 30
0.0
  0
SPLINE
  5
13A
330
1F
100
AcDbEntity
  8
Linee visibili 2D
100
AcDbSpline
210
0.0
220
0.0
230
1.0
 70
     8
 71
     3
 72
    11
 73
     7
 74
     0
 42
0.0000000001
 43
0.0000000001
 40
0.0
 40
0.0
 40
0.0
 40
0.0
 40
4.577674574957339
 40
8.512226232754061
 40
15.50423728944764
 40
27.33056132360286
 40
27.33056132360286
 40
27.33056132360286
 40
27.33056132360286
 10
1720.539899867551
 20
701.4283987028365
 30
0.0
 10
1721.794742647075
 20
702.296796647507
 30
0.0
 10
1724.104759085181
 20
703.9455732424327
 30
0.0
 10
1728.063514989016
 20
707.2768658907353
 30
0.0
 10
1733.386946238306
 20
712.7067884001983
 30
0.0
 10
1736.009263711351
 20
718.6675200736429
 30
0.0
 10
1736.216260021245
 20
722.6317223221733
 30
0.0
  0
SPLINE
  5
13B
330
1F
100
AcDbEntity
  8
Linee visibili 2D - Tangent
100
AcDbSpline
210
0.0
220
0.0
230
1.0
 70
    12
 71
     2
 72
     6
 73
     3
 74
     0
 42
0.0000000001
 43
0.0000000001
 40
0.0
 40
0.0
 40
0.0
 40
15.58407355219532
 40
15.58407355219532
 40
15.58407355219532
 10
1710.72809177787
 20
697.2234356648373
 30
0.0
 41
1.0
 10
1718.325981653453
 20
699.0231830635481
 30
0.0
 41
0.996909678968951
 10
1725.548207816445
 20
701.9907528624318
 30
0.0
 41
1.0
  0
SPLINE
  5
13C
330
1F
100
AcDbEntity
  8
Linee visibili 2D - Tangent
100
AcDbSpline
210
0.0
220
0.0
230
1.0
 70
    24
 71
     2
 72
     6
 73
     3
 74
     0
 42
0.0000000001
 43
0.0000000001
 40
0.0
 40
0.0
 40
0.0
 40
7.798399462690705
 40
7.798399462690705
 40
7.798399462690705
 10
1466.015554750495
 20
722.6317223221733
 30
0.0
 10
1462.293873825684
 20
723.7948429688915
 30
0.0
 10
1458.572192900873
 20
724.9579636156097
 30
0.0
  0
SPLINE
  5
13D
330
1F
100
AcDbEntity
  8
Linee visibili 2D
100
AcDbSpline
210
0.0
220
0.0
230
1.0
 70
     8
 71
     3
 72
    14
 73
    10
 74
     0
 42
0.0000000001
 43
0.0000000001
 40
0.0
 40
0.0
 40
0.0
 40
0.0
 40
3.837538072641484
 40
7.175068097728637
 40
14.50833397080223
 40
17.5802911416619
 40
19.8938156534881
 40
21.19612371159466
 40
26.83635360094264
 40
26.83635360094264
 40
26.83635360094264
 40
26.83635360094264
 10
1473.642042099664
 20
703.762192546551
 30
0.0
 10
1472.569276277104
 20
704.4565891689091
 30
0.0
 10
1470.617484362145
 20
705.8493942370391
 30
0.0
 10
1466.958153510712
 20
709.0107619307229
 30
0.0
 10
1463.936184260362
 20
712.492943170034
 30
0.0
 10
1461.667665992033
 20
716.0728226185271
 30
0.0
 10
1460.569736198445
 20
718.0190341281673
 30
0.0
 10
1459.251384906173
 20
720.7991224848774
 30
0.0
 10
1458.653078001976
 20
723.0825579534824
 30
0.0
 10
1458.572192900873
 20
724.9579636156097
 30
0.0
  0
SPLINE
  5
13E
330
1F
100
AcDbEntity
  8
Linee visibili 2D - Tangent
100
AcDbSpline
210
0.0
220
0.0
230
1.0
 70
    12
 71
     2
 72
     6
 73
     3
 74
     0
 42
0.0000000001
 43
0.0000000001
 40
0.0
 40
0.0
 40
0.0
 40
15.58405987148139
 40
15.58405987148139
 40
15.58405987148139
 10
1491.50370970062
 20
697.2234389047549
 30
0.0
 41
1.0
 10
1483.905826715899
 20
699.0231855696856
 30
0.0
 41
0.996909682787429
 10
1476.683606955295
 20
701.9907528624317
 30
0.0
 41
1.0
  0
SPLINE
  5
13F
330
1F
100
AcDbEntity
  8
Linee visibili 2D
100
AcDbSpline
210
0.0
220
0.0
230
1.0
 70
     8
 71
     3
 72
    11
 73
     7
 74
     0
 42
0.0000000001
 43
0.0000000001
 40
0.0
 40
0.0
 40
0.0
 40
0.0
 40
4.577267412914283
 40
8.517460435979432
 40
15.5044251199361
 40
27.33007569614009
 40
27.33007569614009
 40
27.33007569614009
 40
27.33007569614009
 10
1481.692057983011
 20
701.4283274609182
 30
0.0
 10
1480.437305890722
 20
702.2967102138283
 30
0.0
 10
1478.126048811057
 20
703.9464904460712
 30
0.0
 10
1474.167333582027
 20
707.2783600199741
 30
0.0
 10
1468.846243862755
 20
712.7098687418592
 30
0.0
 10
1466.222484799675
 20
718.6675580551238
 30
0.0
 10
1466.015554750495
 20
722.6317223221733
 30
0.0
  0
SPLINE
  5
140
330
1F
100
AcDbEntity
  8
Linee visibili 2D
100
AcDbSpline
210
0.0
220
0.0
230
1.0
 70
    24
 71
     2
 72
     6
 73
     3
 74
     0
 42
0.0000000001
 43
0.0000000001
 40
0.0
 40
0.0
 40
0.0
 40
0.4983720559528815
 40
0.4983720559528815
 40
0.4983720559528815
 10
1529.154479164001
 20
693.974844828238
 30
0.0
 10
1529.155591121967
 20
694.2240283752233
 30
0.0
 10
1529.156703079933
 20
694.4732119222085
 30
0.0
  0
SPLINE
  5
141
330
1F
100
AcDbEntity
  8
Linee visibili 2D
100
AcDbSpline
210
0.0
220
0.0
230
1.0
 70
    24
 71
     2
 72
     6
 73
     3
 74
     0
 42
0.0000000001
 43
0.0000000001
 40
0.0
 40
0.0
 40
0.0
 40
0.2633827334913476
 40
0.2633827334913476
 40
0.2633827334913476
 10
1528.91866585787
 20
640.8872577107371
 30
0.0
 10
1528.918711007668
 20
641.018949069743
 30
0.0
 10
1528.918756157467
 20
641.150640428749
 30
0.0
  0
SPLINE
  5
142
330
1F
100
AcDbEntity
  8
Linee visibili 2D
100
AcDbSpline
210
0.0
220
0.0
230
1.0
 70
    12
 71
     2
 72
     6
 73
     3
 74
     0
 42
0.0000000001
 43
0.0000000001
 40
0.0
 40
0.0
 40
0.0
 40
9.395044291818603
 40
9.395044291818603
 40
9.395044291818603
 10
1529.296867918742
 20
692.041858140366
 30
0.0
 41
1.0
 10
1529.407394270946
 20
687.3456362369548
 30
0.0
 41
0.9999999344271879
 10
1529.514519211671
 20
682.6493355132271
 30
0.0
 41
1.0
  0
SPLINE
  5
143
330
1F
100
AcDbEntity
  8
Linee visibili 2D
100
AcDbSpline
210
0.0
220
0.0
230
1.0
 70
    12
 71
     2
 72
     6
 73
     3
 74
     0
 42
0.0000000001
 43
0.0000000001
 40
0.0
 40
0.0
 40
0.0
 40
1.935625586539752
 40
1.935625586539752
 40
1.935625586539752
 10
1529.23107067618
 20
693.9763062613853
 30
0.0
 41
1.0
 10
1529.277027557773
 20
693.0095263572797
 30
0.0
 41
0.9999088771906134
 10
1529.29686791874
 20
692.041858140366
 30
0.0
 41
1.0
  0
SPLINE
  5
144
330
1F
100
AcDbEntity
  8
Linee visibili 2D
100
AcDbSpline
210
0.0
220
0.0
230
1.0
 70
     8
 71
     3
 72
    19
 73
    15
 74
     0
 42
0.0000000001
 43
0.0000000001
 40
0.0
 40
0.0
 40
0.0
 40
0.0
 40
33.68457202037754
 40
66.78050988784317
 40
93.16983114065222
 40
105.110594407319
 40
114.7685663238693
 40
121.8686765332582
 40
125.4362114562754
 40
128.7307746885164
 40
136.4650945019749
 40
146.5808239795858
 40
172.3486153806448
 40
202.9637345994714
 40
202.9637345994714
 40
202.9637345994714
 40
202.9637345994714
 10
1675.46591561496
 20
641.6557826088913
 30
0.0
 10
1686.014598683
 20
645.487291064129
 30
0.0
 10
1706.379381505599
 20
654.6860342830806
 30
0.0
 10
1732.241234337773
 20
672.0655290254067
 30
0.0
 10
1749.29366850418
 20
688.9014674817814
 30
0.0
 10
1757.973586575287
 20
702.431009566028
 30
0.0
 10
1761.370248818684
 20
711.4409895944912
 30
0.0
 10
1762.118491648955
 20
718.2337892018264
 30
0.0
 10
1761.558090099454
 20
722.8773013270232
 30
0.0
 10
1760.006666228246
 20
727.5104826246211
 30
0.0
 10
1756.321590492724
 20
733.5800648314379
 30
0.0
 10
1746.404041458107
 20
744.2793116272471
 30
0.0
 10
1728.4107914819
 20
757.4246176924614
 30
0.0
 10
1711.665297888481
 20
766.0169395515467
 30
0.0
 10
1702.288610041271
 20
770.0635606927809
 30
0.0
  0
SPLINE
  5
145
330
1F
100
AcDbEntity
  8
Linee visibili 2D
100
AcDbSpline
210
0.0
220
0.0
230
1.0
 70
    12
 71
     2
 72
     6
 73
     3
 74
     0
 42
0.0000000001
 43
0.0000000001
 40
0.0
 40
0.0
 40
0.0
 40
2.28584368746422
 40
2.28584368746422
 40
2.28584368746422
 10
1673.313149398671
 20
640.8872578809252
 30
0.0
 41
1.0
 10
1674.391564949903
 20
641.2658270321099
 30
0.0
 41
0.9999860124394754
 10
1675.465915614961
 20
641.6557826088912
 30
0.0
 41
1.0
  0
SPLINE
  5
146
330
1F
100
AcDbEntity
  8
Linee visibili 2D - Tangent
100
AcDbSpline
210
0.0
220
0.0
230
1.0
 70
     8
 71
     3
 72
    18
 73
    14
 74
     0
 42
0.0000000001
 43
0.0000000001
 40
0.0
 40
0.0
 40
0.0
 40
0.0
 40
51.46308219307996
 40
74.30122492259542
 40
95.17474702206674
 40
111.4259203723318
 40
123.7679271803496
 40
134.1833521818953
 40
146.5680193207367
 40
164.4159586672829
 40
186.4584685849482
 40
238.107451830081
 40
343.5071449127338
 40
343.5071449127338
 40
343.5071449127338
 40
343.5071449127338
 10
1663.320097821839
 20
788.8296484604111
 30
0.0
 10
1680.020595744889
 20
785.0119829415787
 30
0.0
 10
1703.837442129093
 20
777.694319169628
 30
0.0
 10
1732.491103123019
 20
764.1102643286323
 30
0.0
 10
1749.541220861805
 20
753.4716083910907
 30
0.0
 10
1761.812142915737
 20
742.4556411718278
 30
0.0
 10
1769.487265837941
 20
731.6906295160749
 30
0.0
 10
1771.789921882495
 20
719.9180301885585
 30
0.0
 10
1768.317447812829
 20
706.5528465047739
 30
0.0
 10
1759.601978687271
 20
691.3926123575283
 30
0.0
 10
1738.843670933398
 20
668.7699885055537
 30
0.0
 10
1688.637897589525
 20
635.461203744331
 30
0.0
 10
1636.254899367492
 20
623.4146788198598
 30
0.0
 10
1601.115907384327
 20
623.4667928625377
 30
0.0
  0
SPLINE
  5
147
330
1F
100
AcDbEntity
  8
Linee visibili 2D
100
AcDbSpline
210
0.0
220
0.0
230
1.0
 70
     8
 71
     3
 72
    18
 73
    14
 74
     0
 42
0.0000000001
 43
0.0000000001
 40
0.0
 40
0.0
 40
0.0
 40
0.0
 40
36.08081073503489
 40
68.748549879425
 40
97.43164597033929
 40
108.7185926976603
 40
118.3862811222959
 40
125.7696154270491
 40
132.9301763501817
 40
143.2022874152156
 40
154.6391947795332
 40
184.1362863629041
 40
218.1631823985684
 40
218.1631823985684
 40
218.1631823985684
 40
218.1631823985684
 10
1526.765899156779
 20
641.6557826088912
 30
0.0
 10
1515.46678933115
 20
645.7588098160224
 30
0.0
 10
1494.573913024228
 20
655.4187202750236
 30
0.0
 10
1467.722169104174
 20
673.8497265462789
 30
0.0
 10
1450.71740805299
 20
691.3787278074984
 30
0.0
 10
1442.598194843715
 20
705.9317450089862
 30
0.0
 10
1440.093638386843
 20
715.1121688086016
 30
0.0
 10
1440.416586295727
 20
723.3199454187434
 30
0.0
 10
1443.96951503548
 20
730.9230070653
 30
0.0
 10
1450.085640074419
 20
738.3914249388431
 30
0.0
 10
1462.803643405725
 20
749.8412782247615
 30
0.0
 10
1483.974791864586
 20
763.309558115351
 30
0.0
 10
1503.402711805691
 20
771.8393166318492
 30
0.0
 10
1514.065987841299
 20
775.7130099762313
 30
0.0
  0
SPLINE
  5
148
330
1F
100
AcDbEntity
  8
Linee visibili 2D
100
AcDbSpline
210
0.0
220
0.0
230
1.0
 70
    12
 71
     2
 72
     6
 73
     3
 74
     0
 42
0.0000000001
 43
0.0000000001
 40
0.0
 40
0.0
 40
0.0
 40
2.285844201275838
 40
2.285844201275838
 40
2.285844201275838
 10
1528.91866585787
 20
640.8872577107371
 30
0.0
 41
1.0
 10
1527.840250062709
 20
641.2658269427161
 30
0.0
 41
0.9999860124246479
 10
1526.765899156779
 20
641.6557826088912
 30
0.0
 41
1.0
  0
SPLINE
  5
149
330
1F
100
AcDbEntity
  8
Linee visibili 2D - Tangent
100
AcDbSpline
210
0.0
220
0.0
230
1.0
 70
    24
 71
     2
 72
     6
 73
     3
 74
     0
 42
0.0000000001
 43
0.0000000001
 40
0.0
 40
0.0
 40
0.0
 40
2.471064536424535
 40
2.471064536424535
 40
2.471064536424535
 10
1601.115907384327
 20
623.4667928625377
 30
0.0
 10
1601.115907385098
 20
624.7023251307498
 30
0.0
 10
1601.115907385869
 20
625.9378573989621
 30
0.0
  0
SPLINE
  5
14A
330
1F
100
AcDbEntity
  8
Linee visibili 2D - Tangent
100
AcDbSpline
210
0.0
220
0.0
230
1.0
 70
    12
 71
     2
 72
     6
 73
     3
 74
     0
 42
0.0000000001
 43
0.0000000001
 40
0.0
 40
0.0
 40
0.0
 40
0.4417297380062011
 40
0.4417297380062011
 40
0.4417297380062011
 10
1601.115907384327
 20
623.4667928625377
 30
0.0
 41
1.0
 10
1601.116059167142
 20
623.2459280409103
 30
0.0
 41
0.9999999675481167
 10
1601.116098413937
 20
623.0250631706159
 30
0.0
 41
1.0
  0
SPLINE
  5
14B
330
1F
100
AcDbEntity
  8
Linee visibili 2D - Tangent
100
AcDbSpline
210
0.0
220
0.0
230
1.0
 70
     8
 71
     3
 72
    18
 73
    14
 74
     0
 42
0.0000000001
 43
0.0000000001
 40
0.0
 40
0.0
 40
0.0
 40
0.0
 40
53.27684506048536
 40
75.68578128449963
 40
96.97392463476292
 40
112.0021042200854
 40
125.1197485613472
 40
135.5183743911203
 40
147.8613477076997
 40
168.2211393231926
 40
188.6557091583377
 40
238.1453388718324
 40
343.5230386169103
 40
343.5230386169103
 40
343.5230386169103
 40
343.5230386169103
 10
1538.91236881253
 20
788.8394141149632
 30
0.0
 10
1521.611208106093
 20
784.9053275861119
 30
0.0
 10
1497.369021403488
 20
777.419585800237
 30
0.0
 10
1468.268358852637
 20
763.3291562295045
 30
0.0
 10
1451.692939151169
 20
752.7121679808928
 30
0.0
 10
1439.592331237584
 20
741.5597141226798
 30
0.0
 10
1432.221098079268
 20
730.6973079253809
 30
0.0
 10
1430.556074227023
 20
718.5735169323548
 30
0.0
 10
1434.746186933536
 20
704.5700283902729
 30
0.0
 10
1444.120606002812
 20
689.4649321439745
 30
0.0
 10
1465.073747629165
 20
667.6441286858941
 30
0.0
 10
1514.303664355255
 20
635.2670422295987
 30
0.0
 10
1565.997721017481
 20
623.4293298539438
 30
0.0
 10
1601.115907384327
 20
623.4667928625377
 30
0.0
  0
SPLINE
  5
14C
330
1F
100
AcDbEntity
  8
Linee visibili 2D
100
AcDbSpline
210
0.0
220
0.0
230
1.0
 70
     8
 71
     3
 72
    11
 73
     7
 74
     0
 42
0.0000000001
 43
0.0000000001
 40
0.0
 40
0.0
 40
0.0
 40
0.0
 40
10.02192879240953
 40
20.44260880253804
 40
46.22978331393954
 40
102.2385328631084
 40
102.2385328631084
 40
102.2385328631084
 40
102.2385328631084
 10
1476.438052167683
 20
738.2388133267582
 30
0.0
 10
1478.986443243099
 20
740.4019520537341
 30
0.0
 10
1484.487189335042
 20
744.4317511969384
 30
0.0
 10
1497.741696610995
 20
752.3410128179337
 30
0.0
 10
1525.893249868607
 20
764.8373908883734
 30
0.0
 10
1552.508502763076
 20
771.499732699855
 30
0.0
 10
1570.991649580675
 20
774.1077398451814
 30
0.0
  0
SPLINE
  5
14D
330
1F
100
AcDbEntity
  8
Linee visibili 2D
100
AcDbSpline
210
0.0
220
0.0
230
1.0
 70
    12
 71
     2
 72
     6
 73
     3
 74
     0
 42
0.0000000001
 43
0.0000000001
 40
0.0
 40
0.0
 40
0.0
 40
73.48831459464385
 40
73.48831459464385
 40
73.48831459464385
 10
1601.115907385869
 20
625.9378573989623
 30
0.0
 41
1.0
 10
1564.043614616979
 20
625.9323464938484
 30
0.0
 41
0.98677586436174
 10
1528.917588813261
 20
637.7863429823301
 30
0.0
 41
1.0
  0
SPLINE
  5
14E
330
1F
100
AcDbEntity
  8
Linee visibili 2D
100
AcDbSpline
210
0.0
220
0.0
230
1.0
 70
    12
 71
     2
 72
     6
 73
     3
 74
     0
 42
0.0000000001
 43
0.0000000001
 40
0.0
 40
0.0
 40
0.0
 40
1.126184050276322
 40
1.126184050276322
 40
1.126184050276322
 10
1529.514519211669
 20
682.6493355132272
 30
0.0
 41
1.0
 10
1530.060760412999
 20
682.5126092591045
 30
0.0
 41
0.9999978952279448
 10
1530.607558061263
 20
682.3781256153007
 30
0.0
 41
1.0
  0
SPLINE
  5
14F
330
1F
100
AcDbEntity
  8
Linee visibili 2D
100
AcDbSpline
210
0.0
220
0.0
230
1.0
 70
    12
 71
     2
 72
     6
 73
     3
 74
     0
 42
0.0000000001
 43
0.0000000001
 40
0.0
 40
0.0
 40
0.0
 40
73.48823264584038
 40
73.48823264584038
 40
73.48823264584038
 10
1673.314225958478
 20
637.7863429823301
 30
0.0
 41
1.0
 10
1638.188075353055
 20
625.9331069685263
 30
0.0
 41
0.9867791890975233
 10
1601.115907385869
 20
625.9378573989621
 30
0.0
 41
1.0
  0
SPLINE
  5
150
330
1F
100
AcDbEntity
  8
Linee visibili 2D
100
AcDbSpline
210
0.0
220
0.0
230
1.0
 70
    12
 71
     2
 72
     6
 73
     3
 74
     0
 42
0.0000000001
 43
0.0000000001
 40
0.0
 40
0.0
 40
0.0
 40
1.101153302608038
 40
1.101153302608038
 40
1.101153302608038
 10
1671.64856283847
 20
682.3841047851633
 30
0.0
 41
1.0
 10
1672.183195226004
 20
682.5156482090931
 30
0.0
 41
0.9999979879835912
 10
1672.717295560105
 20
682.6493355132498
 30
0.0
 41
1.0
  0
SPLINE
  5
151
330
1F
100
AcDbEntity
  8
Linee visibili 2D - Tangent
100
AcDbSpline
210
0.0
220
0.0
230
1.0
 70
    24
 71
     2
 72
     6
 73
     3
 74
     0
 42
0.0000000001
 43
0.0000000001
 40
0.0
 40
0.0
 40
0.0
 40
1.860518873815099
 40
1.860518873815099
 40
1.860518873815099
 10
1601.115907385869
 20
625.9378573989621
 30
0.0
 10
1601.115907385869
 20
626.8681168358697
 30
0.0
 10
1601.115907385869
 20
627.7983762727773
 30
0.0
  0
SPLINE
  5
152
330
1F
100
AcDbEntity
  8
Linee visibili 2D
100
AcDbSpline
210
0.0
220
0.0
230
1.0
 70
    12
 71
     2
 72
     6
 73
     3
 74
     0
 42
0.0000000001
 43
0.0000000001
 40
0.0
 40
0.0
 40
0.0
 40
4.654944359151438
 40
4.654944359151438
 40
4.654944359151438
 10
1672.717295560105
 20
682.6493355132498
 30
0.0
 41
1.0
 10
1672.770493405371
 20
684.9761996680957
 30
0.0
 41
0.9999999918107993
 10
1672.824286824332
 20
687.3030501303999
 30
0.0
 41
1.0
  0
SPLINE
  5
153
330
1F
100
AcDbEntity
  8
Linee visibili 2D
100
AcDbSpline
210
0.0
220
0.0
230
1.0
 70
    24
 71
     2
 72
     6
 73
     3
 74
     0
 42
0.0000000001
 43
0.0000000001
 40
0.0
 40
0.0
 40
0.0
 40
0.263382733491291
 40
0.263382733491291
 40
0.263382733491291
 10
1673.313058614272
 20
641.150640428749
 30
0.0
 10
1673.313103764071
 20
641.018949069743
 30
0.0
 10
1673.31314891387
 20
640.8872577107371
 30
0.0
  0
SPLINE
  5
154
330
1F
100
AcDbEntity
  8
Linee visibili 2D
100
AcDbSpline
210
0.0
220
0.0
230
1.0
 70
    12
 71
     2
 72
     6
 73
     3
 74
     0
 42
0.0000000001
 43
0.0000000001
 40
0.0
 40
0.0
 40
0.0
 40
2.440957027393055
 40
2.440957027393055
 40
2.440957027393055
 10
1672.934946852999
 20
692.041858140373
 30
0.0
 41
1.0
 10
1672.949665187256
 20
693.2626027929202
 30
0.0
 41
0.999564046672631
 10
1673.036411034119
 20
694.4803504244669
 30
0.0
 41
1.0
  0
SPLINE
  5
155
330
1F
100
AcDbEntity
  8
Linee visibili 2D
100
AcDbSpline
210
0.0
220
0.0
230
1.0
 70
    12
 71
     2
 72
     6
 73
     3
 74
     0
 42
0.0000000001
 43
0.0000000001
 40
0.0
 40
0.0
 40
0.0
 40
4.740099936872403
 40
4.740099936872403
 40
4.740099936872403
 10
1672.824286824327
 20
687.3030501304
 30
0.0
 41
1.0
 10
1672.879059626054
 20
689.672467147343
 30
0.0
 41
0.9999999723475496
 10
1672.934946852999
 20
692.0418581403732
 30
0.0
 41
1.0
  0
SPLINE
  5
156
330
1F
100
AcDbEntity
  8
Linee visibili 2D
100
AcDbSpline
210
0.0
220
0.0
230
1.0
 70
    12
 71
     2
 72
     6
 73
     3
 74
     0
 42
0.0000000001
 43
0.0000000001
 40
0.0
 40
0.0
 40
0.0
 40
46.15499735056915
 40
46.15499735056915
 40
46.15499735056915
 10
1673.310417652792
 20
641.1506130354433
 30
0.0
 41
1.0
 10
1673.069715057474
 20
664.2268564708622
 30
0.0
 41
0.9999999947579448
 10
1672.824286824304
 20
687.3030501304
 30
0.0
 41
1.0
  0
SPLINE
  5
157
330
1F
100
AcDbEntity
  8
Linee visibili 2D
100
AcDbSpline
210
0.0
220
0.0
230
1.0
 70
    12
 71
     2
 72
     8
 73
     5
 74
     0
 42
0.0000000001
 43
0.0000000001
 40
0.0
 40
0.0
 40
0.0
 40
1.636036559377148
 40
1.636036559377148
 40
3.100914915461357
 40
3.100914915461357
 40
3.100914915461357
 10
1673.313148913869
 20
640.8872577107371
 30
0.0
 41
1.0
 10
1673.3134296624
 20
640.0692394792245
 30
0.0
 41
0.9999999999976145
 10
1673.313713984564
 20
639.2512212489462
 30
0.0
 41
1.0
 10
1673.313968560982
 20
638.5187821151452
 30
0.0
 41
0.9999999999981456
 10
1673.31422595849
 20
637.7863429823301
 30
0.0
 41
1.0
  0
SPLINE
  5
158
330
1F
100
AcDbEntity
  8
Linee visibili 2D
100
AcDbSpline
210
0.0
220
0.0
230
1.0
 70
    24
 71
     2
 72
     6
 73
     3
 74
     0
 42
0.0000000001
 43
0.0000000001
 40
0.0
 40
0.0
 40
0.0
 40
18.25063657149995
 40
18.25063657149995
 40
18.25063657149995
 10
1672.717295560105
 20
682.6493355132498
 30
0.0
 10
1672.84748060916
 20
673.5249459079531
 30
0.0
 10
1672.977665658215
 20
664.4005563026565
 30
0.0
  0
SPLINE
  5
159
330
1F
100
AcDbEntity
  8
Linee visibili 2D
100
AcDbSpline
210
0.0
220
0.0
230
1.0
 70
    12
 71
     2
 72
     8
 73
     5
 74
     0
 42
0.0000000001
 43
0.0000000001
 40
0.0
 40
0.0
 40
0.0
 40
1.464878677630229
 40
1.464878677630229
 40
3.100914915461449
 40
3.100914915461449
 40
3.100914915461449
 10
1528.917588813252
 20
637.78634298233
 30
0.0
 41
1.0
 10
1528.917846210799
 20
638.5187822759182
 30
0.0
 41
0.9999999999981456
 10
1528.918100787291
 20
639.251221570492
 30
0.0
 41
1.0
 10
1528.918385109367
 20
640.0692396399975
 30
0.0
 41
0.9999999999976145
 10
1528.918665857868
 20
640.8872577107371
 30
0.0
 41
1.0
  0
SPLINE
  5
15A
330
1F
100
AcDbEntity
  8
Linee visibili 2D
100
AcDbSpline
210
0.0
220
0.0
230
1.0
 70
    24
 71
     2
 72
     6
 73
     3
 74
     0
 42
0.0000000001
 43
0.0000000001
 40
0.0
 40
0.0
 40
0.0
 40
41.50297114524125
 40
41.50297114524125
 40
41.50297114524125
 10
1528.922423005749
 20
641.1505881108577
 30
0.0
 10
1529.218471108709
 20
661.8999618120424
 30
0.0
 10
1529.514519211669
 20
682.6493355132271
 30
0.0
  0
SPLINE
  5
15B
330
1F
100
AcDbEntity
  8
Linee visibili 2D
100
AcDbSpline
210
0.0
220
0.0
230
1.0
 70
     8
 71
     3
 72
    18
 73
    14
 74
     0
 42
0.0000000001
 43
0.0000000001
 40
0.0
 40
0.0
 40
0.0
 40
0.0
 40
38.77739846345262
 40
73.2510418685334
 40
102.656204470926
 40
114.1931444820465
 40
124.0654873233094
 40
132.1333298218061
 40
142.5943219397419
 40
155.8490446937392
 40
171.6516602357516
 40
206.6104653306655
 40
245.4441550951875
 40
245.4441550951875
 40
245.4441550951875
 40
245.4441550951875
 10
1673.313058614272
 20
641.150640428749
 30
0.0
 10
1685.493922162011
 20
645.429913681366
 30
0.0
 10
1707.832733991012
 20
655.6500899108636
 30
0.0
 10
1735.963286929351
 20
675.2594824088004
 30
0.0
 10
1753.282228546605
 20
693.8985536973155
 30
0.0
 10
1760.675926066862
 20
709.2604395305875
 30
0.0
 10
1762.308086143353
 20
719.1487062136028
 30
0.0
 10
1759.768705842058
 20
728.4654721141227
 30
0.0
 10
1753.247110924822
 20
736.9888646439417
 30
0.0
 10
1743.642427186956
 20
745.9832966819564
 30
0.0
 10
1726.262724410686
 20
758.4808612231442
 30
0.0
 10
1699.585178495952
 20
772.1020223354303
 30
0.0
 10
1676.218005101468
 20
779.987251115007
 30
0.0
 10
1663.692850225337
 20
783.2554955489611
 30
0.0
  0
SPLINE
  5
15C
330
1F
100
AcDbEntity
  8
Linee visibili 2D
100
AcDbSpline
210
0.0
220
0.0
230
1.0
 70
    12
 71
     2
 72
     6
 73
     3
 74
     0
 42
0.0000000001
 43
0.0000000001
 40
0.0
 40
0.0
 40
0.0
 40
17.96087017389902
 40
17.96087017389902
 40
17.96087017389902
 10
1691.031149435824
 20
695.2008986740568
 30
0.0
 41
1.0
 10
1682.057014171471
 20
694.8598034938855
 30
0.0
 41
0.9999699138961605
 10
1673.078667275368
 20
694.6579702010313
 30
0.0
 41
1.0
  0
SPLINE
  5
15D
330
1F
100
AcDbEntity
  8
Linee visibili 2D
100
AcDbSpline
210
0.0
220
0.0
230
1.0
 70
    12
 71
     3
 72
    10
 73
     6
 74
     0
 42
0.0000000001
 43
0.0000000001
 40
-1.0
 40
-1.0
 40
-1.0
 40
-1.0
 40
-0.4999293989667405
 40
-0.4999293989667405
 40
0.0
 40
0.0
 40
0.0
 40
0.0
 10
1726.569991371418
 20
702.4299807767321
 30
0.0
 41
1.0
 10
1722.90546215075
 20
700.4209631215774
 30
0.0
 41
1.0
 10
1718.196180396254
 20
698.5393108854341
 30
0.0
 41
1.0
 10
1706.504521053295
 20
696.094419796042
 30
0.0
 41
1.0
 10
1699.704845262563
 20
695.5509679505428
 30
0.0
 41
1.0
 10
1691.031149435824
 20
695.2008986740568
 30
0.0
 41
1.0
  0
SPLINE
  5
15E
330
1F
100
AcDbEntity
  8
Linee visibili 2D - Tangent
100
AcDbSpline
210
0.0
220
0.0
230
1.0
 70
    12
 71
     3
 72
    12
 73
     8
 74
     0
 42
0.0000000001
 43
0.0000000001
 40
0.0
 40
0.0
 40
0.0
 40
0.0
 40
0.25
 40
0.25
 40
0.5
 40
0.5
 40
1.0
 40
1.0
 40
1.0
 40
1.0
 10
1753.548340860845
 20
726.300581900937
 30
0.0
 41
1.0
 10
1753.54834186075
 20
722.8410288841018
 30
0.0
 41
1.0
 10
1752.871608685958
 20
718.5064435725235
 30
0.0
 41
1.0
 10
1748.52906399223
 20
709.2878639375807
 30
0.0
 41
1.0
 10
1744.856370171618
 20
704.4605521529273
 30
0.0
 41
1.0
 10
1727.514200395032
 20
691.4635848820251
 30
0.0
 41
1.0
 10
1708.645286719468
 20
685.1427820261956
 30
0.0
 41
1.0
 10
1673.301436481444
 20
682.0783653632456
 30
0.0
 41
1.0
  0
SPLINE
  5
15F
330
1F
100
AcDbEntity
  8
Linee visibili 2D - Tangent
100
AcDbSpline
210
0.0
220
0.0
230
1.0
 70
     8
 71
     3
 72
    14
 73
    10
 74
     0
 42
0.0000000001
 43
0.0000000001
 40
0.0
 40
0.0
 40
0.0
 40
0.0
 40
18.14319668149866
 40
35.85088188572134
 40
66.4660959569882
 40
79.65387613837703
 40
91.52357043734287
 40
100.4520471748585
 40
107.4214314198103
 40
107.4214314198103
 40
107.4214314198103
 40
107.4214314198103
 10
1663.887326985055
 20
780.2303355783217
 30
0.0
 10
1669.739121099708
 20
778.7164408015118
 30
0.0
 10
1681.239578015554
 20
775.4156824594231
 30
0.0
 10
1702.088434834823
 20
767.928817597511
 30
0.0
 10
1720.746586015503
 20
759.2779210823049
 30
0.0
 10
1736.379227569233
 20
749.2268374842502
 30
0.0
 10
1745.103936473036
 20
741.9519020770357
 30
0.0
 10
1751.064123650186
 20
734.8015286526005
 30
0.0
 10
1753.184200940064
 20
729.8496110754743
 30
0.0
 10
1753.47438639597
 20
727.5316073474463
 30
0.0
  0
SPLINE
  5
160
330
1F
100
AcDbEntity
  8
Linee visibili 2D
100
AcDbSpline
210
0.0
220
0.0
230
1.0
 70
    12
 71
     2
 72
     6
 73
     3
 74
     0
 42
0.0000000001
 43
0.0000000001
 40
0.0
 40
0.0
 40
0.0
 40
2.938185847499069
 40
2.938185847499069
 40
2.938185847499069
 10
1649.949053185725
 20
779.5212737738956
 30
0.0
 41
1.0
 10
1650.27520833669
 20
780.9719469684878
 30
0.0
 41
0.9821463002729819
 10
1651.114332112898
 20
782.1994245398562
 30
0.0
 41
1.0
  0
SPLINE
  5
161
330
1F
100
AcDbEntity
  8
Linee visibili 2D
100
AcDbSpline
210
0.0
220
0.0
230
1.0
 70
    12
 71
     2
 72
     6
 73
     3
 74
     0
 42
0.0000000001
 43
0.0000000001
 40
0.0
 40
0.0
 40
0.0
 40
35.3462967929678
 40
35.3462967929678
 40
35.3462967929678
 10
1649.479616332392
 20
776.7507174150282
 30
0.0
 41
1.0
 10
1666.867483131576
 20
773.4182875237913
 30
0.0
 41
0.9973609454317187
 10
1683.589432545536
 20
767.6028418312258
 30
0.0
 41
1.0
  0
SPLINE
  5
162
330
1F
100
AcDbEntity
  8
Linee visibili 2D
100
AcDbSpline
210
0.0
220
0.0
230
1.0
 70
     8
 71
     3
 72
    13
 73
     9
 74
     0
 42
0.0000000001
 43
0.0000000001
 40
0.0
 40
0.0
 40
0.0
 40
0.0
 40
11.15059618160485
 40
24.14543867166193
 40
46.60780865123197
 40
64.44354065432508
 40
71.01984236883024
 40
76.19717380864991
 40
76.19717380864991
 40
76.19717380864991
 40
76.19717380864991
 10
1683.589432545536
 20
767.6028418312258
 30
0.0
 10
1687.103876717333
 20
766.3766409510135
 30
0.0
 10
1694.618393057288
 20
763.5271203743619
 30
0.0
 10
1708.842455500715
 20
757.2040263798268
 30
0.0
 10
1724.286111374959
 20
748.4041068505351
 30
0.0
 10
1736.49744880445
 20
738.4667263609588
 30
0.0
 10
1742.390397803828
 20
730.4748088701884
 30
0.0
 10
1743.741334364303
 20
726.7339173969731
 30
0.0
 10
1743.893532409926
 20
725.0083258856644
 30
0.0
  0
SPLINE
  5
163
330
1F
100
AcDbEntity
  8
Linee visibili 2D - Tangent
100
AcDbSpline
210
0.0
220
0.0
230
1.0
 70
     8
 71
     3
 72
    14
 73
    10
 74
     0
 42
0.0000000001
 43
0.0000000001
 40
0.0
 40
0.0
 40
0.0
 40
0.0
 40
17.40848816885662
 40
35.02735087558926
 40
67.9858904350476
 40
96.87796289258209
 40
107.6341697323496
 40
111.4746823165447
 40
114.2184925139365
 40
114.2184925139365
 40
114.2184925139365
 40
114.2184925139365
 10
1649.949053185725
 20
779.5212737738956
 30
0.0
 10
1655.621973327373
 20
778.2918487305399
 30
0.0
 10
1666.941404735341
 20
775.4268702172806
 30
0.0
 10
1688.513911214868
 20
768.4086297119935
 30
0.0
 10
1712.772796911699
 20
757.6452718541241
 30
0.0
 10
1733.161333471561
 20
744.3638098534137
 30
0.0
 10
1743.434277347695
 20
734.0238211009937
 30
0.0
 10
1746.538076966464
 20
729.111638187578
 30
0.0
 10
1747.236415834008
 20
727.0057993111857
 30
0.0
 10
1747.258038885822
 20
726.0825611546128
 30
0.0
  0
SPLINE
  5
164
330
1F
100
AcDbEntity
  8
Linee visibili 2D
100
AcDbSpline
210
0.0
220
0.0
230
1.0
 70
    12
 71
     2
 72
     6
 73
     3
 74
     0
 42
0.0000000001
 43
0.0000000001
 40
0.0
 40
0.0
 40
0.0
 40
2.810936637857063
 40
2.810936637857063
 40
2.810936637857063
 10
1649.479616332392
 20
776.7507174150282
 30
0.0
 41
1.0
 10
1649.774806414537
 20
778.125749412834
 30
0.0
 41
0.9990485639905121
 10
1649.949053185725
 20
779.5212737738956
 30
0.0
 41
1.0
  0
SPLINE
  5
165
330
1F
100
AcDbEntity
  8
Linee visibili 2D - Tangent
100
AcDbSpline
210
0.0
220
0.0
230
1.0
 70
    12
 71
     2
 72
     6
 73
     3
 74
     0
 42
0.0000000001
 43
0.0000000001
 40
0.0
 40
0.0
 40
0.0
 40
1.233949292746332
 40
1.233949292746332
 40
1.233949292746332
 10
1753.47438639597
 20
727.5316073474463
 30
0.0
 41
1.0
 10
1753.547430941006
 20
726.9182613859026
 30
0.0
 41
0.9982875935531379
 10
1753.548340860845
 20
726.300581900937
 30
0.0
 41
1.0
  0
SPLINE
  5
166
330
1F
100
AcDbEntity
  8
Linee visibili 2D - Tangent
100
AcDbSpline
210
0.0
220
0.0
230
1.0
 70
    12
 71
     2
 72
     6
 73
     3
 74
     0
 42
0.0000000001
 43
0.0000000001
 40
0.0
 40
0.0
 40
0.0
 40
6.569261290349292
 40
6.569261290349292
 40
6.569261290349292
 10
1753.548340860845
 20
726.300581900937
 30
0.0
 41
1.0
 10
1750.191317461849
 20
726.4016544256734
 30
0.0
 41
0.9673129831869318
 10
1747.216459343241
 20
724.8427955703493
 30
0.0
 41
1.0
  0
SPLINE
  5
167
330
1F
100
AcDbEntity
  8
Linee visibili 2D - Tangent
100
AcDbSpline
210
0.0
220
0.0
230
1.0
 70
    12
 71
     2
 72
     6
 73
     3
 74
     0
 42
0.0000000001
 43
0.0000000001
 40
0.0
 40
0.0
 40
0.0
 40
6.455165750202771
 40
6.455165750202771
 40
6.455165750202771
 10
1747.258038885822
 20
726.0825611546128
 30
0.0
 41
1.0
 10
1750.173919347155
 20
727.6320144317757
 30
0.0
 41
0.9665374554526869
 10
1753.47438639597
 20
727.5316073474463
 30
0.0
 41
1.0
  0
SPLINE
  5
168
330
1F
100
AcDbEntity
  8
Linee visibili 2D - Tangent
100
AcDbSpline
210
0.0
220
0.0
230
1.0
 70
    12
 71
     2
 72
     6
 73
     3
 74
     0
 42
0.0000000001
 43
0.0000000001
 40
0.0
 40
0.0
 40
0.0
 40
1.240696248174013
 40
1.240696248174013
 40
1.240696248174013
 10
1747.258038885822
 20
726.0825611546128
 30
0.0
 41
1.0
 10
1747.25809267751
 20
725.4619793062842
 30
0.0
 41
0.9994351583952498
 10
1747.216459343241
 20
724.8427955703493
 30
0.0
 41
1.0
  0
SPLINE
  5
169
330
1F
100
AcDbEntity
  8
Linee visibili 2D - Tangent
100
AcDbSpline
210
0.0
220
0.0
230
1.0
 70
    24
 71
     2
 72
     6
 73
     3
 74
     0
 42
0.0000000001
 43
0.0000000001
 40
0.0
 40
0.0
 40
0.0
 40
3.531838790120834
 40
3.531838790120834
 40
3.531838790120834
 10
1747.258038885822
 20
726.0825611546128
 30
0.0
 10
1745.575785647874
 20
725.5454435201386
 30
0.0
 10
1743.893532409926
 20
725.0083258856644
 30
0.0
  0
SPLINE
  5
16A
330
1F
100
AcDbEntity
  8
Linee visibili 2D
100
AcDbSpline
210
0.0
220
0.0
230
1.0
 70
     8
 71
     3
 72
    12
 73
     8
 74
     0
 42
0.0000000001
 43
0.0000000001
 40
0.0
 40
0.0
 40
0.0
 40
0.0
 40
4.113450332062549
 40
7.633424606843098
 40
15.62884127801741
 40
23.64147849058685
 40
29.50219113147818
 40
29.50219113147818
 40
29.50219113147818
 40
29.50219113147818
 10
1726.569991371418
 20
702.4299807767321
 30
0.0
 10
1727.780778250544
 20
703.0850477045715
 30
0.0
 10
1729.919602443488
 20
704.4453932729598
 30
0.0
 10
1734.095727621209
 20
707.5986415770496
 30
0.0
 10
1738.554891568373
 20
712.3669537870207
 30
0.0
 10
1742.475259557445
 20
718.5735894521633
 30
0.0
 10
1743.872663962101
 20
723.0340386411692
 30
0.0
 10
1743.893532409926
 20
725.0083258856644
 30
0.0
  0
SPLINE
  5
16B
330
1F
100
AcDbEntity
  8
Linee visibili 2D - Tangent
100
AcDbSpline
210
0.0
220
0.0
230
1.0
 70
     8
 71
     3
 72
    12
 73
     8
 74
     0
 42
0.0000000001
 43
0.0000000001
 40
0.0
 40
0.0
 40
0.0
 40
0.0
 40
3.358944174241716
 40
6.700451828375732
 40
14.10374782150206
 40
22.50942737470045
 40
32.04398948212834
 40
32.04398948212834
 40
32.04398948212834
 40
32.04398948212834
 10
1747.216459343241
 20
724.8427955703493
 30
0.0
 10
1747.13801897152
 20
723.7246306218161
 30
0.0
 10
1746.781386895153
 20
721.5144316630731
 30
0.0
 10
1745.191538054207
 20
717.0604824790187
 30
0.0
 10
1741.438588897166
 20
711.7949582569239
 30
0.0
 10
1734.798907875908
 20
706.4838111548596
 30
0.0
 10
1729.47962624994
 20
703.7081458962944
 30
0.0
 10
1726.569991371418
 20
702.4299807767321
 30
0.0
  0
SPLINE
  5
16C
330
1F
100
AcDbEntity
  8
Linee visibili 2D
100
AcDbSpline
210
0.0
220
0.0
230
1.0
 70
    12
 71
     3
 72
    12
 73
     8
 74
     0
 42
0.0000000001
 43
0.0000000001
 40
-55.16708924412482
 40
-55.16708924412482
 40
-55.16708924412482
 40
-55.16708924412482
 40
-41.25867640092277
 40
-41.25867640092277
 40
-27.43791561031452
 40
-27.43791561031452
 40
0.0
 40
0.0
 40
0.0
 40
0.0
 10
1673.301436481444
 20
682.0783653632456
 30
0.0
 41
1.0
 10
1673.30089212539
 20
684.4841341922108
 30
0.0
 41
1.0
 10
1673.289299575719
 20
686.4145758878755
 30
0.0
 41
1.0
 10
1673.257491509774
 20
689.7284464446988
 30
0.0
 41
1.0
 10
1673.237224399579
 20
690.950736681233
 30
0.0
 41
1.0
 10
1673.173347794671
 20
693.8059179337699
 30
0.0
 41
1.0
 10
1673.126314402257
 20
694.6080896762188
 30
0.0
 41
1.0
 10
1673.078667275368
 20
694.657970201031
 30
0.0
 41
1.0
  0
SPLINE
  5
16D
330
1F
100
AcDbEntity
  8
Linee visibili 2D
100
AcDbSpline
210
0.0
220
0.0
230
1.0
 70
    12
 71
     2
 72
     6
 73
     3
 74
     0
 42
0.0000000001
 43
0.0000000001
 40
0.0
 40
0.0
 40
0.0
 40
40.92772660810936
 40
40.92772660810936
 40
40.92772660810936
 10
1673.313058614287
 20
641.150640428749
 30
0.0
 41
1.0
 10
1673.306047435321
 20
661.6145025552046
 30
0.0
 41
0.9999999982803551
 10
1673.301436481489
 20
682.0783653632456
 30
0.0
 41
1.0
  0
SPLINE
  5
16E
330
1F
100
AcDbEntity
  8
Linee visibili 2D - Tangent
100
AcDbSpline
210
0.0
220
0.0
230
1.0
 70
    12
 71
     2
 72
     8
 73
     5
 74
     0
 42
0.0000000001
 43
0.0000000001
 40
0.0
 40
0.0
 40
0.0
 40
6.995831852242855
 40
6.995831852242855
 40
13.99166370448571
 40
13.99166370448571
 40
13.99166370448571
 10
1686.577820980962
 20
669.0177259915076
 30
0.0
 41
1.0
 10
1686.4365562203
 20
673.4643435630887
 30
0.0
 41
0.7081621668738248
 10
1690.882731949476
 20
673.6188911149289
 30
0.0
 41
1.0
 10
1695.328907678653
 20
673.7734386667693
 30
0.0
 41
0.7081621668738248
 10
1695.496736642483
 20
669.3277444578298
 30
0.0
 41
1.0
  0
SPLINE
  5
16F
330
1F
100
AcDbEntity
  8
Linee visibili 2D - Tangent
100
AcDbSpline
210
0.0
220
0.0
230
1.0
 70
    12
 71
     2
 72
     8
 73
     5
 74
     0
 42
0.0000000001
 43
0.0000000001
 40
0.0
 40
0.0
 40
0.0
 40
6.99780872585119
 40
6.99780872585119
 40
13.99561745170238
 40
13.99561745170238
 40
13.99561745170238
 10
1695.496736642483
 20
669.3277444578298
 30
0.0
 41
1.0
 10
1695.640043526587
 20
664.8792166745599
 30
0.0
 41
0.7080050677802903
 10
1691.191894456533
 20
664.7246005300639
 30
0.0
 41
1.0
 10
1686.74374538648
 20
664.5699843855677
 30
0.0
 41
0.7080050677802903
 10
1686.577820980962
 20
669.0177259915076
 30
0.0
 41
1.0
  0
SPLINE
  5
170
330
1F
100
AcDbEntity
  8
Linee visibili 2D
100
AcDbSpline
210
0.0
220
0.0
230
1.0
 70
     8
 71
     3
 72
    18
 73
    14
 74
     0
 42
0.0000000001
 43
0.0000000001
 40
0.0
 40
0.0
 40
0.0
 40
0.0
 40
38.77739846345282
 40
73.25104186853358
 40
102.6562044709261
 40
114.1931444820466
 40
124.0654873233095
 40
132.1333298218061
 40
142.5943219397418
 40
155.8490446937391
 40
171.6516602357515
 40
206.6104653306656
 40
245.4441549113072
 40
245.4441549113072
 40
245.4441549113072
 40
245.4441549113072
 10
1528.918756157467
 20
641.150640428749
 30
0.0
 10
1516.737892609726
 20
645.4299136813661
 30
0.0
 10
1494.399080780726
 20
655.6500899108636
 30
0.0
 10
1466.268527842387
 20
675.2594824088005
 30
0.0
 10
1448.949586225133
 20
693.8985536973156
 30
0.0
 10
1441.555888704874
 20
709.2604395305876
 30
0.0
 10
1439.923728628383
 20
719.1487062136028
 30
0.0
 10
1442.463108929678
 20
728.465472114123
 30
0.0
 10
1448.984703846916
 20
736.9888646439413
 30
0.0
 10
1458.589387584782
 20
745.9832966819574
 30
0.0
 10
1475.969090361052
 20
758.4808612231413
 30
0.0
 10
1502.646636221032
 20
772.1020223074826
 30
0.0
 10
1526.013809553819
 20
779.9872510756926
 30
0.0
 10
1538.538964368473
 20
783.2554955025504
 30
0.0
  0
SPLINE
  5
171
330
1F
100
AcDbEntity
  8
Linee visibili 2D
100
AcDbSpline
210
0.0
220
0.0
230
1.0
 70
    12
 71
     2
 72
     6
 73
     3
 74
     0
 42
0.0000000001
 43
0.0000000001
 40
0.0
 40
0.0
 40
0.0
 40
17.96087017389902
 40
17.96087017389902
 40
17.96087017389902
 10
1511.200665335914
 20
695.2008986740568
 30
0.0
 41
1.0
 10
1520.174800600268
 20
694.8598034938855
 30
0.0
 41
0.9999699138961605
 10
1529.15314749637
 20
694.657970201031
 30
0.0
 41
1.0
  0
SPLINE
  5
172
330
1F
100
AcDbEntity
  8
Linee visibili 2D
100
AcDbSpline
210
0.0
220
0.0
230
1.0
 70
    12
 71
     3
 72
    10
 73
     6
 74
     0
 42
0.0000000001
 43
0.0000000001
 40
-1.0
 40
-1.0
 40
-1.0
 40
-1.0
 40
-0.4999293989667405
 40
-0.4999293989667405
 40
0.0
 40
0.0
 40
0.0
 40
0.0
 10
1475.661823400321
 20
702.4299807767321
 30
0.0
 41
1.0
 10
1479.326352620988
 20
700.4209631215774
 30
0.0
 41
1.0
 10
1484.035634375485
 20
698.5393108854341
 30
0.0
 41
1.0
 10
1495.727293718443
 20
696.094419796042
 30
0.0
 41
1.0
 10
1502.526969509175
 20
695.5509679505428
 30
0.0
 41
1.0
 10
1511.200665335914
 20
695.2008986740568
 30
0.0
 41
1.0
  0
SPLINE
  5
173
330
1F
100
AcDbEntity
  8
Linee visibili 2D - Tangent
100
AcDbSpline
210
0.0
220
0.0
230
1.0
 70
    12
 71
     3
 72
    12
 73
     8
 74
     0
 42
0.0000000001
 43
0.0000000001
 40
0.0
 40
0.0
 40
0.0
 40
0.0
 40
0.25
 40
0.25
 40
0.5
 40
0.5
 40
1.0
 40
1.0
 40
1.0
 40
1.0
 10
1448.683473910893
 20
726.300581900937
 30
0.0
 41
1.0
 10
1448.683472910989
 20
722.8410288841018
 30
0.0
 41
1.0
 10
1449.36020608578
 20
718.5064435725235
 30
0.0
 41
1.0
 10
1453.702750779509
 20
709.2878639375807
 30
0.0
 41
1.0
 10
1457.375444600121
 20
704.4605521529273
 30
0.0
 41
1.0
 10
1474.717614376706
 20
691.4635848820251
 30
0.0
 41
1.0
 10
1493.586528052271
 20
685.1427820261956
 30
0.0
 41
1.0
 10
1528.930378290294
 20
682.0783653632456
 30
0.0
 41
1.0
  0
SPLINE
  5
174
330
1F
100
AcDbEntity
  8
Linee visibili 2D - Tangent
100
AcDbSpline
210
0.0
220
0.0
230
1.0
 70
     8
 71
     3
 72
    14
 73
    10
 74
     0
 42
0.0000000001
 43
0.0000000001
 40
0.0
 40
0.0
 40
0.0
 40
0.0
 40
18.14319657596508
 40
35.85088171312879
 40
66.46609578439566
 40
79.6538759657846
 40
91.52357026475057
 40
100.4520470022661
 40
107.421431247218
 40
107.421431247218
 40
107.421431247218
 40
107.421431247218
 10
1538.344487619534
 20
780.230335535318
 30
0.0
 10
1532.492693539797
 20
778.7164407639613
 30
0.0
 10
1520.992236680647
 20
775.4156824332656
 30
0.0
 10
1500.143379916641
 20
767.9288175879956
 30
0.0
 10
1481.485228756199
 20
759.2779210823521
 30
0.0
 10
1465.852587202523
 20
749.2268374842288
 30
0.0
 10
1457.127878298692
 20
741.9519020770487
 30
0.0
 10
1451.167691121559
 20
734.8015286525921
 30
0.0
 10
1449.047613831671
 20
729.8496110754783
 30
0.0
 10
1448.757428375769
 20
727.5316073474463
 30
0.0
  0
SPLINE
  5
175
330
1F
100
AcDbEntity
  8
Linee visibili 2D
100
AcDbSpline
210
0.0
220
0.0
230
1.0
 70
    12
 71
     2
 72
     6
 73
     3
 74
     0
 42
0.0000000001
 43
0.0000000001
 40
0.0
 40
0.0
 40
0.0
 40
2.93810961760855
 40
2.93810961760855
 40
2.93810961760855
 10
1552.282761586013
 20
779.5212737738956
 30
0.0
 41
1.0
 10
1551.956621265973
 20
780.9719111661875
 30
0.0
 41
0.9821459127167612
 10
1551.117519443198
 20
782.1993574922179
 30
0.0
 41
1.0
  0
SPLINE
  5
176
330
1F
100
AcDbEntity
  8
Linee visibili 2D
100
AcDbSpline
210
0.0
220
0.0
230
1.0
 70
    12
 71
     2
 72
     6
 73
     3
 74
     0
 42
0.0000000001
 43
0.0000000001
 40
0.0
 40
0.0
 40
0.0
 40
35.34629679296768
 40
35.34629679296768
 40
35.34629679296768
 10
1552.752198439347
 20
776.7507174150282
 30
0.0
 41
1.0
 10
1535.364331640162
 20
773.4182875237913
 30
0.0
 41
0.9973609454317188
 10
1518.642382226202
 20
767.6028418312258
 30
0.0
 41
1.0
  0
SPLINE
  5
177
330
1F
100
AcDbEntity
  8
Linee visibili 2D
100
AcDbSpline
210
0.0
220
0.0
230
1.0
 70
     8
 71
     3
 72
    13
 73
     9
 74
     0
 42
0.0000000001
 43
0.0000000001
 40
0.0
 40
0.0
 40
0.0
 40
0.0
 40
11.15059618160495
 40
24.14543867166204
 40
46.60780865123207
 40
64.44354065432518
 40
71.0198423688304
 40
76.19717380864999
 40
76.19717380864999
 40
76.19717380864999
 40
76.19717380864999
 10
1518.642382226202
 20
767.6028418312258
 30
0.0
 10
1515.127938054405
 20
766.3766409510135
 30
0.0
 10
1507.61342171445
 20
763.5271203743616
 30
0.0
 10
1493.389359271023
 20
757.204026379827
 30
0.0
 10
1477.945703396779
 20
748.4041068505352
 30
0.0
 10
1465.734365967288
 20
738.4667263609588
 30
0.0
 10
1459.841416967911
 20
730.4748088701883
 30
0.0
 10
1458.490480407435
 20
726.7339173969731
 30
0.0
 10
1458.338282361812
 20
725.0083258856644
 30
0.0
  0
SPLINE
  5
178
330
1F
100
AcDbEntity
  8
Linee visibili 2D - Tangent
100
AcDbSpline
210
0.0
220
0.0
230
1.0
 70
     8
 71
     3
 72
    14
 73
    10
 74
     0
 42
0.0000000001
 43
0.0000000001
 40
0.0
 40
0.0
 40
0.0
 40
0.0
 40
17.40848816885662
 40
35.02735087558914
 40
67.98589043504758
 40
96.87796289258198
 40
107.6341697323495
 40
111.4746823165447
 40
114.2184925139364
 40
114.2184925139364
 40
114.2184925139364
 40
114.2184925139364
 10
1552.282761586013
 20
779.5212737738956
 30
0.0
 10
1546.609841444366
 20
778.2918487305396
 30
0.0
 10
1535.290410036397
 20
775.4268702172803
 30
0.0
 10
1513.717903556872
 20
768.4086297119931
 30
0.0
 10
1489.459017860041
 20
757.6452718541242
 30
0.0
 10
1469.07048130018
 20
744.3638098534133
 30
0.0
 10
1458.797537424043
 20
734.0238211009938
 30
0.0
 10
1455.693737805275
 20
729.1116381875778
 30
0.0
 10
1454.995398937732
 20
727.0057993111856
 30
0.0
 10
1454.973775885916
 20
726.0825611546128
 30
0.0
  0
SPLINE
  5
179
330
1F
100
AcDbEntity
  8
Linee visibili 2D
100
AcDbSpline
210
0.0
220
0.0
230
1.0
 70
    12
 71
     2
 72
     6
 73
     3
 74
     0
 42
0.0000000001
 43
0.0000000001
 40
0.0
 40
0.0
 40
0.0
 40
2.810936637857063
 40
2.810936637857063
 40
2.810936637857063
 10
1552.752198439347
 20
776.7507174150282
 30
0.0
 41
1.0
 10
1552.457008357202
 20
778.1257494128339
 30
0.0
 41
0.999048563990512
 10
1552.282761586013
 20
779.5212737738956
 30
0.0
 41
1.0
  0
SPLINE
  5
17A
330
1F
100
AcDbEntity
  8
Linee visibili 2D - Tangent
100
AcDbSpline
210
0.0
220
0.0
230
1.0
 70
    12
 71
     2
 72
     6
 73
     3
 74
     0
 42
0.0000000001
 43
0.0000000001
 40
0.0
 40
0.0
 40
0.0
 40
1.233949292746332
 40
1.233949292746332
 40
1.233949292746332
 10
1448.757428375769
 20
727.5316073474463
 30
0.0
 41
1.0
 10
1448.684383830733
 20
726.9182613859026
 30
0.0
 41
0.9982875935531381
 10
1448.683473910893
 20
726.300581900937
 30
0.0
 41
1.0
  0
SPLINE
  5
17B
330
1F
100
AcDbEntity
  8
Linee visibili 2D - Tangent
100
AcDbSpline
210
0.0
220
0.0
230
1.0
 70
    12
 71
     2
 72
     6
 73
     3
 74
     0
 42
0.0000000001
 43
0.0000000001
 40
0.0
 40
0.0
 40
0.0
 40
6.569261290349271
 40
6.569261290349271
 40
6.569261290349271
 10
1448.683473910893
 20
726.300581900937
 30
0.0
 41
1.0
 10
1452.040497309889
 20
726.4016544256732
 30
0.0
 41
0.9673129831869384
 10
1455.015355428497
 20
724.8427955703493
 30
0.0
 41
1.0
  0
SPLINE
  5
17C
330
1F
100
AcDbEntity
  8
Linee visibili 2D - Tangent
100
AcDbSpline
210
0.0
220
0.0
230
1.0
 70
    12
 71
     2
 72
     6
 73
     3
 74
     0
 42
0.0000000001
 43
0.0000000001
 40
0.0
 40
0.0
 40
0.0
 40
6.455165750202761
 40
6.455165750202761
 40
6.455165750202761
 10
1454.973775885916
 20
726.0825611546128
 30
0.0
 41
1.0
 10
1452.057895424583
 20
727.6320144317757
 30
0.0
 41
0.9665374554526863
 10
1448.757428375769
 20
727.5316073474463
 30
0.0
 41
1.0
  0
SPLINE
  5
17D
330
1F
100
AcDbEntity
  8
Linee visibili 2D - Tangent
100
AcDbSpline
210
0.0
220
0.0
230
1.0
 70
    12
 71
     2
 72
     6
 73
     3
 74
     0
 42
0.0000000001
 43
0.0000000001
 40
0.0
 40
0.0
 40
0.0
 40
1.240696248174011
 40
1.240696248174011
 40
1.240696248174011
 10
1454.973775885916
 20
726.0825611546128
 30
0.0
 41
1.0
 10
1454.973722094229
 20
725.4619793062842
 30
0.0
 41
0.999435158395256
 10
1455.015355428497
 20
724.8427955703493
 30
0.0
 41
1.0
  0
SPLINE
  5
17E
330
1F
100
AcDbEntity
  8
Linee visibili 2D - Tangent
100
AcDbSpline
210
0.0
220
0.0
230
1.0
 70
    24
 71
     2
 72
     6
 73
     3
 74
     0
 42
0.0000000001
 43
0.0000000001
 40
0.0
 40
0.0
 40
0.0
 40
3.531838790120888
 40
3.531838790120888
 40
3.531838790120888
 10
1454.973775885916
 20
726.0825611546128
 30
0.0
 10
1456.656029123864
 20
725.5454435201386
 30
0.0
 10
1458.338282361812
 20
725.0083258856644
 30
0.0
  0
SPLINE
  5
17F
330
1F
100
AcDbEntity
  8
Linee visibili 2D
100
AcDbSpline
210
0.0
220
0.0
230
1.0
 70
     8
 71
     3
 72
    12
 73
     8
 74
     0
 42
0.0000000001
 43
0.0000000001
 40
0.0
 40
0.0
 40
0.0
 40
0.0
 40
4.113450332062648
 40
7.633424606843107
 40
15.62884127801735
 40
23.64147849058688
 40
29.50219113147823
 40
29.50219113147823
 40
29.50219113147823
 40
29.50219113147823
 10
1475.661823400321
 20
702.4299807767321
 30
0.0
 10
1474.451036521196
 20
703.0850477045713
 30
0.0
 10
1472.312212328249
 20
704.4453932729599
 30
0.0
 10
1468.13608715053
 20
707.5986415770495
 30
0.0
 10
1463.676923203364
 20
712.3669537870206
 30
0.0
 10
1459.756555214293
 20
718.5735894521633
 30
0.0
 10
1458.359150809637
 20
723.0340386411693
 30
0.0
 10
1458.338282361812
 20
725.0083258856644
 30
0.0
  0
SPLINE
  5
180
330
1F
100
AcDbEntity
  8
Linee visibili 2D - Tangent
100
AcDbSpline
210
0.0
220
0.0
230
1.0
 70
     8
 71
     3
 72
    12
 73
     8
 74
     0
 42
0.0000000001
 43
0.0000000001
 40
0.0
 40
0.0
 40
0.0
 40
0.0
 40
3.358944174241759
 40
6.700451828375762
 40
14.10374782150211
 40
22.50942737470041
 40
32.0439894821285
 40
32.0439894821285
 40
32.0439894821285
 40
32.0439894821285
 10
1455.015355428497
 20
724.8427955703493
 30
0.0
 10
1455.093795800219
 20
723.7246306218161
 30
0.0
 10
1455.450427876587
 20
721.5144316630733
 30
0.0
 10
1457.040276717532
 20
717.0604824790184
 30
0.0
 10
1460.793225874572
 20
711.794958256924
 30
0.0
 10
1467.432906895831
 20
706.4838111548595
 30
0.0
 10
1472.752188521798
 20
703.7081458962944
 30
0.0
 10
1475.661823400321
 20
702.4299807767321
 30
0.0
  0
SPLINE
  5
181
330
1F
100
AcDbEntity
  8
Linee visibili 2D
100
AcDbSpline
210
0.0
220
0.0
230
1.0
 70
    12
 71
     3
 72
    12
 73
     8
 74
     0
 42
0.0000000001
 43
0.0000000001
 40
-55.16708924412482
 40
-55.16708924412482
 40
-55.16708924412482
 40
-55.16708924412482
 40
-41.25867640092277
 40
-41.25867640092277
 40
-27.43791561031452
 40
-27.43791561031452
 40
0.0
 40
0.0
 40
0.0
 40
0.0
 10
1528.930378290294
 20
682.0783653632456
 30
0.0
 41
1.0
 10
1528.930922646348
 20
684.4841341922108
 30
0.0
 41
1.0
 10
1528.942515196019
 20
686.4145758878755
 30
0.0
 41
1.0
 10
1528.974323261964
 20
689.7284464446988
 30
0.0
 41
1.0
 10
1528.994590372159
 20
690.950736681233
 30
0.0
 41
1.0
 10
1529.058466977067
 20
693.8059179337699
 30
0.0
 41
1.0
 10
1529.105500369481
 20
694.6080896762188
 30
0.0
 41
1.0
 10
1529.15314749637
 20
694.657970201031
 30
0.0
 41
1.0
  0
SPLINE
  5
182
330
1F
100
AcDbEntity
  8
Linee visibili 2D
100
AcDbSpline
210
0.0
220
0.0
230
1.0
 70
    12
 71
     2
 72
     6
 73
     3
 74
     0
 42
0.0000000001
 43
0.0000000001
 40
0.0
 40
0.0
 40
0.0
 40
40.92772660810935
 40
40.92772660810935
 40
40.92772660810935
 10
1528.918756157473
 20
641.150640428749
 30
0.0
 41
1.0
 10
1528.925767336438
 20
661.6145025552046
 30
0.0
 41
0.9999999982803551
 10
1528.930378290271
 20
682.0783653632456
 30
0.0
 41
1.0
  0
SPLINE
  5
183
330
1F
100
AcDbEntity
  8
Linee visibili 2D - Tangent
100
AcDbSpline
210
0.0
220
0.0
230
1.0
 70
    12
 71
     2
 72
     8
 73
     5
 74
     0
 42
0.0000000001
 43
0.0000000001
 40
0.0
 40
0.0
 40
0.0
 40
6.995831852242622
 40
6.995831852242622
 40
13.99166370448524
 40
13.99166370448524
 40
13.99166370448524
 10
1515.653993790776
 20
669.0177259915076
 30
0.0
 41
1.0
 10
1515.795258551438
 20
673.4643435630885
 30
0.0
 41
0.708162166873829
 10
1511.349082822262
 20
673.6188911149288
 30
0.0
 41
1.0
 10
1506.902907093086
 20
673.7734386667692
 30
0.0
 41
0.708162166873829
 10
1506.735078129255
 20
669.3277444578298
 30
0.0
 41
1.0
  0
SPLINE
  5
184
330
1F
100
AcDbEntity
  8
Linee visibili 2D - Tangent
100
AcDbSpline
210
0.0
220
0.0
230
1.0
 70
    12
 71
     2
 72
     8
 73
     5
 74
     0
 42
0.0000000001
 43
0.0000000001
 40
0.0
 40
0.0
 40
0.0
 40
6.997808725851339
 40
6.997808725851339
 40
13.99561745170268
 40
13.99561745170268
 40
13.99561745170268
 10
1506.735078129255
 20
669.3277444578298
 30
0.0
 41
1.0
 10
1506.591771245152
 20
664.8792166745598
 30
0.0
 41
0.708005067780279
 10
1511.039920315205
 20
664.7246005300636
 30
0.0
 41
1.0
 10
1515.488069385259
 20
664.5699843855676
 30
0.0
 41
0.708005067780279
 10
1515.653993790776
 20
669.0177259915076
 30
0.0
 41
1.0
  0
SPLINE
  5
185
330
1F
100
AcDbEntity
  8
Linee visibili 2D
100
AcDbSpline
210
0.0
220
0.0
230
1.0
 70
    12
 71
     3
 72
    23
 73
    19
 74
     0
 42
0.0000000001
 43
0.0000000001
 40
1.0
 40
1.0
 40
1.0
 40
1.0
 40
2.0
 40
2.0
 40
2.0
 40
3.0
 40
3.0
 40
3.0
 40
4.0
 40
4.0
 40
4.0
 40
5.0
 40
5.0
 40
5.0
 40
6.0
 40
6.0
 40
6.0
 40
7.0
 40
7.0
 40
7.0
 40
7.0
 10
1651.471897595247
 20
782.1734001596856
 30
0.0
 41
1.0
 10
1650.800220876715
 20
782.3216647898664
 30
0.0
 41
1.0
 10
1650.162709070976
 20
781.8949814736336
 30
0.0
 41
1.0
 10
1650.030963824217
 20
781.221930742551
 30
0.0
 41
1.0
 10
1649.742818408702
 20
779.7498739655986
 30
0.0
 41
1.0
 10
1649.454695753259
 20
778.2781832226472
 30
0.0
 41
1.0
 10
1649.166591756613
 20
776.8068262859435
 30
0.0
 41
1.0
 10
1633.43286217633
 20
779.8297494551161
 30
0.0
 41
1.0
 10
1617.279153090868
 20
781.3893799410595
 30
0.0
 41
1.0
 10
1601.115907960415
 20
781.3846308511304
 30
0.0
 41
1.0
 10
1584.952662471721
 20
781.3893800160013
 30
0.0
 41
1.0
 10
1568.798952892458
 20
779.82974952747
 30
0.0
 41
1.0
 10
1553.065222840301
 20
776.8068262859442
 30
0.0
 41
1.0
 10
1552.777118843655
 20
778.2781832226476
 30
0.0
 41
1.0
 10
1552.488996188212
 20
779.7498739655987
 30
0.0
 41
1.0
 10
1552.200850772697
 20
781.2219307425509
 30
0.0
 41
1.0
 10
1552.069172972075
 20
781.8946369096063
 30
0.0
 41
1.0
 10
1551.431249859587
 20
782.3215888867346
 30
0.0
 41
1.0
 10
1550.759917001663
 20
782.173400159685
 30
0.0
 41
1.0
  0
SPLINE
  5
186
330
1F
100
AcDbEntity
  8
Linee visibili 2D
100
AcDbSpline
210
0.0
220
0.0
230
1.0
 70
    24
 71
     2
 72
     6
 73
     3
 74
     0
 42
0.0000000001
 43
0.0000000001
 40
0.0
 40
0.0
 40
0.0
 40
51.98042812358636
 40
51.98042812358636
 40
51.98042812358636
 10
1529.146456648221
 20
693.1305698284494
 30
0.0
 10
1529.032606402844
 20
667.1406051285992
 30
0.0
 10
1528.918756157467
 20
641.150640428749
 30
0.0
  0
SPLINE
  5
187
330
1F
100
AcDbEntity
  8
Linee visibili 2D
100
AcDbSpline
210
0.0
220
0.0
230
1.0
 70
    24
 71
     2
 72
     6
 73
     3
 74
     0
 42
0.0000000001
 43
0.0000000001
 40
0.0
 40
0.0
 40
0.0
 40
51.98042812358636
 40
51.98042812358636
 40
51.98042812358636
 10
1673.085358123517
 20
693.1305698284494
 30
0.0
 10
1673.199208368894
 20
667.1406051285992
 30
0.0
 10
1673.313058614272
 20
641.150640428749
 30
0.0
  0
ENDSEC
  0
SECTION
  2
OBJECTS
  0
DICTIONARY
  5
C
330
0
100
AcDbDictionary
281
     1
  3
ACAD_GROUP
350
D
  3
ACAD_LAYOUT
350
1A
  3
ACAD_MLEADERSTYLE
350
189
  3
ACAD_MLINESTYLE
350
17
  3
ACAD_PLOTSETTINGS
350
19
  3
ACAD_PLOTSTYLENAME
350
E
  3
ACAD_TABLESTYLE
350
188
  3
ACAD_VISUALSTYLE
350
2A
  0
DICTIONARY
  5
D
102
{ACAD_REACTORS
330
C
102
}
330
C
100
AcDbDictionary
281
     1
  0
DICTIONARY
  5
1A
102
{ACAD_REACTORS
330
C
102
}
330
C
100
AcDbDictionary
281
     1
  3
Layout1
350
1E
  3
Layout2
350
26
  3
Model
350
22
  0
DICTIONARY
  5
189
102
{ACAD_REACTORS
330
C
102
}
330
C
100
AcDbDictionary
281
     1
  0
DICTIONARY
  5
17
102
{ACAD_REACTORS
330
C
102
}
330
C
100
AcDbDictionary
281
     1
  3
Standard
350
18
  0
DICTIONARY
  5
19
102
{ACAD_REACTORS
330
C
102
}
330
C
100
AcDbDictionary
281
     1
  0
ACDBDICTIONARYWDFLT
  5
E
102
{ACAD_REACTORS
330
C
102
}
330
C
100
AcDbDictionary
281
     1
  3
Normal
350
F
100
AcDbDictionaryWithDefault
340
F
  0
DICTIONARY
  5
188
102
{ACAD_REACTORS
330
C
102
}
330
C
100
AcDbDictionary
281
     1
  0
DICTIONARY
  5
2A
102
{ACAD_REACTORS
330
C
102
}
330
C
100
AcDbDictionary
281
     1
  3
2dWireframe
350
2F
  3
3D Hidden
350
31
  3
3dWireframe
350
30
  3
Basic
350
32
  3
Brighten
350
36
  3
ColorChange
350
3A
  3
Conceptual
350
34
  3
Dim
350
35
  3
Facepattern
350
39
  3
Flat
350
2B
  3
FlatWithEdges
350
2C
  3
Gouraud
350
2D
  3
GouraudWithEdges
350
2E
  3
Linepattern
350
38
  3
Realistic
350
33
  3
Thicken
350
37
  0
LAYOUT
  5
1E
102
{ACAD_REACTORS
330
1A
102
}
330
1A
100
AcDbPlotSettings
  1

  2
none_device
  4

  6

 40
0.0
 41
0.0
 42
0.0
 43
0.0
 44
0.0
 45
0.0
 46
0.0
 47
0.0
 48
0.0
 49
0.0
140
0.0
141
0.0
142
1.0
143
1.0
 70
   688
 72
     0
 73
     0
 74
     5
  7

 75
    16
 76
     0
 77
     2
 78
   300
147
1.0
148
0.0
149
0.0
100
AcDbLayout
  1
Layout1
 70
     1
 71
     1
 10
0.0
 20
0.0
 11
12.0
 21
9.0
 12
0.0
 22
0.0
 32
0.0
 14
1.000000000000000E+20
 24
1.000000000000000E+20
 34
1.000000000000000E+20
 15
-1.000000000000000E+20
 25
-1.000000000000000E+20
 35
-1.000000000000000E+20
146
0.0
 13
0.0
 23
0.0
 33
0.0
 16
1.0
 26
0.0
 36
0.0
 17
0.0
 27
1.0
 37
0.0
 76
     0
330
1B
  0
LAYOUT
  5
26
102
{ACAD_REACTORS
330
1A
102
}
330
1A
100
AcDbPlotSettings
  1

  2
none_device
  4

  6

 40
0.0
 41
0.0
 42
0.0
 43
0.0
 44
0.0
 45
0.0
 46
0.0
 47
0.0
 48
0.0
 49
0.0
140
0.0
141
0.0
142
1.0
143
1.0
 70
   688
 72
     0
 73
     0
 74
     5
  7

 75
    16
 76
     0
 77
     2
 78
   300
147
1.0
148
0.0
149
0.0
100
AcDbLayout
  1
Layout2
 70
     1
 71
     2
 10
0.0
 20
0.0
 11
0.0
 21
0.0
 12
0.0
 22
0.0
 32
0.0
 14
0.0
 24
0.0
 34
0.0
 15
0.0
 25
0.0
 35
0.0
146
0.0
 13
0.0
 23
0.0
 33
0.0
 16
1.0
 26
0.0
 36
0.0
 17
0.0
 27
1.0
 37
0.0
 76
     0
330
23
  0
LAYOUT
  5
22
102
{ACAD_REACTORS
330
1A
102
}
330
1A
100
AcDbPlotSettings
  1

  2
none_device
  4

  6

 40
0.0
 41
0.0
 42
0.0
 43
0.0
 44
0.0
 45
0.0
 46
0.0
 47
0.0
 48
0.0
 49
0.0
140
0.0
141
0.0
142
1.0
143
1.0
 70
  1712
 72
     0
 73
     0
 74
     0
  7

 75
     0
 76
     0
 77
     2
 78
   300
147
1.0
148
0.0
149
0.0
100
AcDbLayout
  1
Model
 70
     1
 71
     0
 10
0.0
 20
0.0
 11
12.0
 21
9.0
 12
0.0
 22
0.0
 32
0.0
 14
1430.957970324856
 24
622.9668156007847
 34
0.0
 15
2164.832356353793
 25
1080.18564564805
 35
0.0
146
0.0
 13
0.0
 23
0.0
 33
0.0
 16
1.0
 26
0.0
 36
0.0
 17
0.0
 27
1.0
 37
0.0
 76
     0
330
1F
331
29
  0
MLINESTYLE
  5
18
102
{ACAD_REACTORS
330
17
102
}
330
17
100
AcDbMlineStyle
  2
Standard
 70
     0
  3

 62
   256
 51
90.0
 52
90.0
 71
     2
 49
0.5
 62
   256
  6
BYLAYER
 49
-0.5
 62
   256
  6
BYLAYER
  0
ACDBPLACEHOLDER
  5
F
102
{ACAD_REACTORS
330
E
102
}
330
E
  0
VISUALSTYLE
  5
2F
102
{ACAD_REACTORS
330
2A
102
}
330
2A
100
AcDbVisualStyle
  2
2dWireframe
 70
     4
 71
     0
 72
     2
 73
     0
 90
        0
 40
-0.6
 41
-30.0
 62
     5
 63
     7
421
 16777215
 74
     1
 91
        4
 64
     7
 65
   257
 75
     1
175
     1
 42
1.0
 92
        0
 66
   257
 43
1.0
 76
     1
 77
     6
 78
     2
 67
     7
 79
     5
170
     0
171
     0
290
     0
174
     0
 93
        1
 44
0.0
173
     0
291
     0
 45
0.0
1001
ACAD
1000
AcDbSavedByObjectVersion
1070
     0
  0
VISUALSTYLE
  5
31
102
{ACAD_REACTORS
330
2A
102
}
330
2A
100
AcDbVisualStyle
  2
3D Hidden
 70
     6
 71
     1
 72
     2
 73
     2
 90
        0
 40
-0.6
 41
-30.0
 62
     5
 63
     7
421
 16777215
 74
     2
 91
        2
 64
     7
 65
   257
 75
     2
175
     1
 42
40.0
 92
        0
 66
   257
 43
1.0
 76
     1
 77
     6
 78
     2
 67
     7
 79
     3
170
     0
171
     0
290
     0
174
     0
 93
        1
 44
0.0
173
     0
291
     0
 45
0.0
1001
ACAD
1000
AcDbSavedByObjectVersion
1070
     0
  0
VISUALSTYLE
  5
30
102
{ACAD_REACTORS
330
2A
102
}
330
2A
100
AcDbVisualStyle
  2
3dWireframe
 70
     5
 71
     0
 72
     2
 73
     0
 90
        0
 40
-0.6
 41
-30.0
 62
     5
 63
     7
421
 16777215
 74
     1
 91
        4
 64
     7
 65
   257
 75
     1
175
     1
 42
1.0
 92
        0
 66
   257
 43
1.0
 76
     1
 77
     6
 78
     2
 67
     7
 79
     5
170
     0
171
     0
290
     0
174
     0
 93
        1
 44
0.0
173
     0
291
     0
 45
0.0
1001
ACAD
1000
AcDbSavedByObjectVersion
1070
     0
  0
VISUALSTYLE
  5
32
102
{ACAD_REACTORS
330
2A
102
}
330
2A
100
AcDbVisualStyle
  2
Basic
 70
     7
 71
     1
 72
     0
 73
     1
 90
        0
 40
-0.6
 41
-30.0
 62
     5
 63
     7
421
 16777215
 74
     0
 91
        4
 64
     7
 65
   257
 75
     1
175
     1
 42
1.0
 92
        8
 66
     7
 43
1.0
 76
     1
 77
     6
 78
     2
 67
     7
 79
     5
170
     0
171
     0
290
     0
174
     0
 93
        1
 44
0.0
173
     0
291
     1
 45
0.0
1001
ACAD
1000
AcDbSavedByObjectVersion
1070
     0
  0
VISUALSTYLE
  5
36
102
{ACAD_REACTORS
330
2A
102
}
330
2A
100
AcDbVisualStyle
  2
Brighten
 70
    12
 71
     2
 72
     2
 73
     0
 90
        0
 40
-0.6
 41
-30.0
 62
     5
 63
     7
421
 16777215
 74
     1
 91
        4
 64
     7
 65
   257
 75
     1
175
     1
 42
1.0
 92
        8
 66
     7
 43
1.0
 76
     1
 77
     6
 78
     2
 67
     7
 79
     5
170
     0
171
     0
290
     0
174
     0
 93
        1
 44
50.0
173
     0
291
     1
 45
0.0
1001
ACAD
1000
AcDbSavedByObjectVersion
1070
     0
  0
VISUALSTYLE
  5
3A
102
{ACAD_REACTORS
330
2A
102
}
330
2A
100
AcDbVisualStyle
  2
ColorChange
 70
    16
 71
     2
 72
     2
 73
     3
 90
        0
 40
-0.6
 41
-30.0
 62
     5
 63
     8
421
  8421504
 74
     1
 91
        4
 64
     7
 65
   257
 75
     1
175
     1
 42
1.0
 92
        8
 66
     8
424
  8421504
 43
1.0
 76
     1
 77
     6
 78
     2
 67
     7
 79
     5
170
     0
171
     0
290
     0
174
     0
 93
        1
 44
0.0
173
     0
291
     1
 45
0.0
1001
ACAD
1000
AcDbSavedByObjectVersion
1070
     0
  0
VISUALSTYLE
  5
34
102
{ACAD_REACTORS
330
2A
102
}
330
2A
100
AcDbVisualStyle
  2
Conceptual
 70
     9
 71
     3
 72
     2
 73
     0
 90
        0
 40
-0.6
 41
-30.0
 62
     5
 63
     7
421
 16777215
 74
     2
 91
        2
 64
     7
 65
   257
 75
     1
175
     1
 42
40.0
 92
        8
 66
     7
 43
1.0
 76
     1
 77
     6
 78
     2
 67
     7
 79
     3
170
     0
171
     0
290
     0
174
     0
 93
        1
 44
0.0
173
     0
291
     0
 45
0.0
1001
ACAD
1000
AcDbSavedByObjectVersion
1070
     0
  0
VISUALSTYLE
  5
35
102
{ACAD_REACTORS
330
2A
102
}
330
2A
100
AcDbVisualStyle
  2
Dim
 70
    11
 71
     2
 72
     2
 73
     0
 90
        0
 40
-0.6
 41
-30.0
 62
     5
 63
     7
421
 16777215
 74
     1
 91
        4
 64
     7
 65
   257
 75
     1
175
     1
 42
1.0
 92
        8
 66
     7
 43
1.0
 76
     1
 77
     6
 78
     2
 67
     7
 79
     5
170
     0
171
     0
290
     0
174
     0
 93
        1
 44
-50.0
173
     0
291
     1
 45
0.0
1001
ACAD
1000
AcDbSavedByObjectVersion
1070
     0
  0
VISUALSTYLE
  5
39
102
{ACAD_REACTORS
330
2A
102
}
330
2A
100
AcDbVisualStyle
  2
Facepattern
 70
    15
 71
     2
 72
     2
 73
     0
 90
        0
 40
-0.6
 41
-30.0
 62
     5
 63
     7
421
 16777215
 74
     1
 91
        4
 64
     7
 65
   257
 75
     1
175
     1
 42
1.0
 92
        8
 66
     7
 43
1.0
 76
     1
 77
     6
 78
     2
 67
     7
 79
     5
170
     0
171
     0
290
     0
174
     0
 93
        1
 44
0.0
173
     0
291
     1
 45
0.0
1001
ACAD
1000
AcDbSavedByObjectVersion
1070
     0
  0
VISUALSTYLE
  5
2B
102
{ACAD_REACTORS
330
2A
102
}
330
2A
100
AcDbVisualStyle
  2
Flat
 70
     0
 71
     2
 72
     1
 73
     1
 90
        2
 40
-0.6
 41
30.0
 62
     5
 63
     7
421
 16777215
 74
     0
 91
        4
 64
     7
 65
   257
 75
     1
175
     1
 42
1.0
 92
        8
 66
     7
 43
1.0
 76
     1
 77
     6
 78
     2
 67
     7
 79
     5
170
     0
171
     0
290
     0
174
     0
 93
       13
 44
0.0
173
     0
291
     1
 45
0.0
1001
ACAD
1000
AcDbSavedByObjectVersion
1070
     0
  0
VISUALSTYLE
  5
2C
102
{ACAD_REACTORS
330
2A
102
}
330
2A
100
AcDbVisualStyle
  2
FlatWithEdges
 70
     1
 71
     2
 72
     1
 73
     1
 90
        2
 40
-0.6
 41
30.0
 62
     5
 63
     7
421
 16777215
 74
     1
 91
        4
 64
     7
 65
   257
 75
     1
175
     1
 42
1.0
 92
        0
 66
   257
 43
1.0
 76
     1
 77
     6
 78
     2
 67
     7
 79
     5
170
     0
171
     0
290
     0
174
     0
 93
       13
 44
0.0
173
     0
291
     1
 45
0.0
1001
ACAD
1000
AcDbSavedByObjectVersion
1070
     0
  0
VISUALSTYLE
  5
2D
102
{ACAD_REACTORS
330
2A
102
}
330
2A
100
AcDbVisualStyle
  2
Gouraud
 70
     2
 71
     2
 72
     2
 73
     1
 90
        2
 40
-0.6
 41
30.0
 62
     5
 63
     7
421
 16777215
 74
     0
 91
        4
 64
     7
 65
   257
 75
     1
175
     1
 42
1.0
 92
        0
 66
     7
 43
1.0
 76
     1
 77
     6
 78
     2
 67
     7
 79
     5
170
     0
171
     0
290
     0
174
     0
 93
       13
 44
0.0
173
     0
291
     1
 45
0.0
1001
ACAD
1000
AcDbSavedByObjectVersion
1070
     0
  0
VISUALSTYLE
  5
2E
102
{ACAD_REACTORS
330
2A
102
}
330
2A
100
AcDbVisualStyle
  2
GouraudWithEdges
 70
     3
 71
     2
 72
     2
 73
     1
 90
        2
 40
-0.6
 41
30.0
 62
     5
 63
     7
421
 16777215
 74
     1
 91
        4
 64
     7
 65
   257
 75
     1
175
     1
 42
1.0
 92
        0
 66
   257
 43
1.0
 76
     1
 77
     6
 78
     2
 67
     7
 79
     5
170
     0
171
     0
290
     0
174
     0
 93
       13
 44
0.0
173
     0
291
     1
 45
0.0
1001
ACAD
1000
AcDbSavedByObjectVersion
1070
     0
  0
VISUALSTYLE
  5
38
102
{ACAD_REACTORS
330
2A
102
}
330
2A
100
AcDbVisualStyle
  2
Linepattern
 70
    14
 71
     2
 72
     2
 73
     0
 90
        0
 40
-0.6
 41
-30.0
 62
     5
 63
     7
421
 16777215
 74
     1
 91
        4
 64
     7
 65
   257
 75
     7
175
     7
 42
1.0
 92
        8
 66
     7
 43
1.0
 76
     1
 77
     6
 78
     2
 67
     7
 79
     5
170
     0
171
     0
290
     0
174
     0
 93
        1
 44
0.0
173
     0
291
     1
 45
0.0
1001
ACAD
1000
AcDbSavedByObjectVersion
1070
     0
  0
VISUALSTYLE
  5
33
102
{ACAD_REACTORS
330
2A
102
}
330
2A
100
AcDbVisualStyle
  2
Realistic
 70
     8
 71
     2
 72
     2
 73
     0
 90
        0
 40
-0.6
 41
-30.0
 62
     5
 63
     7
421
 16777215
 74
     1
 91
        0
 64
     7
 65
   257
 75
     1
175
     1
 42
1.0
 92
        8
 66
     8
424
  7895160
 43
1.0
 76
     1
 77
     6
 78
     2
 67
     7
 79
     5
170
     0
171
     0
290
     0
174
     0
 93
       13
 44
0.0
173
     0
291
     0
 45
0.0
1001
ACAD
1000
AcDbSavedByObjectVersion
1070
     0
  0
VISUALSTYLE
  5
37
102
{ACAD_REACTORS
330
2A
102
}
330
2A
100
AcDbVisualStyle
  2
Thicken
 70
    13
 71
     2
 72
     2
 73
     0
 90
        0
 40
-0.6
 41
-30.0
 62
     5
 63
     7
421
 16777215
 74
     1
 91
        4
 64
     7
 65
   257
 75
     1
175
     1
 42
1.0
 92
       12
 66
     7
 43
1.0
 76
     1
 77
     6
 78
     2
 67
     7
 79
     5
170
     0
171
     0
290
     0
174
     0
 93
        1
 44
0.0
173
     0
291
     1
 45
0.0
1001
ACAD
1000
AcDbSavedByObjectVersion
1070
     0
  0
ENDSEC
  0
EOF
