  0
SECTION
  2
HEADER
  9
$ACADVER
  1
AC1015
  9
$ACADMAINTVER
 70
    20
  9
$DWGCODEPAGE
  3
ANSI_1252
  9
$INSBASE
 10
0.0
 20
0.0
 30
0.0
  9
$EXTMIN
 10
-21.16721460253219
 20
-252.0259969244144
 30
0.0
  9
$EXTMAX
 10
551.0654425811188
 20
504.496198461538
 30
0.0
  9
$LIMMIN
 10
0.0
 20
0.0
  9
$LIMMAX
 10
0.0
 20
0.0
  9
$ORTHOMODE
 70
     0
  9
$REGENMODE
 70
     1
  9
$FILLMODE
 70
     1
  9
$QTEXTMODE
 70
     0
  9
$MIRRTEXT
 70
     1
  9
$LTSCALE
 40
1.0
  9
$ATTMODE
 70
     1
  9
$TEXTSIZE
 40
0.0
  9
$TRACEWID
 40
0.05
  9
$TEXTSTYLE
  7
STANDARD
  9
$CLAYER
  8
0
  9
$CELTYPE
  6
CONTINUOUS
  9
$CECOLOR
 62
   256
  9
$CELTSCALE
 40
1.0
  9
$DISPSILH
 70
     0
  9
$DIMSCALE
 40
1.0
  9
$DIMASZ
 40
6.0
  9
$DIMEXO
 40
1.0
  9
$DIMDLI
 40
0.38
  9
$DIMRND
 40
0.0
  9
$DIMDLE
 40
1.0
  9
$DIMEXE
 40
0.18
  9
$DIMTP
 40
0.0
  9
$DIMTM
 40
0.0
  9
$DIMTXT
 40
3.5
  9
$DIMCEN
 40
0.09
  9
$DIMTSZ
 40
0.0
  9
$DIMTOL
 70
     0
  9
$DIMLIM
 70
     0
  9
$DIMTIH
 70
     1
  9
$DIMTOH
 70
     1
  9
$DIMSE1
 70
     0
  9
$DIMSE2
 70
     0
  9
$DIMTAD
 70
     1
  9
$DIMZIN
 70
     0
  9
$DIMBLK
  1

  9
$DIMASO
 70
     1
  9
$DIMSHO
 70
     1
  9
$DIMPOST
  1

  9
$DIMAPOST
  1

  9
$DIMALT
 70
     0
  9
$DIMALTD
 70
     2
  9
$DIMALTF
 40
0.0394
  9
$DIMLFAC
 40
1.0
  9
$DIMTOFL
 70
     0
  9
$DIMTVP
 40
0.0
  9
$DIMTIX
 70
     0
  9
$DIMSOXD
 70
     0
  9
$DIMSAH
 70
     0
  9
$DIMBLK1
  1

  9
$DIMBLK2
  1

  9
$DIMSTYLE
  2
STANDARD
  9
$DIMCLRD
 70
     0
  9
$DIMCLRE
 70
     0
  9
$DIMCLRT
 70
     0
  9
$DIMTFAC
 40
1.0
  9
$DIMGAP
 40
1.0
  9
$DIMJUST
 70
     0
  9
$DIMSD1
 70
     0
  9
$DIMSD2
 70
     0
  9
$DIMTOLJ
 70
     1
  9
$DIMTZIN
 70
     0
  9
$DIMALTZ
 70
     0
  9
$DIMALTTZ
 70
     0
  9
$DIMUPT
 70
     0
  9
$DIMDEC
 70
     4
  9
$DIMTDEC
 70
     4
  9
$DIMALTU
 70
     2
  9
$DIMALTTD
 70
     2
  9
$DIMTXSTY
  7
STANDARD
  9
$DIMAUNIT
 70
     0
  9
$DIMADEC
 70
     0
  9
$DIMALTRND
 40
0.0
  9
$DIMAZIN
 70
     0
  9
$DIMDSEP
 70
    46
  9
$DIMATFIT
 70
     3
  9
$DIMFRAC
 70
     0
  9
$DIMLDRBLK
  1

  9
$DIMLUNIT
 70
     2
  9
$DIMLWD
 70
    -2
  9
$DIMLWE
 70
    -2
  9
$DIMTMOVE
 70
     0
  9
$LUNITS
 70
     2
  9
$LUPREC
 70
     2
  9
$SKETCHINC
 40
0.1
  9
$FILLETRAD
 40
0.0
  9
$AUNITS
 70
     0
  9
$AUPREC
 70
     2
  9
$MENU
  1
acad
  9
$ELEVATION
 40
0.0
  9
$PELEVATION
 40
0.0
  9
$THICKNESS
 40
0.0
  9
$LIMCHECK
 70
     0
  9
$CHAMFERA
 40
0.0
  9
$CHAMFERB
 40
0.0
  9
$CHAMFERC
 40
0.0
  9
$CHAMFERD
 40
0.0
  9
$SKPOLY
 70
     0
  9
$TDCREATE
 40
2444972.041666667
  9
$TDUCREATE
 40
2444972.000000000
  9
$TDUPDATE
 40
2453768.890468924
  9
$TDUUPDATE
 40
2453768.848802257
  9
$TDINDWG
 40
0.0007291667
  9
$TDUSRTIMER
 40
0.0007291667
  9
$USRTIMER
 70
     1
  9
$ANGBASE
 50
0.0
  9
$ANGDIR
 70
     0
  9
$PDMODE
 70
     0
  9
$PDSIZE
 40
-1.0
  9
$PLINEWID
 40
0.0
  9
$SPLFRAME
 70
     0
  9
$SPLINETYPE
 70
     6
  9
$SPLINESEGS
 70
     8
  9
$HANDSEED
  5
139
  9
$SURFTAB1
 70
     6
  9
$SURFTAB2
 70
     6
  9
$SURFTYPE
 70
     6
  9
$SURFU
 70
     6
  9
$SURFV
 70
     6
  9
$UCSBASE
  2

  9
$UCSNAME
  2

  9
$UCSORG
 10
0.0
 20
0.0
 30
0.0
  9
$UCSXDIR
 10
1.0
 20
0.0
 30
0.0
  9
$UCSYDIR
 10
0.0
 20
1.0
 30
0.0
  9
$UCSORTHOREF
  2

  9
$UCSORTHOVIEW
 70
     1
  9
$UCSORGTOP
 10
0.0
 20
0.0
 30
0.0
  9
$UCSORGBOTTOM
 10
0.0
 20
0.0
 30
0.0
  9
$UCSORGLEFT
 10
0.0
 20
0.0
 30
0.0
  9
$UCSORGRIGHT
 10
0.0
 20
0.0
 30
0.0
  9
$UCSORGFRONT
 10
0.0
 20
0.0
 30
0.0
  9
$UCSORGBACK
 10
0.0
 20
0.0
 30
0.0
  9
$PUCSBASE
  2

  9
$PUCSNAME
  2

  9
$PUCSORG
 10
0.0
 20
0.0
 30
0.0
  9
$PUCSXDIR
 10
1.0
 20
0.0
 30
0.0
  9
$PUCSYDIR
 10
0.0
 20
1.0
 30
0.0
  9
$PUCSORTHOREF
  2

  9
$PUCSORTHOVIEW
 70
     0
  9
$PUCSORGTOP
 10
0.0
 20
0.0
 30
0.0
  9
$PUCSORGBOTTOM
 10
0.0
 20
0.0
 30
0.0
  9
$PUCSORGLEFT
 10
0.0
 20
0.0
 30
0.0
  9
$PUCSORGRIGHT
 10
0.0
 20
0.0
 30
0.0
  9
$PUCSORGFRONT
 10
0.0
 20
0.0
 30
0.0
  9
$PUCSORGBACK
 10
0.0
 20
0.0
 30
0.0
  9
$USERI1
 70
     0
  9
$USERI2
 70
     0
  9
$USERI3
 70
     0
  9
$USERI4
 70
     0
  9
$USERI5
 70
     0
  9
$USERR1
 40
0.0
  9
$USERR2
 40
0.0
  9
$USERR3
 40
0.0
  9
$USERR4
 40
0.0
  9
$USERR5
 40
0.0
  9
$WORLDVIEW
 70
     1
  9
$SHADEDGE
 70
     3
  9
$SHADEDIF
 70
    70
  9
$TILEMODE
 70
     1
  9
$MAXACTVP
 70
    16
  9
$PINSBASE
 10
0.0
 20
0.0
 30
0.0
  9
$PLIMCHECK
 70
     0
  9
$PEXTMIN
 10
1.000000000000000E+20
 20
1.000000000000000E+20
 30
1.000000000000000E+20
  9
$PEXTMAX
 10
-1.000000000000000E+20
 20
-1.000000000000000E+20
 30
-1.000000000000000E+20
  9
$PLIMMIN
 10
0.0
 20
0.0
  9
$PLIMMAX
 10
12.0
 20
9.0
  9
$UNITMODE
 70
     0
  9
$VISRETAIN
 70
     0
  9
$PLINEGEN
 70
     1
  9
$PSLTSCALE
 70
     1
  9
$TREEDEPTH
 70
  3020
  9
$CMLSTYLE
  2
STANDARD
  9
$CMLJUST
 70
     0
  9
$CMLSCALE
 40
1.0
  9
$PROXYGRAPHICS
 70
     0
  9
$MEASUREMENT
 70
     0
  9
$CELWEIGHT
370
    -1
  9
$ENDCAPS
280
     0
  9
$JOINSTYLE
280
     0
  9
$LWDISPLAY
290
     0
  9
$INSUNITS
 70
     0
  9
$HYPERLINKBASE
  1

  9
$STYLESHEET
  1

  9
$XEDIT
290
     1
  9
$CEPSNTYPE
380
     0
  9
$PSTYLEMODE
290
     1
  9
$FINGERPRINTGUID
  2
{3EEFB98C-A037-46D8-B009-07E2445E6B6D}
  9
$VERSIONGUID
  2
{C7530C49-3E70-4156-B1F8-F72A22C202F8}
  9
$EXTNAMES
290
     1
  9
$PSVPSCALE
 40
0.0
  9
$OLESTARTUP
290
     0
  0
ENDSEC
  0
SECTION
  2
CLASSES
  0
CLASS
  1
IMAGE
  2
AcDbRasterImage
  3
ISM
 90
    32895
280
     0
281
     1
  0
CLASS
  1
DICTIONARYVAR
  2
AcDbDictionaryVar
  3
ObjectDBX Classes
 90
        0
280
     0
281
     0
  0
CLASS
  1
RASTERVARIABLES
  2
AcDbRasterVariables
  3
ISM
 90
    32768
280
     0
281
     0
  0
CLASS
  1
IMAGEDEF
  2
AcDbRasterImageDef
  3
ISM
 90
    32768
280
     0
281
     0
  0
CLASS
  1
IMAGEDEF_REACTOR
  2
AcDbRasterImageDefReactor
  3
ISM
 90
    32769
280
     0
281
     0
  0
CLASS
  1
IDBUFFER
  2
AcDbIdBuffer
  3
ObjectDBX Classes
 90
    32768
280
     0
281
     0
  0
CLASS
  1
SPATIAL_FILTER
  2
AcDbSpatialFilter
  3
ObjectDBX Classes
 90
    32768
280
     0
281
     0
  0
CLASS
  1
SORTENTSTABLE
  2
AcDbSortentsTable
  3
ObjectDBX Classes
 90
    32768
280
     0
281
     0
  0
CLASS
  1
LAYER_INDEX
  2
AcDbLayerIndex
  3
ObjectDBX Classes
 90
    32768
280
     0
281
     0
  0
CLASS
  1
SPATIAL_INDEX
  2
AcDbSpatialIndex
  3
ObjectDBX Classes
 90
    32768
280
     0
281
     0
  0
CLASS
  1
OBJECT_PTR
  2
CAseDLPNTableRecord
  3
ASE-LPNTableRecord
 90
    32769
280
     0
281
     0
  0
CLASS
  1
LAYOUT
  2
AcDbLayout
  3
ObjectDBX Classes
 90
        0
280
     0
281
     0
  0
CLASS
  1
PLOTSETTINGS
  2
AcDbPlotSettings
  3
ObjectDBX Classes
 90
    32768
280
     0
281
     0
  0
CLASS
  1
ACDBDICTIONARYWDFLT
  2
AcDbDictionaryWithDefault
  3
ObjectDBX Classes
 90
        0
280
     0
281
     0
  0
CLASS
  1
ACDBPLACEHOLDER
  2
AcDbPlaceHolder
  3
ObjectDBX Classes
 90
        0
280
     0
281
     0
  0
CLASS
  1
VBA_PROJECT
  2
AcDbVbaProject
  3
acad
 90
    32768
280
     0
281
     0
  0
CLASS
  1
WIPEOUT
  2
AcDbWipeout
  3
"WipeOut|Product Desc: Object Enabler for WipeOut entity^I^I^I^I^I^I|Company: Autodesk, Inc.^I^I^I^I^I^I|WEB Address: www.autodesk.com"
 90
    32895
280
     0
281
     1
  0
CLASS
  1
WIPEOUTVARIABLES
  2
AcDbWipeoutVariables
  3
"WipeOut|Product Desc:     WipeOut Dbx Application|Company:          Autodesk, Inc.|WEB Address:      www.autodesk.com"
 90
    32768
280
     0
281
     0
  0
CLASS
  1
RTEXT
  2
RText
  3
RText|AutoCAD Express Tool|expresstools@autodesk.com
 90
    32768
280
     0
281
     1
  0
CLASS
  1
ARCALIGNEDTEXT
  2
AcDbArcAlignedText
  3
ATEXT|AutoCAD Express Tool|expresstools@autodesk.com
 90
    32768
280
     0
281
     1
  0
ENDSEC
  0
SECTION
  2
TABLES
  0
TABLE
  2
VPORT
  5
7
330
0
100
AcDbSymbolTable
 70
     2
  0
VPORT
  5
131
330
7
100
AcDbSymbolTableRecord
100
AcDbViewportTableRecord
  2
*Active
 70
     0
 10
0.0
 20
0.0
 11
1.0
 21
1.0
 12
304.587124984184
 22
137.3248275286945
 13
0.0
 23
0.0
 14
1.0
 24
1.0
 15
0.0
 25
0.0
 16
0.0
 26
0.0
 36
1.0
 17
0.0
 27
0.0
 37
0.0
 40
739.9205863016837
 41
1.569570871261378
 42
50.0
 43
0.0
 44
0.0
 50
0.0
 51
0.0
 71
     0
 72
  2000
 73
     1
 74
     1
 75
     0
 76
     0
 77
     0
 78
     0
281
     0
 65
     1
110
0.0
120
0.0
130
0.0
111
1.0
121
0.0
131
0.0
112
0.0
122
1.0
132
0.0
 79
     1
146
0.0
  0
ENDTAB
  0
TABLE
  2
LTYPE
  5
4
330
0
100
AcDbSymbolTable
 70
     6
  0
LTYPE
  5
11
330
4
100
AcDbSymbolTableRecord
100
AcDbLinetypeTableRecord
  2
BYBLOCK
 70
     0
  3

 72
    65
 73
     0
 40
0.0
  0
LTYPE
  5
12
330
4
100
AcDbSymbolTableRecord
100
AcDbLinetypeTableRecord
  2
BYLAYER
 70
     0
  3

 72
    65
 73
     0
 40
0.0
  0
LTYPE
  5
13
330
4
100
AcDbSymbolTableRecord
100
AcDbLinetypeTableRecord
  2
CONTINUOUS
 70
     0
  3
Solid line
 72
    65
 73
     0
 40
0.0
  0
LTYPE
  5
1E
330
4
100
AcDbSymbolTableRecord
100
AcDbLinetypeTableRecord
  2
HIDDEN
 70
     0
  3
Hidden __ __ __ __ __ __ __ __ __ __ __ __ __ __
 72
    65
 73
     2
 40
1.905
 49
1.27
 74
     0
 49
-0.635
 74
     0
  0
LTYPE
  5
1F
330
4
100
AcDbSymbolTableRecord
100
AcDbLinetypeTableRecord
  2
PHANTOM
 70
     0
  3
Phantom ______  __  __  ______  __  __  ______
 72
    65
 73
     6
 40
12.7
 49
6.349999999999999
 74
     0
 49
-1.27
 74
     0
 49
1.27
 74
     0
 49
-1.27
 74
     0
 49
1.27
 74
     0
 49
-1.27
 74
     0
  0
LTYPE
  5
20
330
4
100
AcDbSymbolTableRecord
100
AcDbLinetypeTableRecord
  2
CENTER
 70
     0
  3
Center ____ _ ____ _ ____ _ ____ _ ____ _ ____
 72
    65
 73
     4
 40
10.16
 49
6.349999999999999
 74
     0
 49
-1.27
 74
     0
 49
1.27
 74
     0
 49
-1.27
 74
     0
  0
LTYPE
  5
21
330
4
100
AcDbSymbolTableRecord
100
AcDbLinetypeTableRecord
  2
CENTERX2
 70
     0
  3
Center (2x) ________  __  ________  __  _____
 72
    65
 73
     4
 40
20.32
 49
12.7
 74
     0
 49
-2.54
 74
     0
 49
2.54
 74
     0
 49
-2.54
 74
     0
  0
LTYPE
  5
22
330
4
100
AcDbSymbolTableRecord
100
AcDbLinetypeTableRecord
  2
DOT2
 70
     0
  3
Dot (.5x) ........................................
 72
    65
 73
     2
 40
0.635
 49
0.0
 74
     0
 49
-0.635
 74
     0
  0
ENDTAB
  0
TABLE
  2
LAYER
  5
2
330
0
100
AcDbSymbolTable
 70
     2
  0
LAYER
  5
14
330
2
100
AcDbSymbolTableRecord
100
AcDbLayerTableRecord
  2
0
 70
     0
 62
     7
  6
CONTINUOUS
370
    -3
390
116
  0
LAYER
  5
26
330
2
100
AcDbSymbolTableRecord
100
AcDbLayerTableRecord
  2
DEFPOINTS
 70
     0
 62
     7
  6
CONTINUOUS
290
     0
370
    -3
390
116
  0
ENDTAB
  0
TABLE
  2
STYLE
  5
3
330
0
100
AcDbSymbolTable
 70
     1
  0
STYLE
  5
17
330
3
100
AcDbSymbolTableRecord
100
AcDbTextStyleTableRecord
  2
STANDARD
 70
     0
 40
0.0
 41
1.0
 50
0.0
 71
     0
 42
0.0
  3
Century Gothic
  4

  0
ENDTAB
  0
TABLE
  2
VIEW
  5
5
330
0
100
AcDbSymbolTable
 70
     0
  0
ENDTAB
  0
TABLE
  2
UCS
  5
6
330
0
100
AcDbSymbolTable
 70
     0
  0
ENDTAB
  0
TABLE
  2
APPID
  5
8
330
0
100
AcDbSymbolTable
 70
     2
  0
APPID
  5
16
330
8
100
AcDbSymbolTableRecord
100
AcDbRegAppTableRecord
  2
ACAD
 70
     0
  0
APPID
  5
121
330
8
100
AcDbSymbolTableRecord
100
AcDbRegAppTableRecord
  2
DCO15
 70
     0
  0
ENDTAB
  0
TABLE
  2
DIMSTYLE
  5
9
330
0
100
AcDbSymbolTable
 70
     1
100
AcDbDimStyleTable
 71
     0
  0
DIMSTYLE
105
18
330
9
100
AcDbSymbolTableRecord
100
AcDbDimStyleTableRecord
  2
STANDARD
 70
     0
289
     0
340
17
  0
ENDTAB
  0
TABLE
  2
BLOCK_RECORD
  5
1
330
0
100
AcDbSymbolTable
 70
     0
  0
BLOCK_RECORD
  5
A
330
1
100
AcDbSymbolTableRecord
100
AcDbBlockTableRecord
  2
*MODEL_SPACE
340
11B
  0
BLOCK_RECORD
  5
B
330
1
100
AcDbSymbolTableRecord
100
AcDbBlockTableRecord
  2
*PAPER_SPACE
340
11C
  0
ENDTAB
  0
ENDSEC
  0
SECTION
  2
BLOCKS
  0
BLOCK
  5
D
330
A
100
AcDbEntity
  8
0
100
AcDbBlockBegin
  2
*MODEL_SPACE
 70
     0
 10
0.0
 20
0.0
 30
0.0
  3
*MODEL_SPACE
  1

  0
ENDBLK
  5
E
330
A
100
AcDbEntity
  8
0
100
AcDbBlockEnd
  0
BLOCK
  5
F
330
B
100
AcDbEntity
 67
     1
  8
0
100
AcDbBlockBegin
  2
*PAPER_SPACE
 70
     0
 10
0.0
 20
0.0
 30
0.0
  3
*PAPER_SPACE
  1

  0
ENDBLK
  5
10
330
B
100
AcDbEntity
 67
     1
  8
0
100
AcDbBlockEnd
  0
ENDSEC
  0
SECTION
  2
ENTITIES
  0
LINE
  5
27
330
A
100
AcDbEntity
  8
0
  6
Continuous
 62
     7
100
AcDbLine
 10
111.5746505193327
 20
261.5828431572056
 30
0.0
 11
111.5746505193327
 21
263.0828431572056
 31
0.0
  0
LINE
  5
28
330
A
100
AcDbEntity
  8
0
  6
Continuous
 62
     7
100
AcDbLine
 10
83.57465051933274
 20
263.0828431572056
 30
0.0
 11
83.57465051933274
 21
261.5828431572056
 31
0.0
  0
ARC
  5
29
330
A
100
AcDbEntity
  8
0
  6
Continuous
 62
     7
100
AcDbCircle
 10
150.0746505193329
 20
281.0828431572056
 30
0.0
 40
42.5000000000002
100
AcDbArc
 50
180.0000000000004
 51
205.0576154183036
  0
ARC
  5
2A
330
A
100
AcDbEntity
  8
0
  6
Continuous
 62
     7
100
AcDbCircle
 10
45.07465051933253
 20
281.0828431572056
 30
0.0
 40
42.50000000000021
100
AcDbArc
 50
334.9423845816979
 51
0.0
  0
LINE
  5
2B
330
A
100
AcDbEntity
  8
0
  6
Continuous
 62
     7
100
AcDbLine
 10
109.7794201192276
 20
261.0828431572056
 30
0.0
 11
109.7794201192276
 21
261.5828431572056
 31
0.0
  0
LINE
  5
2C
330
A
100
AcDbEntity
  8
0
  6
Continuous
 62
     7
100
AcDbLine
 10
85.36988091943781
 20
261.5828431572056
 30
0.0
 11
85.36988091943781
 21
261.0828431572056
 31
0.0
  0
LINE
  5
2D
330
A
100
AcDbEntity
  8
0
  6
Continuous
 62
     7
100
AcDbLine
 10
107.5746505193327
 20
281.0828431572056
 30
0.0
 11
107.5746505193327
 21
322.3413008713308
 31
0.0
  0
LINE
  5
2E
330
A
100
AcDbEntity
  8
0
  6
Continuous
 62
     7
100
AcDbLine
 10
87.57465051933273
 20
322.3413008713308
 30
0.0
 11
87.57465051933273
 21
281.0828431572056
 31
0.0
  0
ARC
  5
2F
330
A
100
AcDbEntity
  8
0
  6
Continuous
 62
     7
100
AcDbCircle
 10
-18.72563766308714
 20
324.3413008713308
 30
0.0
 40
2.000000000000024
100
AcDbArc
 50
165.6577739696033
 51
255.6577739696074
  0
LINE
  5
30
330
A
100
AcDbEntity
  8
0
  6
Continuous
 62
     7
100
AcDbLine
 10
24.33643978683881
 20
500.8357270592371
 30
0.0
 11
-20.66330453134304
 21
324.8367270592371
 31
0.0
  0
ARC
  5
31
330
A
100
AcDbEntity
  8
0
  6
Continuous
 62
     7
100
AcDbCircle
 10
26.27410665509469
 20
500.3403008713308
 30
0.0
 40
2.0
100
AcDbArc
 50
90.0
 51
165.6577739696061
  0
ARC
  5
32
330
A
100
AcDbEntity
  8
0
  6
Continuous
 62
     7
100
AcDbCircle
 10
135.5746505193327
 20
502.1168069563207
 30
0.0
 40
2.000000000000006
100
AcDbArc
 50
6.416029825546821
 51
90.0
  0
ARC
  5
33
330
A
100
AcDbEntity
  8
0
  6
Continuous
 62
     7
100
AcDbCircle
 10
59.57465051933274
 20
502.1168069563207
 30
0.0
 40
2.0
100
AcDbArc
 50
90.0
 51
173.5839701744529
  0
LINE
  5
34
330
A
100
AcDbEntity
  8
0
  6
Continuous
 62
     7
100
AcDbLine
 10
111.5746505193327
 20
261.0828431572056
 30
0.0
 11
83.57465051933274
 21
261.0828431572056
 31
0.0
  0
LINE
  5
35
330
A
100
AcDbEntity
  8
0
  6
Continuous
 62
     7
100
AcDbLine
 10
111.5746505193327
 20
261.0828431572056
 30
0.0
 11
111.5746505193327
 21
236.0828431572056
 31
0.0
  0
LINE
  5
36
330
A
100
AcDbEntity
  8
0
  6
Continuous
 62
     7
100
AcDbLine
 10
111.5746505193327
 20
236.0828431572056
 30
0.0
 11
83.57465051933274
 21
236.0828431572056
 31
0.0
  0
LINE
  5
37
330
A
100
AcDbEntity
  8
0
  6
Continuous
 62
     7
100
AcDbLine
 10
83.57465051933274
 20
261.0828431572056
 30
0.0
 11
83.57465051933274
 21
236.0828431572056
 31
0.0
  0
LINE
  5
38
330
A
100
AcDbEntity
  8
0
  6
Continuous
 62
     7
100
AcDbLine
 10
111.5746505193327
 20
263.0828431572056
 30
0.0
 11
83.57465051933274
 21
263.0828431572056
 31
0.0
  0
LINE
  5
39
330
A
100
AcDbEntity
  8
0
  6
Continuous
 62
     7
100
AcDbLine
 10
111.5746505193327
 20
261.5828431572056
 30
0.0
 11
83.57465051933274
 21
261.5828431572056
 31
0.0
  0
LINE
  5
3A
330
A
100
AcDbEntity
  8
0
  6
Continuous
 62
     7
100
AcDbLine
 10
111.5746505193327
 20
153.0828431572056
 30
0.0
 11
108.095384122525
 21
153.0828431572056
 31
0.0
  0
LINE
  5
3B
330
A
100
AcDbEntity
  8
0
  6
Continuous
 62
     7
100
AcDbLine
 10
108.095384122525
 20
153.0828431572056
 30
0.0
 11
87.21477110470386
 21
153.0828431572056
 31
0.0
  0
LINE
  5
3C
330
A
100
AcDbEntity
  8
0
  6
Continuous
 62
     7
100
AcDbLine
 10
87.21477110470386
 20
153.0828431572056
 30
0.0
 11
83.57465051933274
 21
153.0828431572056
 31
0.0
  0
LINE
  5
3D
330
A
100
AcDbEntity
  8
0
  6
Continuous
 62
     7
100
AcDbLine
 10
83.57465051933274
 20
236.0828431572056
 30
0.0
 11
83.57465051933274
 21
153.0828431572056
 31
0.0
  0
LINE
  5
3E
330
A
100
AcDbEntity
  8
0
  6
Continuous
 62
     7
100
AcDbLine
 10
111.5746505193327
 20
236.0828431572056
 30
0.0
 11
111.5746505193327
 21
153.0828431572056
 31
0.0
  0
ARC
  5
3F
330
A
100
AcDbEntity
  8
0
  6
Continuous
 62
     7
100
AcDbCircle
 10
97.65507761361442
 20
207.0828431572056
 30
0.0
 40
55.00000000000002
100
AcDbArc
 50
104.8333081804298
 51
255.166691819571
  0
ARC
  5
40
330
A
100
AcDbEntity
  8
0
  6
Continuous
 62
     7
100
AcDbCircle
 10
97.65507761361442
 20
207.0828431572056
 30
0.0
 40
54.99999999999998
100
AcDbArc
 50
259.057501093134
 51
280.9424989068677
  0
ARC
  5
41
330
A
100
AcDbEntity
  8
0
  6
Continuous
 62
     7
100
AcDbCircle
 10
97.65507761361442
 20
207.0828431572056
 30
0.0
 40
55.0
100
AcDbArc
 50
284.6600320532027
 51
75.33996794679812
  0
LINE
  5
42
330
A
100
AcDbEntity
  8
0
  6
Continuous
 62
     7
100
AcDbLine
 10
213.4667938909816
 20
322.4036340030749
 30
0.0
 11
-19.2210638509938
 21
322.4036340030749
 31
0.0
  0
LWPOLYLINE
  5
43
330
A
100
AcDbEntity
  8
0
  6
Continuous
 62
     7
100
AcDbPolyline
 90
        7
 70
   128
 43
0.0
 10
215.1500051416583
 20
324.8367270592372
 10
215.2053842913392
 20
324.1709954106312
 10
215.0372955975982
 20
323.5244637917428
 10
214.6648417229083
 20
322.9693330905194
 10
214.1281611761889
 20
322.5662923670717
 10
213.4851703322429
 20
322.3613236566321
 10
213.2012349682125
 20
322.3413008713308
  0
LINE
  5
4C
330
A
100
AcDbEntity
  8
0
  6
Continuous
 62
     7
100
AcDbLine
 10
212.967488387694
 20
322.3413008713308
 30
0.0
 11
213.4667938909816
 21
322.4036340030749
 31
0.0
  0
LWPOLYLINE
  5
4D
330
A
100
AcDbEntity
  8
0
  6
Continuous
 62
     7
100
AcDbPolyline
 90
        3
 70
   128
 43
0.0
 10
215.1500051416583
 20
324.8367270592372
 10
208.5556119602375
 20
350.4750872872372
 10
169.7382529189995
 20
500.8357270592371
  0
LINE
  5
52
330
A
100
AcDbEntity
  8
0
  6
Continuous
 62
     7
100
AcDbLine
 10
57.58717713084337
 20
502.3403008713308
 30
0.0
 11
26.78547029145832
 21
502.3403008713308
 31
0.0
  0
LINE
  5
53
330
A
100
AcDbEntity
  8
0
  6
Continuous
 62
     7
100
AcDbLine
 10
26.27410665509481
 20
502.3403008713308
 30
0.0
 11
167.7709293048647
 21
502.3403008713308
 31
0.0
  0
LWPOLYLINE
  5
54
330
A
100
AcDbEntity
  8
0
  6
Continuous
 62
     7
100
AcDbPolyline
 90
        5
 70
   128
 43
0.0
 10
167.7709293048647
 20
502.3403008713308
 10
168.4510138942034
 20
502.2248613318893
 10
169.0544437861295
 20
501.8902498983632
 10
169.5075821935206
 20
501.3769114383532
 10
169.7382529189995
 20
500.8357270592371
  0
LINE
  5
5B
330
A
100
AcDbEntity
  8
0
  6
Continuous
 62
     7
100
AcDbLine
 10
59.57465051933274
 20
504.1168069563206
 30
0.0
 11
135.5746505193327
 21
504.1168069563206
 31
0.0
  0
LINE
  5
5C
330
A
100
AcDbEntity
  8
0
  6
Continuous
 62
     7
100
AcDbLine
 10
212.967488387694
 20
322.3413008713308
 30
0.0
 11
97.57465051933275
 21
322.3413008713308
 31
0.0
  0
LINE
  5
5D
330
A
100
AcDbEntity
  8
0
  6
Continuous
 62
     7
100
AcDbLine
 10
166.8628748964553
 20
502.3403008713308
 30
0.0
 11
134.8405602492071
 21
502.3403008713308
 31
0.0
  0
LINE
  5
5E
330
A
100
AcDbEntity
  8
0
  6
Continuous
 62
     7
100
AcDbLine
 10
97.57465051933275
 20
322.3413008713308
 30
0.0
 11
83.07465051933276
 21
322.3413008713308
 31
0.0
  0
LINE
  5
5F
330
A
100
AcDbEntity
  8
0
  6
PHANTOM
 62
     7
100
AcDbLine
 10
107.5746505193327
 20
281.0828431572056
 30
0.0
 11
87.57465051933273
 21
281.0828431572056
 31
0.0
  0
LINE
  5
60
330
A
100
AcDbEntity
  8
0
  6
PHANTOM
 62
     7
100
AcDbLine
 10
-20.66330453134304
 20
324.8367270592371
 30
0.0
 11
215.1500051416583
 21
324.8367270592372
 31
0.0
  0
LINE
  5
61
330
A
100
AcDbEntity
  8
0
  6
PHANTOM
 62
     7
100
AcDbLine
 10
169.7382529189995
 20
500.8357270592371
 30
0.0
 11
24.33643978683881
 21
500.8357270592371
 31
0.0
  0
ARC
  5
62
330
A
100
AcDbEntity
  8
0
  6
Continuous
 62
     7
100
AcDbCircle
 10
50.73056320162663
 20
-111.1668637165114
 30
0.0
 40
22.50000000000002
100
AcDbArc
 50
58.52550077476465
 51
301.4744992252337
  0
LINE
  5
63
330
A
100
AcDbEntity
  8
0
  6
Continuous
 62
     7
100
AcDbLine
 10
55.13141414288443
 20
-125.5129638638855
 30
0.0
 11
59.47261858455768
 21
-125.5129638638857
 31
0.0
  0
LINE
  5
64
330
A
100
AcDbEntity
  8
0
  6
Continuous
 62
     7
100
AcDbLine
 10
59.47261858455856
 20
-96.8207635691381
 30
0.0
 11
55.13141414288436
 21
-96.82076356913784
 31
0.0
  0
LINE
  5
65
330
A
100
AcDbEntity
  8
0
  6
Continuous
 62
     7
100
AcDbLine
 10
42.6550776136145
 20
48.83313628348865
 30
0.0
 11
42.65507761361443
 21
38.83313628348864
 31
0.0
  0
LINE
  5
66
330
A
100
AcDbEntity
  8
0
  6
Continuous
 62
     7
100
AcDbLine
 10
152.6550776136144
 20
38.83313628348864
 30
0.0
 11
152.6550776136144
 21
48.83313628348865
 31
0.0
  0
ARC
  5
67
330
A
100
AcDbEntity
  8
0
  6
Continuous
 62
     7
100
AcDbCircle
 10
97.57465051933275
 20
-111.1668637165118
 30
0.0
 40
118.3002881824199
100
AcDbArc
 50
6.066595777033645
 51
270.0000000000008
  0
ARC
  5
68
330
A
100
AcDbEntity
  8
0
  6
Continuous
 62
     7
100
AcDbCircle
 10
97.57465051933275
 20
-111.1668637165118
 30
0.0
 40
118.3002881824199
100
AcDbArc
 50
270.0000000000008
 51
353.9333966166438
  0
LINE
  5
69
330
A
100
AcDbEntity
  8
0
  6
Continuous
 62
     7
100
AcDbLine
 10
59.4726185845572
 20
-123.6668637165122
 30
0.0
 11
59.57794013540604
 21
-123.6668637165122
 31
0.0
  0
LINE
  5
6A
330
A
100
AcDbEntity
  8
0
  6
Continuous
 62
     7
100
AcDbLine
 10
59.57794013540612
 20
-98.66686371651226
 30
0.0
 11
59.47261858455775
 21
-98.66686371651226
 31
0.0
  0
LINE
  5
6B
330
A
100
AcDbEntity
  8
0
  6
Continuous
 62
     7
100
AcDbLine
 10
59.47261858455768
 20
-125.5129638638857
 30
0.0
 11
60.22792856089062
 21
-125.4924477869375
 31
0.0
  0
LWPOLYLINE
  5
6C
330
A
100
AcDbEntity
  8
0
  6
Continuous
 62
     7
100
AcDbPolyline
 90
       23
 70
   128
 43
0.0
 10
60.22792856089099
 20
-96.84127964608636
 10
59.47261858455761
 20
-96.8207635691381
 10
57.26248889551955
 20
-96.99738786794064
 10
55.10677993442552
 20
-97.52291168792922
 10
53.05857241028552
 20
-98.3843948885422
 10
51.16829998995491
 20
-99.56062489428163
 10
49.48250745387672
 20
-101.0226390187226
 10
48.04270460911387
 20
-102.7344376219748
 10
46.88434418013612
 20
-104.6538705412922
 10
46.03594884508272
 20
-106.7336749679686
 10
45.5184089127654
 20
-108.9226392145441
 10
45.34446793393436
 20
-111.1668637165121
 10
45.51840891276544
 20
-113.4110882184801
 10
46.0359488450828
 20
-115.6000524650555
 10
46.88434418013623
 20
-117.6798568917319
 10
48.04270460911403
 20
-119.5992898110493
 10
49.48250745387692
 20
-121.3110884143014
 10
51.16829998995512
 20
-122.7731025387424
 10
53.05857241028576
 20
-123.9493325444818
 10
55.10677993442578
 20
-124.8108157450947
 10
57.26248889551982
 20
-125.3363395650833
 10
59.47261858455768
 20
-125.5129638638857
 10
59.47261858455768
 20
-125.5129638638857
  0
LWPOLYLINE
  5
85
330
A
100
AcDbEntity
  8
0
  6
Continuous
 62
     7
100
AcDbPolyline
 90
       21
 70
   128
 43
0.0
 10
55.13141414288436
 20
-96.82076356913784
 10
52.9212844538463
 20
-96.99738786794036
 10
50.76557549275227
 20
-97.52291168792895
 10
48.71736796861227
 20
-98.38439488854193
 10
46.82709554828165
 20
-99.56062489428138
 10
45.14130301220347
 20
-101.0226390187224
 10
43.70150016744061
 20
-102.7344376219745
 10
42.54313973846286
 20
-104.6538705412919
 10
41.69474440340946
 20
-106.7336749679683
 10
41.17720447109213
 20
-108.9226392145438
 10
41.00326349226111
 20
-111.1668637165118
 10
41.17720447109219
 20
-113.4110882184798
 10
41.69474440340954
 20
-115.6000524650553
 10
42.54313973846297
 20
-117.6798568917316
 10
43.70150016744078
 20
-119.599289811049
 10
45.14130301220366
 20
-121.3110884143011
 10
46.82709554828186
 20
-122.7731025387421
 10
48.7173679686125
 20
-123.9493325444815
 10
50.76557549275253
 20
-124.8108157450945
 10
52.92128445384657
 20
-125.336339565083
 10
55.13141414288443
 20
-125.5129638638855
  0
LINE
  5
9C
330
A
100
AcDbEntity
  8
0
  6
Continuous
 62
     7
100
AcDbLine
 10
152.6550776136144
 20
48.83313628348865
 30
0.0
 11
42.6550776136145
 21
48.83313628348865
 31
0.0
  0
LINE
  5
9D
330
A
100
AcDbEntity
  8
0
  6
Continuous
 62
     7
100
AcDbLine
 10
108.095384122525
 20
38.83313628348844
 30
0.0
 11
87.21477110470386
 21
38.83313628348844
 31
0.0
  0
LINE
  5
9E
330
A
100
AcDbEntity
  8
0
  6
Continuous
 62
     7
100
AcDbLine
 10
83.57465051933274
 20
38.83313628348844
 30
0.0
 11
42.65507761361443
 21
38.83313628348864
 31
0.0
  0
LINE
  5
9F
330
A
100
AcDbEntity
  8
0
  6
Continuous
 62
     7
100
AcDbLine
 10
152.6550776136144
 20
38.83313628348864
 30
0.0
 11
111.5746505193327
 21
38.83313628348844
 31
0.0
  0
LINE
  5
A0
330
A
100
AcDbEntity
  8
0
  6
Continuous
 62
     7
100
AcDbLine
 10
87.21477110470386
 20
38.83313628348844
 30
0.0
 11
83.57465051933274
 21
38.83313628348844
 31
0.0
  0
LINE
  5
A1
330
A
100
AcDbEntity
  8
0
  6
Continuous
 62
     7
100
AcDbLine
 10
111.5746505193327
 20
38.83313628348844
 30
0.0
 11
108.095384122525
 21
38.83313628348844
 31
0.0
  0
LINE
  5
A2
330
A
100
AcDbEntity
  8
0
  6
Continuous
 62
     7
100
AcDbLine
 10
111.5746505193327
 20
38.83313628348844
 30
0.0
 11
111.5746505193327
 21
6.302103181318699
 31
0.0
  0
LINE
  5
A3
330
A
100
AcDbEntity
  8
0
  6
Continuous
 62
     7
100
AcDbLine
 10
111.5746505193327
 20
-41.77588420667635
 30
0.0
 11
111.5746505193327
 21
-73.69687572612201
 31
0.0
  0
LINE
  5
A4
330
A
100
AcDbEntity
  8
0
  6
Continuous
 62
     7
100
AcDbLine
 10
83.57465051933274
 20
38.83313628348844
 30
0.0
 11
83.57465051933274
 21
6.302103181318699
 31
0.0
  0
LINE
  5
A5
330
A
100
AcDbEntity
  8
0
  6
Continuous
 62
     7
100
AcDbLine
 10
83.57465051933274
 20
-41.77588420667635
 30
0.0
 11
83.57465051933274
 21
-73.69687572612201
 31
0.0
  0
ARC
  5
A6
330
A
100
AcDbEntity
  8
0
  6
Continuous
 62
     7
100
AcDbCircle
 10
97.57465051933275
 20
-111.1668637165124
 30
0.0
 40
39.98747338848938
100
AcDbArc
 50
18.21586164337334
 51
21.26079058068072
  0
ARC
  5
A7
330
A
100
AcDbEntity
  8
0
  6
Continuous
 62
     7
100
AcDbCircle
 10
97.57465051933275
 20
-111.1668637165124
 30
0.0
 40
40.0
100
AcDbArc
 50
341.7900431357178
 51
18.209956864283
  0
ARC
  5
A8
330
A
100
AcDbEntity
  8
0
  6
Continuous
 62
     7
100
AcDbCircle
 10
97.57465051933275
 20
-111.1668637165124
 30
0.0
 40
39.98747338848938
100
AcDbArc
 50
338.7392094193201
 51
341.7841383566275
  0
ARC
  5
A9
330
A
100
AcDbEntity
  8
0
  6
Continuous
 62
     7
100
AcDbCircle
 10
97.57465051933275
 20
-111.1668637165124
 30
0.0
 40
39.99999999999998
100
AcDbArc
 50
21.2538091853597
 51
338.7461908146411
  0
LINE
  5
AA
330
A
100
AcDbEntity
  8
0
  6
Continuous
 62
     7
100
AcDbLine
 10
167.7709293048647
 20
-123.6668637165124
 30
0.0
 11
169.7382529189995
 21
-123.6668637165124
 31
0.0
  0
LINE
  5
AB
330
A
100
AcDbEntity
  8
0
  6
Continuous
 62
     7
100
AcDbLine
 10
169.7382529189995
 20
-98.6668637165124
 30
0.0
 11
167.7709293048647
 21
-98.6668637165124
 31
0.0
  0
LINE
  5
AC
330
A
100
AcDbEntity
  8
0
  6
Continuous
 62
     7
100
AcDbLine
 10
134.8405602492071
 20
-96.66686371651241
 30
0.0
 11
166.8628748964553
 21
-96.66686371651241
 31
0.0
  0
LINE
  5
AD
330
A
100
AcDbEntity
  8
0
  6
Continuous
 62
     7
100
AcDbLine
 10
166.8628748964553
 20
-125.6668637165124
 30
0.0
 11
134.8405602492071
 21
-125.6668637165124
 31
0.0
  0
ARC
  5
AE
330
A
100
AcDbEntity
  8
0
  6
Continuous
 62
     7
100
AcDbCircle
 10
97.57465051933275
 20
-111.1668637165124
 30
0.0
 40
70.78918022787441
100
AcDbArc
 50
11.81975615453205
 51
348.1802438454688
  0
LINE
  5
AF
330
A
100
AcDbEntity
  8
0
  6
Continuous
 62
     7
100
AcDbLine
 10
135.558173631271
 20
-98.6668637165124
 30
0.0
 11
167.7709293048647
 21
-98.6668637165124
 31
0.0
  0
LINE
  5
B0
330
A
100
AcDbEntity
  8
0
  6
Continuous
 62
     7
100
AcDbLine
 10
167.7709293048647
 20
-123.6668637165124
 30
0.0
 11
135.558173631271
 21
-123.6668637165124
 31
0.0
  0
LINE
  5
B1
330
A
100
AcDbEntity
  8
0
  6
Continuous
 62
     7
100
AcDbLine
 10
169.7382529189995
 20
-98.6668637165124
 30
0.0
 11
215.1500051416583
 21
-98.66686371651178
 31
0.0
  0
LINE
  5
B2
330
A
100
AcDbEntity
  8
0
  6
Continuous
 62
     7
100
AcDbLine
 10
215.1500051416583
 20
-123.6668637165118
 30
0.0
 11
169.7382529189995
 21
-123.6668637165124
 31
0.0
  0
LINE
  5
B3
330
A
100
AcDbEntity
  8
0
  6
Continuous
 62
     7
100
AcDbLine
 10
215.1500051416583
 20
-98.66686371651178
 30
0.0
 11
215.1980969882213
 21
-98.66686371651178
 31
0.0
  0
LINE
  5
B4
330
A
100
AcDbEntity
  8
0
  6
Continuous
 62
     7
100
AcDbLine
 10
215.1500051416583
 20
-123.6668637165118
 30
0.0
 11
215.1901729231231
 21
-123.6668637165118
 31
0.0
  0
LWPOLYLINE
  5
B5
330
A
100
AcDbEntity
  8
0
  6
Continuous
 62
     7
100
AcDbPolyline
 90
       16
 70
   128
 43
0.0
 10
59.37521213942623
 20
-123.0329038082921
 10
57.70372958115068
 20
-122.3284369433819
 10
55.92578928251115
 20
-121.216827846099
 10
54.35843182703504
 20
-119.8160995787316
 10
53.04674723503587
 20
-118.1665485432322
 10
52.0284702840473
 20
-116.3156293195622
 10
51.33289494797712
 20
-114.3165894838263
 10
50.98003166281324
 20
-112.2269377724561
 10
50.98003166281326
 20
-110.1067896605684
 10
51.33289494797717
 20
-108.0171379491982
 10
52.02847028404738
 20
-106.0180981134623
 10
53.04674723503596
 20
-104.1671788897923
 10
54.35843182703518
 20
-102.5176278542929
 10
55.92578928251131
 20
-101.1168995869255
 10
57.70372958115085
 20
-100.0052904896427
 10
59.37521213942627
 20
-99.3008236247325
  0
LWPOLYLINE
  5
C7
330
A
100
AcDbEntity
  8
0
  6
PHANTOM
 62
     7
100
AcDbPolyline
 90
        4
 70
   128
 43
0.0
 10
53.41115511947046
 20
-94.79763349395396
 10
55.81379765352691
 20
-94.98046427087055
 10
58.16276912361981
 20
-95.52487246418287
 10
60.39486003281627
 20
-96.41345125095925
  0
LWPOLYLINE
  5
CD
330
A
100
AcDbEntity
  8
0
  6
PHANTOM
 62
     7
100
AcDbPolyline
 90
       26
 70
   128
 43
0.0
 10
60.39486003281569
 20
-125.9202761820641
 10
58.16276912361967
 20
-126.8088549688403
 10
55.81379765352675
 20
-127.3532631621526
 10
53.4111551194703
 20
-127.5360939390692
 10
51.00851258541386
 20
-127.3532631621525
 10
48.65954111532097
 20
-126.8088549688402
 10
46.41671285027499
 20
-125.9150305385633
 10
44.3301288675549
 20
-124.6917564320938
 10
42.44640000535846
 20
-123.1663585715707
 10
40.80760565369887
 20
-121.3729118245539
 10
39.45035377036607
 20
-119.3514788277902
 10
38.40496311964246
 20
-117.14721505411
 10
37.69478600120919
 20
-114.8093601137808
 10
37.3356865983597
 20
-112.3901378229809
 10
37.33568659835973
 20
-109.9435896100419
 10
37.69478600120927
 20
-107.5243673192419
 10
38.4049631196426
 20
-105.1865123789128
 10
39.45035377036625
 20
-102.9822486052326
 10
40.80760565369909
 20
-100.9608156084689
 10
42.44640000535873
 20
-99.16736886145219
 10
44.33012886755522
 20
-97.64197100092911
 10
46.41671285027533
 20
-96.41869689445966
 10
48.65954111532133
 20
-95.52487246418282
 10
51.00851258541424
 20
-94.98046427087052
 10
53.41115511947046
 20
-94.79763349395396
 10
53.41115511947046
 20
-94.79763349395396
  0
CIRCLE
  5
E9
330
A
100
AcDbEntity
  8
0
  6
PHANTOM
 62
     7
100
AcDbCircle
 10
97.57465051933275
 20
-111.1668637165124
 30
0.0
 40
38.0
  0
ARC
  5
EA
330
A
100
AcDbEntity
  8
0
  6
PHANTOM
 62
     7
100
AcDbCircle
 10
97.57465051933275
 20
-111.1668637165124
 30
0.0
 40
71.30054386423802
100
AcDbArc
 50
10.09694490885369
 51
349.9030550911471
  0
ARC
  5
EB
330
A
100
AcDbEntity
  8
0
  6
PHANTOM
 62
     7
100
AcDbCircle
 10
97.57465051933275
 20
-111.1668637165124
 30
0.0
 40
73.23821073249397
100
AcDbArc
 50
9.827121585298714
 51
350.1728784147022
  0
ARC
  5
EC
330
A
100
AcDbEntity
  8
0
  6
PHANTOM
 62
     7
100
AcDbCircle
 10
97.57465051933275
 20
-111.1668637165118
 30
0.0
 40
118.2379550506757
100
AcDbArc
 50
6.068593591041509
 51
353.9314064089593
  0
LINE
  5
ED
330
A
100
AcDbEntity
  8
0
  6
Continuous
 62
     7
100
AcDbLine
 10
272.323577459254
 20
152.0828431572056
 30
0.0
 11
282.3235774592539
 21
152.0828431572056
 31
0.0
  0
LINE
  5
EE
330
A
100
AcDbEntity
  8
0
  6
Continuous
 62
     7
100
AcDbLine
 10
282.3235774592539
 20
262.0828431572056
 30
0.0
 11
272.323577459254
 21
262.0828431572056
 31
0.0
  0
LINE
  5
EF
330
A
100
AcDbEntity
  8
0
  6
Continuous
 62
     7
100
AcDbLine
 10
446.3235774592539
 20
261.5828431572056
 30
0.0
 11
446.3235774592539
 21
263.0828431572056
 31
0.0
  0
LINE
  5
F0
330
A
100
AcDbEntity
  8
0
  6
Continuous
 62
     7
100
AcDbLine
 10
418.3235774592539
 20
263.0828431572056
 30
0.0
 11
418.3235774592539
 21
261.5828431572056
 31
0.0
  0
ARC
  5
F1
330
A
100
AcDbEntity
  8
0
  6
Continuous
 62
     7
100
AcDbCircle
 10
484.8235774592541
 20
281.0828431572056
 30
0.0
 40
42.5000000000002
100
AcDbArc
 50
180.0000000000004
 51
205.0576154183036
  0
ARC
  5
F2
330
A
100
AcDbEntity
  8
0
  6
Continuous
 62
     7
100
AcDbCircle
 10
379.8235774592537
 20
281.0828431572056
 30
0.0
 40
42.50000000000016
100
AcDbArc
 50
334.9423845816979
 51
0.0
  0
LINE
  5
F3
330
A
100
AcDbEntity
  8
0
  6
Continuous
 62
     7
100
AcDbLine
 10
444.5283470591489
 20
261.0828431572056
 30
0.0
 11
444.5283470591489
 21
261.5828431572056
 31
0.0
  0
LINE
  5
F4
330
A
100
AcDbEntity
  8
0
  6
Continuous
 62
     7
100
AcDbLine
 10
420.1188078593589
 20
261.5828431572056
 30
0.0
 11
420.1188078593589
 21
261.0828431572056
 31
0.0
  0
LINE
  5
F5
330
A
100
AcDbEntity
  8
0
  6
Continuous
 62
     7
100
AcDbLine
 10
442.3235774592539
 20
281.0828431572056
 30
0.0
 11
442.3235774592539
 21
322.3413008713308
 31
0.0
  0
LINE
  5
F6
330
A
100
AcDbEntity
  8
0
  6
Continuous
 62
     7
100
AcDbLine
 10
422.3235774592539
 20
322.3413008713308
 30
0.0
 11
422.3235774592539
 21
281.0828431572056
 31
0.0
  0
ARC
  5
F7
330
A
100
AcDbEntity
  8
0
  6
Continuous
 62
     7
100
AcDbCircle
 10
316.023289276834
 20
324.3413008713308
 30
0.0
 40
2.000000000000009
100
AcDbArc
 50
165.6577739696017
 51
255.6577739696091
  0
ARC
  5
F8
330
A
100
AcDbEntity
  8
0
  6
Continuous
 62
     7
100
AcDbCircle
 10
548.6238656416738
 20
324.3413008713308
 30
0.0
 40
2.000000000000051
100
AcDbArc
 50
284.3422260303973
 51
14.34222603040302
  0
LINE
  5
F9
330
A
100
AcDbEntity
  8
0
  6
Continuous
 62
     7
100
AcDbLine
 10
550.5615325099296
 20
324.8367270592371
 30
0.0
 11
505.5617881917479
 21
500.8357270592371
 31
0.0
  0
LINE
  5
FA
330
A
100
AcDbEntity
  8
0
  6
Continuous
 62
     7
100
AcDbLine
 10
359.08536672676
 20
500.8357270592371
 30
0.0
 11
314.0856224085782
 21
324.8367270592371
 31
0.0
  0
ARC
  5
FB
330
A
100
AcDbEntity
  8
0
  6
Continuous
 62
     7
100
AcDbCircle
 10
503.6241213234919
 20
500.3403008713308
 30
0.0
 40
2.000000000000023
100
AcDbArc
 50
14.34222603039331
 51
90.0
  0
ARC
  5
FC
330
A
100
AcDbEntity
  8
0
  6
Continuous
 62
     7
100
AcDbCircle
 10
361.0230335950159
 20
500.3403008713308
 30
0.0
 40
2.0
100
AcDbArc
 50
90.0
 51
165.6577739696027
  0
ARC
  5
FD
330
A
100
AcDbEntity
  8
0
  6
Continuous
 62
     7
100
AcDbCircle
 10
470.3235774592538
 20
502.1168069563207
 30
0.0
 40
2.000000000000006
100
AcDbArc
 50
6.416029825546821
 51
90.0
  0
ARC
  5
FE
330
A
100
AcDbEntity
  8
0
  6
Continuous
 62
     7
100
AcDbCircle
 10
394.3235774592539
 20
502.1168069563207
 30
0.0
 40
2.000000000000006
100
AcDbArc
 50
90.0
 51
173.5839701744532
  0
LINE
  5
FF
330
A
100
AcDbEntity
  8
0
  6
Continuous
 62
     7
100
AcDbLine
 10
272.323577459254
 20
262.0828431572056
 30
0.0
 11
272.323577459254
 21
152.0828431572056
 31
0.0
  0
LINE
  5
100
330
A
100
AcDbEntity
  8
0
  6
Continuous
 62
     7
100
AcDbLine
 10
282.3235774592539
 20
262.0828431572056
 30
0.0
 11
282.3235774592539
 21
261.0828431572056
 31
0.0
  0
LINE
  5
101
330
A
100
AcDbEntity
  8
0
  6
Continuous
 62
     7
100
AcDbLine
 10
282.3235774592539
 20
260.2499530358008
 30
0.0
 11
282.3235774592539
 21
153.9157332786104
 31
0.0
  0
LINE
  5
102
330
A
100
AcDbEntity
  8
0
  6
Continuous
 62
     7
100
AcDbLine
 10
282.3235774592539
 20
153.0828431572056
 30
0.0
 11
282.3235774592539
 21
152.0828431572056
 31
0.0
  0
LINE
  5
103
330
A
100
AcDbEntity
  8
0
  6
Continuous
 62
     7
100
AcDbLine
 10
282.3235774592539
 20
260.2499530358008
 30
0.0
 11
282.3235774592539
 21
261.0828431572056
 31
0.0
  0
LINE
  5
104
330
A
100
AcDbEntity
  8
0
  6
Continuous
 62
     7
100
AcDbLine
 10
449.323577459254
 20
261.0828431572056
 30
0.0
 11
449.323577459254
 21
236.0828431572056
 31
0.0
  0
LINE
  5
105
330
A
100
AcDbEntity
  8
0
  6
Continuous
 62
     7
100
AcDbLine
 10
449.323577459254
 20
236.0828431572056
 30
0.0
 11
305.323577459254
 21
236.0828431572056
 31
0.0
  0
LINE
  5
106
330
A
100
AcDbEntity
  8
0
  6
Continuous
 62
     7
100
AcDbLine
 10
305.323577459254
 20
236.0828431572056
 30
0.0
 11
282.3235774592539
 21
153.0828431572056
 31
0.0
  0
LINE
  5
107
330
A
100
AcDbEntity
  8
0
  6
Continuous
 62
     7
100
AcDbLine
 10
282.3235774592539
 20
261.0828431572056
 30
0.0
 11
449.323577459254
 21
261.0828431572056
 31
0.0
  0
LINE
  5
108
330
A
100
AcDbEntity
  8
0
  6
Continuous
 62
     7
100
AcDbLine
 10
282.3235774592539
 20
153.0828431572056
 30
0.0
 11
282.3235774592539
 21
153.9157332786104
 31
0.0
  0
LINE
  5
109
330
A
100
AcDbEntity
  8
0
  6
Continuous
 62
     7
100
AcDbLine
 10
446.3235774592539
 20
263.0828431572056
 30
0.0
 11
418.3235774592539
 21
263.0828431572056
 31
0.0
  0
LINE
  5
10A
330
A
100
AcDbEntity
  8
0
  6
Continuous
 62
     7
100
AcDbLine
 10
446.3235774592539
 20
261.5828431572056
 30
0.0
 11
418.3235774592539
 21
261.5828431572056
 31
0.0
  0
LINE
  5
10B
330
A
100
AcDbEntity
  8
0
  6
Continuous
 62
     7
100
AcDbLine
 10
549.1192918295801
 20
322.4036340030749
 30
0.0
 11
315.5278630889278
 21
322.4036340030749
 31
0.0
  0
LINE
  5
10C
330
A
100
AcDbEntity
  8
0
  6
Continuous
 62
     7
100
AcDbLine
 10
392.3361040707646
 20
502.3403008713308
 30
0.0
 11
361.5343972313795
 21
502.3403008713308
 31
0.0
  0
LINE
  5
10D
330
A
100
AcDbEntity
  8
0
  6
Continuous
 62
     7
100
AcDbLine
 10
503.1127576871283
 20
502.3403008713308
 30
0.0
 11
472.3110508477432
 21
502.3403008713308
 31
0.0
  0
LINE
  5
10E
330
A
100
AcDbEntity
  8
0
  6
Continuous
 62
     7
100
AcDbLine
 10
361.0230335950159
 20
502.3403008713308
 30
0.0
 11
503.6241213234919
 21
502.3403008713308
 31
0.0
  0
LINE
  5
10F
330
A
100
AcDbEntity
  8
0
  6
Continuous
 62
     7
100
AcDbLine
 10
394.3235774592539
 20
504.1168069563206
 30
0.0
 11
470.3235774320119
 21
504.1168069563206
 31
0.0
  0
LINE
  5
110
330
A
100
AcDbEntity
  8
0
  6
Continuous
 62
     7
100
AcDbLine
 10
446.8235774592539
 20
322.3413008713308
 30
0.0
 11
417.8235774592539
 21
322.3413008713308
 31
0.0
  0
LINE
  5
111
330
A
100
AcDbEntity
  8
0
  6
PHANTOM
 62
     7
100
AcDbLine
 10
442.3235774592539
 20
281.0828431572056
 30
0.0
 11
422.3235774592539
 21
281.0828431572056
 31
0.0
  0
LINE
  5
112
330
A
100
AcDbEntity
  8
0
  6
PHANTOM
 62
     7
100
AcDbLine
 10
314.0856224085782
 20
324.8367270592371
 30
0.0
 11
550.5615325099296
 21
324.8367270592371
 31
0.0
  0
LINE
  5
113
330
A
100
AcDbEntity
  8
0
  6
PHANTOM
 62
     7
100
AcDbLine
 10
505.5617881917479
 20
500.8357270592371
 30
0.0
 11
359.08536672676
 21
500.8357270592371
 31
0.0
  0
ENDSEC
  0
SECTION
  2
OBJECTS
  0
DICTIONARY
  5
19
330
0
100
AcDbDictionary
281
     1
  3
ACAD_COLOR
350
118
  3
ACAD_GROUP
350
1A
  3
ACAD_LAYOUT
350
119
  3
ACAD_MATERIAL
350
117
  3
ACAD_MLINESTYLE
350
1B
  3
ACAD_PLOTSETTINGS
350
11A
  3
ACAD_PLOTSTYLENAME
350
115
  3
ACDBHEADERROUNDTRIPXREC
350
132
  3
AcDbVariableDictionary
350
12B
  3
ASE_INDEX_DICTIONARY
350
120
  0
DICTIONARY
  5
118
102
{ACAD_REACTORS
330
19
102
}
330
19
100
AcDbDictionary
281
     1
  0
DICTIONARY
  5
1A
102
{ACAD_REACTORS
330
19
102
}
330
19
100
AcDbDictionary
281
     1
  0
DICTIONARY
  5
119
102
{ACAD_REACTORS
330
19
102
}
330
19
100
AcDbDictionary
281
     1
  3
Layout1
350
11C
  3
Model
350
11B
  0
DICTIONARY
  5
117
102
{ACAD_REACTORS
330
19
102
}
330
19
100
AcDbDictionary
281
     1
  0
DICTIONARY
  5
1B
102
{ACAD_REACTORS
330
19
102
}
330
19
100
AcDbDictionary
281
     1
  3
STANDARD
350
1C
  0
DICTIONARY
  5
11A
102
{ACAD_REACTORS
330
19
102
}
330
19
100
AcDbDictionary
281
     1
  0
ACDBDICTIONARYWDFLT
  5
115
102
{ACAD_REACTORS
330
19
102
}
330
19
100
AcDbDictionary
281
     1
  3
Normal
350
116
100
AcDbDictionaryWithDefault
340
116
  0
DICTIONARY
  5
132
102
{ACAD_REACTORS
330
19
102
}
330
19
100
AcDbDictionary
281
     1
  3
COLORDICT
350
134
  3
MATERIALDICT
350
133
  0
DICTIONARY
  5
12B
102
{ACAD_REACTORS
330
19
102
}
330
19
100
AcDbDictionary
281
     1
  3
DIMASSOC
350
12C
  3
PROJECTNAME
350
12D
  0
DICTIONARY
  5
120
102
{ACAD_REACTORS
330
19
102
}
330
19
100
AcDbDictionary
281
     1
  3
ASEBlockHierarchyIndexRecord
350
122
1001
DCO15
1040
1522042145.281
  0
LAYOUT
  5
11C
102
{ACAD_XDICTIONARY
360
137
102
}
102
{ACAD_REACTORS
330
119
102
}
330
119
100
AcDbPlotSettings
  1

  2
ProgeSOFT PDF Wizard
  4

  6

 40
0.0
 41
0.0
 42
0.0
 43
0.0
 44
0.0
 45
0.0
 46
0.0
 47
0.0
 48
0.0
 49
0.0
140
0.0
141
0.0
142
1.0
143
1.0
 70
   688
 72
     0
 73
     0
 74
     5
  7

 75
    16
147
1.0
148
0.0
149
0.0
100
AcDbLayout
  1
Layout1
 70
     1
 71
     1
 10
0.0
 20
0.0
 11
12.0
 21
9.0
 12
0.0
 22
0.0
 32
0.0
 14
1.000000000000000E+20
 24
1.000000000000000E+20
 34
1.000000000000000E+20
 15
-1.000000000000000E+20
 25
-1.000000000000000E+20
 35
-1.000000000000000E+20
146
0.0
 13
0.0
 23
0.0
 33
0.0
 16
1.0
 26
0.0
 36
0.0
 17
0.0
 27
1.0
 37
0.0
 76
     0
330
B
  0
LAYOUT
  5
11B
102
{ACAD_XDICTIONARY
360
135
102
}
102
{ACAD_REACTORS
330
119
102
}
330
119
100
AcDbPlotSettings
  1

  2
ProgeSOFT PDF Wizard
  4

  6

 40
0.0
 41
0.0
 42
0.0
 43
0.0
 44
0.0
 45
0.0
 46
0.0
 47
0.0
 48
0.0
 49
0.0
140
0.0
141
0.0
142
1.0
143
1.0
 70
  1712
 72
     0
 73
     0
 74
     0
  7

 75
     0
147
1.0
148
0.0
149
0.0
100
AcDbLayout
  1
Model
 70
     1
 71
     0
 10
0.0
 20
0.0
 11
12.0
 21
9.0
 12
0.0
 22
0.0
 32
0.0
 14
0.0
 24
0.0
 34
0.0
 15
0.0
 25
0.0
 35
0.0
146
0.0
 13
0.0
 23
0.0
 33
0.0
 16
1.0
 26
0.0
 36
0.0
 17
0.0
 27
1.0
 37
0.0
 76
     0
330
A
  0
MLINESTYLE
  5
1C
102
{ACAD_REACTORS
330
1B
102
}
330
1B
100
AcDbMlineStyle
  2
STANDARD
 70
     0
  3

 62
     0
 51
90.0
 52
90.0
 71
     2
 49
0.5
 62
   256
  6
BYLAYER
 49
-0.5
 62
   256
  6
BYLAYER
  0
ACDBPLACEHOLDER
  5
116
102
{ACAD_REACTORS
330
115
102
}
330
115
  0
XRECORD
  5
134
102
{ACAD_REACTORS
330
132
102
}
330
132
100
AcDbXrecord
280
     1
340
118
  0
XRECORD
  5
133
102
{ACAD_REACTORS
330
132
102
}
330
132
100
AcDbXrecord
280
     1
340
117
  0
DICTIONARYVAR
  5
12C
102
{ACAD_REACTORS
330
12B
102
}
330
12B
100
DictionaryVariables
280
     0
  1
1
  0
DICTIONARYVAR
  5
12D
102
{ACAD_REACTORS
330
12B
102
}
330
12B
100
DictionaryVariables
280
     0
  1

  0
XRECORD
  5
122
102
{ACAD_REACTORS
330
120
102
}
330
120
100
AcDbXrecord
280
     1
  0
DICTIONARY
  5
137
330
11C
100
AcDbDictionary
280
     1
281
     1
  3
ACAD_XREC_ROUNDTRIP
360
138
  0
DICTIONARY
  5
135
330
11B
100
AcDbDictionary
280
     1
281
     1
  3
ACAD_XREC_ROUNDTRIP
360
136
  0
XRECORD
  5
138
102
{ACAD_REACTORS
330
137
102
}
330
137
100
AcDbXrecord
280
     1
102
SHADEPLOT
 70
     0
102
SHADEPLOTRESLEVEL
 70
     2
102
SHADEPLOTCUSTOMDPI
 70
   300
  0
XRECORD
  5
136
102
{ACAD_REACTORS
330
135
102
}
330
135
100
AcDbXrecord
280
     1
102
SHADEPLOT
 70
     0
102
SHADEPLOTRESLEVEL
 70
     2
102
SHADEPLOTCUSTOMDPI
 70
   300
  0
ENDSEC
  0
EOF
