  0
SECTION
  2
HEADER
  9
$ACADVER
  1
AC1015
  9
$ACADMAINTVER
 70
    20
  9
$DWGCODEPAGE
  3
ANSI_1252
  9
$INSBASE
 10
0.0
 20
0.0
 30
0.0
  9
$EXTMIN
 10
-37.69399923833396
 20
-142.7409902805558
 30
0.0
  9
$EXTMAX
 10
393.8530062137922
 20
239.0314759016384
 30
0.0
  9
$LIMMIN
 10
0.0
 20
0.0
  9
$LIMMAX
 10
0.0
 20
0.0
  9
$ORTHOMODE
 70
     0
  9
$REGENMODE
 70
     1
  9
$FILLMODE
 70
     1
  9
$QTEXTMODE
 70
     0
  9
$MIRRTEXT
 70
     1
  9
$LTSCALE
 40
1.0
  9
$ATTMODE
 70
     1
  9
$TEXTSIZE
 40
0.0
  9
$TRACEWID
 40
0.05
  9
$TEXTSTYLE
  7
STANDARD
  9
$CLAYER
  8
0
  9
$CELTYPE
  6
CONTINUOUS
  9
$CECOLOR
 62
   256
  9
$CELTSCALE
 40
1.0
  9
$DISPSILH
 70
     0
  9
$DIMSCALE
 40
1.0
  9
$DIMASZ
 40
6.0
  9
$DIMEXO
 40
1.0
  9
$DIMDLI
 40
0.38
  9
$DIMRND
 40
0.0
  9
$DIMDLE
 40
1.0
  9
$DIMEXE
 40
0.18
  9
$DIMTP
 40
0.0
  9
$DIMTM
 40
0.0
  9
$DIMTXT
 40
3.5
  9
$DIMCEN
 40
0.09
  9
$DIMTSZ
 40
0.0
  9
$DIMTOL
 70
     0
  9
$DIMLIM
 70
     0
  9
$DIMTIH
 70
     1
  9
$DIMTOH
 70
     1
  9
$DIMSE1
 70
     0
  9
$DIMSE2
 70
     0
  9
$DIMTAD
 70
     1
  9
$DIMZIN
 70
     0
  9
$DIMBLK
  1

  9
$DIMASO
 70
     1
  9
$DIMSHO
 70
     1
  9
$DIMPOST
  1

  9
$DIMAPOST
  1

  9
$DIMALT
 70
     0
  9
$DIMALTD
 70
     2
  9
$DIMALTF
 40
0.0394
  9
$DIMLFAC
 40
5.0
  9
$DIMTOFL
 70
     0
  9
$DIMTVP
 40
0.0
  9
$DIMTIX
 70
     0
  9
$DIMSOXD
 70
     0
  9
$DIMSAH
 70
     0
  9
$DIMBLK1
  1

  9
$DIMBLK2
  1

  9
$DIMSTYLE
  2
STANDARD
  9
$DIMCLRD
 70
     0
  9
$DIMCLRE
 70
     0
  9
$DIMCLRT
 70
     0
  9
$DIMTFAC
 40
1.0
  9
$DIMGAP
 40
1.0
  9
$DIMJUST
 70
     0
  9
$DIMSD1
 70
     0
  9
$DIMSD2
 70
     0
  9
$DIMTOLJ
 70
     1
  9
$DIMTZIN
 70
     0
  9
$DIMALTZ
 70
     0
  9
$DIMALTTZ
 70
     0
  9
$DIMUPT
 70
     0
  9
$DIMDEC
 70
     4
  9
$DIMTDEC
 70
     4
  9
$DIMALTU
 70
     2
  9
$DIMALTTD
 70
     2
  9
$DIMTXSTY
  7
STANDARD
  9
$DIMAUNIT
 70
     0
  9
$DIMADEC
 70
     0
  9
$DIMALTRND
 40
0.0
  9
$DIMAZIN
 70
     0
  9
$DIMDSEP
 70
    46
  9
$DIMATFIT
 70
     3
  9
$DIMFRAC
 70
     0
  9
$DIMLDRBLK
  1

  9
$DIMLUNIT
 70
     2
  9
$DIMLWD
 70
    -2
  9
$DIMLWE
 70
    -2
  9
$DIMTMOVE
 70
     0
  9
$LUNITS
 70
     2
  9
$LUPREC
 70
     2
  9
$SKETCHINC
 40
0.1
  9
$FILLETRAD
 40
0.0
  9
$AUNITS
 70
     0
  9
$AUPREC
 70
     2
  9
$MENU
  1
acad
  9
$ELEVATION
 40
0.0
  9
$PELEVATION
 40
0.0
  9
$THICKNESS
 40
0.0
  9
$LIMCHECK
 70
     0
  9
$CHAMFERA
 40
0.0
  9
$CHAMFERB
 40
0.0
  9
$CHAMFERC
 40
0.0
  9
$CHAMFERD
 40
0.0
  9
$SKPOLY
 70
     0
  9
$TDCREATE
 40
2444972.041666667
  9
$TDUCREATE
 40
2444972.000000000
  9
$TDUPDATE
 40
2453768.802788079
  9
$TDUUPDATE
 40
2453768.761121412
  9
$TDINDWG
 40
0.0455188542
  9
$TDUSRTIMER
 40
0.0455188542
  9
$USRTIMER
 70
     1
  9
$ANGBASE
 50
0.0
  9
$ANGDIR
 70
     0
  9
$PDMODE
 70
     0
  9
$PDSIZE
 40
-1.0
  9
$PLINEWID
 40
0.0
  9
$SPLFRAME
 70
     0
  9
$SPLINETYPE
 70
     6
  9
$SPLINESEGS
 70
     8
  9
$HANDSEED
  5
453
  9
$SURFTAB1
 70
     6
  9
$SURFTAB2
 70
     6
  9
$SURFTYPE
 70
     6
  9
$SURFU
 70
     6
  9
$SURFV
 70
     6
  9
$UCSBASE
  2

  9
$UCSNAME
  2

  9
$UCSORG
 10
0.0
 20
0.0
 30
0.0
  9
$UCSXDIR
 10
1.0
 20
0.0
 30
0.0
  9
$UCSYDIR
 10
0.0
 20
1.0
 30
0.0
  9
$UCSORTHOREF
  2

  9
$UCSORTHOVIEW
 70
     1
  9
$UCSORGTOP
 10
0.0
 20
0.0
 30
0.0
  9
$UCSORGBOTTOM
 10
0.0
 20
0.0
 30
0.0
  9
$UCSORGLEFT
 10
0.0
 20
0.0
 30
0.0
  9
$UCSORGRIGHT
 10
0.0
 20
0.0
 30
0.0
  9
$UCSORGFRONT
 10
0.0
 20
0.0
 30
0.0
  9
$UCSORGBACK
 10
0.0
 20
0.0
 30
0.0
  9
$PUCSBASE
  2

  9
$PUCSNAME
  2

  9
$PUCSORG
 10
0.0
 20
0.0
 30
0.0
  9
$PUCSXDIR
 10
1.0
 20
0.0
 30
0.0
  9
$PUCSYDIR
 10
0.0
 20
1.0
 30
0.0
  9
$PUCSORTHOREF
  2

  9
$PUCSORTHOVIEW
 70
     0
  9
$PUCSORGTOP
 10
0.0
 20
0.0
 30
0.0
  9
$PUCSORGBOTTOM
 10
0.0
 20
0.0
 30
0.0
  9
$PUCSORGLEFT
 10
0.0
 20
0.0
 30
0.0
  9
$PUCSORGRIGHT
 10
0.0
 20
0.0
 30
0.0
  9
$PUCSORGFRONT
 10
0.0
 20
0.0
 30
0.0
  9
$PUCSORGBACK
 10
0.0
 20
0.0
 30
0.0
  9
$USERI1
 70
     0
  9
$USERI2
 70
     0
  9
$USERI3
 70
     0
  9
$USERI4
 70
     0
  9
$USERI5
 70
     0
  9
$USERR1
 40
0.0
  9
$USERR2
 40
0.0
  9
$USERR3
 40
0.0
  9
$USERR4
 40
0.0
  9
$USERR5
 40
0.0
  9
$WORLDVIEW
 70
     1
  9
$SHADEDGE
 70
     3
  9
$SHADEDIF
 70
    70
  9
$TILEMODE
 70
     1
  9
$MAXACTVP
 70
    16
  9
$PINSBASE
 10
0.0
 20
0.0
 30
0.0
  9
$PLIMCHECK
 70
     0
  9
$PEXTMIN
 10
1.000000000000000E+20
 20
1.000000000000000E+20
 30
1.000000000000000E+20
  9
$PEXTMAX
 10
-1.000000000000000E+20
 20
-1.000000000000000E+20
 30
-1.000000000000000E+20
  9
$PLIMMIN
 10
0.0
 20
0.0
  9
$PLIMMAX
 10
12.0
 20
9.0
  9
$UNITMODE
 70
     0
  9
$VISRETAIN
 70
     0
  9
$PLINEGEN
 70
     1
  9
$PSLTSCALE
 70
     1
  9
$TREEDEPTH
 70
  3020
  9
$CMLSTYLE
  2
STANDARD
  9
$CMLJUST
 70
     0
  9
$CMLSCALE
 40
1.0
  9
$PROXYGRAPHICS
 70
     0
  9
$MEASUREMENT
 70
     0
  9
$CELWEIGHT
370
    -1
  9
$ENDCAPS
280
     0
  9
$JOINSTYLE
280
     0
  9
$LWDISPLAY
290
     0
  9
$INSUNITS
 70
     0
  9
$HYPERLINKBASE
  1

  9
$STYLESHEET
  1

  9
$XEDIT
290
     1
  9
$CEPSNTYPE
380
     0
  9
$PSTYLEMODE
290
     1
  9
$FINGERPRINTGUID
  2
{D03E8A10-F14D-4CF6-901E-B123E0A3E8C8}
  9
$VERSIONGUID
  2
{8005099D-F53C-4171-ADF1-16FBE05F18B6}
  9
$EXTNAMES
290
     1
  9
$PSVPSCALE
 40
0.0
  9
$OLESTARTUP
290
     0
  0
ENDSEC
  0
SECTION
  2
CLASSES
  0
CLASS
  1
IMAGE
  2
AcDbRasterImage
  3
ISM
 90
    32895
280
     0
281
     1
  0
CLASS
  1
DICTIONARYVAR
  2
AcDbDictionaryVar
  3
ObjectDBX Classes
 90
        0
280
     0
281
     0
  0
CLASS
  1
RASTERVARIABLES
  2
AcDbRasterVariables
  3
ISM
 90
    32768
280
     0
281
     0
  0
CLASS
  1
IMAGEDEF
  2
AcDbRasterImageDef
  3
ISM
 90
    32768
280
     0
281
     0
  0
CLASS
  1
IMAGEDEF_REACTOR
  2
AcDbRasterImageDefReactor
  3
ISM
 90
    32769
280
     0
281
     0
  0
CLASS
  1
IDBUFFER
  2
AcDbIdBuffer
  3
ObjectDBX Classes
 90
    32768
280
     0
281
     0
  0
CLASS
  1
SPATIAL_FILTER
  2
AcDbSpatialFilter
  3
ObjectDBX Classes
 90
    32768
280
     0
281
     0
  0
CLASS
  1
SORTENTSTABLE
  2
AcDbSortentsTable
  3
ObjectDBX Classes
 90
    32768
280
     0
281
     0
  0
CLASS
  1
LAYER_INDEX
  2
AcDbLayerIndex
  3
ObjectDBX Classes
 90
    32768
280
     0
281
     0
  0
CLASS
  1
SPATIAL_INDEX
  2
AcDbSpatialIndex
  3
ObjectDBX Classes
 90
    32768
280
     0
281
     0
  0
CLASS
  1
OBJECT_PTR
  2
CAseDLPNTableRecord
  3
ASE-LPNTableRecord
 90
    32769
280
     0
281
     0
  0
CLASS
  1
LAYOUT
  2
AcDbLayout
  3
ObjectDBX Classes
 90
        0
280
     0
281
     0
  0
CLASS
  1
PLOTSETTINGS
  2
AcDbPlotSettings
  3
ObjectDBX Classes
 90
    32768
280
     0
281
     0
  0
CLASS
  1
ACDBDICTIONARYWDFLT
  2
AcDbDictionaryWithDefault
  3
ObjectDBX Classes
 90
        0
280
     0
281
     0
  0
CLASS
  1
ACDBPLACEHOLDER
  2
AcDbPlaceHolder
  3
ObjectDBX Classes
 90
        0
280
     0
281
     0
  0
CLASS
  1
VBA_PROJECT
  2
AcDbVbaProject
  3
acad
 90
    32768
280
     0
281
     0
  0
CLASS
  1
WIPEOUT
  2
AcDbWipeout
  3
"WipeOut|Product Desc: Object Enabler for WipeOut entity^I^I^I^I^I^I|Company: Autodesk, Inc.^I^I^I^I^I^I|WEB Address: www.autodesk.com"
 90
    32895
280
     0
281
     1
  0
CLASS
  1
WIPEOUTVARIABLES
  2
AcDbWipeoutVariables
  3
"WipeOut|Product Desc:     WipeOut Dbx Application|Company:          Autodesk, Inc.|WEB Address:      www.autodesk.com"
 90
    32768
280
     0
281
     0
  0
CLASS
  1
RTEXT
  2
RText
  3
RText|AutoCAD Express Tool|expresstools@autodesk.com
 90
    32768
280
     0
281
     1
  0
CLASS
  1
ARCALIGNEDTEXT
  2
AcDbArcAlignedText
  3
ATEXT|AutoCAD Express Tool|expresstools@autodesk.com
 90
    32768
280
     0
281
     1
  0
ENDSEC
  0
SECTION
  2
TABLES
  0
TABLE
  2
VPORT
  5
7
330
0
100
AcDbSymbolTable
 70
     2
  0
VPORT
  5
44B
330
7
100
AcDbSymbolTableRecord
100
AcDbViewportTableRecord
  2
*Active
 70
     0
 10
0.0
 20
0.0
 11
1.0
 21
1.0
 12
198.7084224643329
 22
48.1452428105413
 13
0.0
 23
0.0
 14
1.0
 24
1.0
 15
0.0
 25
0.0
 16
0.0
 26
0.0
 36
1.0
 17
0.0
 27
0.0
 37
0.0
 40
385.0108259158106
 41
1.569570871261378
 42
50.0
 43
0.0
 44
0.0
 50
0.0
 51
0.0
 71
     0
 72
  2000
 73
     1
 74
     1
 75
     0
 76
     0
 77
     0
 78
     0
281
     0
 65
     1
110
0.0
120
0.0
130
0.0
111
1.0
121
0.0
131
0.0
112
0.0
122
1.0
132
0.0
 79
     1
146
0.0
  0
ENDTAB
  0
TABLE
  2
LTYPE
  5
4
330
0
100
AcDbSymbolTable
 70
     6
  0
LTYPE
  5
11
330
4
100
AcDbSymbolTableRecord
100
AcDbLinetypeTableRecord
  2
BYBLOCK
 70
     0
  3

 72
    65
 73
     0
 40
0.0
  0
LTYPE
  5
12
330
4
100
AcDbSymbolTableRecord
100
AcDbLinetypeTableRecord
  2
BYLAYER
 70
     0
  3

 72
    65
 73
     0
 40
0.0
  0
LTYPE
  5
13
330
4
100
AcDbSymbolTableRecord
100
AcDbLinetypeTableRecord
  2
CONTINUOUS
 70
     0
  3
Solid line
 72
    65
 73
     0
 40
0.0
  0
LTYPE
  5
1E
330
4
100
AcDbSymbolTableRecord
100
AcDbLinetypeTableRecord
  2
HIDDEN
 70
     0
  3
Hidden __ __ __ __ __ __ __ __ __ __ __ __ __ __
 72
    65
 73
     2
 40
1.905
 49
1.27
 74
     0
 49
-0.635
 74
     0
  0
LTYPE
  5
1F
330
4
100
AcDbSymbolTableRecord
100
AcDbLinetypeTableRecord
  2
PHANTOM
 70
     0
  3
Phantom ______  __  __  ______  __  __  ______
 72
    65
 73
     6
 40
12.7
 49
6.349999999999999
 74
     0
 49
-1.27
 74
     0
 49
1.27
 74
     0
 49
-1.27
 74
     0
 49
1.27
 74
     0
 49
-1.27
 74
     0
  0
LTYPE
  5
20
330
4
100
AcDbSymbolTableRecord
100
AcDbLinetypeTableRecord
  2
CENTER
 70
     0
  3
Center ____ _ ____ _ ____ _ ____ _ ____ _ ____
 72
    65
 73
     4
 40
10.16
 49
6.349999999999999
 74
     0
 49
-1.27
 74
     0
 49
1.27
 74
     0
 49
-1.27
 74
     0
  0
LTYPE
  5
21
330
4
100
AcDbSymbolTableRecord
100
AcDbLinetypeTableRecord
  2
CENTERX2
 70
     0
  3
Center (2x) ________  __  ________  __  _____
 72
    65
 73
     4
 40
20.32
 49
12.7
 74
     0
 49
-2.54
 74
     0
 49
2.54
 74
     0
 49
-2.54
 74
     0
  0
LTYPE
  5
22
330
4
100
AcDbSymbolTableRecord
100
AcDbLinetypeTableRecord
  2
DOT2
 70
     0
  3
Dot (.5x) ........................................
 72
    65
 73
     2
 40
0.635
 49
0.0
 74
     0
 49
-0.635
 74
     0
  0
ENDTAB
  0
TABLE
  2
LAYER
  5
2
330
0
100
AcDbSymbolTable
 70
     2
  0
LAYER
  5
14
330
2
100
AcDbSymbolTableRecord
100
AcDbLayerTableRecord
  2
0
 70
     0
 62
     7
  6
CONTINUOUS
370
    -3
390
41A
  0
LAYER
  5
26
330
2
100
AcDbSymbolTableRecord
100
AcDbLayerTableRecord
  2
DEFPOINTS
 70
     0
 62
     7
  6
CONTINUOUS
290
     0
370
    -3
390
41A
  0
ENDTAB
  0
TABLE
  2
STYLE
  5
3
330
0
100
AcDbSymbolTable
 70
     1
  0
STYLE
  5
17
330
3
100
AcDbSymbolTableRecord
100
AcDbTextStyleTableRecord
  2
STANDARD
 70
     0
 40
0.0
 41
1.0
 50
0.0
 71
     0
 42
0.0
  3
Century Gothic
  4

  0
ENDTAB
  0
TABLE
  2
VIEW
  5
5
330
0
100
AcDbSymbolTable
 70
     0
  0
ENDTAB
  0
TABLE
  2
UCS
  5
6
330
0
100
AcDbSymbolTable
 70
     0
  0
ENDTAB
  0
TABLE
  2
APPID
  5
8
330
0
100
AcDbSymbolTable
 70
     2
  0
APPID
  5
16
330
8
100
AcDbSymbolTableRecord
100
AcDbRegAppTableRecord
  2
ACAD
 70
     0
  0
APPID
  5
425
330
8
100
AcDbSymbolTableRecord
100
AcDbRegAppTableRecord
  2
DCO15
 70
     0
  0
ENDTAB
  0
TABLE
  2
DIMSTYLE
  5
9
330
0
100
AcDbSymbolTable
 70
     1
100
AcDbDimStyleTable
 71
     0
  0
DIMSTYLE
105
18
330
9
100
AcDbSymbolTableRecord
100
AcDbDimStyleTableRecord
  2
STANDARD
 70
     0
289
     0
340
17
  0
ENDTAB
  0
TABLE
  2
BLOCK_RECORD
  5
1
330
0
100
AcDbSymbolTable
 70
     0
  0
BLOCK_RECORD
  5
A
330
1
100
AcDbSymbolTableRecord
100
AcDbBlockTableRecord
  2
*MODEL_SPACE
340
41F
  0
BLOCK_RECORD
  5
B
330
1
100
AcDbSymbolTableRecord
100
AcDbBlockTableRecord
  2
*PAPER_SPACE
340
420
  0
ENDTAB
  0
ENDSEC
  0
SECTION
  2
BLOCKS
  0
BLOCK
  5
D
330
A
100
AcDbEntity
  8
0
100
AcDbBlockBegin
  2
*MODEL_SPACE
 70
     0
 10
0.0
 20
0.0
 30
0.0
  3
*MODEL_SPACE
  1

  0
ENDBLK
  5
E
330
A
100
AcDbEntity
  8
0
100
AcDbBlockEnd
  0
BLOCK
  5
F
330
B
100
AcDbEntity
 67
     1
  8
0
100
AcDbBlockBegin
  2
*PAPER_SPACE
 70
     0
 10
0.0
 20
0.0
 30
0.0
  3
*PAPER_SPACE
  1

  0
ENDBLK
  5
10
330
B
100
AcDbEntity
 67
     1
  8
0
100
AcDbBlockEnd
  0
ENDSEC
  0
SECTION
  2
ENTITIES
  0
LWPOLYLINE
  5
27
330
A
100
AcDbEntity
  8
0
  6
Continuous
 62
     7
100
AcDbPolyline
 90
        7
 70
   128
 43
0.0
 10
117.6699777170798
 20
233.4915627637294
 10
117.5754969045302
 20
234.5031793141154
 10
117.2548984214446
 20
235.5394565877852
 10
116.6927968188903
 20
236.5368932863114
 10
115.9029235169074
 20
237.4261036659938
 10
113.8409492596766
 20
238.6566297703304
 10
111.6122980639121
 20
239.0314759016384
  0
LWPOLYLINE
  5
30
330
A
100
AcDbEntity
  8
0
  6
Continuous
 62
     7
100
AcDbPolyline
 90
       30
 70
   128
 43
0.0
 10
116.5345166846892
 20
68.53147408975035
 10
116.5652540549418
 20
77.33014783872038
 10
116.6024212762496
 20
85.53168735516935
 10
116.6407843157432
 20
92.81275234235197
 10
116.6769568845412
 20
99.10046122086912
 10
116.7091471180102
 20
104.3922360898343
 10
116.7405997440001
 20
109.3642171384182
 10
116.7767425104758
 20
114.894835269579
 10
116.8086049183986
 20
119.6412201882687
 10
116.8436263724944
 20
124.7465740801182
 10
116.8819111808917
 20
130.217080927023
 10
116.923541299977
 20
136.0594611526814
 10
116.9671048447272
 20
142.0775111676541
 10
117.0062539204738
 20
147.4185716272679
 10
117.0399640723845
 20
151.9752126098957
 10
117.0674641653678
 20
155.6679364205685
 10
117.0892980918071
 20
158.5860606194821
 10
117.1081331595561
 20
161.0935535193768
 10
117.1291624232909
 20
163.8830061913815
 10
117.1473269387862
 20
166.2852223874417
 10
117.1682332679412
 20
169.0409313799229
 10
117.1954092606685
 20
172.610690808424
 10
117.2291827425143
 20
177.0294625223961
 10
117.2706116959235
 20
182.425281024107
 10
117.3192677125117
 20
188.7311395169583
 10
117.3753594085357
 20
195.9637459279385
 10
117.4391140267035
 20
204.14222589744
 10
117.5107662603042
 20
213.2880948395816
 10
117.5905508026263
 20
223.4252020628539
 10
117.6701155528209
 20
233.4927832619634
  0
LWPOLYLINE
  5
50
330
A
100
AcDbEntity
  8
0
  6
Continuous
 62
     7
100
AcDbPolyline
 90
        6
 70
   128
 43
0.0
 10
119.0480520054481
 20
238.9385822955866
 10
116.9579220041415
 20
238.9333137455744
 10
115.2563062533519
 20
238.916543303558
 10
113.9149670526168
 20
238.8855047086601
 10
112.9038226827762
 20
238.835483460489
 10
112.8269028886935
 20
238.8271865113986
  0
LWPOLYLINE
  5
58
330
A
100
AcDbEntity
  8
0
  6
Continuous
 62
     7
100
AcDbPolyline
 90
       25
 70
   128
 43
0.0
 10
-28.67203158887411
 20
233.6742873215464
 10
-28.83550477775122
 20
227.888358748087
 10
-29.01636762174155
 20
221.7719014645902
 10
-29.1787455752709
 20
216.5000066073027
 10
-29.32029915603186
 20
212.0650950731126
 10
-29.43885279449011
 20
208.4598783315507
 10
-29.53255874665762
 20
205.6779060424653
 10
-29.59667844327475
 20
203.8074713112203
 10
-29.63657630237128
 20
202.656986183056
 10
-29.66778678449179
 20
201.7639931203214
 10
-29.70389974864508
 20
200.7383052171555
 10
-29.74500460179831
 20
199.5802353979435
 10
-29.79120565207983
 20
198.2901487411347
 10
-29.9208681062081
 20
194.7292927564469
 10
-30.08095128091361
 20
190.4434431256142
 10
-30.31365526469733
 20
184.4063009978619
 10
-30.59536916764761
 20
177.3668359876957
 10
-30.92522127183463
 20
169.4612186313954
 10
-31.42104250939871
 20
158.2028400064793
 10
-32.00162155183341
 20
145.8542924286213
 10
-32.67771703752067
 20
132.4436049820271
 10
-33.4616522267678
 20
117.9951187135067
 10
-34.36751616748359
 20
102.526029563078
 10
-35.41145426782157
 20
86.04197762025266
 10
-36.61201102288749
 20
68.53147408975035
  0
LWPOLYLINE
  5
73
330
A
100
AcDbEntity
  8
0
  6
Continuous
 62
     7
100
AcDbPolyline
 90
        6
 70
   128
 43
0.0
 10
-22.58809608968283
 20
239.0314759016384
 10
-24.79479414971854
 20
238.6581716185085
 10
-26.83226717265631
 20
237.4744176543665
 10
-27.62301964314963
 20
236.6215871791703
 10
-28.19877815993811
 20
235.6619618279276
 10
-28.67151749881293
 20
233.6715655313221
  0
LINE
  5
7B
330
A
100
AcDbEntity
  8
0
  6
Continuous
 62
     7
100
AcDbLine
 10
165.5464326068542
 20
68.53147408975035
 30
0.0
 11
166.7101834937713
 21
233.4899809123364
 31
0.0
  0
LWPOLYLINE
  5
7C
330
A
100
AcDbEntity
  8
0
  6
Continuous
 62
     7
100
AcDbPolyline
 90
        7
 70
   128
 43
0.0
 10
166.7091627642295
 20
233.491823068389
 10
166.5668492242477
 20
234.7222780720678
 10
166.1189650222442
 20
235.9073329628793
 10
165.4000883027694
 20
236.9524279986856
 10
164.4845386072776
 20
237.7905473024932
 10
162.4184181019447
 20
238.7786421080002
 10
160.4751874729774
 20
239.0314759016384
  0
LINE
  5
85
330
A
100
AcDbEntity
  8
0
  6
Continuous
 62
     7
100
AcDbLine
 10
62.04742240158532
 20
68.53147408975035
 30
0.0
 11
92.03011589495156
 21
68.53147408975035
 31
0.0
  0
LINE
  5
86
330
A
100
AcDbEntity
  8
0
  6
Continuous
 62
     7
100
AcDbLine
 10
60.40190207210992
 20
234.37969991056
 30
0.0
 11
62.04742240158532
 21
68.53147408975035
 31
0.0
  0
LINE
  5
87
330
A
100
AcDbEntity
  8
0
  6
Continuous
 62
     7
100
AcDbLine
 10
91.85726428774808
 20
234.1561894775716
 30
0.0
 11
92.03011589495156
 21
68.53147408975035
 31
0.0
  0
LINE
  5
88
330
A
100
AcDbEntity
  8
0
  6
Continuous
 62
     7
100
AcDbLine
 10
92.03011589495156
 20
68.53147408975035
 30
0.0
 11
115.4928659125945
 21
68.53147408975035
 31
0.0
  0
LINE
  5
89
330
A
100
AcDbEntity
  8
0
  6
Continuous
 62
     7
100
AcDbLine
 10
9.920619897522673
 20
233.9279581704524
 30
0.0
 11
9.920619897522673
 21
68.53147408975035
 31
0.0
  0
LINE
  5
8A
330
A
100
AcDbEntity
  8
0
  6
Continuous
 62
     7
100
AcDbLine
 10
9.920619897522673
 20
68.53147408975035
 30
0.0
 11
27.05226140467142
 21
68.53147408975035
 31
0.0
  0
LINE
  5
8B
330
A
100
AcDbEntity
  8
0
  6
Continuous
 62
     7
100
AcDbLine
 10
5.029500000157102
 20
68.53147408975035
 30
0.0
 11
9.920619897522673
 21
68.53147408975035
 31
0.0
  0
LINE
  5
8C
330
A
100
AcDbEntity
  8
0
  6
Continuous
 62
     7
100
AcDbLine
 10
-14.86726803334738
 20
68.53147408975035
 30
0.0
 11
5.029500000157102
 21
68.53147408975035
 31
0.0
  0
LINE
  5
8D
330
A
100
AcDbEntity
  8
0
  6
Continuous
 62
     7
100
AcDbLine
 10
27.05226140467142
 20
68.53147408975035
 30
0.0
 11
49.72485872355912
 21
68.53147408975035
 31
0.0
  0
LINE
  5
8E
330
A
100
AcDbEntity
  8
0
  6
Continuous
 62
     7
100
AcDbLine
 10
49.72485872355912
 20
68.53147408975035
 30
0.0
 11
62.04742240158532
 21
68.53147408975035
 31
0.0
  0
LWPOLYLINE
  5
8F
330
A
100
AcDbEntity
  8
0
  6
Continuous
 62
     7
100
AcDbPolyline
 90
        6
 70
   128
 43
0.0
 10
91.85750084368203
 20
234.1637425036517
 10
92.14856895057176
 20
235.6583957937893
 10
92.91791404036496
 20
237.2654632111427
 10
94.24764523653005
 20
238.5491452735643
 10
95.06814415005658
 20
238.909880127094
 10
95.92388803509686
 20
239.0314759016384
  0
LINE
  5
97
330
A
100
AcDbEntity
  8
0
  6
Continuous
 62
     7
100
AcDbLine
 10
95.92388803509686
 20
239.0314759016384
 30
0.0
 11
110.1284851357123
 21
239.0314759016384
 31
0.0
  0
LINE
  5
98
330
A
100
AcDbEntity
  8
0
  6
Continuous
 62
     7
100
AcDbLine
 10
11.21596293894265
 20
239.0314759016384
 30
0.0
 11
22.82808022943948
 21
239.0314759016384
 31
0.0
  0
LINE
  5
99
330
A
100
AcDbEntity
  8
0
  6
Continuous
 62
     7
100
AcDbLine
 10
115.8631932958743
 20
233.5455692285088
 30
0.0
 11
116.4352302476546
 21
68.53147408975035
 31
0.0
  0
LINE
  5
9A
330
A
100
AcDbEntity
  8
0
  6
Continuous
 62
     7
100
AcDbLine
 10
115.4928659125945
 20
68.53147408975035
 30
0.0
 11
116.4352302476546
 21
68.53147408975035
 31
0.0
  0
LINE
  5
9B
330
A
100
AcDbEntity
  8
0
  6
Continuous
 62
     7
100
AcDbLine
 10
7.922534368910535
 20
239.0314759016384
 30
0.0
 11
11.21596293894265
 21
239.0314759016384
 31
0.0
  0
LINE
  5
9C
330
A
100
AcDbEntity
  8
0
  6
Continuous
 62
     7
100
AcDbLine
 10
-14.66572982820059
 20
239.0314759016384
 30
0.0
 11
7.922534368910535
 21
239.0314759016384
 31
0.0
  0
LINE
  5
9D
330
A
100
AcDbEntity
  8
0
  6
Continuous
 62
     7
100
AcDbLine
 10
110.1284851357123
 20
239.0314759016384
 30
0.0
 11
111.0101495906493
 21
239.0314759016384
 31
0.0
  0
LWPOLYLINE
  5
9E
330
A
100
AcDbEntity
  8
0
  6
Continuous
 62
     7
100
AcDbPolyline
 90
        6
 70
   128
 43
0.0
 10
115.8632193729064
 20
233.5456544445244
 10
115.5151207968375
 20
235.5663867113528
 10
115.0632617100856
 20
236.5488875569192
 10
114.4329649433276
 20
237.4256666428757
 10
112.7914343997619
 20
238.6464871727278
 10
111.0101495906493
 20
239.0314759016384
  0
LINE
  5
A6
330
A
100
AcDbEntity
  8
0
  6
Continuous
 62
     7
100
AcDbLine
 10
-26.64180053027655
 20
68.53147408975035
 30
0.0
 11
-14.86726803334738
 21
68.53147408975035
 31
0.0
  0
LINE
  5
A7
330
A
100
AcDbEntity
  8
0
  6
Continuous
 62
     7
100
AcDbLine
 10
63.29203909633372
 20
239.0314759016384
 30
0.0
 11
95.92388803509686
 21
239.0314759016384
 31
0.0
  0
LINE
  5
A8
330
A
100
AcDbEntity
  8
0
  6
Continuous
 62
     7
100
AcDbLine
 10
22.82808022943948
 20
239.0314759016384
 30
0.0
 11
40.41140573469613
 21
239.0314759016384
 31
0.0
  0
LINE
  5
A9
330
A
100
AcDbEntity
  8
0
  6
Continuous
 62
     7
100
AcDbLine
 10
111.0101495906493
 20
239.0314759016384
 30
0.0
 11
111.6640497967383
 21
239.0314759016384
 31
0.0
  0
LINE
  5
AA
330
A
100
AcDbEntity
  8
0
  6
Continuous
 62
     7
100
AcDbLine
 10
116.4352302476546
 20
68.53147408975035
 30
0.0
 11
116.4733585938594
 21
68.53147408975035
 31
0.0
  0
LINE
  5
AB
330
A
100
AcDbEntity
  8
0
  6
Continuous
 62
     7
100
AcDbLine
 10
-20.09446872027899
 20
239.0314759016384
 30
0.0
 11
-14.66572982820059
 21
239.0314759016384
 31
0.0
  0
LINE
  5
AC
330
A
100
AcDbEntity
  8
0
  6
Continuous
 62
     7
100
AcDbLine
 10
118.8651029988906
 20
238.8392983614815
 30
0.0
 11
118.2089191898486
 21
239.0314759016384
 31
0.0
  0
LINE
  5
AD
330
A
100
AcDbEntity
  8
0
  6
Continuous
 62
     7
100
AcDbLine
 10
-36.60464984925773
 20
68.53147408975035
 30
0.0
 11
-26.64180053027655
 21
68.53147408975035
 31
0.0
  0
LINE
  5
AE
330
A
100
AcDbEntity
  8
0
  6
Continuous
 62
     7
100
AcDbLine
 10
-20.09446872027899
 20
239.0314759016384
 30
0.0
 11
-22.64248532804038
 21
239.0314759016384
 31
0.0
  0
LINE
  5
AF
330
A
100
AcDbEntity
  8
0
  6
Continuous
 62
     7
100
AcDbLine
 10
121.8124371990344
 20
233.4730774076072
 30
0.0
 11
118.6316353305957
 21
68.53147408975035
 31
0.0
  0
LINE
  5
B0
330
A
100
AcDbEntity
  8
0
  6
Continuous
 62
     7
100
AcDbLine
 10
116.5345166846892
 20
68.53147408975035
 30
0.0
 11
118.6316353305957
 21
68.53147408975035
 31
0.0
  0
LINE
  5
B1
330
A
100
AcDbEntity
  8
0
  6
Continuous
 62
     7
100
AcDbLine
 10
40.41140573469613
 20
239.0314759016384
 30
0.0
 11
63.29203909633372
 21
239.0314759016384
 31
0.0
  0
LINE
  5
B2
330
A
100
AcDbEntity
  8
0
  6
Continuous
 62
     7
100
AcDbLine
 10
118.2089191898486
 20
239.0314759016384
 30
0.0
 11
122.690052263417
 21
239.0314759016384
 31
0.0
  0
LINE
  5
B3
330
A
100
AcDbEntity
  8
0
  6
Continuous
 62
     7
100
AcDbLine
 10
118.6316353305957
 20
68.53147408975035
 30
0.0
 11
122.0274609550616
 21
68.53147408975035
 31
0.0
  0
LINE
  5
B4
330
A
100
AcDbEntity
  8
0
  6
Continuous
 62
     7
100
AcDbLine
 10
122.690052263417
 20
239.0314759016384
 30
0.0
 11
154.6325837299011
 21
239.0314759016384
 31
0.0
  0
LINE
  5
B5
330
A
100
AcDbEntity
  8
0
  6
Continuous
 62
     7
100
AcDbLine
 10
122.0274609550616
 20
68.53147408975035
 30
0.0
 11
160.5008845254562
 21
68.53147408975035
 31
0.0
  0
LINE
  5
B6
330
A
100
AcDbEntity
  8
0
  6
Continuous
 62
     7
100
AcDbLine
 10
160.5008845254562
 20
68.53147408975035
 30
0.0
 11
165.4312317296646
 21
68.53147408975035
 31
0.0
  0
LINE
  5
B7
330
A
100
AcDbEntity
  8
0
  6
Continuous
 62
     7
100
AcDbLine
 10
154.6325837299011
 20
239.0314759016384
 30
0.0
 11
160.6166888996742
 21
239.0314759016384
 31
0.0
  0
LWPOLYLINE
  5
B8
330
A
100
AcDbEntity
  8
0
  6
PHANTOM
 62
     7
100
AcDbPolyline
 90
        6
 70
   128
 43
0.0
 10
91.85726428774808
 20
234.1561894775716
 10
87.14158507434342
 20
234.2677623876718
 10
81.68178191778872
 20
234.344642600545
 10
75.43298323077772
 20
234.3881707550374
 10
68.35067307481233
 20
234.4000157812026
 10
60.40199613568995
 20
234.3822717578498
  0
LWPOLYLINE
  5
C0
330
A
100
AcDbEntity
  8
0
  6
PHANTOM
 62
     7
100
AcDbPolyline
 90
       10
 70
   128
 43
0.0
 10
113.459066025891
 20
233.6343820118693
 10
110.9083374067924
 20
233.7211430915979
 10
108.1719701215407
 20
233.8065234856096
 10
105.3217654153487
 20
233.8916365900424
 10
102.4313163980624
 20
233.9754938059834
 10
99.55801116672967
 20
234.0544992969719
 10
96.78226942566846
 20
234.1180425049153
 10
93.88391906765912
 20
234.1589061455217
 10
92.84079866854165
 20
234.1642295853582
 10
91.8575716241977
 20
234.1637294651357
  0
LINE
  5
CC
330
A
100
AcDbEntity
  8
0
  6
PHANTOM
 62
     7
100
AcDbLine
 10
113.459066025891
 20
233.6343820118693
 30
0.0
 11
115.4928659125945
 21
68.53147408975035
 31
0.0
  0
LWPOLYLINE
  5
CD
330
A
100
AcDbEntity
  8
0
  6
PHANTOM
 62
     7
100
AcDbPolyline
 90
        5
 70
   128
 43
0.0
 10
26.83705883470987
 20
233.8400711217311
 10
23.13182177392457
 20
233.883867497125
 10
18.94200640169595
 20
233.9184582145301
 10
14.45054309812997
 20
233.9369114400235
 10
9.920623622812971
 20
233.9279726059523
  0
LINE
  5
D4
330
A
100
AcDbEntity
  8
0
  6
PHANTOM
 62
     7
100
AcDbLine
 10
26.83705883470987
 20
233.8400711217311
 30
0.0
 11
27.05226140467142
 21
68.53147408975035
 31
0.0
  0
LINE
  5
D5
330
A
100
AcDbEntity
  8
0
  6
PHANTOM
 62
     7
100
AcDbLine
 10
5.094223193802579
 20
233.8724327185539
 30
0.0
 11
5.029500000157102
 21
68.53147408975035
 31
0.0
  0
LWPOLYLINE
  5
D6
330
A
100
AcDbEntity
  8
0
  6
PHANTOM
 62
     7
100
AcDbPolyline
 90
        3
 70
   128
 43
0.0
 10
9.920619897522673
 20
233.9279581704524
 10
7.439841054358228
 20
233.9051654474226
 10
5.094223193802579
 20
233.8724327185539
  0
LINE
  5
DB
330
A
100
AcDbEntity
  8
0
  6
PHANTOM
 62
     7
100
AcDbLine
 10
-14.94311494382406
 20
233.6415727534679
 30
0.0
 11
-14.86726803334738
 21
68.53147408975035
 31
0.0
  0
LWPOLYLINE
  5
DC
330
A
100
AcDbEntity
  8
0
  6
PHANTOM
 62
     7
100
AcDbPolyline
 90
        5
 70
   128
 43
0.0
 10
5.094223193802579
 20
233.8724327185539
 10
0.3079851194999067
 20
233.8382769287911
 10
-4.660397298655763
 20
233.7703341530052
 10
-9.747944302878632
 20
233.7036621668723
 10
-14.94311494382406
 20
233.6415727534679
  0
LWPOLYLINE
  5
E3
330
A
100
AcDbEntity
  8
0
  6
PHANTOM
 62
     7
100
AcDbPolyline
 90
        4
 70
   128
 43
0.0
 10
45.10934697834466
 20
234.0176417404202
 10
39.39866135267232
 20
233.8489056476739
 10
33.35075499860261
 20
233.8232318782595
 10
26.83705883470987
 20
233.8400711217311
  0
LINE
  5
E9
330
A
100
AcDbEntity
  8
0
  6
PHANTOM
 62
     7
100
AcDbLine
 10
45.10934697834466
 20
234.0176417404202
 30
0.0
 11
49.72485872355912
 21
68.53147408975035
 31
0.0
  0
LWPOLYLINE
  5
EA
330
A
100
AcDbEntity
  8
0
  6
PHANTOM
 62
     7
100
AcDbPolyline
 90
       10
 70
   128
 43
0.0
 10
60.40190579740022
 20
234.3796985135761
 10
59.32936305550549
 20
234.4103599810389
 10
58.21861653027747
 20
234.4309161329058
 10
56.39253417400334
 20
234.4434070312765
 10
54.27770084140513
 20
234.4299470917669
 10
52.17014113811467
 20
234.3894122080294
 10
50.14051543919061
 20
234.3251071782199
 10
48.24597994235967
 20
234.2396685765472
 10
46.55630747226689
 20
234.1367737301973
 10
45.10934697834466
 20
234.0176417404202
  0
LWPOLYLINE
  5
F6
330
A
100
AcDbEntity
  8
0
  6
PHANTOM
 62
     7
100
AcDbPolyline
 90
        6
 70
   128
 43
0.0
 10
113.459066025891
 20
233.6343820118693
 10
113.2075269743583
 20
235.6304577463654
 10
112.8944647535464
 20
236.5964362309662
 10
112.4618318900248
 20
237.4567774734807
 10
111.3419351205012
 20
238.6535849566919
 10
110.1284851357123
 20
239.0314759016384
  0
LWPOLYLINE
  5
FE
330
A
100
AcDbEntity
  8
0
  6
PHANTOM
 62
     7
100
AcDbPolyline
 90
        5
 70
   128
 43
0.0
 10
9.920619897522673
 20
233.9279744685975
 10
10.04319684950326
 20
235.8943861821082
 10
10.34574630109285
 20
237.6142307096508
 10
10.77040331808541
 20
238.6976792097905
 10
11.21596293894265
 20
239.0314759016384
  0
LWPOLYLINE
  5
105
330
A
100
AcDbEntity
  8
0
  6
PHANTOM
 62
     7
100
AcDbPolyline
 90
        5
 70
   128
 43
0.0
 10
26.83705883470987
 20
233.8400711217311
 10
26.49321454016183
 20
235.777818821871
 10
25.58652731029008
 20
237.5281790648934
 10
24.25980614868616
 20
238.6699584370128
 10
22.82808022943948
 20
239.0314759016384
  0
LINE
  5
10C
330
A
100
AcDbEntity
  8
0
  6
PHANTOM
 62
     7
100
AcDbLine
 10
115.863189570584
 20
233.5456544445244
 30
0.0
 11
113.459066025891
 21
233.6343820118693
 31
0.0
  0
LWPOLYLINE
  5
10D
330
A
100
AcDbEntity
  8
0
  6
PHANTOM
 62
     7
100
AcDbPolyline
 90
        5
 70
   128
 43
0.0
 10
5.094223193802579
 20
233.8724327185539
 10
5.341239742912992
 20
235.8008299400446
 10
5.98187046495889
 20
237.5392971937892
 10
6.915566049494489
 20
238.6725152376222
 10
7.922534368910535
 20
239.0314759016384
  0
LWPOLYLINE
  5
114
330
A
100
AcDbEntity
  8
0
  6
PHANTOM
 62
     7
100
AcDbPolyline
 90
        6
 70
   128
 43
0.0
 10
-14.94311494382406
 20
233.6415727534679
 10
-14.92206705363775
 20
235.6356421863076
 10
-14.89596766980673
 20
236.6002830588606
 10
-14.85993666204001
 20
237.4592955368918
 10
-14.7667149976113
 20
238.6541610088081
 10
-14.66572982820059
 20
239.0314759016384
  0
LINE
  5
11C
330
A
100
AcDbEntity
  8
0
  6
PHANTOM
 62
     7
100
AcDbLine
 10
-25.59757185729529
 20
233.5929935709921
 30
0.0
 11
-26.64180053027655
 21
68.53147408975035
 31
0.0
  0
LWPOLYLINE
  5
11D
330
A
100
AcDbEntity
  8
0
  6
PHANTOM
 62
     7
100
AcDbPolyline
 90
        5
 70
   128
 43
0.0
 10
-14.94311494382406
 20
233.6415727534679
 10
-18.19562119992758
 20
233.612851230928
 10
-21.22665149720694
 20
233.6039566346792
 10
-23.77777499707724
 20
233.6013796651152
 10
-25.59755695613409
 20
233.5929931053308
  0
LWPOLYLINE
  5
124
330
A
100
AcDbEntity
  8
0
  6
PHANTOM
 62
     7
100
AcDbPolyline
 90
        5
 70
   128
 43
0.0
 10
60.40199986098025
 20
234.3822703608659
 10
60.70959335563395
 20
236.1146774986175
 10
61.39204232392524
 20
237.7130114385274
 10
62.31106073034618
 20
238.7127664317724
 10
63.29203909633372
 20
239.0314759016384
  0
LWPOLYLINE
  5
12B
330
A
100
AcDbEntity
  8
0
  6
PHANTOM
 62
     7
100
AcDbPolyline
 90
        5
 70
   128
 43
0.0
 10
45.10934697834466
 20
234.0176417404202
 10
44.66662975398515
 20
235.9035168686298
 10
43.59560134259675
 20
237.5888095032771
 10
42.06140013781999
 20
238.6839248704839
 10
40.41140573469613
 20
239.0314759016384
  0
LWPOLYLINE
  5
132
330
A
100
AcDbEntity
  8
0
  6
PHANTOM
 62
     7
100
AcDbPolyline
 90
        4
 70
   128
 43
0.0
 10
117.6092890128276
 20
233.4932885044602
 10
117.6545214876315
 20
233.4928815164951
 10
117.1211903020522
 20
233.5109654725877
 10
115.8632193729064
 20
233.545574350783
  0
LWPOLYLINE
  5
138
330
A
100
AcDbEntity
  8
0
  6
PHANTOM
 62
     7
100
AcDbPolyline
 90
        7
 70
   128
 43
0.0
 10
-25.59752715381171
 20
233.5929926396695
 10
-25.49579692634131
 20
234.5866942690101
 10
-25.19386959823157
 20
235.6005692766395
 10
-24.67929524930502
 20
236.5742449094889
 10
-23.96447909625555
 20
237.4422438354579
 10
-22.1078912690499
 20
238.650253361184
 10
-20.09446872027899
 20
239.0314759016384
  0
LWPOLYLINE
  5
141
330
A
100
AcDbEntity
  8
0
  6
PHANTOM
 62
     7
100
AcDbPolyline
 90
        4
 70
   128
 43
0.0
 10
121.8124260231635
 20
233.4730778732684
 10
119.9930203184268
 20
233.474791972467
 10
118.3926318809173
 20
233.4796939888385
 10
117.6700447723052
 20
233.4839110174564
  0
LWPOLYLINE
  5
147
330
A
100
AcDbEntity
  8
0
  6
PHANTOM
 62
     7
100
AcDbPolyline
 90
        7
 70
   128
 43
0.0
 10
121.8124260231635
 20
233.4730895148006
 10
121.5711762234351
 20
235.513520651066
 10
121.2394316717765
 20
236.509529166424
 10
120.7713675722262
 20
237.3998570167807
 10
120.1928560659072
 20
238.1235688720246
 10
119.5436012968204
 20
238.6405851487418
 10
118.8651029988906
 20
238.8392983614815
  0
LWPOLYLINE
  5
150
330
A
100
AcDbEntity
  8
0
  6
PHANTOM
 62
     7
100
AcDbPolyline
 90
        5
 70
   128
 43
0.0
 10
-25.59752715381171
 20
233.5929907770244
 10
-27.13687670978095
 20
233.599735880771
 10
-28.15237594398047
 20
233.6219013580469
 10
-28.63398892434622
 20
233.65649859471
 10
-28.60710722955252
 20
233.672372522333
  0
LINE
  5
157
330
A
100
AcDbEntity
  8
0
  6
PHANTOM
 62
     7
100
AcDbLine
 10
125.2540764435909
 20
233.4746858016935
 30
0.0
 11
121.8124521001956
 21
233.4730918431071
 31
0.0
  0
LWPOLYLINE
  5
158
330
A
100
AcDbEntity
  8
0
  6
PHANTOM
 62
     7
100
AcDbPolyline
 90
        7
 70
   128
 43
0.0
 10
125.2540764435909
 20
233.4746858016935
 10
125.0817109867713
 20
235.5146885295746
 10
124.8455387577197
 20
236.5104018156764
 10
124.5125238820693
 20
237.4004328069625
 10
124.1010432168624
 20
238.1238892469903
 10
123.639293484368
 20
238.6407217184662
 10
122.690052263417
 20
239.0314759016384
  0
LINE
  5
161
330
A
100
AcDbEntity
  8
0
  6
PHANTOM
 62
     7
100
AcDbLine
 10
125.2540764435909
 20
233.4746858016935
 30
0.0
 11
122.0274609550616
 21
68.53147408975035
 31
0.0
  0
LWPOLYLINE
  5
162
330
A
100
AcDbEntity
  8
0
  6
PHANTOM
 62
     7
100
AcDbPolyline
 90
        3
 70
   128
 43
0.0
 10
156.8380375429771
 20
233.4282616996554
 10
140.8956204578063
 20
233.4895795123068
 10
125.2540764435909
 20
233.4746858016935
  0
LWPOLYLINE
  5
167
330
A
100
AcDbEntity
  8
0
  6
PHANTOM
 62
     7
100
AcDbPolyline
 90
        7
 70
   128
 43
0.0
 10
156.8380375429771
 20
233.4282616996554
 10
156.6952322646758
 20
235.4808037546811
 10
156.493343882241
 20
236.4851720542994
 10
156.2069212123535
 20
237.383898571634
 10
155.8519084974906
 20
238.1148065235813
 10
155.4529522582672
 20
238.6369567523709
 10
154.6325837299011
 20
239.0314759016384
  0
LINE
  5
170
330
A
100
AcDbEntity
  8
0
  6
PHANTOM
 62
     7
100
AcDbLine
 10
156.8380375429771
 20
233.4282616996554
 30
0.0
 11
160.5008845254562
 21
68.53147408975035
 31
0.0
  0
LWPOLYLINE
  5
171
330
A
100
AcDbEntity
  8
0
  6
PHANTOM
 62
     7
100
AcDbPolyline
 90
        6
 70
   128
 43
0.0
 10
166.5787552520416
 20
233.490899196395
 10
166.5326585098884
 20
233.4918137551633
 10
165.395327381768
 20
233.4834528067497
 10
163.2762481495521
 20
233.4647779264835
 10
160.3459124490402
 20
233.4421221078721
 10
156.8380375429771
 20
233.4282616996554
  0
LINE
  5
179
330
A
100
AcDbEntity
  8
0
  6
Continuous
 62
     7
100
AcDbLine
 10
-20.08139295133139
 20
-46.2318568149683
 30
0.0
 11
-19.87392408402945
 21
-47.03609576766406
 31
0.0
  0
LINE
  5
17A
330
A
100
AcDbEntity
  8
0
  6
Continuous
 62
     7
100
AcDbLine
 10
115.4790972396514
 20
-104.0047512048957
 30
0.0
 11
115.2596664652011
 21
-102.752606629776
 31
0.0
  0
LINE
  5
17B
330
A
100
AcDbEntity
  8
0
  6
Continuous
 62
     7
100
AcDbLine
 10
160.8771313950202
 20
-42.83740768526766
 30
0.0
 11
160.8771313950202
 21
-35.83740746920083
 31
0.0
  0
LINE
  5
17C
330
A
100
AcDbEntity
  8
0
  6
Continuous
 62
     7
100
AcDbLine
 10
160.8771313950202
 20
-42.83740768526766
 30
0.0
 11
151.913397483506
 21
-42.83740768526766
 31
0.0
  0
LINE
  5
17D
330
A
100
AcDbEntity
  8
0
  6
Continuous
 62
     7
100
AcDbLine
 10
-15.18723321708227
 20
-42.83740768526766
 30
0.0
 11
-22.12286693604971
 21
-42.83740768526766
 31
0.0
  0
LINE
  5
17E
330
A
100
AcDbEntity
  8
0
  6
Continuous
 62
     7
100
AcDbLine
 10
160.8771313950202
 20
-35.83740746920083
 30
0.0
 11
-22.12286693604971
 21
-35.83740746920083
 31
0.0
  0
LINE
  5
17F
330
A
100
AcDbEntity
  8
0
  6
Continuous
 62
     7
100
AcDbLine
 10
-22.12286693604971
 20
-42.83740768526766
 30
0.0
 11
-22.12286693604971
 21
-35.83740746920083
 31
0.0
  0
LINE
  5
180
330
A
100
AcDbEntity
  8
0
  6
Continuous
 62
     7
100
AcDbLine
 10
151.9033988043449
 20
-42.83740768526766
 30
0.0
 11
-15.1772345379212
 21
-42.83740768526766
 31
0.0
  0
LWPOLYLINE
  5
181
330
A
100
AcDbEntity
  8
0
  6
Continuous
 62
     7
100
AcDbPolyline
 90
        6
 70
   128
 43
0.0
 10
91.85750084368203
 20
-116.040575563359
 10
92.14856895057176
 20
-115.7489523882148
 10
92.91791404036496
 20
-114.9792403573272
 10
94.24764523653005
 20
-113.6502355927703
 10
95.06814415005658
 20
-112.82981491034
 10
95.92388803509686
 20
-111.9731099004027
  0
LWPOLYLINE
  5
189
330
A
100
AcDbEntity
  8
0
  6
Continuous
 62
     7
100
AcDbPolyline
 90
        3
 70
   128
 43
0.0
 10
-20.11270774158026
 20
-46.24729628061028
 10
-20.67435485871817
 20
-45.10838004146786
 10
-22.12291909011389
 20
-42.8374458694932
  0
LINE
  5
18E
330
A
100
AcDbEntity
  8
0
  6
Continuous
 62
     7
100
AcDbLine
 10
-17.97927124055411
 20
-42.83740768526766
 30
0.0
 11
-15.1772345379212
 21
-42.83740768526766
 31
0.0
  0
LWPOLYLINE
  5
18F
330
A
100
AcDbEntity
  8
0
  6
Continuous
 62
     7
100
AcDbPolyline
 90
        3
 70
   128
 43
0.0
 10
156.8380375429771
 20
-67.55214860980482
 10
140.8956204578063
 20
-73.63373717610807
 10
125.2540764435909
 20
-80.12738382761449
  0
LWPOLYLINE
  5
194
330
A
100
AcDbEntity
  8
0
  6
Continuous
 62
     7
100
AcDbPolyline
 90
        9
 70
   128
 43
0.0
 10
161.0891823693893
 20
-42.83741373886438
 10
163.7566466852806
 20
-45.55282300655814
 10
165.6515230461738
 20
-48.82830871586771
 10
166.612647943177
 20
-52.48158170227976
 10
166.5326585098884
 20
-56.26465497856112
 10
165.395327381768
 20
-59.90858493690462
 10
163.2762481495521
 20
-63.14922428076239
 10
160.3459124490402
 20
-65.75126132314176
 10
156.8380375429771
 20
-67.55214860980482
  0
LINE
  5
19F
330
A
100
AcDbEntity
  8
0
  6
Continuous
 62
     7
100
AcDbLine
 10
151.9033988043449
 20
-42.83740768526766
 30
0.0
 11
161.0891898199699
 21
-42.83740768526764
 31
0.0
  0
LWPOLYLINE
  5
1A0
330
A
100
AcDbEntity
  8
0
  6
Continuous
 62
     7
100
AcDbPolyline
 90
        5
 70
   128
 43
0.0
 10
116.4968763515136
 20
-105.9898540968177
 10
117.43233027307
 20
-108.2767129534957
 10
117.6545214876315
 20
-110.7412607068297
 10
117.1211903020522
 20
-113.1855652326819
 10
116.3195972367904
 20
-114.5932332271811
  0
LWPOLYLINE
  5
1A7
330
A
100
AcDbEntity
  8
0
  6
Continuous
 62
     7
100
AcDbPolyline
 90
        6
 70
   128
 43
0.0
 10
115.8632193729064
 20
-115.3946623796698
 10
115.5151207968375
 20
-115.1657656425711
 10
115.0632617100856
 20
-114.8604930037734
 10
114.4329649433276
 20
-114.4326359624145
 10
112.7914343997619
 20
-113.3151904339072
 10
111.0101495906493
 20
-112.1016324156997
  0
LINE
  5
1AF
330
A
100
AcDbEntity
  8
0
  6
Continuous
 62
     7
100
AcDbLine
 10
125.2540764435909
 20
-80.12738382761449
 30
0.0
 11
121.8124521001956
 21
-82.06374874656171
 31
0.0
  0
LWPOLYLINE
  5
1B0
330
A
100
AcDbEntity
  8
0
  6
Continuous
 62
     7
100
AcDbPolyline
 90
        7
 70
   128
 43
0.0
 10
121.8124260231635
 20
-82.06371521894903
 10
119.9930203184268
 20
-83.50930666868658
 10
118.3926318809173
 20
-85.13073554580182
 10
117.0124863311431
 20
-86.9206704789874
 10
115.3897424265525
 20
-89.8796611124751
 10
114.3649187907359
 20
-93.051328569102
 10
114.1747948750636
 20
-94.60451385323972
  0
LINE
  5
1B9
330
A
100
AcDbEntity
  8
0
  6
Continuous
 62
     7
100
AcDbLine
 10
115.5408327504775
 20
-103.9754555219886
 30
0.0
 11
116.4968763515136
 21
-105.9898540968177
 31
0.0
  0
LWPOLYLINE
  5
1BA
330
A
100
AcDbEntity
  8
0
  6
Continuous
 62
     7
100
AcDbPolyline
 90
        6
 70
   128
 43
0.0
 10
49.72485872355912
 20
-115.8717901105156
 10
52.17846529928658
 20
-116.6975007051697
 10
54.88829454777453
 20
-118.2949573392144
 10
57.39018926767323
 20
-120.3927800649872
 10
59.75346127895329
 20
-122.8241876358262
 10
62.04742240158532
 20
-125.4223839039078
  0
LINE
  5
1C2
330
A
100
AcDbEntity
  8
0
  6
Continuous
 62
     7
100
AcDbLine
 10
60.40190207210992
 20
-94.32469612305135
 30
0.0
 11
62.04742240158532
 21
-125.4223839039078
 31
0.0
  0
LWPOLYLINE
  5
1C3
330
A
100
AcDbEntity
  8
0
  6
Continuous
 62
     7
100
AcDbPolyline
 90
       10
 70
   128
 43
0.0
 10
92.03011589495156
 20
-142.7409902805558
 10
95.10492207852815
 20
-142.3398733729592
 10
98.04835776237462
 20
-141.2374854678384
 10
100.8455646261355
 20
-139.572057187008
 10
104.2729471847197
 20
-136.7606551045647
 10
107.3886868580958
 20
-133.5294798607102
 10
110.1533738001964
 20
-130.1382661456338
 10
112.5055556222579
 20
-126.6408667558899
 10
114.2189581915519
 20
-123.3966753477326
 10
115.4928659125945
 20
-120.0728372329941
  0
LINE
  5
1CF
330
A
100
AcDbEntity
  8
0
  6
Continuous
 62
     7
100
AcDbLine
 10
91.85726428774808
 20
-116.0414100283858
 30
0.0
 11
92.03011589495156
 21
-142.7409902805558
 31
0.0
  0
LWPOLYLINE
  5
1D0
330
A
100
AcDbEntity
  8
0
  6
Continuous
 62
     7
100
AcDbPolyline
 90
        8
 70
   128
 43
0.0
 10
62.04742240158532
 20
-125.4223839039078
 10
67.64238630791817
 20
-130.313935934948
 10
73.4683973751745
 20
-134.8865882152787
 10
79.7549304589412
 20
-138.8227820986977
 10
83.14260421691153
 20
-140.4529691333047
 10
86.72874654082272
 20
-141.8001011604539
 10
90.44079343227361
 20
-142.6430971020928
 10
92.03011589495156
 20
-142.7409902805558
  0
LWPOLYLINE
  5
1DA
330
A
100
AcDbEntity
  8
0
  6
Continuous
 62
     7
100
AcDbPolyline
 90
       10
 70
   128
 43
0.0
 10
-19.94627667220617
 20
-47.02324724142466
 10
-20.23369771989371
 20
-48.64181975220357
 10
-21.42097754033591
 20
-50.61056675707017
 10
-23.81791872533347
 20
-53.22676083390628
 10
-26.52766508611227
 20
-55.80050615911399
 10
-29.07057804616476
 20
-58.3176997149459
 10
-32.23357302697684
 20
-61.84741413538371
 10
-34.77992070468451
 20
-65.41934168283853
 10
-36.60091710837867
 20
-69.13105329816254
 10
-37.58785081656959
 20
-73.08012178485306
  0
LINE
  5
1E6
330
A
100
AcDbEntity
  8
0
  6
Continuous
 62
     7
100
AcDbLine
 10
-37.58785081656959
 20
-73.08012178485306
 30
0.0
 11
-22.23999751361395
 21
-73.08012178485364
 31
0.0
  0
LWPOLYLINE
  5
1E7
330
A
100
AcDbEntity
  8
0
  6
Continuous
 62
     7
100
AcDbPolyline
 90
        5
 70
   128
 43
0.0
 10
9.920619897522673
 20
-132.3070705527535
 10
13.75637995449517
 20
-132.7239081854096
 10
17.83119934050058
 20
-132.2185651058427
 10
22.60829555241083
 20
-130.6377009147874
 10
27.05226140467142
 20
-128.1979561442605
  0
LINE
  5
1EE
330
A
100
AcDbEntity
  8
0
  6
Continuous
 62
     7
100
AcDbLine
 10
9.920619897522673
 20
-119.8397607201812
 30
0.0
 11
9.920619897522673
 21
-132.3070705527535
 31
0.0
  0
LWPOLYLINE
  5
1EF
330
A
100
AcDbEntity
  8
0
  6
Continuous
 62
     7
100
AcDbPolyline
 90
        4
 70
   128
 43
0.0
 10
115.260888360419
 20
-102.7523905629387
 10
114.9037708565375
 20
-100.7274643177262
 10
114.2717679068229
 20
-96.07329150979431
 10
114.2205898687026
 20
-94.23042020146759
  0
LWPOLYLINE
  5
1F5
330
A
100
AcDbEntity
  8
0
  6
Continuous
 62
     7
100
AcDbPolyline
 90
        8
 70
   128
 43
0.0
 10
-37.69399923833396
 20
-74.14731687252434
 10
-37.4994198754647
 20
-79.32529529874237
 10
-36.57866967471625
 20
-84.48019927685173
 10
-35.16790968926932
 20
-89.49800512139709
 10
-33.3681474402764
 20
-94.40044990126999
 10
-31.28007752450491
 20
-99.2095947856179
 10
-29.00440198930289
 20
-103.9475083941689
 10
-26.64180053027655
 20
-108.636233269619
  0
LWPOLYLINE
  5
1FF
330
A
100
AcDbEntity
  8
0
  6
Continuous
 62
     7
100
AcDbPolyline
 90
        8
 70
   128
 43
0.0
 10
27.05226140467142
 20
-128.1979561442605
 10
30.43326782433008
 20
-125.513601362156
 10
33.40451838819002
 20
-122.6025477642289
 10
36.33272694794153
 20
-119.8145926589242
 10
39.59173756090616
 20
-117.5018504852524
 10
42.78471367804025
 20
-116.195018648552
 10
46.29471199957345
 20
-115.6097457403412
 10
49.72485872355912
 20
-115.8717901105156
  0
LWPOLYLINE
  5
209
330
A
100
AcDbEntity
  8
0
  6
Continuous
 62
     7
100
AcDbPolyline
 90
        6
 70
   128
 43
0.0
 10
-26.64180053027655
 20
-108.636233269619
 10
-24.8627061918595
 20
-111.0734224910012
 10
-22.45922339709784
 20
-112.9471988076439
 10
-19.60005564244772
 20
-114.4337908024064
 10
-16.45387662204291
 20
-115.7094345087281
 10
-14.86726803334738
 20
-116.3076118225327
  0
LINE
  5
211
330
A
100
AcDbEntity
  8
0
  6
Continuous
 62
     7
100
AcDbLine
 10
116.4352302476546
 20
-115.3946400279274
 30
0.0
 11
116.4587740823409
 21
-113.9627576464882
 31
0.0
  0
LINE
  5
212
330
A
100
AcDbEntity
  8
0
  6
Continuous
 62
     7
100
AcDbLine
 10
115.8631932958743
 20
-115.394640027928
 30
0.0
 11
116.4352302476546
 21
-115.3946400279274
 31
0.0
  0
LWPOLYLINE
  5
213
330
A
100
AcDbEntity
  8
0
  6
Continuous
 62
     7
100
AcDbPolyline
 90
        4
 70
   128
 43
0.0
 10
5.029500000157102
 20
-130.0010860556832
 10
5.714618138947233
 20
-130.4491937751046
 10
7.749073676743253
 20
-131.5451592797509
 10
9.920619897522673
 20
-132.3070705527535
  0
LWPOLYLINE
  5
219
330
A
100
AcDbEntity
  8
0
  6
Continuous
 62
     7
100
AcDbPolyline
 90
        3
 70
   128
 43
0.0
 10
-37.58785081656959
 20
-73.08012178485306
 10
-37.68624318393256
 20
-74.04073259179504
 10
-37.69399923833396
 20
-74.14731687252434
  0
LWPOLYLINE
  5
21E
330
A
100
AcDbEntity
  8
0
  6
Continuous
 62
     7
100
AcDbPolyline
 90
        7
 70
   128
 43
0.0
 10
-14.86726803334738
 20
-116.3076118225327
 10
-11.0575999096253
 20
-117.8334311241379
 10
-7.468342311702028
 20
-119.7111487979165
 10
-4.243820436320558
 20
-122.0585808748475
 10
-1.092165239177003
 20
-124.8268291944733
 10
1.942322127499327
 20
-127.5764585131875
 10
5.029500000157102
 20
-130.0010860556832
  0
LINE
  5
227
330
A
100
AcDbEntity
  8
0
  6
Continuous
 62
     7
100
AcDbLine
 10
115.4928659125945
 20
-120.0728372329941
 30
0.0
 11
116.4352302476546
 21
-115.3946400279274
 31
0.0
  0
LWPOLYLINE
  5
228
330
A
100
AcDbEntity
  8
0
  6
PHANTOM
 62
     7
100
AcDbPolyline
 90
        8
 70
   128
 43
0.0
 10
154.6325837299011
 20
-62.34524330441926
 10
157.4864392205856
 20
-60.72143769209359
 10
159.5709403082511
 20
-58.28529713993047
 10
160.6166888996742
 20
-55.32328902130101
 10
160.4926218315742
 20
-52.20600335245107
 10
159.2380409166
 20
-49.31774573718283
 10
157.0289884730956
 20
-46.96524912809107
 10
151.9033988043449
 20
-42.83740768526766
  0
LWPOLYLINE
  5
232
330
A
100
AcDbEntity
  8
0
  6
PHANTOM
 62
     7
100
AcDbPolyline
 90
        5
 70
   128
 43
0.0
 10
122.690052263417
 20
-75.06479626839134
 10
129.534926734843
 20
-72.13076135461304
 10
137.1403043195388
 20
-69.03282111828301
 10
145.5061887427947
 20
-65.77098300998184
 10
154.6325837299011
 20
-62.34524330441926
  0
LINE
  5
239
330
A
100
AcDbEntity
  8
0
  6
PHANTOM
 62
     7
100
AcDbLine
 10
118.2089191898486
 20
-77.58658683245156
 30
0.0
 11
122.690052263417
 21
-75.06479626839134
 31
0.0
  0
LWPOLYLINE
  5
23A
330
A
100
AcDbEntity
  8
0
  6
PHANTOM
 62
     7
100
AcDbPolyline
 90
        9
 70
   128
 43
0.0
 10
111.2426822110793
 20
-108.6938262576339
 10
109.3612019940993
 20
-104.731585144448
 10
108.2590562328479
 20
-100.5342335099456
 10
107.9585743173739
 20
-96.21249070708726
 10
108.4889401718757
 20
-91.91864287798379
 10
109.8268856331489
 20
-87.77302434985612
 10
111.9424072131297
 20
-83.9264162475345
 10
114.7639532610557
 20
-80.4888301188228
 10
118.2089191898486
 20
-77.58658683245156
  0
LWPOLYLINE
  5
245
330
A
100
AcDbEntity
  8
0
  6
PHANTOM
 62
     7
100
AcDbPolyline
 90
        5
 70
   128
 43
0.0
 10
111.0101495906493
 20
-112.1016324156997
 10
111.4706513508937
 20
-111.3050163382766
 10
111.6640497967383
 20
-110.4278445834395
 10
111.5886797234199
 20
-109.5348552459952
 10
111.2426822110793
 20
-108.6938262576339
  0
LINE
  5
24C
330
A
100
AcDbEntity
  8
0
  6
PHANTOM
 62
     7
100
AcDbLine
 10
110.1284851357123
 20
-112.9008040422675
 30
0.0
 11
111.0101495906493
 21
-112.1016324156997
 31
0.0
  0
LWPOLYLINE
  5
24D
330
A
100
AcDbEntity
  8
0
  6
PHANTOM
 62
     7
100
AcDbPolyline
 90
        6
 70
   128
 43
0.0
 10
95.92388803509686
 20
-111.9731099004027
 10
97.44240763036225
 20
-113.0649030799148
 10
99.14274374393437
 20
-113.8973489994285
 10
102.8540362640998
 20
-114.7087693804976
 10
106.6512842699668
 20
-114.3633381122825
 10
110.1284851357123
 20
-112.9008040422675
  0
LWPOLYLINE
  5
255
330
A
100
AcDbEntity
  8
0
  6
PHANTOM
 62
     7
100
AcDbPolyline
 90
        4
 70
   128
 43
0.0
 10
63.29203909633372
 20
-89.49375829045747
 10
74.6437790840647
 20
-95.99763831441377
 10
85.5210614427707
 20
-103.4907580012557
 10
95.92388803509686
 20
-111.9731099004027
  0
LWPOLYLINE
  5
25B
330
A
100
AcDbEntity
  8
0
  6
PHANTOM
 62
     7
100
AcDbPolyline
 90
        9
 70
   128
 43
0.0
 10
40.41140573469613
 20
-93.71247073953126
 10
42.58565465358708
 20
-91.55220842306588
 10
45.13271199909661
 20
-89.78956124131654
 10
47.97190288452123
 20
-88.4713523680446
 10
51.01841362563584
 20
-87.64677053635095
 10
54.1623826175711
 20
-87.33431926314805
 10
57.32047325370524
 20
-87.54764056150888
 10
60.39430899915908
 20
-88.27202698533509
 10
63.29203909633372
 20
-89.49375829045747
  0
LWPOLYLINE
  5
266
330
A
100
AcDbEntity
  8
0
  6
PHANTOM
 62
     7
100
AcDbPolyline
 90
        5
 70
   128
 43
0.0
 10
22.82808022943948
 20
-111.4949465388534
 10
27.37011807409738
 20
-107.4655905956504
 10
32.00422274319147
 20
-102.9361144298789
 10
36.38391243664239
 20
-98.30393573586915
 10
40.41140573469613
 20
-93.71247073953126
  0
LWPOLYLINE
  5
26D
330
A
100
AcDbEntity
  8
0
  6
PHANTOM
 62
     7
100
AcDbPolyline
 90
        5
 70
   128
 43
0.0
 10
11.21596293894265
 20
-114.3867403859374
 10
14.30517854539369
 20
-114.67247760241
 10
17.3937198743007
 20
-114.2523244613883
 10
20.28584527222131
 20
-113.179075776982
 10
22.82808022943948
 20
-111.4949465388534
  0
LINE
  5
274
330
A
100
AcDbEntity
  8
0
  6
PHANTOM
 62
     7
100
AcDbLine
 10
7.922534368910535
 20
-113.2441267961738
 30
0.0
 11
11.21596293894265
 21
-114.3867403859374
 31
0.0
  0
LWPOLYLINE
  5
275
330
A
100
AcDbEntity
  8
0
  6
PHANTOM
 62
     7
100
AcDbPolyline
 90
        5
 70
   128
 43
0.0
 10
-14.66572982820059
 20
-107.341955661225
 10
-8.826642759166016
 20
-107.9022020692107
 10
-3.115571565947786
 20
-109.0726435775039
 10
2.467491202034696
 20
-110.8532876366851
 10
7.922534368910535
 20
-113.2441267961738
  0
LWPOLYLINE
  5
27C
330
A
100
AcDbEntity
  8
0
  6
PHANTOM
 62
     7
100
AcDbPolyline
 90
        5
 70
   128
 43
0.0
 10
-20.09446872027899
 20
-103.9306849831817
 10
-19.19554872067953
 20
-105.2931801075217
 10
-17.90360314401175
 20
-106.3629344696281
 10
-16.36733067782904
 20
-107.058572828221
 10
-14.66572982820059
 20
-107.341955661225
  0
LWPOLYLINE
  5
283
330
A
100
AcDbEntity
  8
0
  6
PHANTOM
 62
     7
100
AcDbPolyline
 90
        9
 70
   128
 43
0.0
 10
-17.79132289441611
 20
-76.96676930730316
 10
-19.64085502179648
 20
-80.02085170094941
 10
-21.07398165019537
 20
-83.29559794013475
 10
-22.05699635299231
 20
-86.69222822730516
 10
-22.58123410495306
 20
-90.18119355981324
 10
-22.64248532804038
 20
-93.69997611587022
 10
-22.23833603414084
 20
-97.20747104232286
 10
-21.3866005614617
 20
-100.6246016020057
 10
-20.09446872027899
 20
-103.9306849831817
  0
LINE
  5
28E
330
A
100
AcDbEntity
  8
0
  6
PHANTOM
 62
     7
100
AcDbLine
 10
-17.12442142518545
 20
-75.97821509783241
 30
0.0
 11
-17.79132289441611
 21
-76.96676930730316
 31
0.0
  0
LWPOLYLINE
  5
28F
330
A
100
AcDbEntity
  8
0
  6
PHANTOM
 62
     7
100
AcDbPolyline
 90
        9
 70
   128
 43
0.0
 10
-15.1772345379212
 20
-42.83740768526766
 10
-13.39270872624899
 20
-46.78159417902205
 10
-12.19933433087851
 20
-51.01605343018744
 10
-11.62011129411246
 20
-55.29393932168458
 10
-11.62010384353186
 20
-59.65102954153989
 10
-12.18085689099814
 20
-63.91388668065046
 10
-13.29590333255316
 20
-68.09130987470124
 10
-14.95031965526129
 20
-72.13392412607643
 10
-17.12442142518545
 20
-75.97821509783241
  0
LWPOLYLINE
  5
29A
330
A
100
AcDbEntity
  8
0
  6
PHANTOM
 62
     7
100
AcDbPolyline
 90
        4
 70
   128
 43
0.0
 10
45.10934697834466
 20
-97.16051003282041
 10
39.39866135267232
 20
-103.5979569548842
 10
33.35075499860261
 20
-109.7655326718566
 10
26.83705883470987
 20
-115.6495616430518
  0
LWPOLYLINE
  5
2A0
330
A
100
AcDbEntity
  8
0
  6
PHANTOM
 62
     7
100
AcDbPolyline
 90
        5
 70
   128
 43
0.0
 10
26.83705883470987
 20
-115.6495616430518
 10
26.49321454016183
 20
-115.2932301754233
 10
25.58652731029008
 20
-114.3536002034423
 10
24.25980614868616
 20
-112.9786849612472
 10
22.82808022943948
 20
-111.4949465388534
  0
LWPOLYLINE
  5
2A7
330
A
100
AcDbEntity
  8
0
  6
PHANTOM
 62
     7
100
AcDbPolyline
 90
        5
 70
   128
 43
0.0
 10
45.10934697834466
 20
-97.16051003282041
 10
44.66662975398515
 20
-96.83557903711768
 10
43.59560134259675
 20
-96.04950180594896
 10
42.06140013781999
 20
-94.92347693388436
 10
40.41140573469613
 20
-93.71247073953126
  0
LWPOLYLINE
  5
2AE
330
A
100
AcDbEntity
  8
0
  6
PHANTOM
 62
     7
100
AcDbPolyline
 90
        3
 70
   128
 43
0.0
 10
9.920619897522673
 20
-119.8397607201812
 10
7.439841054358228
 20
-119.1567510957
 10
5.094223193802579
 20
-118.1707040066001
  0
LWPOLYLINE
  5
2B3
330
A
100
AcDbEntity
  8
0
  6
PHANTOM
 62
     7
100
AcDbPolyline
 90
        5
 70
   128
 43
0.0
 10
5.094223193802579
 20
-118.1707040066001
 10
5.341239742912992
 20
-117.7404329771277
 10
5.98187046495889
 20
-116.6245371693847
 10
6.915566049494489
 20
-114.9981424803016
 10
7.922534368910535
 20
-113.2441267961738
  0
LWPOLYLINE
  5
2BA
330
A
100
AcDbEntity
  8
0
  6
PHANTOM
 62
     7
100
AcDbPolyline
 90
        5
 70
   128
 43
0.0
 10
9.920619897522673
 20
-119.8397532696006
 10
10.04319684950326
 20
-119.3237111562964
 10
10.34574630109285
 20
-118.0500418538329
 10
10.77040331808541
 20
-116.26238679831
 10
11.21596293894265
 20
-114.3867403859374
  0
LWPOLYLINE
  5
2C1
330
A
100
AcDbEntity
  8
0
  6
PHANTOM
 62
     7
100
AcDbPolyline
 90
        6
 70
   128
 43
0.0
 10
91.85726428774808
 20
-116.0414100283858
 10
87.14158507434342
 20
-112.0055348271605
 10
81.68178191778872
 20
-107.7095375055548
 10
75.43298323077772
 20
-103.2557219857451
 10
68.35067307481233
 20
-98.75197267477483
 10
60.40199613568995
 20
-94.32427889053792
  0
LWPOLYLINE
  5
2C9
330
A
100
AcDbEntity
  8
0
  6
PHANTOM
 62
     7
100
AcDbPolyline
 90
        5
 70
   128
 43
0.0
 10
60.40199986098025
 20
-94.32427143995733
 10
60.70959335563395
 20
-93.81033039038154
 10
61.39204232392524
 20
-92.66999295299028
 10
62.31106073034618
 20
-91.134137719321
 10
63.29203909633372
 20
-89.49375829045747
  0
LWPOLYLINE
  5
2D0
330
A
100
AcDbEntity
  8
0
  6
PHANTOM
 62
     7
100
AcDbPolyline
 90
        5
 70
   128
 43
0.0
 10
26.83705883470987
 20
-115.6495616430518
 10
23.13182177392457
 20
-118.0902302855727
 10
18.94200640169595
 20
-119.648303150582
 10
14.45054309812997
 20
-120.2503920192
 10
9.920623622812971
 20
-119.8397309178588
  0
LWPOLYLINE
  5
2D7
330
A
100
AcDbEntity
  8
0
  6
PHANTOM
 62
     7
100
AcDbPolyline
 90
       10
 70
   128
 43
0.0
 10
113.459066025891
 20
-117.5576255316016
 10
110.9083374067924
 20
-118.874329387593
 10
108.1719701215407
 20
-119.7732642883536
 10
105.3217654153487
 20
-120.2456683511016
 10
102.4313163980624
 20
-120.2765957111594
 10
99.55801116672967
 20
-119.8671043509719
 10
96.78226942566846
 20
-119.0111816519973
 10
93.88391906765912
 20
-117.5378740424392
 10
92.84079866854165
 20
-116.8248534793135
 10
91.8575716241977
 20
-116.0404936069724
  0
LWPOLYLINE
  5
2E3
330
A
100
AcDbEntity
  8
0
  6
PHANTOM
 62
     7
100
AcDbPolyline
 90
        6
 70
   128
 43
0.0
 10
113.459066025891
 20
-117.5576255316016
 10
113.2075269743583
 20
-117.2059208745238
 10
112.8944647535464
 20
-116.7681992644546
 10
112.4618318900248
 20
-116.1632940763709
 10
111.3419351205012
 20
-114.597450255799
 10
110.1284851357123
 20
-112.9008040422675
  0
LINE
  5
2EB
330
A
100
AcDbEntity
  8
0
  6
PHANTOM
 62
     7
100
AcDbLine
 10
-22.80460996182944
 20
-73.91383430306882
 30
0.0
 11
-22.23999751361395
 21
-73.08012178485364
 31
0.0
  0
LWPOLYLINE
  5
2EC
330
A
100
AcDbEntity
  8
0
  6
PHANTOM
 62
     7
100
AcDbPolyline
 90
        5
 70
   128
 43
0.0
 10
-22.24003476651694
 20
-73.08008825724096
 10
-21.77949202807929
 20
-73.34195753877136
 10
-20.61776769908453
 20
-74.0001865321872
 10
-18.93606735023047
 20
-74.95241916124794
 10
-17.12442142518545
 20
-75.97821509783241
  0
LWPOLYLINE
  5
2F3
330
A
100
AcDbEntity
  8
0
  6
PHANTOM
 62
     7
100
AcDbPolyline
 90
        5
 70
   128
 43
0.0
 10
-22.80460996182944
 20
-73.91383430306882
 10
-22.35852880033041
 20
-74.18548247163268
 10
-21.22122002395178
 20
-74.87806981747124
 10
-19.57045448573614
 20
-75.88333567922089
 10
-17.79132289441611
 20
-76.96676930730316
  0
LWPOLYLINE
  5
2FA
330
A
100
AcDbEntity
  8
0
  6
PHANTOM
 62
     7
100
AcDbPolyline
 90
       10
 70
   128
 43
0.0
 10
-22.24003476651694
 20
-73.08008825724096
 10
-20.84742439540411
 20
-70.71712544505567
 10
-19.68651217969443
 20
-68.25033879225225
 10
-18.76725954564596
 20
-65.69771027510137
 10
-17.8659330085137
 20
-61.78914686982603
 10
-17.53947091849829
 20
-57.78914062623949
 10
-17.79697043450857
 20
-53.7747324103591
 10
-18.64202273639227
 20
-49.88438008670779
 10
-19.52704740317846
 20
-47.4348908880827
 10
-20.11270774158026
 20
-46.24729628061028
  0
LWPOLYLINE
  5
306
330
A
100
AcDbEntity
  8
0
  6
PHANTOM
 62
     7
100
AcDbPolyline
 90
        7
 70
   128
 43
0.0
 10
125.2540764435909
 20
-80.12738382761449
 10
125.0817109867713
 20
-79.7870599323985
 10
124.8455387577197
 20
-79.32074299399825
 10
124.5125238820693
 20
-78.66321435515853
 10
124.1010432168624
 20
-77.85075461809609
 10
123.639293484368
 20
-76.93904569690201
 10
122.690052263417
 20
-75.06479626839134
  0
LWPOLYLINE
  5
30F
330
A
100
AcDbEntity
  8
0
  6
PHANTOM
 62
     7
100
AcDbPolyline
 90
        7
 70
   128
 43
0.0
 10
156.8380375429771
 20
-67.55214860980482
 10
156.6952322646758
 20
-67.21499866192312
 10
156.493343882241
 20
-66.73834963088008
 10
156.2069212123535
 20
-66.06212189738723
 10
155.8519084974906
 20
-65.22397814636204
 10
155.4529522582672
 20
-64.28207760994408
 10
154.6325837299011
 20
-62.34524330441926
  0
LWPOLYLINE
  5
318
330
A
100
AcDbEntity
  8
0
  6
PHANTOM
 62
     7
100
AcDbPolyline
 90
       10
 70
   128
 43
0.0
 10
60.40190579740022
 20
-94.32468867247076
 10
59.32936305550549
 20
-93.81929716412992
 10
58.21861653027747
 20
-93.41907432620496
 10
56.39253417400334
 20
-93.00181201045484
 10
54.27770084140513
 20
-92.85903653447599
 10
52.17014113811467
 20
-93.07277506535024
 10
50.14051543919061
 20
-93.6321125025031
 10
48.24597994235967
 20
-94.52209553067655
 10
46.55630747226689
 20
-95.70605984275312
 10
45.10934697834466
 20
-97.16051003282041
  0
LINE
  5
324
330
A
100
AcDbEntity
  8
0
  6
PHANTOM
 62
     7
100
AcDbLine
 10
116.3195972367904
 20
-114.5932332271811
 30
0.0
 11
115.8632193729064
 21
-115.3946623796698
 31
0.0
  0
LWPOLYLINE
  5
325
330
A
100
AcDbEntity
  8
0
  6
PHANTOM
 62
     7
100
AcDbPolyline
 90
        7
 70
   128
 43
0.0
 10
116.4968763515136
 20
-105.9898540968177
 10
116.4110382124564
 20
-106.0340285891768
 10
116.1312689110419
 20
-106.1780036086318
 10
115.6444703265807
 20
-106.4285293812033
 10
114.962015770354
 20
-106.7797422999618
 10
113.1790620311877
 20
-107.6973036522147
 10
111.2426822110793
 20
-108.6938262576339
  0
LWPOLYLINE
  5
32E
330
A
100
AcDbEntity
  8
0
  6
PHANTOM
 62
     7
100
AcDbPolyline
 90
        7
 70
   128
 43
0.0
 10
121.8124260231635
 20
-82.06371521894903
 10
121.5711762234351
 20
-81.76264470760793
 10
121.2394316717765
 20
-81.35026997272941
 10
120.7713675722262
 20
-80.76880803649398
 10
120.1928560659072
 20
-80.05034109895204
 10
119.5436012968204
 20
-79.24408769552681
 10
118.2089191898486
 20
-77.58658683245156
  0
LINE
  5
337
330
A
100
AcDbEntity
  8
0
  6
PHANTOM
 62
     7
100
AcDbLine
 10
115.863189570584
 20
-115.394640027928
 30
0.0
 11
113.459066025891
 21
-117.5576255316016
 31
0.0
  0
LWPOLYLINE
  5
338
330
A
100
AcDbEntity
  8
0
  6
PHANTOM
 62
     7
100
AcDbPolyline
 90
        9
 70
   128
 43
0.0
 10
-25.59752715381171
 20
-106.1611876482245
 10
-27.13687670978095
 20
-102.2192121142623
 10
-28.15237594398047
 20
-98.14749216978521
 10
-28.63398892434622
 20
-93.95218944494695
 10
-28.56051129849936
 20
-89.74890714828939
 10
-27.9350350573876
 20
-85.5948657387969
 10
-26.75203187020804
 20
-81.50698175971479
 10
-25.04415763171698
 20
-77.60714670960874
 10
-22.80460996182944
 20
-73.91383430306882
  0
LWPOLYLINE
  5
343
330
A
100
AcDbEntity
  8
0
  6
PHANTOM
 62
     7
100
AcDbPolyline
 90
        7
 70
   128
 43
0.0
 10
-25.59752715381171
 20
-106.1611876482245
 10
-25.49579692634131
 20
-106.1195240015265
 10
-25.19386959823157
 20
-105.9968501919982
 10
-24.67929524930502
 20
-105.7881370777366
 10
-23.96447909625555
 20
-105.4984138006446
 10
-22.1078912690499
 20
-104.7462404364821
 10
-20.09446872027899
 20
-103.9306849831817
  0
LWPOLYLINE
  5
34C
330
A
100
AcDbEntity
  8
0
  6
PHANTOM
 62
     7
100
AcDbPolyline
 90
        5
 70
   128
 43
0.0
 10
5.094223193802579
 20
-118.1707040066001
 10
0.3079851194999067
 20
-116.0715029234168
 10
-4.660397298655763
 20
-114.4790009254691
 10
-9.747944302878632
 20
-113.4315461510894
 10
-14.94311494382406
 20
-112.9348457450148
  0
LWPOLYLINE
  5
353
330
A
100
AcDbEntity
  8
0
  6
PHANTOM
 62
     7
100
AcDbPolyline
 90
        6
 70
   128
 43
0.0
 10
-14.94311494382406
 20
-112.9348457450148
 10
-14.92206705363775
 20
-112.5104010695693
 10
-14.89596766980673
 20
-111.9842261666534
 10
-14.85993666204001
 20
-111.2577275032279
 10
-14.7667149976113
 20
-109.3781993383643
 10
-14.66572982820059
 20
-107.341955661225
  0
LWPOLYLINE
  5
35B
330
A
100
AcDbEntity
  8
0
  6
PHANTOM
 62
     7
100
AcDbPolyline
 90
        5
 70
   128
 43
0.0
 10
-14.94311494382406
 20
-112.9348457450148
 10
-18.19562119992758
 20
-112.3873621815917
 10
-21.22665149720694
 20
-111.0250309700248
 10
-23.77777499707724
 20
-108.9006692761657
 10
-25.59755695613409
 20
-106.1612025493857
  0
LWPOLYLINE
  5
362
330
A
100
AcDbEntity
  8
0
  6
PHANTOM
 62
     7
100
AcDbPolyline
 90
        5
 70
   128
 43
0.0
 10
114.1747948750636
 20
-94.60451385323972
 10
113.9597375914237
 20
-96.36138683502645
 10
114.1891633197448
 20
-99.68213295881719
 10
115.0436517819545
 20
-102.9278815383193
 10
115.5408327504775
 20
-103.9754555219886
  0
LINE
  5
369
330
A
100
AcDbEntity
  8
0
  6
PHANTOM
 62
     7
100
AcDbLine
 10
45.10934697834466
 20
-97.16051003282041
 30
0.0
 11
49.72485872355912
 21
-115.8717901105156
 31
0.0
  0
LINE
  5
36A
330
A
100
AcDbEntity
  8
0
  6
PHANTOM
 62
     7
100
AcDbLine
 10
113.459066025891
 20
-117.5576255316016
 30
0.0
 11
115.4928659125945
 21
-120.0728372329941
 31
0.0
  0
LINE
  5
36B
330
A
100
AcDbEntity
  8
0
  6
PHANTOM
 62
     7
100
AcDbLine
 10
26.83705883470987
 20
-115.6495616430518
 30
0.0
 11
27.05226140467142
 21
-128.1979561442605
 31
0.0
  0
LINE
  5
36C
330
A
100
AcDbEntity
  8
0
  6
PHANTOM
 62
     7
100
AcDbLine
 10
-22.80460996182944
 20
-73.91383430306882
 30
0.0
 11
-37.69399923833396
 21
-74.14731687252434
 31
0.0
  0
LINE
  5
36D
330
A
100
AcDbEntity
  8
0
  6
PHANTOM
 62
     7
100
AcDbLine
 10
-25.59757185729529
 20
-106.1612099999663
 30
0.0
 11
-26.64180053027655
 21
-108.636233269619
 31
0.0
  0
LINE
  5
36E
330
A
100
AcDbEntity
  8
0
  6
PHANTOM
 62
     7
100
AcDbLine
 10
-14.94311494382406
 20
-112.9348457450148
 30
0.0
 11
-14.86726803334738
 21
-116.3076118225327
 31
0.0
  0
LINE
  5
36F
330
A
100
AcDbEntity
  8
0
  6
PHANTOM
 62
     7
100
AcDbLine
 10
5.094223193802579
 20
-118.1707040066001
 30
0.0
 11
5.029500000157102
 21
-130.0010860556832
 31
0.0
  0
LWPOLYLINE
  5
370
330
A
100
AcDbEntity
  8
0
  6
Continuous
 62
     7
100
AcDbPolyline
 90
        5
 70
   128
 43
0.0
 10
371.6017131506287
 20
233.8924999260691
 10
371.1917598544442
 20
235.5741250706253
 10
370.1345597206437
 20
237.1531865704221
 10
368.5351659356438
 20
238.3377661229226
 10
366.6765366493546
 20
238.9457185548146
  0
LINE
  5
377
330
A
100
AcDbEntity
  8
0
  6
Continuous
 62
     7
100
AcDbLine
 10
384.0678606926285
 20
68.53147408975035
 30
0.0
 11
371.5982560812317
 21
233.9388108724144
 31
0.0
  0
LWPOLYLINE
  5
378
330
A
100
AcDbEntity
  8
0
  6
Continuous
 62
     7
100
AcDbPolyline
 90
        3
 70
   128
 43
0.0
 10
393.4169609843573
 20
68.53147408975035
 10
393.7818233667692
 20
69.24845836175352
 10
393.8530062137922
 20
69.96703705800443
  0
LWPOLYLINE
  5
37D
330
A
100
AcDbEntity
  8
0
  6
Continuous
 62
     7
100
AcDbPolyline
 90
        5
 70
   128
 43
0.0
 10
371.6639925538381
 20
233.8966070586232
 10
371.1642448602994
 20
235.8221285888341
 10
369.8878635464986
 20
237.5513882055295
 10
368.0383612214407
 20
238.6756658145807
 10
366.0479013620695
 20
239.0314759016384
  0
LWPOLYLINE
  5
384
330
A
100
AcDbEntity
  8
0
  6
Continuous
 62
     7
100
AcDbPolyline
 90
       27
 70
   128
 43
0.0
 10
388.3437563477834
 20
104.142388320097
 10
385.2841679750761
 20
123.9886414171543
 10
384.5193584262212
 20
129.016248500475
 10
383.7523807584127
 20
134.0894531370488
 10
383.057919591554
 20
138.7133579613057
 10
382.4875627456983
 20
142.5349768163052
 10
382.0399989186605
 20
145.5510016442624
 10
381.6701520978292
 20
148.0561625124302
 10
381.2159349023183
 20
151.1417906643238
 10
380.6640629469236
 20
154.884895300993
 10
380.0316502152761
 20
159.2439021827069
 10
379.4401188193639
 20
163.4250637055722
 10
378.8023789225896
 20
168.0527608753529
 10
378.1333540378889
 20
173.0324011207905
 10
377.5589440761884
 20
177.3949917317715
 10
377.1078114210447
 20
180.8817479671326
 10
376.7766703664144
 20
183.4799628616658
 10
376.5142609177908
 20
185.5679694475022
 10
376.2319211660703
 20
187.8526303829041
 10
375.8999530969938
 20
190.5923541547146
 10
375.5195935069402
 20
193.8048284412709
 10
374.9965701996168
 20
198.3624417246666
 10
374.3906442819914
 20
203.8906235159722
 10
373.7164188920339
 20
210.4275189251986
 10
372.9933474956831
 20
217.9933953942147
 10
372.269262820371
 20
226.2832811014143
 10
371.6636945306142
 20
233.9453771622268
  0
LINE
  5
3A1
330
A
100
AcDbEntity
  8
0
  6
Continuous
 62
     7
100
AcDbLine
 10
294.1808386518443
 20
238.5314758778897
 30
0.0
 11
287.1808384357775
 21
238.5314758778897
 31
0.0
  0
LINE
  5
3A2
330
A
100
AcDbEntity
  8
0
  6
Continuous
 62
     7
100
AcDbLine
 10
294.1808386518443
 20
238.5314758778897
 30
0.0
 11
294.1808386518443
 21
68.53147408975035
 31
0.0
  0
LINE
  5
3A3
330
A
100
AcDbEntity
  8
0
  6
Continuous
 62
     7
100
AcDbLine
 10
294.1808386518443
 20
68.53147408975035
 30
0.0
 11
287.1808384357775
 21
68.53147408975035
 31
0.0
  0
LINE
  5
3A4
330
A
100
AcDbEntity
  8
0
  6
Continuous
 62
     7
100
AcDbLine
 10
287.1808384357775
 20
238.5314758778897
 30
0.0
 11
287.1808384357775
 21
68.53147408975035
 31
0.0
  0
LINE
  5
3A5
330
A
100
AcDbEntity
  8
0
  6
Continuous
 62
     7
100
AcDbLine
 10
325.4907478391017
 20
68.53147408975035
 30
0.0
 11
359.9796642361964
 21
68.53147408975035
 31
0.0
  0
LINE
  5
3A6
330
A
100
AcDbEntity
  8
0
  6
Continuous
 62
     7
100
AcDbLine
 10
324.4235527514304
 20
68.53147408975035
 30
0.0
 11
324.4235527514303
 21
233.9302785606471
 31
0.0
  0
LINE
  5
3A7
330
A
100
AcDbEntity
  8
0
  6
Continuous
 62
     7
100
AcDbLine
 10
324.4235527514304
 20
68.53147408975035
 30
0.0
 11
325.4907478391017
 21
68.53147408975035
 31
0.0
  0
LINE
  5
3A8
330
A
100
AcDbEntity
  8
0
  6
Continuous
 62
     7
100
AcDbLine
 10
294.1808386518443
 20
233.5314759896484
 30
0.0
 11
294.1808386518443
 21
68.53147408975035
 31
0.0
  0
LINE
  5
3A9
330
A
100
AcDbEntity
  8
0
  6
Continuous
 62
     7
100
AcDbLine
 10
294.1808386518443
 20
68.53147408975035
 30
0.0
 11
324.4235527514304
 21
68.53147408975035
 31
0.0
  0
LINE
  5
3AA
330
A
100
AcDbEntity
  8
0
  6
Continuous
 62
     7
100
AcDbLine
 10
328.3102002738798
 20
239.0314759016384
 30
0.0
 11
355.2741159497583
 21
239.0314759016384
 31
0.0
  0
LINE
  5
3AB
330
A
100
AcDbEntity
  8
0
  6
Continuous
 62
     7
100
AcDbLine
 10
359.9796642361964
 20
68.53147408975035
 30
0.0
 11
367.65104278911
 21
68.53147408975035
 31
0.0
  0
LINE
  5
3AC
330
A
100
AcDbEntity
  8
0
  6
Continuous
 62
     7
100
AcDbLine
 10
355.2741159497583
 20
239.0314759016384
 30
0.0
 11
358.6853866278017
 21
239.0314759016384
 31
0.0
  0
LINE
  5
3AD
330
A
100
AcDbEntity
  8
0
  6
Continuous
 62
     7
100
AcDbLine
 10
327.321646064409
 20
239.0314759016384
 30
0.0
 11
328.3102002738798
 21
239.0314759016384
 31
0.0
  0
LINE
  5
3AE
330
A
100
AcDbEntity
  8
0
  6
Continuous
 62
     7
100
AcDbLine
 10
294.1808386518443
 20
238.5314758778897
 30
0.0
 11
294.1808386518443
 21
239.0314759016384
 31
0.0
  0
LINE
  5
3AF
330
A
100
AcDbEntity
  8
0
  6
Continuous
 62
     7
100
AcDbLine
 10
294.1808386518443
 20
239.0314759016384
 30
0.0
 11
327.321646064409
 21
239.0314759016384
 31
0.0
  0
LINE
  5
3B0
330
A
100
AcDbEntity
  8
0
  6
Continuous
 62
     7
100
AcDbLine
 10
367.65104278911
 20
68.53147408975035
 30
0.0
 11
381.3445170222604
 21
68.53147408975035
 31
0.0
  0
LINE
  5
3B1
330
A
100
AcDbEntity
  8
0
  6
Continuous
 62
     7
100
AcDbLine
 10
358.6853866278017
 20
239.0314759016384
 30
0.0
 11
364.5875577627503
 21
239.0314759016384
 31
0.0
  0
LINE
  5
3B2
330
A
100
AcDbEntity
  8
0
  6
Continuous
 62
     7
100
AcDbLine
 10
371.1831916867577
 20
233.9279581704524
 30
0.0
 11
383.6505015193306
 21
68.53147408975035
 31
0.0
  0
LINE
  5
3B3
330
A
100
AcDbEntity
  8
0
  6
Continuous
 62
     7
100
AcDbLine
 10
381.3445170222604
 20
68.53147408975035
 30
0.0
 11
383.6505015193306
 21
68.53147408975035
 31
0.0
  0
LINE
  5
3B4
330
A
100
AcDbEntity
  8
0
  6
Continuous
 62
     7
100
AcDbLine
 10
366.8572579323136
 20
238.8308956490711
 30
0.0
 11
365.7301713525139
 21
239.0314759016384
 31
0.0
  0
LINE
  5
3B5
330
A
100
AcDbEntity
  8
0
  6
Continuous
 62
     7
100
AcDbLine
 10
364.5875577627503
 20
239.0314759016384
 30
0.0
 11
365.7301713525139
 21
239.0314759016384
 31
0.0
  0
LINE
  5
3B6
330
A
100
AcDbEntity
  8
0
  6
Continuous
 62
     7
100
AcDbLine
 10
383.6505015193306
 20
68.53147408975035
 30
0.0
 11
384.063785225042
 21
68.53147408975035
 31
0.0
  0
LINE
  5
3B7
330
A
100
AcDbEntity
  8
0
  6
Continuous
 62
     7
100
AcDbLine
 10
375.2687697111448
 20
185.2500680745926
 30
0.0
 11
393.8530062137922
 21
69.96703705800443
 31
0.0
  0
LINE
  5
3B8
330
A
100
AcDbEntity
  8
0
  6
Continuous
 62
     7
100
AcDbLine
 10
384.0678606926283
 20
68.53147408975035
 30
0.0
 11
393.3631528912863
 21
68.53147408975035
 31
0.0
  0
LINE
  5
3B9
330
A
100
AcDbEntity
  8
0
  6
Continuous
 62
     7
100
AcDbLine
 10
365.7301713525137
 20
239.0314759016384
 30
0.0
 11
366.0522003470739
 21
239.0314759016384
 31
0.0
  0
LINE
  5
3BA
330
A
100
AcDbEntity
  8
0
  6
PHANTOM
 62
     7
100
AcDbLine
 10
325.2572652696455
 20
233.9065917679456
 30
0.0
 11
325.4907478391017
 21
68.53147408975035
 31
0.0
  0
LWPOLYLINE
  5
3BB
330
A
100
AcDbEntity
  8
0
  6
PHANTOM
 62
     7
100
AcDbPolyline
 90
        9
 70
   128
 43
0.0
 10
357.5046186148012
 20
233.5929907770244
 10
353.562643080839
 20
233.599735880771
 10
349.4909231363619
 20
233.6219013580469
 10
345.2956204115237
 20
233.65649859471
 10
341.0923381148661
 20
233.6998926387516
 10
336.9382967053736
 20
233.7491288693038
 10
332.8504127262915
 20
233.8023576797334
 10
328.9505776761854
 20
233.8576265522626
 10
325.2572652696455
 20
233.9065917679456
  0
LINE
  5
3C6
330
A
100
AcDbEntity
  8
0
  6
PHANTOM
 62
     7
100
AcDbLine
 10
357.504640966543
 20
233.5929935709921
 30
0.0
 11
359.9796642361964
 21
68.53147408975035
 31
0.0
  0
LINE
  5
3C7
330
A
100
AcDbEntity
  8
0
  6
PHANTOM
 62
     7
100
AcDbLine
 10
325.2572652696455
 20
233.9065917679456
 30
0.0
 11
324.4235527514303
 21
233.9302785606471
 31
0.0
  0
LWPOLYLINE
  5
3C8
330
A
100
AcDbEntity
  8
0
  6
PHANTOM
 62
     7
100
AcDbPolyline
 90
       11
 70
   128
 43
0.0
 10
324.4235192238176
 20
233.9304187246946
 10
322.0605564116323
 20
233.9776563370016
 10
319.5937697588289
 20
233.9992555701521
 10
317.041141241678
 20
233.9968797662643
 10
313.1325778364027
 20
233.9533134275463
 10
309.1325715928161
 20
233.8667292991069
 10
305.1181633769358
 20
233.7437886656609
 10
301.2278110532844
 20
233.6122943000284
 10
298.7783218546594
 20
233.5497271181432
 10
296.4518110080445
 20
233.52460003508
 10
294.1808768360699
 20
233.5314759896484
  0
LWPOLYLINE
  5
3D5
330
A
100
AcDbEntity
  8
0
  6
PHANTOM
 62
     7
100
AcDbPolyline
 90
        5
 70
   128
 43
0.0
 10
325.2572652696455
 20
233.9065917679456
 10
325.5289134382093
 20
235.8250685413715
 10
326.2215007840479
 20
237.5509992619392
 10
327.2267666457975
 20
238.6752084042293
 10
328.3102002738798
 20
239.0314759016384
  0
LWPOLYLINE
  5
3DC
330
A
100
AcDbEntity
  8
0
  6
PHANTOM
 62
     7
100
AcDbPolyline
 90
        7
 70
   128
 43
0.0
 10
357.5046186148012
 20
233.5929926396695
 10
357.4629549681032
 20
234.5866942690101
 10
357.3402811585749
 20
235.6005692766395
 10
357.1315680443133
 20
236.5742449094889
 10
356.8418447672212
 20
237.4422438354579
 10
356.0896714030588
 20
238.650253361184
 10
355.2741159497583
 20
239.0314759016384
  0
LWPOLYLINE
  5
3E5
330
A
100
AcDbEntity
  8
0
  6
PHANTOM
 62
     7
100
AcDbPolyline
 90
        5
 70
   128
 43
0.0
 10
364.2782767115915
 20
233.6415727534679
 10
363.7307931481684
 20
233.612851230928
 10
362.3684619366014
 20
233.6039566346792
 10
360.2441002427423
 20
233.6013796651152
 10
357.5046335159624
 20
233.5929931053308
  0
LINE
  5
3EC
330
A
100
AcDbEntity
  8
0
  6
PHANTOM
 62
     7
100
AcDbLine
 10
364.2782767115915
 20
233.6415727534679
 30
0.0
 11
367.65104278911
 21
68.53147408975035
 31
0.0
  0
LWPOLYLINE
  5
3ED
330
A
100
AcDbEntity
  8
0
  6
PHANTOM
 62
     7
100
AcDbPolyline
 90
        6
 70
   128
 43
0.0
 10
364.2782767115915
 20
233.6415727534679
 10
363.853832036146
 20
235.6356421863076
 10
363.32765713323
 20
236.6002830588606
 10
362.6011584698046
 20
237.4592955368918
 10
360.721630304941
 20
238.6541610088081
 10
358.6853866278017
 20
239.0314759016384
  0
LWPOLYLINE
  5
3F5
330
A
100
AcDbEntity
  8
0
  6
PHANTOM
 62
     7
100
AcDbPolyline
 90
        5
 70
   128
 43
0.0
 10
324.4235192238176
 20
233.9304187246946
 10
324.685388505348
 20
235.8418984716174
 10
325.3436174987638
 20
237.5591112561871
 10
326.2958501278246
 20
238.6770849319057
 10
327.321646064409
 20
239.0314759016384
  0
LWPOLYLINE
  5
3FC
330
A
100
AcDbEntity
  8
0
  6
PHANTOM
 62
     7
100
AcDbPolyline
 90
        5
 70
   128
 43
0.0
 10
369.5141349731767
 20
233.8724327185539
 10
367.4149338899934
 20
233.8382769287911
 10
365.8224318920458
 20
233.7703341530052
 10
364.774977117666
 20
233.7036621668723
 10
364.2782767115915
 20
233.6415727534679
  0
LINE
  5
403
330
A
100
AcDbEntity
  8
0
  6
PHANTOM
 62
     7
100
AcDbLine
 10
369.5141349731767
 20
233.8724327185539
 30
0.0
 11
381.3445170222604
 21
68.53147408975035
 31
0.0
  0
LWPOLYLINE
  5
404
330
A
100
AcDbEntity
  8
0
  6
PHANTOM
 62
     7
100
AcDbPolyline
 90
        5
 70
   128
 43
0.0
 10
369.5141349731767
 20
233.8724327185539
 10
369.0838639437043
 20
235.8008299400446
 10
367.9679681359612
 20
237.5392971937892
 10
366.3415734468781
 20
238.6725152376222
 10
364.5875577627503
 20
239.0314759016384
  0
LWPOLYLINE
  5
40B
330
A
100
AcDbEntity
  8
0
  6
PHANTOM
 62
     7
100
AcDbPolyline
 90
        3
 70
   128
 43
0.0
 10
371.1831916867577
 20
233.9279581704524
 10
370.5001820622765
 20
233.9051654474226
 10
369.5141349731767
 20
233.8724327185539
  0
LWPOLYLINE
  5
410
330
A
100
AcDbEntity
  8
0
  6
PHANTOM
 62
     7
100
AcDbPolyline
 90
        5
 70
   128
 43
0.0
 10
371.1831842361771
 20
233.9279744685975
 10
370.667142122873
 20
235.8943861821082
 10
369.3934728204094
 20
237.6142307096508
 10
367.6058177648865
 20
238.6976792097905
 10
366.8572579323136
 20
238.8308956490711
  0
LINE
  5
417
330
A
100
AcDbEntity
  8
0
  6
PHANTOM
 62
     7
100
AcDbLine
 10
371.5623442827546
 20
233.9362264522699
 30
0.0
 11
371.1831618844353
 21
233.9279726059523
 31
0.0
  0
ENDSEC
  0
SECTION
  2
OBJECTS
  0
DICTIONARY
  5
19
330
0
100
AcDbDictionary
281
     1
  3
ACAD_COLOR
350
41C
  3
ACAD_GROUP
350
1A
  3
ACAD_LAYOUT
350
41D
  3
ACAD_MATERIAL
350
41B
  3
ACAD_MLINESTYLE
350
1B
  3
ACAD_PLOTSETTINGS
350
41E
  3
ACAD_PLOTSTYLENAME
350
419
  3
ACDBHEADERROUNDTRIPXREC
350
44C
  3
AcDbVariableDictionary
350
42F
  3
ASE_INDEX_DICTIONARY
350
424
  0
DICTIONARY
  5
41C
102
{ACAD_REACTORS
330
19
102
}
330
19
100
AcDbDictionary
281
     1
  0
DICTIONARY
  5
1A
102
{ACAD_REACTORS
330
19
102
}
330
19
100
AcDbDictionary
281
     1
  0
DICTIONARY
  5
41D
102
{ACAD_REACTORS
330
19
102
}
330
19
100
AcDbDictionary
281
     1
  3
Layout1
350
420
  3
Model
350
41F
  0
DICTIONARY
  5
41B
102
{ACAD_REACTORS
330
19
102
}
330
19
100
AcDbDictionary
281
     1
  0
DICTIONARY
  5
1B
102
{ACAD_REACTORS
330
19
102
}
330
19
100
AcDbDictionary
281
     1
  3
STANDARD
350
1C
  0
DICTIONARY
  5
41E
102
{ACAD_REACTORS
330
19
102
}
330
19
100
AcDbDictionary
281
     1
  0
ACDBDICTIONARYWDFLT
  5
419
102
{ACAD_REACTORS
330
19
102
}
330
19
100
AcDbDictionary
281
     1
  3
Normal
350
41A
100
AcDbDictionaryWithDefault
340
41A
  0
DICTIONARY
  5
44C
102
{ACAD_REACTORS
330
19
102
}
330
19
100
AcDbDictionary
281
     1
  3
COLORDICT
350
44E
  3
MATERIALDICT
350
44D
  0
DICTIONARY
  5
42F
102
{ACAD_REACTORS
330
19
102
}
330
19
100
AcDbDictionary
281
     1
  3
DIMASSOC
350
430
  3
PROJECTNAME
350
431
  0
DICTIONARY
  5
424
102
{ACAD_REACTORS
330
19
102
}
330
19
100
AcDbDictionary
281
     1
  3
ASEBlockHierarchyIndexRecord
350
426
1001
DCO15
1040
1521898265.578
  0
LAYOUT
  5
420
102
{ACAD_XDICTIONARY
360
451
102
}
102
{ACAD_REACTORS
330
41D
102
}
330
41D
100
AcDbPlotSettings
  1

  2
ProgeSOFT PDF Wizard
  4

  6

 40
0.0
 41
0.0
 42
0.0
 43
0.0
 44
0.0
 45
0.0
 46
0.0
 47
0.0
 48
0.0
 49
0.0
140
0.0
141
0.0
142
1.0
143
1.0
 70
   688
 72
     0
 73
     0
 74
     5
  7

 75
    16
147
1.0
148
0.0
149
0.0
100
AcDbLayout
  1
Layout1
 70
     1
 71
     1
 10
0.0
 20
0.0
 11
12.0
 21
9.0
 12
0.0
 22
0.0
 32
0.0
 14
1.000000000000000E+20
 24
1.000000000000000E+20
 34
1.000000000000000E+20
 15
-1.000000000000000E+20
 25
-1.000000000000000E+20
 35
-1.000000000000000E+20
146
0.0
 13
0.0
 23
0.0
 33
0.0
 16
1.0
 26
0.0
 36
0.0
 17
0.0
 27
1.0
 37
0.0
 76
     0
330
B
  0
LAYOUT
  5
41F
102
{ACAD_XDICTIONARY
360
44F
102
}
102
{ACAD_REACTORS
330
41D
102
}
330
41D
100
AcDbPlotSettings
  1

  2
ProgeSOFT PDF Wizard
  4

  6

 40
0.0
 41
0.0
 42
0.0
 43
0.0
 44
0.0
 45
0.0
 46
0.0
 47
0.0
 48
0.0
 49
0.0
140
0.0
141
0.0
142
1.0
143
1.0
 70
  1712
 72
     0
 73
     0
 74
     0
  7

 75
     0
147
1.0
148
0.0
149
0.0
100
AcDbLayout
  1
Model
 70
     1
 71
     0
 10
0.0
 20
0.0
 11
12.0
 21
9.0
 12
0.0
 22
0.0
 32
0.0
 14
0.0
 24
0.0
 34
0.0
 15
0.0
 25
0.0
 35
0.0
146
0.0
 13
0.0
 23
0.0
 33
0.0
 16
1.0
 26
0.0
 36
0.0
 17
0.0
 27
1.0
 37
0.0
 76
     0
330
A
  0
MLINESTYLE
  5
1C
102
{ACAD_REACTORS
330
1B
102
}
330
1B
100
AcDbMlineStyle
  2
STANDARD
 70
     0
  3

 62
     0
 51
90.0
 52
90.0
 71
     2
 49
0.5
 62
   256
  6
BYLAYER
 49
-0.5
 62
   256
  6
BYLAYER
  0
ACDBPLACEHOLDER
  5
41A
102
{ACAD_REACTORS
330
419
102
}
330
419
  0
XRECORD
  5
44E
102
{ACAD_REACTORS
330
44C
102
}
330
44C
100
AcDbXrecord
280
     1
340
41C
  0
XRECORD
  5
44D
102
{ACAD_REACTORS
330
44C
102
}
330
44C
100
AcDbXrecord
280
     1
340
41B
  0
DICTIONARYVAR
  5
430
102
{ACAD_REACTORS
330
42F
102
}
330
42F
100
DictionaryVariables
280
     0
  1
1
  0
DICTIONARYVAR
  5
431
102
{ACAD_REACTORS
330
42F
102
}
330
42F
100
DictionaryVariables
280
     0
  1

  0
XRECORD
  5
426
102
{ACAD_REACTORS
330
424
102
}
330
424
100
AcDbXrecord
280
     1
  0
DICTIONARY
  5
451
330
420
100
AcDbDictionary
280
     1
281
     1
  3
ACAD_XREC_ROUNDTRIP
360
452
  0
DICTIONARY
  5
44F
330
41F
100
AcDbDictionary
280
     1
281
     1
  3
ACAD_XREC_ROUNDTRIP
360
450
  0
XRECORD
  5
452
102
{ACAD_REACTORS
330
451
102
}
330
451
100
AcDbXrecord
280
     1
102
SHADEPLOT
 70
     0
102
SHADEPLOTRESLEVEL
 70
     2
102
SHADEPLOTCUSTOMDPI
 70
   300
  0
XRECORD
  5
450
102
{ACAD_REACTORS
330
44F
102
}
330
44F
100
AcDbXrecord
280
     1
102
SHADEPLOT
 70
     0
102
SHADEPLOTRESLEVEL
 70
     2
102
SHADEPLOTCUSTOMDPI
 70
   300
  0
ENDSEC
  0
EOF
