  0
SECTION
  2
HEADER
  9
$ACADVER
  1
AC1015
  9
$ACADMAINTVER
 70
    20
  9
$DWGCODEPAGE
  3
ANSI_1252
  9
$INSBASE
 10
0.0
 20
0.0
 30
0.0
  9
$EXTMIN
 10
-64.41544477656439
 20
-158.1040548343668
 30
0.0
  9
$EXTMAX
 10
406.3005665489471
 20
270.3696860615118
 30
0.0
  9
$LIMMIN
 10
0.0
 20
0.0
  9
$LIMMAX
 10
0.0
 20
0.0
  9
$ORTHOMODE
 70
     0
  9
$REGENMODE
 70
     1
  9
$FILLMODE
 70
     1
  9
$QTEXTMODE
 70
     0
  9
$MIRRTEXT
 70
     1
  9
$LTSCALE
 40
1.0
  9
$ATTMODE
 70
     1
  9
$TEXTSIZE
 40
0.0
  9
$TRACEWID
 40
0.05
  9
$TEXTSTYLE
  7
STANDARD
  9
$CLAYER
  8
0
  9
$CELTYPE
  6
CONTINUOUS
  9
$CECOLOR
 62
   256
  9
$CELTSCALE
 40
1.0
  9
$DISPSILH
 70
     0
  9
$DIMSCALE
 40
1.0
  9
$DIMASZ
 40
6.0
  9
$DIMEXO
 40
1.0
  9
$DIMDLI
 40
0.38
  9
$DIMRND
 40
0.0
  9
$DIMDLE
 40
1.0
  9
$DIMEXE
 40
0.18
  9
$DIMTP
 40
0.0
  9
$DIMTM
 40
0.0
  9
$DIMTXT
 40
3.5
  9
$DIMCEN
 40
0.09
  9
$DIMTSZ
 40
0.0
  9
$DIMTOL
 70
     0
  9
$DIMLIM
 70
     0
  9
$DIMTIH
 70
     1
  9
$DIMTOH
 70
     1
  9
$DIMSE1
 70
     0
  9
$DIMSE2
 70
     0
  9
$DIMTAD
 70
     1
  9
$DIMZIN
 70
     0
  9
$DIMBLK
  1

  9
$DIMASO
 70
     1
  9
$DIMSHO
 70
     1
  9
$DIMPOST
  1

  9
$DIMAPOST
  1

  9
$DIMALT
 70
     0
  9
$DIMALTD
 70
     2
  9
$DIMALTF
 40
0.0394
  9
$DIMLFAC
 40
1.0
  9
$DIMTOFL
 70
     0
  9
$DIMTVP
 40
0.0
  9
$DIMTIX
 70
     0
  9
$DIMSOXD
 70
     0
  9
$DIMSAH
 70
     0
  9
$DIMBLK1
  1

  9
$DIMBLK2
  1

  9
$DIMSTYLE
  2
STANDARD
  9
$DIMCLRD
 70
     0
  9
$DIMCLRE
 70
     0
  9
$DIMCLRT
 70
     0
  9
$DIMTFAC
 40
1.0
  9
$DIMGAP
 40
1.0
  9
$DIMJUST
 70
     0
  9
$DIMSD1
 70
     0
  9
$DIMSD2
 70
     0
  9
$DIMTOLJ
 70
     1
  9
$DIMTZIN
 70
     0
  9
$DIMALTZ
 70
     0
  9
$DIMALTTZ
 70
     0
  9
$DIMUPT
 70
     0
  9
$DIMDEC
 70
     4
  9
$DIMTDEC
 70
     4
  9
$DIMALTU
 70
     2
  9
$DIMALTTD
 70
     2
  9
$DIMTXSTY
  7
STANDARD
  9
$DIMAUNIT
 70
     0
  9
$DIMADEC
 70
     0
  9
$DIMALTRND
 40
0.0
  9
$DIMAZIN
 70
     0
  9
$DIMDSEP
 70
    46
  9
$DIMATFIT
 70
     3
  9
$DIMFRAC
 70
     0
  9
$DIMLDRBLK
  1

  9
$DIMLUNIT
 70
     2
  9
$DIMLWD
 70
    -2
  9
$DIMLWE
 70
    -2
  9
$DIMTMOVE
 70
     0
  9
$LUNITS
 70
     2
  9
$LUPREC
 70
     2
  9
$SKETCHINC
 40
0.1
  9
$FILLETRAD
 40
0.0
  9
$AUNITS
 70
     0
  9
$AUPREC
 70
     2
  9
$MENU
  1
acad
  9
$ELEVATION
 40
0.0
  9
$PELEVATION
 40
0.0
  9
$THICKNESS
 40
0.0
  9
$LIMCHECK
 70
     0
  9
$CHAMFERA
 40
0.0
  9
$CHAMFERB
 40
0.0
  9
$CHAMFERC
 40
0.0
  9
$CHAMFERD
 40
0.0
  9
$SKPOLY
 70
     0
  9
$TDCREATE
 40
2444972.041666667
  9
$TDUCREATE
 40
2444972.000000000
  9
$TDUPDATE
 40
2453768.802452616
  9
$TDUUPDATE
 40
2453768.760785949
  9
$TDINDWG
 40
0.0449889815
  9
$TDUSRTIMER
 40
0.0449889815
  9
$USRTIMER
 70
     1
  9
$ANGBASE
 50
0.0
  9
$ANGDIR
 70
     0
  9
$PDMODE
 70
     0
  9
$PDSIZE
 40
-1.0
  9
$PLINEWID
 40
0.0
  9
$SPLFRAME
 70
     0
  9
$SPLINETYPE
 70
     6
  9
$SPLINESEGS
 70
     8
  9
$HANDSEED
  5
43B
  9
$SURFTAB1
 70
     6
  9
$SURFTAB2
 70
     6
  9
$SURFTYPE
 70
     6
  9
$SURFU
 70
     6
  9
$SURFV
 70
     6
  9
$UCSBASE
  2

  9
$UCSNAME
  2

  9
$UCSORG
 10
0.0
 20
0.0
 30
0.0
  9
$UCSXDIR
 10
1.0
 20
0.0
 30
0.0
  9
$UCSYDIR
 10
0.0
 20
1.0
 30
0.0
  9
$UCSORTHOREF
  2

  9
$UCSORTHOVIEW
 70
     1
  9
$UCSORGTOP
 10
0.0
 20
0.0
 30
0.0
  9
$UCSORGBOTTOM
 10
0.0
 20
0.0
 30
0.0
  9
$UCSORGLEFT
 10
0.0
 20
0.0
 30
0.0
  9
$UCSORGRIGHT
 10
0.0
 20
0.0
 30
0.0
  9
$UCSORGFRONT
 10
0.0
 20
0.0
 30
0.0
  9
$UCSORGBACK
 10
0.0
 20
0.0
 30
0.0
  9
$PUCSBASE
  2

  9
$PUCSNAME
  2

  9
$PUCSORG
 10
0.0
 20
0.0
 30
0.0
  9
$PUCSXDIR
 10
1.0
 20
0.0
 30
0.0
  9
$PUCSYDIR
 10
0.0
 20
1.0
 30
0.0
  9
$PUCSORTHOREF
  2

  9
$PUCSORTHOVIEW
 70
     0
  9
$PUCSORGTOP
 10
0.0
 20
0.0
 30
0.0
  9
$PUCSORGBOTTOM
 10
0.0
 20
0.0
 30
0.0
  9
$PUCSORGLEFT
 10
0.0
 20
0.0
 30
0.0
  9
$PUCSORGRIGHT
 10
0.0
 20
0.0
 30
0.0
  9
$PUCSORGFRONT
 10
0.0
 20
0.0
 30
0.0
  9
$PUCSORGBACK
 10
0.0
 20
0.0
 30
0.0
  9
$USERI1
 70
     0
  9
$USERI2
 70
     0
  9
$USERI3
 70
     0
  9
$USERI4
 70
     0
  9
$USERI5
 70
     0
  9
$USERR1
 40
0.0
  9
$USERR2
 40
0.0
  9
$USERR3
 40
0.0
  9
$USERR4
 40
0.0
  9
$USERR5
 40
0.0
  9
$WORLDVIEW
 70
     1
  9
$SHADEDGE
 70
     3
  9
$SHADEDIF
 70
    70
  9
$TILEMODE
 70
     1
  9
$MAXACTVP
 70
    16
  9
$PINSBASE
 10
0.0
 20
0.0
 30
0.0
  9
$PLIMCHECK
 70
     0
  9
$PEXTMIN
 10
1.000000000000000E+20
 20
1.000000000000000E+20
 30
1.000000000000000E+20
  9
$PEXTMAX
 10
-1.000000000000000E+20
 20
-1.000000000000000E+20
 30
-1.000000000000000E+20
  9
$PLIMMIN
 10
0.0
 20
0.0
  9
$PLIMMAX
 10
12.0
 20
9.0
  9
$UNITMODE
 70
     0
  9
$VISRETAIN
 70
     0
  9
$PLINEGEN
 70
     1
  9
$PSLTSCALE
 70
     1
  9
$TREEDEPTH
 70
  3020
  9
$CMLSTYLE
  2
STANDARD
  9
$CMLJUST
 70
     0
  9
$CMLSCALE
 40
1.0
  9
$PROXYGRAPHICS
 70
     0
  9
$MEASUREMENT
 70
     0
  9
$CELWEIGHT
370
    -1
  9
$ENDCAPS
280
     0
  9
$JOINSTYLE
280
     0
  9
$LWDISPLAY
290
     0
  9
$INSUNITS
 70
     0
  9
$HYPERLINKBASE
  1

  9
$STYLESHEET
  1

  9
$XEDIT
290
     1
  9
$CEPSNTYPE
380
     0
  9
$PSTYLEMODE
290
     1
  9
$FINGERPRINTGUID
  2
{9E80F608-917B-4E15-9623-4B10294FD162}
  9
$VERSIONGUID
  2
{FBEF177A-85D6-4715-972D-1F0355E9962E}
  9
$EXTNAMES
290
     1
  9
$PSVPSCALE
 40
0.0
  9
$OLESTARTUP
290
     0
  0
ENDSEC
  0
SECTION
  2
CLASSES
  0
CLASS
  1
IMAGE
  2
AcDbRasterImage
  3
ISM
 90
    32895
280
     0
281
     1
  0
CLASS
  1
DICTIONARYVAR
  2
AcDbDictionaryVar
  3
ObjectDBX Classes
 90
        0
280
     0
281
     0
  0
CLASS
  1
RASTERVARIABLES
  2
AcDbRasterVariables
  3
ISM
 90
    32768
280
     0
281
     0
  0
CLASS
  1
IMAGEDEF
  2
AcDbRasterImageDef
  3
ISM
 90
    32768
280
     0
281
     0
  0
CLASS
  1
IMAGEDEF_REACTOR
  2
AcDbRasterImageDefReactor
  3
ISM
 90
    32769
280
     0
281
     0
  0
CLASS
  1
IDBUFFER
  2
AcDbIdBuffer
  3
ObjectDBX Classes
 90
    32768
280
     0
281
     0
  0
CLASS
  1
SPATIAL_FILTER
  2
AcDbSpatialFilter
  3
ObjectDBX Classes
 90
    32768
280
     0
281
     0
  0
CLASS
  1
SORTENTSTABLE
  2
AcDbSortentsTable
  3
ObjectDBX Classes
 90
    32768
280
     0
281
     0
  0
CLASS
  1
LAYER_INDEX
  2
AcDbLayerIndex
  3
ObjectDBX Classes
 90
    32768
280
     0
281
     0
  0
CLASS
  1
SPATIAL_INDEX
  2
AcDbSpatialIndex
  3
ObjectDBX Classes
 90
    32768
280
     0
281
     0
  0
CLASS
  1
OBJECT_PTR
  2
CAseDLPNTableRecord
  3
ASE-LPNTableRecord
 90
    32769
280
     0
281
     0
  0
CLASS
  1
LAYOUT
  2
AcDbLayout
  3
ObjectDBX Classes
 90
        0
280
     0
281
     0
  0
CLASS
  1
PLOTSETTINGS
  2
AcDbPlotSettings
  3
ObjectDBX Classes
 90
    32768
280
     0
281
     0
  0
CLASS
  1
ACDBDICTIONARYWDFLT
  2
AcDbDictionaryWithDefault
  3
ObjectDBX Classes
 90
        0
280
     0
281
     0
  0
CLASS
  1
ACDBPLACEHOLDER
  2
AcDbPlaceHolder
  3
ObjectDBX Classes
 90
        0
280
     0
281
     0
  0
CLASS
  1
VBA_PROJECT
  2
AcDbVbaProject
  3
acad
 90
    32768
280
     0
281
     0
  0
CLASS
  1
WIPEOUT
  2
AcDbWipeout
  3
"WipeOut|Product Desc: Object Enabler for WipeOut entity^I^I^I^I^I^I|Company: Autodesk, Inc.^I^I^I^I^I^I|WEB Address: www.autodesk.com"
 90
    32895
280
     0
281
     1
  0
CLASS
  1
WIPEOUTVARIABLES
  2
AcDbWipeoutVariables
  3
"WipeOut|Product Desc:     WipeOut Dbx Application|Company:          Autodesk, Inc.|WEB Address:      www.autodesk.com"
 90
    32768
280
     0
281
     0
  0
CLASS
  1
RTEXT
  2
RText
  3
RText|AutoCAD Express Tool|expresstools@autodesk.com
 90
    32768
280
     0
281
     1
  0
CLASS
  1
ARCALIGNEDTEXT
  2
AcDbArcAlignedText
  3
ATEXT|AutoCAD Express Tool|expresstools@autodesk.com
 90
    32768
280
     0
281
     1
  0
ENDSEC
  0
SECTION
  2
TABLES
  0
TABLE
  2
VPORT
  5
7
330
0
100
AcDbSymbolTable
 70
     2
  0
VPORT
  5
433
330
7
100
AcDbSymbolTableRecord
100
AcDbViewportTableRecord
  2
*Active
 70
     0
 10
0.0
 20
0.0
 11
1.0
 21
1.0
 12
194.094964130288
 22
56.13281561357249
 13
0.0
 23
0.0
 14
1.0
 24
1.0
 15
0.0
 25
0.0
 16
0.0
 26
0.0
 36
1.0
 17
0.0
 27
0.0
 37
0.0
 40
432.1504829367053
 41
1.569570871261378
 42
50.0
 43
0.0
 44
0.0
 50
0.0
 51
0.0
 71
     0
 72
  2000
 73
     1
 74
     1
 75
     0
 76
     0
 77
     0
 78
     0
281
     0
 65
     1
110
0.0
120
0.0
130
0.0
111
1.0
121
0.0
131
0.0
112
0.0
122
1.0
132
0.0
 79
     1
146
0.0
  0
ENDTAB
  0
TABLE
  2
LTYPE
  5
4
330
0
100
AcDbSymbolTable
 70
     6
  0
LTYPE
  5
11
330
4
100
AcDbSymbolTableRecord
100
AcDbLinetypeTableRecord
  2
BYBLOCK
 70
     0
  3

 72
    65
 73
     0
 40
0.0
  0
LTYPE
  5
12
330
4
100
AcDbSymbolTableRecord
100
AcDbLinetypeTableRecord
  2
BYLAYER
 70
     0
  3

 72
    65
 73
     0
 40
0.0
  0
LTYPE
  5
13
330
4
100
AcDbSymbolTableRecord
100
AcDbLinetypeTableRecord
  2
CONTINUOUS
 70
     0
  3
Solid line
 72
    65
 73
     0
 40
0.0
  0
LTYPE
  5
1E
330
4
100
AcDbSymbolTableRecord
100
AcDbLinetypeTableRecord
  2
HIDDEN
 70
     0
  3
Hidden __ __ __ __ __ __ __ __ __ __ __ __ __ __
 72
    65
 73
     2
 40
1.905
 49
1.27
 74
     0
 49
-0.635
 74
     0
  0
LTYPE
  5
1F
330
4
100
AcDbSymbolTableRecord
100
AcDbLinetypeTableRecord
  2
PHANTOM
 70
     0
  3
Phantom ______  __  __  ______  __  __  ______
 72
    65
 73
     6
 40
12.7
 49
6.349999999999999
 74
     0
 49
-1.27
 74
     0
 49
1.27
 74
     0
 49
-1.27
 74
     0
 49
1.27
 74
     0
 49
-1.27
 74
     0
  0
LTYPE
  5
20
330
4
100
AcDbSymbolTableRecord
100
AcDbLinetypeTableRecord
  2
CENTER
 70
     0
  3
Center ____ _ ____ _ ____ _ ____ _ ____ _ ____
 72
    65
 73
     4
 40
10.16
 49
6.349999999999999
 74
     0
 49
-1.27
 74
     0
 49
1.27
 74
     0
 49
-1.27
 74
     0
  0
LTYPE
  5
21
330
4
100
AcDbSymbolTableRecord
100
AcDbLinetypeTableRecord
  2
CENTERX2
 70
     0
  3
Center (2x) ________  __  ________  __  _____
 72
    65
 73
     4
 40
20.32
 49
12.7
 74
     0
 49
-2.54
 74
     0
 49
2.54
 74
     0
 49
-2.54
 74
     0
  0
LTYPE
  5
22
330
4
100
AcDbSymbolTableRecord
100
AcDbLinetypeTableRecord
  2
DOT2
 70
     0
  3
Dot (.5x) ........................................
 72
    65
 73
     2
 40
0.635
 49
0.0
 74
     0
 49
-0.635
 74
     0
  0
ENDTAB
  0
TABLE
  2
LAYER
  5
2
330
0
100
AcDbSymbolTable
 70
     2
  0
LAYER
  5
14
330
2
100
AcDbSymbolTableRecord
100
AcDbLayerTableRecord
  2
0
 70
     0
 62
     7
  6
CONTINUOUS
370
    -3
390
418
  0
LAYER
  5
26
330
2
100
AcDbSymbolTableRecord
100
AcDbLayerTableRecord
  2
DEFPOINTS
 70
     0
 62
     7
  6
CONTINUOUS
290
     0
370
    -3
390
418
  0
ENDTAB
  0
TABLE
  2
STYLE
  5
3
330
0
100
AcDbSymbolTable
 70
     1
  0
STYLE
  5
17
330
3
100
AcDbSymbolTableRecord
100
AcDbTextStyleTableRecord
  2
STANDARD
 70
     0
 40
0.0
 41
1.0
 50
0.0
 71
     0
 42
0.0
  3
Century Gothic
  4

  0
ENDTAB
  0
TABLE
  2
VIEW
  5
5
330
0
100
AcDbSymbolTable
 70
     0
  0
ENDTAB
  0
TABLE
  2
UCS
  5
6
330
0
100
AcDbSymbolTable
 70
     0
  0
ENDTAB
  0
TABLE
  2
APPID
  5
8
330
0
100
AcDbSymbolTable
 70
     2
  0
APPID
  5
16
330
8
100
AcDbSymbolTableRecord
100
AcDbRegAppTableRecord
  2
ACAD
 70
     0
  0
APPID
  5
423
330
8
100
AcDbSymbolTableRecord
100
AcDbRegAppTableRecord
  2
DCO15
 70
     0
  0
ENDTAB
  0
TABLE
  2
DIMSTYLE
  5
9
330
0
100
AcDbSymbolTable
 70
     1
100
AcDbDimStyleTable
 71
     0
  0
DIMSTYLE
105
18
330
9
100
AcDbSymbolTableRecord
100
AcDbDimStyleTableRecord
  2
STANDARD
 70
     0
289
     0
340
17
  0
ENDTAB
  0
TABLE
  2
BLOCK_RECORD
  5
1
330
0
100
AcDbSymbolTable
 70
     0
  0
BLOCK_RECORD
  5
A
330
1
100
AcDbSymbolTableRecord
100
AcDbBlockTableRecord
  2
*MODEL_SPACE
340
41D
  0
BLOCK_RECORD
  5
B
330
1
100
AcDbSymbolTableRecord
100
AcDbBlockTableRecord
  2
*PAPER_SPACE
340
41E
  0
ENDTAB
  0
ENDSEC
  0
SECTION
  2
BLOCKS
  0
BLOCK
  5
D
330
A
100
AcDbEntity
  8
0
100
AcDbBlockBegin
  2
*MODEL_SPACE
 70
     0
 10
0.0
 20
0.0
 30
0.0
  3
*MODEL_SPACE
  1

  0
ENDBLK
  5
E
330
A
100
AcDbEntity
  8
0
100
AcDbBlockEnd
  0
BLOCK
  5
F
330
B
100
AcDbEntity
 67
     1
  8
0
100
AcDbBlockBegin
  2
*PAPER_SPACE
 70
     0
 10
0.0
 20
0.0
 30
0.0
  3
*PAPER_SPACE
  1

  0
ENDBLK
  5
10
330
B
100
AcDbEntity
 67
     1
  8
0
100
AcDbBlockEnd
  0
ENDSEC
  0
SECTION
  2
ENTITIES
  0
LWPOLYLINE
  5
27
330
A
100
AcDbEntity
  8
0
  6
Continuous
 62
     7
100
AcDbPolyline
 90
        7
 70
   128
 43
0.0
 10
137.5579142123236
 20
263.0182313853723
 10
137.4366227951042
 20
264.3143518913337
 10
137.0250502573495
 20
265.642335407622
 10
136.3032431809455
 20
266.9218948765768
 10
135.2881376193003
 20
268.0651361664087
 10
132.6320506917689
 20
269.6578376667736
 10
129.7490387489329
 20
270.1596860615118
  0
LWPOLYLINE
  5
30
330
A
100
AcDbEntity
  8
0
  6
Continuous
 62
     7
100
AcDbPolyline
 90
       31
 70
   128
 43
0.0
 10
136.0816248888304
 20
50.36968606151184
 10
136.116048664109
 20
60.33537711639995
 10
136.1574032687129
 20
69.73757842205654
 10
136.2012553060809
 20
78.30336974273612
 10
136.2438267460545
 20
85.88532635417946
 10
136.2832039179239
 20
92.48732930584967
 10
136.3183429194873
 20
98.13765411572967
 10
136.3550775135681
 20
103.8602617047065
 10
136.3965344566655
 20
110.1385236719534
 10
136.4379548247316
 20
116.2571349443566
 10
136.4834870297443
 20
122.8384649168928
 10
136.533256663289
 20
129.8905142973749
 10
136.5873745657684
 20
137.4219239338196
 10
136.6440049499038
 20
145.1794904278907
 10
136.6948998861477
 20
152.064178393439
 10
136.7387187781032
 20
157.9377120849725
 10
136.7744645672643
 20
162.697613073858
 10
136.8028489034278
 20
166.4590152279739
 10
136.8273340261887
 20
169.6913613525762
 10
136.854669531519
 20
173.287216277673
 10
136.87828748051
 20
176.3838848537957
 10
136.9054645827432
 20
179.9363472288784
 10
136.9407922945894
 20
184.5381958209919
 10
136.9846992113807
 20
190.2344618247489
 10
137.0385587460462
 20
197.1901808802991
 10
137.1018122318034
 20
205.318979313152
 10
137.1747323809211
 20
214.6423937558838
 10
137.2576115945662
 20
225.1850698320526
 10
137.3507551844238
 20
236.9747379488114
 10
137.4544732021647
 20
250.0421402974197
 10
137.5579039367259
 20
263.0197860326358
  0
LWPOLYLINE
  5
51
330
A
100
AcDbEntity
  8
0
  6
Continuous
 62
     7
100
AcDbPolyline
 90
        6
 70
   128
 43
0.0
 10
139.3492235747516
 20
270.0399377891805
 10
136.6320895733196
 20
270.0331461317063
 10
134.4200745065963
 20
270.0115275099526
 10
132.6764707996741
 20
269.9715159314885
 10
131.3609928228314
 20
269.9070340892983
 10
131.2615306561879
 20
269.8964052805921
  0
LWPOLYLINE
  5
59
330
A
100
AcDbEntity
  8
0
  6
Continuous
 62
     7
100
AcDbPolyline
 90
       38
 70
   128
 43
0.0
 10
-52.68693137479463
 20
263.2537981230437
 10
-52.91026130020778
 20
255.4234510729169
 10
-53.15480996564186
 20
247.2459652611354
 10
-53.37353855318569
 20
240.2350380464547
 10
-53.56302920413003
 20
234.3797348899118
 10
-53.72018486241395
 20
229.6696176590268
 10
-53.84235681212351
 20
226.0955446754533
 10
-53.92346701074213
 20
223.7636247273443
 10
-53.97364759486658
 20
222.3369106152211
 10
-54.02333824456859
 20
220.9359784162392
 10
-54.08052456574064
 20
219.3381204052252
 10
-54.14539186029793
 20
217.5440169081511
 10
-54.21815234387131
 20
215.5544451403361
 10
-54.42233120828449
 20
210.096578940944
 10
-54.67560359745135
 20
203.5714655975357
 10
-54.94718912929417
 20
196.857253932312
 10
-55.25989601751163
 20
189.4623052206503
 10
-55.59758092517721
 20
181.8481519142
 10
-55.96072120354428
 20
174.0536742515008
 10
-56.6408125348517
 20
160.4277340592538
 10
-57.41015892600415
 20
146.3157664867035
 10
-57.6038759002342
 20
142.9516354436295
 10
-57.76225522538005
 20
140.2539771875423
 10
-57.88359264855061
 20
138.2189382323104
 10
-57.96655217252508
 20
136.8439056699327
 10
-58.0281371446498
 20
135.8325675735462
 10
-58.1248149274613
 20
134.2555991371014
 10
-58.28313599135432
 20
131.6959345796273
 10
-58.49431600022203
 20
128.3219550888165
 10
-58.76010773151524
 20
124.1366253073177
 10
-59.0826801984021
 20
119.1432708068305
 10
-59.46463391182547
 20
113.3453366693821
 10
-59.9090202907625
 20
106.7460842001849
 10
-60.52969592413574
 20
97.77298248515572
 10
-61.25244256042606
 20
87.65246918218062
 10
-62.08547035852834
 20
76.38368869427998
 10
-63.03826367100029
 20
63.96056457602313
 10
-64.1216116844582
 20
50.36968606151184
  0
LWPOLYLINE
  5
81
330
A
100
AcDbEntity
  8
0
  6
Continuous
 62
     7
100
AcDbPolyline
 90
        6
 70
   128
 43
0.0
 10
-44.77776665528901
 20
270.1596860615118
 10
-47.6465150498842
 20
269.6784623050808
 10
-50.29525433474127
 20
268.1524911785313
 10
-51.32323144828957
 20
267.0531102945682
 10
-52.07170505378091
 20
265.8160601030532
 10
-52.68622093846881
 20
263.2502451295509
  0
LWPOLYLINE
  5
89
330
A
100
AcDbEntity
  8
0
  6
Continuous
 62
     7
100
AcDbPolyline
 90
        4
 70
   128
 43
0.0
 10
199.7971119565019
 20
50.36968606151184
 10
199.9988965749133
 20
84.06197817134327
 10
200.1982098301908
 20
114.3714581172853
 10
201.3093863187423
 20
263.0182716894691
  0
LWPOLYLINE
  5
8F
330
A
100
AcDbEntity
  8
0
  6
Continuous
 62
     7
100
AcDbPolyline
 90
        7
 70
   128
 43
0.0
 10
201.3081880036184
 20
262.9581920861421
 10
201.1365999942359
 20
264.5506586655361
 10
200.5642165025635
 20
266.0886596274452
 10
199.6340746446212
 20
267.4482135857086
 10
198.4428369641372
 20
268.540402487312
 10
195.7447688492978
 20
269.8296816591093
 10
193.2044991342948
 20
270.1596860615121
  0
LINE
  5
98
330
A
100
AcDbEntity
  8
0
  6
Continuous
 62
     7
100
AcDbLine
 10
-44.172973411261
 20
270.3696860615118
 30
0.0
 11
-44.172973411261
 21
270.1596860615118
 31
0.0
  0
LINE
  5
99
330
A
100
AcDbEntity
  8
0
  6
Continuous
 62
     7
100
AcDbLine
 10
193.8270265887389
 20
270.3696860615118
 30
0.0
 11
-44.172973411261
 21
270.3696860615118
 31
0.0
  0
LINE
  5
9A
330
A
100
AcDbEntity
  8
0
  6
Continuous
 62
     7
100
AcDbLine
 10
193.8270265887389
 20
270.0788140189216
 30
0.0
 11
193.8270265887389
 21
270.3696860615118
 31
0.0
  0
LINE
  5
9B
330
A
100
AcDbEntity
  8
0
  6
Continuous
 62
     7
100
AcDbLine
 10
65.24840354979277
 20
50.36968606151184
 30
0.0
 11
104.2259056398085
 21
50.36968606151184
 31
0.0
  0
LINE
  5
9C
330
A
100
AcDbEntity
  8
0
  6
Continuous
 62
     7
100
AcDbLine
 10
63.10922741910029
 20
264.1631241737701
 30
0.0
 11
65.24840354979277
 21
50.36968606151184
 31
0.0
  0
LINE
  5
9D
330
A
100
AcDbEntity
  8
0
  6
Continuous
 62
     7
100
AcDbLine
 10
104.0011985459694
 20
263.8749986100961
 30
0.0
 11
104.225905639809
 21
50.36968606151184
 31
0.0
  0
LINE
  5
9E
330
A
100
AcDbEntity
  8
0
  6
Continuous
 62
     7
100
AcDbLine
 10
104.0016153054044
 20
263.8847150205465
 30
0.0
 11
104.0011985459694
 21
263.8749986100954
 31
0.0
  0
LINE
  5
9F
330
A
100
AcDbEntity
  8
0
  6
Continuous
 62
     7
100
AcDbLine
 10
104.2259056398085
 20
50.36968606151184
 30
0.0
 11
134.727479966077
 21
50.36968606151184
 31
0.0
  0
LINE
  5
A0
330
A
100
AcDbEntity
  8
0
  6
Continuous
 62
     7
100
AcDbLine
 10
-2.51644070950692
 20
263.5807879506543
 30
0.0
 11
-2.516440708592054
 21
50.3696860615118
 31
0.0
  0
LINE
  5
A1
330
A
100
AcDbEntity
  8
0
  6
Continuous
 62
     7
100
AcDbLine
 10
-2.516440708592054
 20
50.36968606151184
 30
0.0
 11
19.75469544426512
 21
50.36968606151184
 31
0.0
  0
LINE
  5
A2
330
A
100
AcDbEntity
  8
0
  6
Continuous
 62
     7
100
AcDbLine
 10
-8.8748960259461
 20
50.36968606151184
 30
0.0
 11
-2.516440708592054
 21
50.36968606151184
 31
0.0
  0
LINE
  5
A3
330
A
100
AcDbEntity
  8
0
  6
Continuous
 62
     7
100
AcDbLine
 10
-34.74069684157921
 20
50.36968606151184
 30
0.0
 11
-8.8748960259461
 21
50.36968606151184
 31
0.0
  0
LINE
  5
A4
330
A
100
AcDbEntity
  8
0
  6
Continuous
 62
     7
100
AcDbLine
 10
19.75469544426512
 20
50.36968606151184
 30
0.0
 11
49.22907219249506
 21
50.36968606151184
 31
0.0
  0
LINE
  5
A5
330
A
100
AcDbEntity
  8
0
  6
Continuous
 62
     7
100
AcDbLine
 10
49.22907219249506
 20
50.36968606151184
 30
0.0
 11
65.24840354979277
 21
50.36968606151184
 31
0.0
  0
LWPOLYLINE
  5
A6
330
A
100
AcDbEntity
  8
0
  6
Continuous
 62
     7
100
AcDbPolyline
 90
        6
 70
   128
 43
0.0
 10
104.0015082509658
 20
263.8847348705788
 10
104.379834140067
 20
265.8112785610978
 10
105.379890366372
 20
267.882911857615
 10
107.1085398250353
 20
269.5378266110269
 10
108.1752496607798
 20
270.0029120045202
 10
109.2878091306657
 20
270.1596860615118
  0
LINE
  5
AE
330
A
100
AcDbEntity
  8
0
  6
Continuous
 62
     7
100
AcDbLine
 10
109.2878091304733
 20
270.1596860615118
 30
0.0
 11
127.7537852460429
 21
270.1596860615118
 31
0.0
  0
LINE
  5
AF
330
A
100
AcDbEntity
  8
0
  6
Continuous
 62
     7
100
AcDbLine
 10
-0.832494697292102
 20
270.1596860615118
 30
0.0
 11
14.26325786054278
 21
270.1596860615118
 31
0.0
  0
LINE
  5
B0
330
A
100
AcDbEntity
  8
0
  6
Continuous
 62
     7
100
AcDbLine
 10
135.2089037458164
 20
263.0878539210324
 30
0.0
 11
135.9525527139173
 21
50.3696860615118
 31
0.0
  0
LINE
  5
B1
330
A
100
AcDbEntity
  8
0
  6
Continuous
 62
     7
100
AcDbLine
 10
134.727479966077
 20
50.36968606151184
 30
0.0
 11
135.9525527139173
 21
50.36968606151184
 31
0.0
  0
LINE
  5
B2
330
A
100
AcDbEntity
  8
0
  6
Continuous
 62
     7
100
AcDbLine
 10
-5.113948307891649
 20
270.1596860615118
 30
0.0
 11
-0.832494697292102
 21
270.1596860615118
 31
0.0
  0
LINE
  5
B3
330
A
100
AcDbEntity
  8
0
  6
Continuous
 62
     7
100
AcDbLine
 10
-34.47868994727411
 20
270.1596860615118
 30
0.0
 11
-5.113948307891663
 21
270.1596860615118
 31
0.0
  0
LINE
  5
B4
330
A
100
AcDbEntity
  8
0
  6
Continuous
 62
     7
100
AcDbLine
 10
127.7537852460429
 20
270.1596860615118
 30
0.0
 11
128.8999508041781
 21
270.1596860615118
 31
0.0
  0
LWPOLYLINE
  5
B5
330
A
100
AcDbEntity
  8
0
  6
Continuous
 62
     7
100
AcDbPolyline
 90
        6
 70
   128
 43
0.0
 10
135.2089027633684
 20
263.0879636330693
 10
134.7574986746749
 20
265.6928492466168
 10
134.1704336836676
 20
266.9593806872316
 10
133.3510944040132
 20
268.0896327734838
 10
131.2165277135403
 20
269.663393444673
 10
128.8999508046121
 20
270.1596860615119
  0
LINE
  5
BD
330
A
100
AcDbEntity
  8
0
  6
Continuous
 62
     7
100
AcDbLine
 10
-50.04758302720824
 20
50.36968606151184
 30
0.0
 11
-34.74069684157921
 21
50.36968606151184
 31
0.0
  0
LINE
  5
BE
330
A
100
AcDbEntity
  8
0
  6
Continuous
 62
     7
100
AcDbLine
 10
66.86640574780096
 20
270.1596860615118
 30
0.0
 11
109.2878091304733
 21
270.1596860615118
 31
0.0
  0
LINE
  5
BF
330
A
100
AcDbEntity
  8
0
  6
Continuous
 62
     7
100
AcDbLine
 10
14.26325786054278
 20
270.1596860615118
 30
0.0
 11
37.12158301265041
 21
270.1596860615118
 31
0.0
  0
LINE
  5
C0
330
A
100
AcDbEntity
  8
0
  6
Continuous
 62
     7
100
AcDbLine
 10
128.8999508041781
 20
270.1596860615118
 30
0.0
 11
129.7500207570862
 21
270.1596860615118
 31
0.0
  0
LINE
  5
C1
330
A
100
AcDbEntity
  8
0
  6
Continuous
 62
     7
100
AcDbLine
 10
135.9525527139173
 20
50.36968606151184
 30
0.0
 11
136.0021119375658
 21
50.36968606151184
 31
0.0
  0
LINE
  5
C2
330
A
100
AcDbEntity
  8
0
  6
Continuous
 62
     7
100
AcDbLine
 10
-41.53605892336087
 20
270.1596860615118
 30
0.0
 11
-34.47868994727411
 21
270.1596860615118
 31
0.0
  0
LINE
  5
C3
330
A
100
AcDbEntity
  8
0
  6
Continuous
 62
     7
100
AcDbLine
 10
139.1111430407903
 20
269.9120250513165
 30
0.0
 11
138.2583513192447
 21
270.1596860615115
 31
0.0
  0
LINE
  5
C4
330
A
100
AcDbEntity
  8
0
  6
Continuous
 62
     7
100
AcDbLine
 10
-64.10458747286252
 20
50.36968606151184
 30
0.0
 11
-50.04758302720824
 21
50.36968606151184
 31
0.0
  0
LINE
  5
C5
330
A
100
AcDbEntity
  8
0
  6
Continuous
 62
     7
100
AcDbLine
 10
-41.53605893080744
 20
270.1596860615118
 30
0.0
 11
-44.84846959265389
 21
270.1596860615118
 31
0.0
  0
LINE
  5
C6
330
A
100
AcDbEntity
  8
0
  6
Continuous
 62
     7
100
AcDbLine
 10
142.9429227810496
 20
262.9944053642566
 30
0.0
 11
138.8078815636344
 21
50.3696860615118
 31
0.0
  0
LINE
  5
C7
330
A
100
AcDbEntity
  8
0
  6
Continuous
 62
     7
100
AcDbLine
 10
136.0816248888305
 20
50.36968606151184
 30
0.0
 11
138.8078815636344
 21
50.36968606151184
 31
0.0
  0
LINE
  5
C8
330
A
100
AcDbEntity
  8
0
  6
Continuous
 62
     7
100
AcDbLine
 10
37.12158301265038
 20
270.1596860615118
 30
0.0
 11
66.86640574780098
 21
270.1596860615118
 31
0.0
  0
LINE
  5
C9
330
A
100
AcDbEntity
  8
0
  6
Continuous
 62
     7
100
AcDbLine
 10
138.2583513192447
 20
270.1596860615118
 30
0.0
 11
144.0838208185971
 21
270.1596860615118
 31
0.0
  0
LINE
  5
CA
330
A
100
AcDbEntity
  8
0
  6
Continuous
 62
     7
100
AcDbLine
 10
138.8078815636344
 20
50.36968606151184
 30
0.0
 11
143.222455326764
 21
50.36968606151184
 31
0.0
  0
LINE
  5
CB
330
A
100
AcDbEntity
  8
0
  6
Continuous
 62
     7
100
AcDbLine
 10
144.0838208185971
 20
270.1596860615118
 30
0.0
 11
185.6091122294159
 21
270.1596860615118
 31
0.0
  0
LINE
  5
CC
330
A
100
AcDbEntity
  8
0
  6
Continuous
 62
     7
100
AcDbLine
 10
143.2224553267641
 20
50.36968606151184
 30
0.0
 11
193.2379064010757
 21
50.36968606151184
 31
0.0
  0
LINE
  5
CD
330
A
100
AcDbEntity
  8
0
  6
Continuous
 62
     7
100
AcDbLine
 10
193.2379064010757
 20
50.36968606151184
 30
0.0
 11
199.7352849817863
 21
50.36968606151184
 31
0.0
  0
LINE
  5
CE
330
A
100
AcDbEntity
  8
0
  6
Continuous
 62
     7
100
AcDbLine
 10
185.609112229416
 20
270.1596860615118
 30
0.0
 11
193.5017584193219
 21
270.1596860615118
 31
0.0
  0
LWPOLYLINE
  5
CF
330
A
100
AcDbEntity
  8
0
  6
PHANTOM
 62
     7
100
AcDbPolyline
 90
        7
 70
   128
 43
0.0
 10
104.0011985459694
 20
263.8749986100961
 10
97.95676950748736
 20
264.0170159828669
 10
91.33644407207016
 20
264.1138587461705
 10
84.52945686261671
 20
264.1691676789722
 10
77.72124196378746
 20
264.1908792860778
 10
70.64067815121902
 20
264.1880478858034
 10
63.10934995466956
 20
264.1664393664481
  0
LWPOLYLINE
  5
D8
330
A
100
AcDbEntity
  8
0
  6
PHANTOM
 62
     7
100
AcDbPolyline
 90
       10
 70
   128
 43
0.0
 10
132.0835389179847
 20
263.2023416786583
 10
128.9652393034911
 20
263.3082065510506
 10
125.4467928883823
 20
263.4181149303261
 10
121.6358045849569
 20
263.5307871640573
 10
117.6812346685089
 20
263.6441688319181
 10
115.0980714120552
 20
263.7156459080631
 10
112.642636161286
 20
263.7777766086705
 10
110.350965499969
 20
263.8271587748923
 10
106.9326244477574
 20
263.8760660416291
 10
104.0016153054044
 20
263.8847150205464
  0
LINE
  5
E4
330
A
100
AcDbEntity
  8
0
  6
PHANTOM
 62
     7
100
AcDbLine
 10
132.0835389179847
 20
263.2023416786582
 30
0.0
 11
134.7274799660769
 21
50.36968606151178
 31
0.0
  0
LWPOLYLINE
  5
E5
330
A
100
AcDbEntity
  8
0
  6
PHANTOM
 62
     7
100
AcDbPolyline
 90
        5
 70
   128
 43
0.0
 10
19.4749307447273
 20
263.4674932337334
 10
14.65812398528117
 20
263.5239509953337
 10
9.211361767126613
 20
263.5685415690663
 10
3.372437933607224
 20
263.5923296190913
 10
-2.51643490304372
 20
263.5808065374406
  0
LINE
  5
EC
330
A
100
AcDbEntity
  8
0
  6
PHANTOM
 62
     7
100
AcDbLine
 10
19.47493074472711
 20
263.4674932337334
 30
0.0
 11
19.75469544426512
 21
50.36968606151184
 31
0.0
  0
LINE
  5
ED
330
A
100
AcDbEntity
  8
0
  6
PHANTOM
 62
     7
100
AcDbLine
 10
-8.790752134903906
 20
263.5092106532205
 30
0.0
 11
-8.8748960259461
 21
50.36968606151184
 31
0.0
  0
LWPOLYLINE
  5
EE
330
A
100
AcDbEntity
  8
0
  6
PHANTOM
 62
     7
100
AcDbPolyline
 90
        3
 70
   128
 43
0.0
 10
-2.51644070950692
 20
263.5807879506543
 10
-5.74145395492348
 20
263.5514059781166
 10
-8.790752134903906
 20
263.5092106532205
  0
LINE
  5
F3
330
A
100
AcDbEntity
  8
0
  6
PHANTOM
 62
     7
100
AcDbLine
 10
-34.83929932424117
 20
263.2116112024779
 30
0.0
 11
-34.74069684157966
 21
50.36968606151184
 31
0.0
  0
LWPOLYLINE
  5
F4
330
A
100
AcDbEntity
  8
0
  6
PHANTOM
 62
     7
100
AcDbPolyline
 90
        5
 70
   128
 43
0.0
 10
-8.790752134903906
 20
263.5092106532205
 10
-15.01286536164212
 20
263.46518024467
 10
-21.47176058837532
 20
263.3775959947739
 10
-28.08557492571501
 20
263.291649877847
 10
-34.83929932424118
 20
263.2116112024779
  0
LWPOLYLINE
  5
FB
330
A
100
AcDbEntity
  8
0
  6
PHANTOM
 62
     7
100
AcDbPolyline
 90
        4
 70
   128
 43
0.0
 10
43.22890694305189
 20
263.6963979642322
 10
35.80501380259559
 20
263.4788820757099
 10
27.94273504052754
 20
263.4457857801045
 10
19.47493074472711
 20
263.4674932337335
  0
LINE
  5
101
330
A
100
AcDbEntity
  8
0
  6
PHANTOM
 62
     7
100
AcDbLine
 10
43.22890694305186
 20
263.6963979642321
 30
0.0
 11
49.22907219249506
 21
50.36968606151184
 31
0.0
  0
LWPOLYLINE
  5
102
330
A
100
AcDbEntity
  8
0
  6
PHANTOM
 62
     7
100
AcDbPolyline
 90
       10
 70
   128
 43
0.0
 10
63.10923234325187
 20
264.163122444196
 10
61.7149269915833
 20
264.2026478164242
 10
60.27095652181131
 20
264.2291463126895
 10
57.89704873131521
 20
264.2452481539041
 10
55.1477658702751
 20
264.2278972746509
 10
52.40793704271735
 20
264.1756440840083
 10
49.76942390567805
 20
264.0927489765375
 10
47.30652964694214
 20
263.9826110502586
 10
45.10995320061343
 20
263.8499702795727
 10
43.22890694305186
 20
263.6963979642322
  0
LWPOLYLINE
  5
10E
330
A
100
AcDbEntity
  8
0
  6
PHANTOM
 62
     7
100
AcDbPolyline
 90
        6
 70
   128
 43
0.0
 10
132.0835389179847
 20
263.2023416786583
 10
131.7565375115435
 20
265.775464367553
 10
131.3495579461021
 20
267.0206985178351
 10
130.7871375595877
 20
268.1297566304649
 10
129.3312698700172
 20
269.6725503177387
 10
127.7537852460429
 20
270.1596860615119
  0
LWPOLYLINE
  5
116
330
A
100
AcDbEntity
  8
0
  6
PHANTOM
 62
     7
100
AcDbPolyline
 90
        5
 70
   128
 43
0.0
 10
-2.516440531094718
 20
263.5808086840403
 10
-2.365068376160212
 20
266.045861251649
 10
-1.982733416792142
 20
268.2606377668272
 10
-1.42905526814091
 20
269.7025944546179
 10
-0.8324946973984893
 20
270.1596860615117
  0
LWPOLYLINE
  5
11D
330
A
100
AcDbEntity
  8
0
  6
PHANTOM
 62
     7
100
AcDbPolyline
 90
        5
 70
   128
 43
0.0
 10
19.4749307447273
 20
263.4674932337334
 10
19.02793403962554
 20
265.9654264364569
 10
17.8492385191978
 20
268.2217998437884
 10
16.12450316863703
 20
269.6936572142833
 10
14.26325786054303
 20
270.1596860615116
  0
LWPOLYLINE
  5
124
330
A
100
AcDbEntity
  8
0
  6
PHANTOM
 62
     7
100
AcDbPolyline
 90
        4
 70
   128
 43
0.0
 10
135.2089152520377
 20
263.0879636795561
 10
134.2921046416281
 20
263.1226127086737
 10
133.243021003919
 20
263.160925205893
 10
132.0835389179847
 20
263.2023416786583
  0
LWPOLYLINE
  5
12A
330
A
100
AcDbEntity
  8
0
  6
PHANTOM
 62
     7
100
AcDbPolyline
 90
        5
 70
   128
 43
0.0
 10
-8.790752134903906
 20
263.5092106532205
 10
-8.46963198218431
 20
265.9950899011104
 10
-7.63681789124955
 20
268.2361321008707
 10
-6.423007621875489
 20
269.6969531548005
 10
-5.113948307891663
 20
270.1596860615118
  0
LWPOLYLINE
  5
131
330
A
100
AcDbEntity
  8
0
  6
PHANTOM
 62
     7
100
AcDbPolyline
 90
        7
 70
   128
 43
0.0
 10
-34.83929932424118
 20
263.2116112024779
 10
-34.81193243607164
 20
265.7821475819306
 10
-34.7780068487542
 20
267.0256575460026
 10
-34.73116482717813
 20
268.1330026252598
 10
-34.67390571862614
 20
269.0314357959285
 10
-34.6099795906771
 20
269.6732928971139
 10
-34.47868994727411
 20
270.1596860615118
  0
LINE
  5
13A
330
A
100
AcDbEntity
  8
0
  6
PHANTOM
 62
     7
100
AcDbLine
 10
-48.69008959611493
 20
263.148987682071
 30
0.0
 11
-50.04758302720824
 21
50.36968606151184
 31
0.0
  0
LWPOLYLINE
  5
13B
330
A
100
AcDbEntity
  8
0
  6
PHANTOM
 62
     7
100
AcDbPolyline
 90
        5
 70
   128
 43
0.0
 10
-34.83929932424118
 20
263.2116112024779
 10
-39.06724848416947
 20
263.1746150314764
 10
-43.0073591885341
 20
263.1631756385112
 10
-46.3237184419489
 20
263.1598809778954
 10
-48.69010354005688
 20
263.1489878694099
  0
LWPOLYLINE
  5
142
330
A
100
AcDbEntity
  8
0
  6
PHANTOM
 62
     7
100
AcDbPolyline
 90
        5
 70
   128
 43
0.0
 10
63.10935482677339
 20
264.166437650748
 10
63.50922873551779
 20
266.3996791729328
 10
64.39640993972742
 20
268.4600655641711
 10
65.59113391121549
 20
269.7488406177189
 10
66.86640574781124
 20
270.1596860615065
  0
LWPOLYLINE
  5
149
330
A
100
AcDbEntity
  8
0
  6
PHANTOM
 62
     7
100
AcDbPolyline
 90
        5
 70
   128
 43
0.0
 10
43.22890694305189
 20
263.6963979642322
 10
42.65337454347657
 20
266.1274623974041
 10
41.26103578420704
 20
268.2999579182267
 10
39.26657469026301
 20
269.7116612099443
 10
37.12158301265033
 20
270.1596860615118
  0
LWPOLYLINE
  5
150
330
A
100
AcDbEntity
  8
0
  6
PHANTOM
 62
     7
100
AcDbPolyline
 90
        4
 70
   128
 43
0.0
 10
137.479455357828
 20
263.020443340482
 10
137.5379485972408
 20
263.0199170229754
 10
136.8471040902902
 20
263.0431634031904
 10
135.208903077936
 20
263.0878552427601
  0
LWPOLYLINE
  5
156
330
A
100
AcDbEntity
  8
0
  6
PHANTOM
 62
     7
100
AcDbPolyline
 90
        7
 70
   128
 43
0.0
 10
-48.69002835501018
 20
263.1489868609429
 10
-48.55778432114616
 20
264.4299583421733
 10
-48.16527184468713
 20
265.7369355523029
 10
-47.49632721795626
 20
266.9920918336663
 10
-46.5670676595829
 20
268.1110214609496
 10
-44.15350491809081
 20
269.6682555766194
 10
-41.53605892336094
 20
270.1596860612837
  0
LWPOLYLINE
  5
15F
330
A
100
AcDbEntity
  8
0
  6
PHANTOM
 62
     7
100
AcDbPolyline
 90
        4
 70
   128
 43
0.0
 10
142.9429230069368
 20
262.9944053598661
 10
140.5778174307393
 20
262.9966115341785
 10
138.4972868598161
 20
263.0029306073887
 10
137.557812933995
 20
263.0083677515226
  0
LWPOLYLINE
  5
165
330
A
100
AcDbEntity
  8
0
  6
PHANTOM
 62
     7
100
AcDbPolyline
 90
        7
 70
   128
 43
0.0
 10
142.9429233062825
 20
262.9944207554947
 10
142.6292604790026
 20
265.6247301905433
 10
142.1979827472509
 20
266.9086793550388
 10
141.5894965817436
 20
268.0563945164413
 10
140.837438337209
 20
268.989324345764
 10
139.9934152952474
 20
269.6558025384974
 10
139.1111430407903
 20
269.9120250513165
  0
LWPOLYLINE
  5
16E
330
A
100
AcDbEntity
  8
0
  6
PHANTOM
 62
     7
100
AcDbPolyline
 90
        5
 70
   128
 43
0.0
 10
-48.69002837892472
 20
263.1489843090629
 10
-50.6911813553208
 20
263.1576791249306
 10
-52.01133488978141
 20
263.186252692198
 10
-52.63743282606784
 20
263.2308519366177
 10
-52.60253936935952
 20
263.2512851680258
  0
LINE
  5
175
330
A
100
AcDbEntity
  8
0
  6
PHANTOM
 62
     7
100
AcDbLine
 10
147.4170518964882
 20
262.9964785836423
 30
0.0
 11
142.942939991833
 21
262.9944235603911
 31
0.0
  0
LWPOLYLINE
  5
176
330
A
100
AcDbEntity
  8
0
  6
PHANTOM
 62
     7
100
AcDbPolyline
 90
        7
 70
   128
 43
0.0
 10
147.4170518964882
 20
262.9964785836423
 10
147.1929802090497
 20
265.6262273134022
 10
146.8859561248569
 20
266.9097925373005
 10
146.4530344600673
 20
268.0571232281288
 10
145.9181084781077
 20
268.9897243927957
 10
145.3178344250825
 20
269.655968422833
 10
144.0838208185972
 20
270.1596860615118
  0
LINE
  5
17F
330
A
100
AcDbEntity
  8
0
  6
PHANTOM
 62
     7
100
AcDbLine
 10
147.4170518964883
 20
262.9964785836423
 30
0.0
 11
143.2224553267641
 21
50.3696860615118
 31
0.0
  0
LWPOLYLINE
  5
180
330
A
100
AcDbEntity
  8
0
  6
PHANTOM
 62
     7
100
AcDbPolyline
 90
        3
 70
   128
 43
0.0
 10
188.4762053630437
 20
262.9366335126504
 10
167.7510660000971
 20
263.0156780217283
 10
147.4170518964883
 20
262.9964785836424
  0
LWPOLYLINE
  5
185
330
A
100
AcDbEntity
  8
0
  6
PHANTOM
 62
     7
100
AcDbPolyline
 90
        7
 70
   128
 43
0.0
 10
188.4762053630437
 20
262.9366335126504
 10
188.2905605254886
 20
265.5825469271419
 10
188.0281019511706
 20
266.8772690231921
 10
187.6557479932978
 20
268.0358091685528
 10
187.1942388462425
 20
268.9780159277167
 10
186.6755973724403
 20
269.6511150465818
 10
185.6091122294159
 20
270.1596860615118
  0
LINE
  5
18E
330
A
100
AcDbEntity
  8
0
  6
PHANTOM
 62
     7
100
AcDbLine
 10
188.4762053630439
 20
262.9366335126504
 30
0.0
 11
193.2379064010757
 21
50.36968606151184
 31
0.0
  0
LWPOLYLINE
  5
18F
330
A
100
AcDbEntity
  8
0
  6
PHANTOM
 62
     7
100
AcDbPolyline
 90
        9
 70
   128
 43
0.0
 10
201.2865554986848
 20
263.0184441732487
 10
201.3048829875977
 20
263.0187867325401
 10
201.079213100742
 20
263.0185577213683
 10
200.5054336562404
 20
263.0149759137446
 10
199.6006793597742
 20
263.0077801723663
 10
198.3688087234638
 20
262.9970759438569
 10
196.8458783401558
 20
262.9837061201978
 10
193.0364379113004
 20
262.9545010525092
 10
188.4762053630439
 20
262.9366335126504
  0
LINE
  5
19A
330
A
100
AcDbEntity
  8
0
  6
Continuous
 62
     7
100
AcDbLine
 10
-41.51907811542049
 20
-35.91657013302476
 30
0.0
 11
-41.2493627303063
 21
-36.93572122757838
 31
0.0
  0
LINE
  5
19B
330
A
100
AcDbEntity
  8
0
  6
Continuous
 62
     7
100
AcDbLine
 10
134.7101557720919
 20
-109.0624864391614
 30
0.0
 11
134.4243111618641
 21
-107.4758554885526
 31
0.0
  0
LINE
  5
19C
330
A
100
AcDbEntity
  8
0
  6
Continuous
 62
     7
100
AcDbLine
 10
193.8270265887389
 20
-31.61897880446066
 30
0.0
 11
-44.172973411261
 21
-31.61897880446066
 31
0.0
  0
LINE
  5
19D
330
A
100
AcDbEntity
  8
0
  6
Continuous
 62
     7
100
AcDbLine
 10
193.8270265887389
 20
-24.61897880446067
 30
0.0
 11
-44.172973411261
 21
-24.61897880446067
 31
0.0
  0
LINE
  5
19E
330
A
100
AcDbEntity
  8
0
  6
Continuous
 62
     7
100
AcDbLine
 10
-44.172973411261
 20
-31.61897880446066
 30
0.0
 11
-44.172973411261
 21
-24.61897880446067
 31
0.0
  0
LINE
  5
19F
330
A
100
AcDbEntity
  8
0
  6
Continuous
 62
     7
100
AcDbLine
 10
193.8270265887389
 20
-31.61897880446066
 30
0.0
 11
193.8270265887389
 21
-24.61897880446067
 31
0.0
  0
LWPOLYLINE
  5
1A0
330
A
100
AcDbEntity
  8
0
  6
Continuous
 62
     7
100
AcDbPolyline
 90
        3
 70
   128
 43
0.0
 10
-41.55935241853439
 20
-35.93696437291364
 10
-42.29036617282754
 20
-34.49340341305604
 10
-44.17295473146366
 20
-31.61896520957178
  0
LWPOLYLINE
  5
1A5
330
A
100
AcDbEntity
  8
0
  6
Continuous
 62
     7
100
AcDbPolyline
 90
        3
 70
   128
 43
0.0
 10
188.4762053630437
 20
-62.90960445968277
 10
167.7510660000971
 20
-70.60933115558906
 10
147.4170518964883
 20
-78.83075335267017
  0
LINE
  5
1AA
330
A
100
AcDbEntity
  8
0
  6
Continuous
 62
     7
100
AcDbLine
 10
104.0016153054044
 20
-124.2992943616172
 30
0.0
 11
104.0011985459694
 21
-124.3004746837552
 31
0.0
  0
LWPOLYLINE
  5
1AB
330
A
100
AcDbEntity
  8
0
  6
Continuous
 62
     7
100
AcDbPolyline
 90
        6
 70
   128
 43
0.0
 10
104.0015082509658
 20
-124.2994190572143
 10
104.379834140067
 20
-123.9302707104639
 10
105.379890366372
 20
-122.9558411821697
 10
107.1085398250353
 20
-121.2732276628207
 10
108.1752496607798
 20
-120.2344575807168
 10
109.2878091306657
 20
-119.1497184892591
  0
LWPOLYLINE
  5
1B3
330
A
100
AcDbEntity
  8
0
  6
Continuous
 62
     7
100
AcDbPolyline
 90
       14
 70
   128
 43
0.0
 10
194.0026948554272
 20
-31.61898672154475
 10
195.2629879732857
 20
-32.68120416832672
 10
196.4205743565538
 20
-33.8290339177729
 10
197.4703996907028
 20
-35.05688919839201
 10
199.9337335557691
 20
-39.20388761322484
 10
201.1831923288893
 20
-43.82919304765059
 10
201.3048829875977
 20
-46.22379879908399
 10
201.079213100742
 20
-48.61883451723651
 10
200.5054336562403
 20
-50.97767832272982
 10
199.6006793597742
 20
-53.23230976620906
 10
198.3688087234638
 20
-55.37184701284118
 10
196.8458783401558
 20
-57.33518935455869
 10
193.0364379113004
 20
-60.62955366953845
 10
188.4762053630439
 20
-62.90960445968305
  0
LINE
  5
1C3
330
A
100
AcDbEntity
  8
0
  6
Continuous
 62
     7
100
AcDbLine
 10
193.8270265887389
 20
-31.61897880446067
 30
0.0
 11
194.0026846815777
 21
-31.61897880446066
 31
0.0
  0
LWPOLYLINE
  5
1C4
330
A
100
AcDbEntity
  8
0
  6
Continuous
 62
     7
100
AcDbPolyline
 90
        6
 70
   128
 43
0.0
 10
135.2089027633684
 20
-123.4816212048739
 10
134.7574986746749
 20
-123.1904190796623
 10
134.1704336836676
 20
-122.8035047631387
 10
133.3510944040132
 20
-122.2617612189873
 10
131.2165277135403
 20
-120.8477410990481
 10
128.8999508046121
 20
-119.3124352702304
  0
LWPOLYLINE
  5
1CC
330
A
100
AcDbEntity
  8
0
  6
Continuous
 62
     7
100
AcDbPolyline
 90
        5
 70
   128
 43
0.0
 10
136.0326937959029
 20
-111.5744860281057
 10
137.2481736481585
 20
-114.4673883415717
 10
137.5379485972408
 20
-117.5851332363492
 10
136.8471040902902
 20
-120.6776607931693
 10
135.8032406235927
 20
-122.4643474686439
  0
LINE
  5
1D3
330
A
100
AcDbEntity
  8
0
  6
Continuous
 62
     7
100
AcDbLine
 10
147.4170518964882
 20
-78.83075335267008
 30
0.0
 11
142.942939991833
 21
-81.28233040783646
 31
0.0
  0
LWPOLYLINE
  5
1D4
330
A
100
AcDbEntity
  8
0
  6
Continuous
 62
     7
100
AcDbPolyline
 90
        7
 70
   128
 43
0.0
 10
142.9429230069368
 20
-81.28230589374778
 10
140.5778174307394
 20
-83.11238585983163
 10
138.4972868598161
 20
-85.16523328895351
 10
136.7030287080745
 20
-87.43147419894087
 10
134.5934674793589
 20
-91.17772507200143
 10
133.261165183864
 20
-95.19333110550503
 10
133.01380925759
 20
-97.16126662756066
  0
LINE
  5
1DD
330
A
100
AcDbEntity
  8
0
  6
Continuous
 62
     7
100
AcDbLine
 10
134.7903312932
 20
-109.0234422888548
 30
0.0
 11
136.0326937959029
 21
-111.5744860281057
 31
0.0
  0
LWPOLYLINE
  5
1DE
330
A
100
AcDbEntity
  8
0
  6
Continuous
 62
     7
100
AcDbPolyline
 90
        6
 70
   128
 43
0.0
 10
49.22907219249509
 20
-124.0857276468199
 10
52.41876070564304
 20
-125.131128727519
 10
55.94153753695799
 20
-127.1536228601648
 10
59.19400055089222
 20
-129.8096208909776
 10
62.26625435323928
 20
-132.8879548539019
 10
65.24840354979277
 20
-136.1774567828818
  0
LINE
  5
1E6
330
A
100
AcDbEntity
  8
0
  6
Continuous
 62
     7
100
AcDbLine
 10
63.10922741910029
 20
-96.80556532638052
 30
0.0
 11
65.24840354979277
 21
-136.1774567828818
 31
0.0
  0
LWPOLYLINE
  5
1E7
330
A
100
AcDbEntity
  8
0
  6
Continuous
 62
     7
100
AcDbPolyline
 90
       10
 70
   128
 43
0.0
 10
104.2259056398085
 20
-158.1040548343668
 10
108.2231535781187
 20
-157.5962078990102
 10
112.0496188698324
 20
-156.200508408356
 10
115.6859905968887
 20
-154.0919532147418
 10
120.1415872154361
 20
-150.5325170708053
 10
124.1920490203877
 20
-146.4416217184843
 10
127.786140806336
 20
-142.148103177348
 10
130.8439751853855
 20
-137.720140047241
 10
133.0714003955191
 20
-133.6127629733227
 10
134.727479966077
 20
-129.4045479176693
  0
LINE
  5
1F3
330
A
100
AcDbEntity
  8
0
  6
Continuous
 62
     7
100
AcDbLine
 10
104.0011985459694
 20
-124.3004746837551
 30
0.0
 11
104.225905639809
 21
-158.1040548343668
 31
0.0
  0
LWPOLYLINE
  5
1F4
330
A
100
AcDbEntity
  8
0
  6
Continuous
 62
     7
100
AcDbPolyline
 90
        9
 70
   128
 43
0.0
 10
65.24840354979277
 20
-136.1774567828818
 10
70.68698772462252
 20
-140.8443949956197
 10
76.25257401149378
 20
-145.340759005076
 10
82.07101528656684
 20
-149.4969365731551
 10
88.26816442600204
 20
-153.1433154617613
 10
92.67214001207872
 20
-155.2072541023122
 10
97.3341250105037
 20
-156.9128187893339
 10
102.1597856134341
 20
-157.9801079196714
 10
104.2259056398085
 20
-158.1040548343668
  0
LWPOLYLINE
  5
1FF
330
A
100
AcDbEntity
  8
0
  6
Continuous
 62
     7
100
AcDbPolyline
 90
       11
 70
   128
 43
0.0
 10
-41.3083141123863
 20
-36.92994187969214
 10
-41.42684259131593
 20
-38.13907409646945
 10
-42.12854109162162
 20
-39.79802867327416
 10
-43.26051192512367
 20
-41.46035312486771
 10
-46.37653604961935
 20
-44.77264175446374
 10
-49.89921196629518
 20
-48.0311885332124
 10
-53.20499633163014
 20
-51.21813352724511
 10
-57.31689132436585
 20
-55.6870043240732
 10
-60.62714418374968
 20
-60.20932075492536
 10
-62.99443662181681
 20
-64.90861429930811
 10
-64.2774503506023
 20
-69.90841643672793
  0
LINE
  5
20C
330
A
100
AcDbEntity
  8
0
  6
Continuous
 62
     7
100
AcDbLine
 10
-64.27745035060225
 20
-69.90841643672791
 30
0.0
 11
-44.32523760349386
 21
-69.9084164356106
 31
0.0
  0
LWPOLYLINE
  5
20D
330
A
100
AcDbEntity
  8
0
  6
Continuous
 62
     7
100
AcDbPolyline
 90
        6
 70
   128
 43
0.0
 10
-2.516440708592082
 20
-144.8939661068523
 10
0.7591015132438484
 20
-145.3840389917415
 10
4.215526606170916
 20
-145.3296485244075
 10
7.767314576033246
 20
-144.7819058777357
 10
13.97753848908599
 20
-142.7804263824829
 10
19.75469544426513
 20
-139.691527027234
  0
LINE
  5
215
330
A
100
AcDbEntity
  8
0
  6
Continuous
 62
     7
100
AcDbLine
 10
-2.51644070950692
 20
-129.1094537357627
 30
0.0
 11
-2.516440708592068
 21
-144.8939661068523
 31
0.0
  0
LWPOLYLINE
  5
216
330
A
100
AcDbEntity
  8
0
  6
Continuous
 62
     7
100
AcDbPolyline
 90
        4
 70
   128
 43
0.0
 10
134.4258988362244
 20
-107.4755679799519
 10
133.9616544634314
 20
-104.9119260463394
 10
133.1400525095039
 20
-99.01941118869803
 10
133.0494040810116
 20
-96.87807827437335
  0
LWPOLYLINE
  5
21C
330
A
100
AcDbEntity
  8
0
  6
Continuous
 62
     7
100
AcDbPolyline
 90
        8
 70
   128
 43
0.0
 10
-64.41544477656421
 20
-71.25956139438617
 10
-64.16249481897748
 20
-77.81524927156096
 10
-62.96551864085683
 20
-84.34172676358054
 10
-61.13152625590871
 20
-90.69462839268679
 10
-58.79183602822741
 20
-96.90147558724543
 10
-56.07734843165535
 20
-102.990198616126
 10
-53.11896394003482
 20
-108.9887277481979
 10
-50.04758302720824
 20
-114.9249932523305
  0
LWPOLYLINE
  5
226
330
A
100
AcDbEntity
  8
0
  6
Continuous
 62
     7
100
AcDbPolyline
 90
        6
 70
   128
 43
0.0
 10
-50.04758302720824
 20
-114.9249932523305
 10
-48.01294946625881
 20
-117.7308676219528
 10
-45.3064213151379
 20
-119.9437687851665
 10
-42.08652132592873
 20
-121.7249839971984
 10
-38.51177225071472
 20
-123.2358005132751
 10
-34.74069684157924
 20
-124.6375055886233
  0
LWPOLYLINE
  5
22E
330
A
100
AcDbEntity
  8
0
  6
Continuous
 62
     7
100
AcDbPolyline
 90
        8
 70
   128
 43
0.0
 10
19.75469544426513
 20
-139.691527027234
 10
24.15000061534936
 20
-136.2929443602396
 10
28.01262674816652
 20
-132.6073434547401
 10
31.81930092918448
 20
-129.0775904361461
 10
36.05601428065325
 20
-126.1494952964966
 10
40.20688301352212
 20
-124.494957389852
 10
44.7698802697294
 20
-123.7539530312475
 10
49.22907219249509
 20
-124.0857276468199
  0
LINE
  5
238
330
A
100
AcDbEntity
  8
0
  6
Continuous
 62
     7
100
AcDbLine
 10
135.9525527139173
 20
-123.4816218238551
 30
0.0
 11
135.9827628559778
 21
-121.6923683894002
 31
0.0
  0
LINE
  5
239
330
A
100
AcDbEntity
  8
0
  6
Continuous
 62
     7
100
AcDbLine
 10
135.2089037458164
 20
-123.4816218238987
 30
0.0
 11
135.9525527139173
 21
-123.4816218238554
 31
0.0
  0
LWPOLYLINE
  5
23A
330
A
100
AcDbEntity
  8
0
  6
Continuous
 62
     7
100
AcDbPolyline
 90
        4
 70
   128
 43
0.0
 10
-8.874896025946085
 20
-141.9744187064971
 10
-7.984242392536367
 20
-142.5417608778744
 10
-5.339450439758683
 20
-143.9293320531808
 10
-2.516440708592082
 20
-144.8939661068523
  0
LWPOLYLINE
  5
240
330
A
100
AcDbEntity
  8
0
  6
Continuous
 62
     7
100
AcDbPolyline
 90
        3
 70
   128
 43
0.0
 10
-64.2774503506023
 20
-69.90841643672793
 10
-64.40536303688698
 20
-71.12461636373002
 10
-64.41544477656439
 20
-71.25956139438819
  0
LWPOLYLINE
  5
245
330
A
100
AcDbEntity
  8
0
  6
Continuous
 62
     7
100
AcDbPolyline
 90
        7
 70
   128
 43
0.0
 10
-34.74069684157924
 20
-124.6375055886233
 10
-29.78812545907226
 20
-126.5693063026275
 10
-25.12209060539902
 20
-128.9466277729645
 10
-20.93021216954019
 20
-131.9186466034954
 10
-16.83306142744185
 20
-135.4234418314588
 10
-12.88823033471876
 20
-138.9046743509975
 10
-8.874896025946085
 20
-141.9744187064971
  0
LINE
  5
24E
330
A
100
AcDbEntity
  8
0
  6
Continuous
 62
     7
100
AcDbLine
 10
134.727479966077
 20
-129.4045479176693
 30
0.0
 11
135.9525527139173
 21
-123.4816218238551
 31
0.0
  0
LWPOLYLINE
  5
24F
330
A
100
AcDbEntity
  8
0
  6
PHANTOM
 62
     7
100
AcDbPolyline
 90
       15
 70
   128
 43
0.0
 10
185.609112229416
 20
-56.31729332540171
 10
187.5682468096306
 20
-55.43253918667476
 10
189.3191294997522
 20
-54.26143856589416
 10
190.8272798093475
 20
-52.82738448555913
 10
192.0289734264031
 20
-51.17710941428735
 10
192.8943284551821
 20
-49.35828484762191
 10
193.3884460155386
 20
-47.42699628700525
 10
193.5017584193219
 20
-45.4505267422317
 10
193.2271610418565
 20
-43.48029080196394
 10
192.586347802028
 20
-41.59393680774114
 10
191.5961305470786
 20
-39.82344960202694
 10
190.3217317975124
 20
-38.25721297976027
 10
188.7244382034649
 20
-36.84512079011904
 10
185.1744661061847
 20
-34.0743935354346
 10
182.0611740842172
 20
-31.61897880446069
  0
LWPOLYLINE
  5
260
330
A
100
AcDbEntity
  8
0
  6
PHANTOM
 62
     7
100
AcDbPolyline
 90
        5
 70
   128
 43
0.0
 10
144.0838208185972
 20
-72.42115727772532
 10
152.98212366137
 20
-68.70646660286157
 10
162.8691065107641
 20
-64.78425905251969
 10
173.7447693667794
 20
-60.65453462669964
 10
185.6091122294159
 20
-56.31729332540146
  0
LINE
  5
267
330
A
100
AcDbEntity
  8
0
  6
PHANTOM
 62
     7
100
AcDbLine
 10
138.2583513192447
 20
-75.61392429520423
 30
0.0
 11
144.0838208185972
 21
-72.42115727772523
 31
0.0
  0
LWPOLYLINE
  5
268
330
A
100
AcDbEntity
  8
0
  6
PHANTOM
 62
     7
100
AcDbPolyline
 90
        9
 70
   128
 43
0.0
 10
129.2022421711139
 20
-114.9979109797557
 10
126.7562919142105
 20
-109.9814321975214
 10
125.3235287034443
 20
-104.6672782666334
 10
124.9329040365225
 20
-99.19551116902438
 10
125.6223777702104
 20
-93.75932849413267
 10
127.3617623859448
 20
-88.51054954247009
 10
130.1118837826486
 20
-83.64059662775501
 10
133.7799967223573
 20
-79.28826541009937
 10
138.2583513192447
 20
-75.61392429520423
  0
LWPOLYLINE
  5
273
330
A
100
AcDbEntity
  8
0
  6
PHANTOM
 62
     7
100
AcDbPolyline
 90
        5
 70
   128
 43
0.0
 10
128.8999508041781
 20
-119.3124352699355
 10
129.4986033629945
 20
-118.3038621856115
 10
129.7500207570863
 20
-117.1932974074422
 10
129.6520404564434
 20
-116.0627083911743
 10
129.2022421711139
 20
-114.9979109797557
  0
LINE
  5
27A
330
A
100
AcDbEntity
  8
0
  6
PHANTOM
 62
     7
100
AcDbLine
 10
127.7537852460429
 20
-120.3242395739981
 30
0.0
 11
128.8999508041781
 21
-119.3124352699355
 31
0.0
  0
LWPOLYLINE
  5
27B
330
A
100
AcDbEntity
  8
0
  6
PHANTOM
 62
     7
100
AcDbPolyline
 90
        9
 70
   128
 43
0.0
 10
109.2878091304733
 20
-119.1497184894364
 10
111.2618652519296
 20
-120.5320172532868
 10
113.4723225255327
 20
-121.5859438738027
 10
115.8273731655691
 20
-122.2817393291829
 10
118.2969996823537
 20
-122.6132536185517
 10
120.7855912370723
 20
-122.5780747478041
 10
123.2334257693928
 20
-122.1759122192111
 10
125.5823023462549
 20
-121.4189464047122
 10
127.7537852460429
 20
-120.3242395739981
  0
LWPOLYLINE
  5
286
330
A
100
AcDbEntity
  8
0
  6
PHANTOM
 62
     7
100
AcDbPolyline
 90
        4
 70
   128
 43
0.0
 10
66.86640574780098
 20
-90.68925163072576
 10
81.62367071439069
 20
-98.92361142378277
 10
95.76413850861483
 20
-108.4104337100196
 10
109.2878091304733
 20
-119.1497184894364
  0
LWPOLYLINE
  5
28C
330
A
100
AcDbEntity
  8
0
  6
PHANTOM
 62
     7
100
AcDbPolyline
 90
        9
 70
   128
 43
0.0
 10
37.12158301265041
 20
-96.03044308768497
 10
39.94808634018517
 20
-93.29537876523636
 10
43.25928060809288
 20
-91.06375900230657
 10
46.95036845998442
 20
-89.39476263236903
 10
50.91069220520404
 20
-88.35083364474716
 10
54.99799850074767
 20
-87.95524789027487
 10
59.10337021013726
 20
-88.22532705816668
 10
63.09949544454224
 20
-89.14249499507477
 10
66.86640574780101
 20
-90.68925163072572
  0
LWPOLYLINE
  5
297
330
A
100
AcDbEntity
  8
0
  6
PHANTOM
 62
     7
100
AcDbPolyline
 90
        5
 70
   128
 43
0.0
 10
14.2632578605428
 20
-118.5443234111996
 10
20.16789892770082
 20
-113.4428878827073
 10
26.19224431873091
 20
-107.7082351561009
 10
31.88593052953308
 20
-101.8434665977933
 10
37.12158301265044
 20
-96.03044308768501
  0
LWPOLYLINE
  5
29E
330
A
100
AcDbEntity
  8
0
  6
PHANTOM
 62
     7
100
AcDbPolyline
 90
        5
 70
   128
 43
0.0
 10
-0.8324946972920743
 20
-122.2055458587115
 10
3.183486518978803
 20
-122.5673389236549
 10
7.198591906889372
 20
-122.0353643651847
 10
10.95849592992653
 20
-120.6764899749006
 10
14.2632578605428
 20
-118.5443234111996
  0
LINE
  5
2A5
330
A
100
AcDbEntity
  8
0
  6
PHANTOM
 62
     7
100
AcDbLine
 10
-5.113948307891622
 20
-120.758911123156
 30
0.0
 11
-0.8324946972920743
 21
-122.2055458587115
 31
0.0
  0
LWPOLYLINE
  5
2A6
330
A
100
AcDbEntity
  8
0
  6
PHANTOM
 62
     7
100
AcDbPolyline
 90
        5
 70
   128
 43
0.0
 10
-34.47868994727409
 20
-113.2863475048329
 10
-26.8878761299864
 20
-113.9956342120997
 10
-19.46348125099344
 20
-115.4774903842425
 10
-12.20550531029517
 20
-117.7319160212612
 10
-5.113948307891636
 20
-120.758911123156
  0
LWPOLYLINE
  5
2AD
330
A
100
AcDbEntity
  8
0
  6
PHANTOM
 62
     7
100
AcDbPolyline
 90
        5
 70
   128
 43
0.0
 10
-41.53605892336084
 20
-108.9674300977472
 10
-40.36745579944198
 20
-110.6924449132607
 10
-38.68792571748168
 20
-112.0468315256621
 10
-36.69077535451832
 20
-112.9275589997392
 10
-34.47868994727409
 20
-113.2863475048328
  0
LWPOLYLINE
  5
2B4
330
A
100
AcDbEntity
  8
0
  6
PHANTOM
 62
     7
100
AcDbPolyline
 90
        9
 70
   128
 43
0.0
 10
-38.54196351691487
 20
-74.82918798546062
 10
-40.94637121258474
 20
-78.69586595256302
 10
-42.80942491793855
 20
-82.84193556793079
 10
-44.08737370554204
 20
-87.14244404186892
 10
-44.76884949878395
 20
-91.55959465899675
 10
-44.84846959265387
 20
-96.01475761044875
 10
-44.32308287679545
 20
-100.4553636683015
 10
-43.215784741582
 20
-104.7818215886546
 10
-41.53605893080742
 20
-108.9674301006872
  0
LINE
  5
2BF
330
A
100
AcDbEntity
  8
0
  6
PHANTOM
 62
     7
100
AcDbLine
 10
-37.67499358840223
 20
-73.57760988734063
 30
0.0
 11
-38.5419635169148
 21
-74.82918798546066
 31
0.0
  0
LWPOLYLINE
  5
2C0
330
A
100
AcDbEntity
  8
0
  6
PHANTOM
 62
     7
100
AcDbPolyline
 90
        9
 70
   128
 43
0.0
 10
-35.14364774068903
 20
-31.6189788044607
 10
-32.82374841158656
 20
-36.61258682654589
 10
-31.27237623613805
 20
-41.97372865930004
 10
-30.51937715477976
 20
-47.3899712792899
 10
-30.51938238211642
 20
-52.9062252650305
 10
-31.24838667657949
 20
-58.30343892443798
 10
-32.69791947509931
 20
-63.59222420178632
 10
-34.84872058626036
 20
-68.71058243686324
 10
-37.67499358840223
 20
-73.57760988734064
  0
LWPOLYLINE
  5
2CB
330
A
100
AcDbEntity
  8
0
  6
PHANTOM
 62
     7
100
AcDbPolyline
 90
        5
 70
   128
 43
0.0
 10
-8.79075213490392
 20
-126.9963103691606
 10
-15.01286536164213
 20
-124.3385762280104
 10
-21.47176058837534
 20
-122.3223521031771
 10
-28.08557492571501
 20
-120.9962026966356
 10
-34.8392993242412
 20
-120.3673442185561
  0
LINE
  5
2D2
330
A
100
AcDbEntity
  8
0
  6
PHANTOM
 62
     7
100
AcDbLine
 10
-34.8392993242412
 20
-120.3673442185561
 30
0.0
 11
-34.47868994727413
 21
-113.2863475048328
 31
0.0
  0
LINE
  5
2D3
330
A
100
AcDbEntity
  8
0
  6
PHANTOM
 62
     7
100
AcDbLine
 10
-8.79075213490392
 20
-126.9963103691606
 30
0.0
 11
-5.113948307891663
 21
-120.7589111231559
 31
0.0
  0
LWPOLYLINE
  5
2D4
330
A
100
AcDbEntity
  8
0
  6
PHANTOM
 62
     7
100
AcDbPolyline
 90
        9
 70
   128
 43
0.0
 10
-48.69002837892472
 20
-111.791406554517
 10
-50.6911813553208
 20
-106.8005816781179
 10
-52.01133488978141
 20
-101.6454937339709
 10
-52.63743282606784
 20
-96.33394130683333
 10
-52.54190721275328
 20
-91.01228687677345
 10
-51.72879414984649
 20
-85.75297396773015
 10
-50.19088438912109
 20
-80.57742087880223
 10
-47.97065038314364
 20
-75.63995138049212
 10
-45.05924096308802
 20
-70.96395265520847
  0
LINE
  5
2DF
330
A
100
AcDbEntity
  8
0
  6
PHANTOM
 62
     7
100
AcDbLine
 10
-45.05924096308802
 20
-70.96395265520857
 30
0.0
 11
-38.54196351691488
 21
-74.82918798546069
 31
0.0
  0
LWPOLYLINE
  5
2E0
330
A
100
AcDbEntity
  8
0
  6
PHANTOM
 62
     7
100
AcDbPolyline
 90
        7
 70
   128
 43
0.0
 10
-48.69002835501018
 20
-111.7914065328842
 10
-48.55778432114616
 20
-111.7386604463113
 10
-48.16527184468713
 20
-111.5833467849497
 10
-47.49632721795626
 20
-111.3191025668631
 10
-46.5670676595829
 20
-110.9522865076191
 10
-44.15350491809081
 20
-109.9999845777161
 10
-41.53605892336094
 20
-108.9674300977471
  0
LWPOLYLINE
  5
2E9
330
A
100
AcDbEntity
  8
0
  6
PHANTOM
 62
     7
100
AcDbPolyline
 90
        5
 70
   128
 43
0.0
 10
-44.32520287071219
 20
-69.90842873860412
 10
-43.72640795984792
 20
-70.23983011759786
 10
-42.21618921220338
 20
-71.07317984278235
 10
-40.03007057230401
 20
-72.27882458343116
 10
-37.67499358730098
 20
-73.57760988797467
  0
LWPOLYLINE
  5
2F0
330
A
100
AcDbEntity
  8
0
  6
PHANTOM
 62
     7
100
AcDbPolyline
 90
       10
 70
   128
 43
0.0
 10
-44.32520285908239
 20
-69.90842872121953
 10
-42.51536857007944
 20
-66.91762202723592
 10
-41.00601383940519
 20
-63.79434866630654
 10
-39.81084473075559
 20
-60.56236598523168
 10
-38.63898732121897
 20
-55.61356934845182
 10
-38.21454147204948
 20
-50.54898694101086
 10
-38.54933501173233
 20
-45.46616981142003
 10
-39.64802863112907
 20
-40.54044415016423
 10
-40.79869224282434
 20
-37.43906926071459
 10
-41.55935241853439
 20
-35.93696437291364
  0
LWPOLYLINE
  5
2FC
330
A
100
AcDbEntity
  8
0
  6
PHANTOM
 62
     7
100
AcDbPolyline
 90
        4
 70
   128
 43
0.0
 10
43.22890694305189
 20
-100.3959076381144
 10
35.80501380259559
 20
-108.5461717212706
 10
27.94273504052755
 20
-116.354769403367
 10
19.47493074472711
 20
-123.8043667472975
  0
LINE
  5
302
330
A
100
AcDbEntity
  8
0
  6
PHANTOM
 62
     7
100
AcDbLine
 10
19.4749307447273
 20
-123.8043667472973
 30
0.0
 11
14.26325786054303
 21
-118.5443234111994
 31
0.0
  0
LINE
  5
303
330
A
100
AcDbEntity
  8
0
  6
PHANTOM
 62
     7
100
AcDbLine
 10
43.22890694305189
 20
-100.3959076381144
 30
0.0
 11
37.12158301265033
 21
-96.03044308768508
 31
0.0
  0
LWPOLYLINE
  5
304
330
A
100
AcDbEntity
  8
0
  6
PHANTOM
 62
     7
100
AcDbPolyline
 90
        5
 70
   128
 43
0.0
 10
19.4749307447273
 20
-123.8043667472973
 10
14.65812398528116
 20
-126.894427493576
 10
9.211361767126613
 20
-128.8670546337987
 10
3.372437933607224
 20
-129.6293553846088
 10
-2.516434903043735
 20
-129.1094232231505
  0
LWPOLYLINE
  5
30B
330
A
100
AcDbEntity
  8
0
  6
PHANTOM
 62
     7
100
AcDbPolyline
 90
        5
 70
   128
 43
0.0
 10
-2.516440531094718
 20
-129.1094522367615
 10
-2.365068376160212
 20
-128.4880483105826
 10
-1.982733416792142
 20
-126.9203069206629
 10
-1.42905526814091
 20
-124.6506598162475
 10
-0.8324946973985031
 20
-122.2055458587467
  0
LINE
  5
312
330
A
100
AcDbEntity
  8
0
  6
PHANTOM
 62
     7
100
AcDbLine
 10
-45.05924096308802
 20
-70.96395265520858
 30
0.0
 11
-44.32523760349386
 21
-69.9084164356106
 31
0.0
  0
LWPOLYLINE
  5
313
330
A
100
AcDbEntity
  8
0
  6
PHANTOM
 62
     7
100
AcDbPolyline
 90
       10
 70
   128
 43
0.0
 10
63.10923234325187
 20
-96.805555667095
 10
61.7149269915833
 20
-96.16569212285822
 10
60.27095652181131
 20
-95.65898413412734
 10
57.89704873131521
 20
-95.13069666435816
 10
55.1477658702751
 20
-94.9499333159418
 10
52.40793704271735
 20
-95.2205443117884
 10
49.76942390567805
 20
-95.92870123917917
 10
47.30652964694214
 20
-97.0554863652287
 10
45.10995320061343
 20
-98.55446677512034
 10
43.22890694305186
 20
-100.3959076381144
  0
LWPOLYLINE
  5
31F
330
A
100
AcDbEntity
  8
0
  6
PHANTOM
 62
     7
100
AcDbPolyline
 90
        5
 70
   128
 43
0.0
 10
63.1093548267734
 20
-96.80502386225134
 10
63.50922873551779
 20
-96.1543328981345
 10
64.39640993972742
 20
-94.7105894958995
 10
65.59113391121549
 20
-92.76608955581179
 10
66.86640574781124
 20
-90.68925163073737
  0
LINE
  5
326
330
A
100
AcDbEntity
  8
0
  6
PHANTOM
 62
     7
100
AcDbLine
 10
147.4170518964882
 20
-78.83075335267008
 30
0.0
 11
144.0838208185972
 21
-72.42115727772518
 31
0.0
  0
LINE
  5
327
330
A
100
AcDbEntity
  8
0
  6
PHANTOM
 62
     7
100
AcDbLine
 10
188.4762053630437
 20
-62.90960445968277
 30
0.0
 11
185.6091122294158
 21
-56.31729332540142
 31
0.0
  0
LWPOLYLINE
  5
328
330
A
100
AcDbEntity
  8
0
  6
PHANTOM
 62
     7
100
AcDbPolyline
 90
        3
 70
   128
 43
0.0
 10
-2.51644070950692
 20
-129.1094537357627
 10
-5.741453954923494
 20
-128.2447232722852
 10
-8.79075213490392
 20
-126.9963103691606
  0
LWPOLYLINE
  5
32D
330
A
100
AcDbEntity
  8
0
  6
PHANTOM
 62
     7
100
AcDbPolyline
 90
        7
 70
   128
 43
0.0
 10
104.0011985459694
 20
-124.3004746837552
 10
97.95676950748736
 20
-119.2597819928239
 10
91.33644407207016
 20
-114.1650349284421
 10
84.52945686261671
 20
-109.3642412128557
 10
77.72124196378746
 20
-104.9731137614705
 10
70.64067815121902
 20
-100.8106108481403
 10
63.10934995466956
 20
-96.80503341953162
  0
LWPOLYLINE
  5
336
330
A
100
AcDbEntity
  8
0
  6
PHANTOM
 62
     7
100
AcDbPolyline
 90
        4
 70
   128
 43
0.0
 10
135.2089152520377
 20
-123.481631274512
 10
134.2921046416281
 20
-124.5033852563024
 10
133.243021003919
 20
-125.4227544511379
 10
132.0835389179847
 20
-126.2201092379712
  0
LINE
  5
33C
330
A
100
AcDbEntity
  8
0
  6
PHANTOM
 62
     7
100
AcDbLine
 10
132.0835389179847
 20
-126.2201092379712
 30
0.0
 11
127.7537852460429
 21
-120.324239573998
 31
0.0
  0
LWPOLYLINE
  5
33D
330
A
100
AcDbEntity
  8
0
  6
PHANTOM
 62
     7
100
AcDbPolyline
 90
       10
 70
   128
 43
0.0
 10
132.0835389179847
 20
-126.2201092379712
 10
128.9652393034911
 20
-127.8031367029723
 10
125.4467928883823
 20
-128.9675213529024
 10
121.6358045849569
 20
-129.6097743211344
 10
117.6812346685089
 20
-129.6582279396262
 10
115.0980714120552
 20
-129.353582147339
 10
112.642636161286
 20
-128.8036126025837
 10
110.3509654999691
 20
-128.0398656268798
 10
106.9326244477574
 20
-126.3743928532065
 10
104.0016153054044
 20
-124.2992943616172
  0
LWPOLYLINE
  5
349
330
A
100
AcDbEntity
  8
0
  6
PHANTOM
 62
     7
100
AcDbPolyline
 90
        5
 70
   128
 43
0.0
 10
-34.8392993242412
 20
-120.3673442185561
 10
-39.06724848416948
 20
-119.6742822060795
 10
-43.0073591885341
 20
-117.9497034058695
 10
-46.32371844194888
 20
-115.2604717789467
 10
-48.69010354005688
 20
-111.791442363185
  0
LINE
  5
350
330
A
100
AcDbEntity
  8
0
  6
PHANTOM
 62
     7
100
AcDbLine
 10
135.8032406235927
 20
-122.4643474686439
 30
0.0
 11
135.208903077936
 21
-123.4816212859935
 31
0.0
  0
LINE
  5
351
330
A
100
AcDbEntity
  8
0
  6
PHANTOM
 62
     7
100
AcDbLine
 10
136.0326937959029
 20
-111.5744860281057
 30
0.0
 11
129.2022421711139
 21
-114.9979109797557
 31
0.0
  0
LWPOLYLINE
  5
352
330
A
100
AcDbEntity
  8
0
  6
PHANTOM
 62
     7
100
AcDbPolyline
 90
        7
 70
   128
 43
0.0
 10
142.9429233062825
 20
-81.28230589365937
 10
142.6292604790026
 20
-80.90115099836863
 10
142.1979827472509
 20
-80.379057371113
 10
141.5894965817436
 20
-79.64288177347778
 10
140.837438337209
 20
-78.733238322847
 10
139.9934152952474
 20
-77.71245424355078
 10
138.2583513192447
 20
-75.6139242952042
  0
LWPOLYLINE
  5
35B
330
A
100
AcDbEntity
  8
0
  6
PHANTOM
 62
     7
100
AcDbPolyline
 90
        5
 70
   128
 43
0.0
 10
133.01380925759
 20
-97.16126662756066
 10
132.7344158753234
 20
-99.38408849349329
 10
133.0326606407494
 20
-103.58841961851
 10
134.1451270430662
 20
-107.6985920464653
 10
134.7903312932
 20
-109.0234422888548
  0
LINE
  5
362
330
A
100
AcDbEntity
  8
0
  6
PHANTOM
 62
     7
100
AcDbLine
 10
43.22890694305186
 20
-100.3959076381144
 30
0.0
 11
49.22907219249506
 21
-124.0857276468199
 31
0.0
  0
LINE
  5
363
330
A
100
AcDbEntity
  8
0
  6
PHANTOM
 62
     7
100
AcDbLine
 10
132.0835389179847
 20
-126.2201092379712
 30
0.0
 11
134.7274799660769
 21
-129.4045479176693
 31
0.0
  0
LINE
  5
364
330
A
100
AcDbEntity
  8
0
  6
PHANTOM
 62
     7
100
AcDbLine
 10
19.47493074472711
 20
-123.8043667472975
 30
0.0
 11
19.75469544426513
 21
-139.691527027234
 31
0.0
  0
LINE
  5
365
330
A
100
AcDbEntity
  8
0
  6
PHANTOM
 62
     7
100
AcDbLine
 10
-45.05924096308802
 20
-70.96395265520846
 30
0.0
 11
-64.41544477656418
 21
-71.25956139438534
 31
0.0
  0
LINE
  5
366
330
A
100
AcDbEntity
  8
0
  6
PHANTOM
 62
     7
100
AcDbLine
 10
-48.69008959611493
 20
-111.7914356861906
 30
0.0
 11
-50.04758302720824
 21
-114.9249932523305
 31
0.0
  0
LINE
  5
367
330
A
100
AcDbEntity
  8
0
  6
PHANTOM
 62
     7
100
AcDbLine
 10
-34.83929932424118
 20
-120.3673442185561
 30
0.0
 11
-34.74069684157966
 21
-124.6375055886231
 31
0.0
  0
LINE
  5
368
330
A
100
AcDbEntity
  8
0
  6
PHANTOM
 62
     7
100
AcDbLine
 10
-8.79075213490392
 20
-126.9963103691606
 30
0.0
 11
-8.8748960259461
 21
-141.9744187064971
 31
0.0
  0
LWPOLYLINE
  5
369
330
A
100
AcDbEntity
  8
0
  6
Continuous
 62
     7
100
AcDbPolyline
 90
        5
 70
   128
 43
0.0
 10
378.1287934115035
 20
263.5350785912944
 10
377.6097788474296
 20
265.7028465964569
 10
376.2712939304194
 20
267.7384005503077
 10
374.2463428734274
 20
269.265431189931
 10
371.8931731564963
 20
270.0491370899363
  0
LINE
  5
370
330
A
100
AcDbEntity
  8
0
  6
Continuous
 62
     7
100
AcDbLine
 10
393.9118255790642
 20
50.36968606151184
 30
0.0
 11
378.1244302609978
 21
263.5946619323322
 31
0.0
  0
LWPOLYLINE
  5
371
330
A
100
AcDbEntity
  8
0
  6
Continuous
 62
     7
100
AcDbPolyline
 90
        3
 70
   128
 43
0.0
 10
405.7484687897431
 20
50.36968606151184
 10
406.2104307834251
 20
51.29381179008767
 10
406.3005665489471
 20
52.21998515085722
  0
LWPOLYLINE
  5
376
330
A
100
AcDbEntity
  8
0
  6
Continuous
 62
     7
100
AcDbPolyline
 90
        5
 70
   128
 43
0.0
 10
378.2076419149625
 20
263.5404703219293
 10
377.5748785398059
 20
266.0226035763355
 10
375.9588837445462
 20
268.2517413473186
 10
373.6173100165923
 20
269.7010186479115
 10
371.0972758234613
 20
270.1596860615122
  0
LWPOLYLINE
  5
37D
330
A
100
AcDbEntity
  8
0
  6
Continuous
 62
     7
100
AcDbPolyline
 90
       32
 70
   128
 43
0.0
 10
399.3389165064352
 20
96.19015817862338
 10
396.6449415159054
 20
113.9203041042071
 10
395.7866434819182
 20
119.6258602165758
 10
394.9250253646082
 20
125.3798036424666
 10
394.0604803346447
 20
131.1833697331016
 10
393.2097367219561
 20
136.9273755075445
 10
392.4833702971793
 20
141.8602910664746
 10
391.9098893887763
 20
145.7752180069565
 10
391.4738126288097
 20
148.765289901153
 10
391.1259736890272
 20
151.1593581976368
 10
390.6722438590305
 20
154.2972497334907
 10
390.0422893133034
 20
158.687318678683
 10
389.2700915887747
 20
164.1282878799296
 10
388.4319670752335
 20
170.1199295733877
 10
387.584236898608
 20
176.2879570578444
 10
386.7286436052633
 20
182.6437883405091
 10
385.868193666104
 20
189.1934208798644
 10
385.3556135324402
 20
193.1825503153219
 10
384.951362201017
 20
196.3807157821005
 10
384.6526983553541
 20
198.7758991744451
 10
384.4112662566307
 20
200.7336871332716
 10
384.1506590646389
 20
202.8700261482486
 10
383.8702030268751
 20
205.1974586589264
 10
383.5704389428429
 20
207.7198939432864
 10
383.0650223661656
 20
212.0618466172554
 10
382.5014903747473
 20
217.0524253686909
 10
381.8624682629571
 20
222.9346558101677
 10
381.1579939102108
 20
229.7414825756867
 10
380.400917083567
 20
237.5031977556681
 10
379.6139539426797
 20
246.1593535732679
 10
378.8390764869547
 20
255.3893341495384
 10
378.2063021238378
 20
263.6039405685639
  0
LINE
  5
39F
330
A
100
AcDbEntity
  8
0
  6
Continuous
 62
     7
100
AcDbLine
 10
280.108442168921
 20
270.3696860615118
 30
0.0
 11
273.108442168921
 21
270.3696860615118
 31
0.0
  0
LINE
  5
3A0
330
A
100
AcDbEntity
  8
0
  6
Continuous
 62
     7
100
AcDbLine
 10
280.108442168921
 20
270.3696860615118
 30
0.0
 11
280.108442168921
 21
50.3696860615118
 31
0.0
  0
LINE
  5
3A1
330
A
100
AcDbEntity
  8
0
  6
Continuous
 62
     7
100
AcDbLine
 10
280.108442168921
 20
50.3696860615118
 30
0.0
 11
273.108442168921
 21
50.3696860615118
 31
0.0
  0
LINE
  5
3A2
330
A
100
AcDbEntity
  8
0
  6
Continuous
 62
     7
100
AcDbLine
 10
273.108442168921
 20
270.3696860615118
 30
0.0
 11
273.108442168921
 21
50.3696860615118
 31
0.0
  0
LINE
  5
3A3
330
A
100
AcDbEntity
  8
0
  6
Continuous
 62
     7
100
AcDbLine
 10
319.7490247588473
 20
50.36968606151184
 30
0.0
 11
363.4144566167916
 21
50.36968606151184
 31
0.0
  0
LINE
  5
3A4
330
A
100
AcDbEntity
  8
0
  6
Continuous
 62
     7
100
AcDbLine
 10
318.397879801189
 20
50.36968606151184
 30
0.0
 11
318.3978798000709
 21
263.5837792021933
 31
0.0
  0
LINE
  5
3A5
330
A
100
AcDbEntity
  8
0
  6
Continuous
 62
     7
100
AcDbLine
 10
318.3978798011891
 20
50.36968606151184
 30
0.0
 11
319.7490247588494
 21
50.36968606151184
 31
0.0
  0
LINE
  5
3A6
330
A
100
AcDbEntity
  8
0
  6
Continuous
 62
     7
100
AcDbLine
 10
280.108442168921
 20
263.0696860615119
 30
0.0
 11
280.1084421689209
 21
50.36968606151184
 31
0.0
  0
LINE
  5
3A7
330
A
100
AcDbEntity
  8
0
  6
Continuous
 62
     7
100
AcDbLine
 10
280.1084421689209
 20
50.36968606151184
 30
0.0
 11
318.3978798011891
 21
50.36968606151184
 31
0.0
  0
LINE
  5
3A8
330
A
100
AcDbEntity
  8
0
  6
Continuous
 62
     7
100
AcDbLine
 10
323.3186513499209
 20
270.1596860615118
 30
0.0
 11
357.4568934651475
 21
270.1596860615118
 31
0.0
  0
LINE
  5
3A9
330
A
100
AcDbEntity
  8
0
  6
Continuous
 62
     7
100
AcDbLine
 10
363.4144566167916
 20
50.36968606151184
 30
0.0
 11
373.1269689530843
 21
50.36968606151184
 31
0.0
  0
LINE
  5
3AA
330
A
100
AcDbEntity
  8
0
  6
Continuous
 62
     7
100
AcDbLine
 10
357.4568934622075
 20
270.1596860615118
 30
0.0
 11
361.7758108692931
 21
270.1596860615118
 31
0.0
  0
LINE
  5
3AB
330
A
100
AcDbEntity
  8
0
  6
Continuous
 62
     7
100
AcDbLine
 10
322.0670732518009
 20
270.1596860615118
 30
0.0
 11
323.318651349921
 21
270.1596860615118
 31
0.0
  0
LINE
  5
3AC
330
A
100
AcDbEntity
  8
0
  6
Continuous
 62
     7
100
AcDbLine
 10
280.108442168921
 20
270.1596860615118
 30
0.0
 11
322.0670732518009
 21
270.1596860615118
 31
0.0
  0
LINE
  5
3AD
330
A
100
AcDbEntity
  8
0
  6
Continuous
 62
     7
100
AcDbLine
 10
373.1269689530843
 20
50.36968606151184
 30
0.0
 11
390.463882070958
 21
50.36968606151184
 31
0.0
  0
LINE
  5
3AE
330
A
100
AcDbEntity
  8
0
  6
Continuous
 62
     7
100
AcDbLine
 10
361.7758108692932
 20
270.1596860615118
 30
0.0
 11
369.2483744876162
 21
270.1596860615118
 31
0.0
  0
LINE
  5
3AF
330
A
100
AcDbEntity
  8
0
  6
Continuous
 62
     7
100
AcDbLine
 10
377.5989171002229
 20
263.5807879506543
 30
0.0
 11
393.3834294713132
 21
50.36968606151184
 31
0.0
  0
LINE
  5
3B0
330
A
100
AcDbEntity
  8
0
  6
Continuous
 62
     7
100
AcDbLine
 10
390.463882070958
 20
50.36968606151184
 30
0.0
 11
393.3834294713133
 21
50.36968606151184
 31
0.0
  0
LINE
  5
3B1
330
A
100
AcDbEntity
  8
0
  6
Continuous
 62
     7
100
AcDbLine
 10
372.1223367439727
 20
269.8928602851387
 30
0.0
 11
370.6950092232069
 21
270.1596860615117
 31
0.0
  0
LINE
  5
3B2
330
A
100
AcDbEntity
  8
0
  6
Continuous
 62
     7
100
AcDbLine
 10
369.2483744876162
 20
270.1596860615118
 30
0.0
 11
370.6950092231717
 21
270.1596860615118
 31
0.0
  0
LINE
  5
3B3
330
A
100
AcDbEntity
  8
0
  6
Continuous
 62
     7
100
AcDbLine
 10
393.3834294713133
 20
50.36968606151184
 30
0.0
 11
393.8735023562025
 21
50.36968606151184
 31
0.0
  0
LINE
  5
3B4
330
A
100
AcDbEntity
  8
0
  6
Continuous
 62
     7
100
AcDbLine
 10
382.7715450312035
 20
200.8306077750179
 30
0.0
 11
406.3005665489471
 21
52.21998515085719
 31
0.0
  0
LINE
  5
3B5
330
A
100
AcDbEntity
  8
0
  6
Continuous
 62
     7
100
AcDbLine
 10
393.9118255790641
 20
50.36968606151184
 30
0.0
 11
405.6798492794252
 21
50.36968606151184
 31
0.0
  0
LINE
  5
3B6
330
A
100
AcDbEntity
  8
0
  6
Continuous
 62
     7
100
AcDbLine
 10
370.6950092232063
 20
270.1596860615118
 30
0.0
 11
371.1027169830115
 21
270.1596860615118
 31
0.0
  0
LINE
  5
3B7
330
A
100
AcDbEntity
  8
0
  6
PHANTOM
 62
     7
100
AcDbLine
 10
319.4534160196688
 20
263.5532442923504
 30
0.0
 11
319.7490247588465
 21
50.3696860615118
 31
0.0
  0
LWPOLYLINE
  5
3B8
330
A
100
AcDbEntity
  8
0
  6
PHANTOM
 62
     7
100
AcDbPolyline
 90
        9
 70
   128
 43
0.0
 10
360.2808699189773
 20
263.1489843090629
 10
355.2900450425783
 20
263.1576791249306
 10
350.1349570984313
 20
263.186252692198
 10
344.8234046712937
 20
263.2308519366177
 10
339.5017502412338
 20
263.2867907041227
 10
334.2424373321906
 20
263.3502603744604
 10
329.0668842432626
 20
263.4188771373819
 10
324.1294147449525
 20
263.4901240283345
 10
319.4534160196688
 20
263.5532442923503
  0
LINE
  5
3C3
330
A
100
AcDbEntity
  8
0
  6
PHANTOM
 62
     7
100
AcDbLine
 10
360.2808990506511
 20
263.148987682071
 30
0.0
 11
363.4144566167916
 21
50.36968606151184
 31
0.0
  0
LINE
  5
3C4
330
A
100
AcDbEntity
  8
0
  6
PHANTOM
 62
     7
100
AcDbLine
 10
319.4534160196689
 20
263.5532442923504
 30
0.0
 11
318.3978798000709
 21
263.5837792021933
 31
0.0
  0
LWPOLYLINE
  5
3C5
330
A
100
AcDbEntity
  8
0
  6
PHANTOM
 62
     7
100
AcDbPolyline
 90
       11
 70
   128
 43
0.0
 10
318.3978920856799
 20
263.583951734105
 10
315.4070853916963
 20
263.6452029137193
 10
312.2838120307669
 20
263.6730228190804
 10
309.051829349692
 20
263.6699326991942
 10
304.1030327129121
 20
263.6137248096832
 10
299.0384503054711
 20
263.502057053791
 10
293.9556331758804
 20
263.3435166587035
 10
289.0299075146245
 20
263.1739509694156
 10
285.9285326251749
 20
263.0932648247704
 10
282.9828667775164
 20
263.0608497965667
 10
280.1084285740321
 20
263.0696870687509
  0
LWPOLYLINE
  5
3D2
330
A
100
AcDbEntity
  8
0
  6
PHANTOM
 62
     7
100
AcDbPolyline
 90
        5
 70
   128
 43
0.0
 10
319.4534160196689
 20
263.5532442923503
 10
319.797344336755
 20
266.0263356073309
 10
320.674209169134
 20
268.2512171024611
 10
321.9469462308592
 20
269.7004248999361
 10
323.318651349921
 20
270.1596860615118
  0
LWPOLYLINE
  5
3D9
330
A
100
AcDbEntity
  8
0
  6
PHANTOM
 62
     7
100
AcDbPolyline
 90
        7
 70
   128
 43
0.0
 10
360.2808698973446
 20
263.1489868609429
 10
360.2281238107717
 20
264.4299583421733
 10
360.0728101494101
 20
265.7369355523029
 10
359.8085659313235
 20
266.9920918336663
 10
359.4417498720794
 20
268.1110214609496
 10
358.4894479421765
 20
269.6682555766194
 10
357.4568934622074
 20
270.1596860612837
  0
LWPOLYLINE
  5
3E2
330
A
100
AcDbEntity
  8
0
  6
PHANTOM
 62
     7
100
AcDbPolyline
 90
        5
 70
   128
 43
0.0
 10
368.8568075830165
 20
263.2116112024779
 10
368.1637455705399
 20
263.1746150314764
 10
366.4391667703299
 20
263.1631756385112
 10
363.749935143407
 20
263.1598809778954
 10
360.2809057276453
 20
263.1489878694099
  0
LINE
  5
3E9
330
A
100
AcDbEntity
  8
0
  6
PHANTOM
 62
     7
100
AcDbLine
 10
368.8568075830165
 20
263.2116112024779
 30
0.0
 11
373.1269689530842
 21
50.36968606151184
 31
0.0
  0
LWPOLYLINE
  5
3EA
330
A
100
AcDbEntity
  8
0
  6
PHANTOM
 62
     7
100
AcDbPolyline
 90
        7
 70
   128
 43
0.0
 10
368.8568075830165
 20
263.2116112024779
 10
368.3194259796231
 20
265.7821475819306
 10
367.6532564686507
 20
267.0256575460026
 10
366.7334573119181
 20
268.1330026252598
 10
365.6091061846744
 20
269.0314357959285
 10
364.3538401521175
 20
269.6732928971139
 10
361.7758108692931
 20
270.1596860615118
  0
LWPOLYLINE
  5
3F3
330
A
100
AcDbEntity
  8
0
  6
PHANTOM
 62
     7
100
AcDbPolyline
 90
        5
 70
   128
 43
0.0
 10
318.3978921030645
 20
263.5839517336144
 10
318.7292934820582
 20
266.0480504785432
 10
319.5626432072427
 20
268.2616714823255
 10
320.7682879478915
 20
269.7028231521038
 10
322.067073252435
 20
270.1596860614528
  0
LWPOLYLINE
  5
3FA
330
A
100
AcDbEntity
  8
0
  6
PHANTOM
 62
     7
100
AcDbPolyline
 90
        5
 70
   128
 43
0.0
 10
375.4857737336209
 20
263.5092106532205
 10
372.8280395924707
 20
263.46518024467
 10
370.8118154676374
 20
263.3775959947739
 10
369.4856660610959
 20
263.291649877847
 10
368.8568075830165
 20
263.2116112024779
  0
LINE
  5
401
330
A
100
AcDbEntity
  8
0
  6
PHANTOM
 62
     7
100
AcDbLine
 10
375.4857737336209
 20
263.5092106532205
 30
0.0
 11
390.463882070958
 21
50.36968606151184
 31
0.0
  0
LWPOLYLINE
  5
402
330
A
100
AcDbEntity
  8
0
  6
PHANTOM
 62
     7
100
AcDbPolyline
 90
        5
 70
   128
 43
0.0
 10
375.4857737336209
 20
263.5092106532205
 10
374.9410194598859
 20
265.9950899011104
 10
373.5282179542152
 20
268.2361321008707
 10
371.4690873573189
 20
269.6969531548005
 10
369.2483744876162
 20
270.1596860615118
  0
LWPOLYLINE
  5
409
330
A
100
AcDbEntity
  8
0
  6
PHANTOM
 62
     7
100
AcDbPolyline
 90
        3
 70
   128
 43
0.0
 10
377.5989171002229
 20
263.5807879506543
 10
376.7341866367454
 20
263.5514059781166
 10
375.4857737336209
 20
263.5092106532205
  0
LWPOLYLINE
  5
40E
330
A
100
AcDbEntity
  8
0
  6
PHANTOM
 62
     7
100
AcDbPolyline
 90
        5
 70
   128
 43
0.0
 10
377.5989156012217
 20
263.5808086840403
 10
376.9775116750428
 20
266.045861251649
 10
375.4097702851231
 20
268.2606377668272
 10
373.1401231807077
 20
269.7025944546179
 10
372.1223367439727
 20
269.8928602851387
  0
LINE
  5
415
330
A
100
AcDbEntity
  8
0
  6
PHANTOM
 62
     7
100
AcDbLine
 10
378.0789860087322
 20
263.5914468194623
 30
0.0
 11
377.5988865876107
 21
263.5808065374406
 31
0.0
  0
ENDSEC
  0
SECTION
  2
OBJECTS
  0
DICTIONARY
  5
19
330
0
100
AcDbDictionary
281
     1
  3
ACAD_COLOR
350
41A
  3
ACAD_GROUP
350
1A
  3
ACAD_LAYOUT
350
41B
  3
ACAD_MATERIAL
350
419
  3
ACAD_MLINESTYLE
350
1B
  3
ACAD_PLOTSETTINGS
350
41C
  3
ACAD_PLOTSTYLENAME
350
417
  3
ACDBHEADERROUNDTRIPXREC
350
434
  3
AcDbVariableDictionary
350
42D
  3
ASE_INDEX_DICTIONARY
350
422
  0
DICTIONARY
  5
41A
102
{ACAD_REACTORS
330
19
102
}
330
19
100
AcDbDictionary
281
     1
  0
DICTIONARY
  5
1A
102
{ACAD_REACTORS
330
19
102
}
330
19
100
AcDbDictionary
281
     1
  0
DICTIONARY
  5
41B
102
{ACAD_REACTORS
330
19
102
}
330
19
100
AcDbDictionary
281
     1
  3
Layout1
350
41E
  3
Model
350
41D
  0
DICTIONARY
  5
419
102
{ACAD_REACTORS
330
19
102
}
330
19
100
AcDbDictionary
281
     1
  0
DICTIONARY
  5
1B
102
{ACAD_REACTORS
330
19
102
}
330
19
100
AcDbDictionary
281
     1
  3
STANDARD
350
1C
  0
DICTIONARY
  5
41C
102
{ACAD_REACTORS
330
19
102
}
330
19
100
AcDbDictionary
281
     1
  0
ACDBDICTIONARYWDFLT
  5
417
102
{ACAD_REACTORS
330
19
102
}
330
19
100
AcDbDictionary
281
     1
  3
Normal
350
418
100
AcDbDictionaryWithDefault
340
418
  0
DICTIONARY
  5
434
102
{ACAD_REACTORS
330
19
102
}
330
19
100
AcDbDictionary
281
     1
  3
COLORDICT
350
436
  3
MATERIALDICT
350
435
  0
DICTIONARY
  5
42D
102
{ACAD_REACTORS
330
19
102
}
330
19
100
AcDbDictionary
281
     1
  3
DIMASSOC
350
42E
  3
PROJECTNAME
350
42F
  0
DICTIONARY
  5
422
102
{ACAD_REACTORS
330
19
102
}
330
19
100
AcDbDictionary
281
     1
  3
ASEBlockHierarchyIndexRecord
350
424
1001
DCO15
1040
1521898378.734
  0
LAYOUT
  5
41E
102
{ACAD_XDICTIONARY
360
439
102
}
102
{ACAD_REACTORS
330
41B
102
}
330
41B
100
AcDbPlotSettings
  1

  2
ProgeSOFT PDF Wizard
  4

  6

 40
0.0
 41
0.0
 42
0.0
 43
0.0
 44
0.0
 45
0.0
 46
0.0
 47
0.0
 48
0.0
 49
0.0
140
0.0
141
0.0
142
1.0
143
1.0
 70
   688
 72
     0
 73
     0
 74
     5
  7

 75
    16
147
1.0
148
0.0
149
0.0
100
AcDbLayout
  1
Layout1
 70
     1
 71
     1
 10
0.0
 20
0.0
 11
12.0
 21
9.0
 12
0.0
 22
0.0
 32
0.0
 14
1.000000000000000E+20
 24
1.000000000000000E+20
 34
1.000000000000000E+20
 15
-1.000000000000000E+20
 25
-1.000000000000000E+20
 35
-1.000000000000000E+20
146
0.0
 13
0.0
 23
0.0
 33
0.0
 16
1.0
 26
0.0
 36
0.0
 17
0.0
 27
1.0
 37
0.0
 76
     0
330
B
  0
LAYOUT
  5
41D
102
{ACAD_XDICTIONARY
360
437
102
}
102
{ACAD_REACTORS
330
41B
102
}
330
41B
100
AcDbPlotSettings
  1

  2
ProgeSOFT PDF Wizard
  4

  6

 40
0.0
 41
0.0
 42
0.0
 43
0.0
 44
0.0
 45
0.0
 46
0.0
 47
0.0
 48
0.0
 49
0.0
140
0.0
141
0.0
142
1.0
143
1.0
 70
  1712
 72
     0
 73
     0
 74
     0
  7

 75
     0
147
1.0
148
0.0
149
0.0
100
AcDbLayout
  1
Model
 70
     1
 71
     0
 10
0.0
 20
0.0
 11
12.0
 21
9.0
 12
0.0
 22
0.0
 32
0.0
 14
0.0
 24
0.0
 34
0.0
 15
0.0
 25
0.0
 35
0.0
146
0.0
 13
0.0
 23
0.0
 33
0.0
 16
1.0
 26
0.0
 36
0.0
 17
0.0
 27
1.0
 37
0.0
 76
     0
330
A
  0
MLINESTYLE
  5
1C
102
{ACAD_REACTORS
330
1B
102
}
330
1B
100
AcDbMlineStyle
  2
STANDARD
 70
     0
  3

 62
     0
 51
90.0
 52
90.0
 71
     2
 49
0.5
 62
   256
  6
BYLAYER
 49
-0.5
 62
   256
  6
BYLAYER
  0
ACDBPLACEHOLDER
  5
418
102
{ACAD_REACTORS
330
417
102
}
330
417
  0
XRECORD
  5
436
102
{ACAD_REACTORS
330
434
102
}
330
434
100
AcDbXrecord
280
     1
340
41A
  0
XRECORD
  5
435
102
{ACAD_REACTORS
330
434
102
}
330
434
100
AcDbXrecord
280
     1
340
419
  0
DICTIONARYVAR
  5
42E
102
{ACAD_REACTORS
330
42D
102
}
330
42D
100
DictionaryVariables
280
     0
  1
1
  0
DICTIONARYVAR
  5
42F
102
{ACAD_REACTORS
330
42D
102
}
330
42D
100
DictionaryVariables
280
     0
  1

  0
XRECORD
  5
424
102
{ACAD_REACTORS
330
422
102
}
330
422
100
AcDbXrecord
280
     1
  0
DICTIONARY
  5
439
330
41E
100
AcDbDictionary
280
     1
281
     1
  3
ACAD_XREC_ROUNDTRIP
360
43A
  0
DICTIONARY
  5
437
330
41D
100
AcDbDictionary
280
     1
281
     1
  3
ACAD_XREC_ROUNDTRIP
360
438
  0
XRECORD
  5
43A
102
{ACAD_REACTORS
330
439
102
}
330
439
100
AcDbXrecord
280
     1
102
SHADEPLOT
 70
     0
102
SHADEPLOTRESLEVEL
 70
     2
102
SHADEPLOTCUSTOMDPI
 70
   300
  0
XRECORD
  5
438
102
{ACAD_REACTORS
330
437
102
}
330
437
100
AcDbXrecord
280
     1
102
SHADEPLOT
 70
     0
102
SHADEPLOTRESLEVEL
 70
     2
102
SHADEPLOTCUSTOMDPI
 70
   300
  0
ENDSEC
  0
EOF
