  0
SECTION
  2
HEADER
  9
$ACADVER
  1
AC1018
  9
$ACADMAINTVER
 70
     0
  9
$DWGCODEPAGE
  3
ANSI_1252
  9
$INSBASE
 10
0.0
 20
0.0
 30
0.0
  9
$EXTMIN
 10
-338.3358162587112
 20
269.5965215129406
 30
0.0
  9
$EXTMAX
 10
621.1764021244461
 20
1266.177120386101
 30
0.0
  9
$LIMMIN
 10
0.0
 20
0.0
  9
$LIMMAX
 10
12.0
 20
9.0
  9
$ORTHOMODE
 70
     0
  9
$REGENMODE
 70
     1
  9
$FILLMODE
 70
     1
  9
$QTEXTMODE
 70
     0
  9
$MIRRTEXT
 70
     1
  9
$LTSCALE
 40
1.0
  9
$ATTMODE
 70
     1
  9
$TEXTSIZE
 40
0.2
  9
$TRACEWID
 40
0.05
  9
$TEXTSTYLE
  7
Standard
  9
$CLAYER
  8
Predefinito
  9
$CELTYPE
  6
ByLayer
  9
$CECOLOR
 62
   256
  9
$CELTSCALE
 40
1.0
  9
$DISPSILH
 70
     0
  9
$DIMSCALE
 40
1.0
  9
$DIMASZ
 40
0.18
  9
$DIMEXO
 40
0.0625
  9
$DIMDLI
 40
0.38
  9
$DIMRND
 40
0.0
  9
$DIMDLE
 40
0.0
  9
$DIMEXE
 40
0.18
  9
$DIMTP
 40
0.0
  9
$DIMTM
 40
0.0
  9
$DIMTXT
 40
0.18
  9
$DIMCEN
 40
0.09
  9
$DIMTSZ
 40
0.0
  9
$DIMTOL
 70
     0
  9
$DIMLIM
 70
     0
  9
$DIMTIH
 70
     1
  9
$DIMTOH
 70
     1
  9
$DIMSE1
 70
     0
  9
$DIMSE2
 70
     0
  9
$DIMTAD
 70
     0
  9
$DIMZIN
 70
     0
  9
$DIMBLK
  1

  9
$DIMASO
 70
     1
  9
$DIMSHO
 70
     1
  9
$DIMPOST
  1

  9
$DIMAPOST
  1

  9
$DIMALT
 70
     0
  9
$DIMALTD
 70
     2
  9
$DIMALTF
 40
25.4
  9
$DIMLFAC
 40
1.0
  9
$DIMTOFL
 70
     0
  9
$DIMTVP
 40
0.0
  9
$DIMTIX
 70
     0
  9
$DIMSOXD
 70
     0
  9
$DIMSAH
 70
     0
  9
$DIMBLK1
  1

  9
$DIMBLK2
  1

  9
$DIMSTYLE
  2
Standard
  9
$DIMCLRD
 70
     0
  9
$DIMCLRE
 70
     0
  9
$DIMCLRT
 70
     0
  9
$DIMTFAC
 40
1.0
  9
$DIMGAP
 40
0.09
  9
$DIMJUST
 70
     0
  9
$DIMSD1
 70
     0
  9
$DIMSD2
 70
     0
  9
$DIMTOLJ
 70
     1
  9
$DIMTZIN
 70
     0
  9
$DIMALTZ
 70
     0
  9
$DIMALTTZ
 70
     0
  9
$DIMUPT
 70
     0
  9
$DIMDEC
 70
     4
  9
$DIMTDEC
 70
     4
  9
$DIMALTU
 70
     2
  9
$DIMALTTD
 70
     2
  9
$DIMTXSTY
  7
Standard
  9
$DIMAUNIT
 70
     0
  9
$DIMADEC
 70
     0
  9
$DIMALTRND
 40
0.0
  9
$DIMAZIN
 70
     0
  9
$DIMDSEP
 70
    46
  9
$DIMATFIT
 70
     3
  9
$DIMFRAC
 70
     0
  9
$DIMLDRBLK
  1

  9
$DIMLUNIT
 70
     2
  9
$DIMLWD
 70
    -2
  9
$DIMLWE
 70
    -2
  9
$DIMTMOVE
 70
     2
  9
$LUNITS
 70
     2
  9
$LUPREC
 70
     2
  9
$SKETCHINC
 40
0.1
  9
$FILLETRAD
 40
0.5
  9
$AUNITS
 70
     0
  9
$AUPREC
 70
     0
  9
$MENU
  1
.
  9
$ELEVATION
 40
0.0
  9
$PELEVATION
 40
0.0
  9
$THICKNESS
 40
0.0
  9
$LIMCHECK
 70
     0
  9
$CHAMFERA
 40
0.5
  9
$CHAMFERB
 40
0.5
  9
$CHAMFERC
 40
1.0
  9
$CHAMFERD
 40
0.0
  9
$SKPOLY
 70
     0
  9
$TDCREATE
 40
2457905.430569606
  9
$TDUCREATE
 40
2457905.347236273
  9
$TDUPDATE
 40
2457905.430569618
  9
$TDUUPDATE
 40
2457905.347236285
  9
$TDINDWG
 40
0.0000000116
  9
$TDUSRTIMER
 40
0.0000000116
  9
$USRTIMER
 70
     1
  9
$ANGBASE
 50
0.0
  9
$ANGDIR
 70
     0
  9
$PDMODE
 70
     0
  9
$PDSIZE
 40
0.0
  9
$PLINEWID
 40
0.0
  9
$SPLFRAME
 70
     0
  9
$SPLINETYPE
 70
     6
  9
$SPLINESEGS
 70
     8
  9
$HANDSEED
  5
74F
  9
$SURFTAB1
 70
     6
  9
$SURFTAB2
 70
     6
  9
$SURFTYPE
 70
     6
  9
$SURFU
 70
     6
  9
$SURFV
 70
     6
  9
$UCSBASE
  2

  9
$UCSNAME
  2

  9
$UCSORG
 10
0.0
 20
0.0
 30
0.0
  9
$UCSXDIR
 10
1.0
 20
0.0
 30
0.0
  9
$UCSYDIR
 10
0.0
 20
1.0
 30
0.0
  9
$UCSORTHOREF
  2

  9
$UCSORTHOVIEW
 70
     0
  9
$UCSORGTOP
 10
0.0
 20
0.0
 30
0.0
  9
$UCSORGBOTTOM
 10
0.0
 20
0.0
 30
0.0
  9
$UCSORGLEFT
 10
0.0
 20
0.0
 30
0.0
  9
$UCSORGRIGHT
 10
0.0
 20
0.0
 30
0.0
  9
$UCSORGFRONT
 10
0.0
 20
0.0
 30
0.0
  9
$UCSORGBACK
 10
0.0
 20
0.0
 30
0.0
  9
$PUCSBASE
  2

  9
$PUCSNAME
  2

  9
$PUCSORG
 10
0.0
 20
0.0
 30
0.0
  9
$PUCSXDIR
 10
1.0
 20
0.0
 30
0.0
  9
$PUCSYDIR
 10
0.0
 20
1.0
 30
0.0
  9
$PUCSORTHOREF
  2

  9
$PUCSORTHOVIEW
 70
     0
  9
$PUCSORGTOP
 10
0.0
 20
0.0
 30
0.0
  9
$PUCSORGBOTTOM
 10
0.0
 20
0.0
 30
0.0
  9
$PUCSORGLEFT
 10
0.0
 20
0.0
 30
0.0
  9
$PUCSORGRIGHT
 10
0.0
 20
0.0
 30
0.0
  9
$PUCSORGFRONT
 10
0.0
 20
0.0
 30
0.0
  9
$PUCSORGBACK
 10
0.0
 20
0.0
 30
0.0
  9
$USERI1
 70
     0
  9
$USERI2
 70
     0
  9
$USERI3
 70
     0
  9
$USERI4
 70
     0
  9
$USERI5
 70
     0
  9
$USERR1
 40
0.0
  9
$USERR2
 40
0.0
  9
$USERR3
 40
0.0
  9
$USERR4
 40
0.0
  9
$USERR5
 40
0.0
  9
$WORLDVIEW
 70
     1
  9
$SHADEDGE
 70
     3
  9
$SHADEDIF
 70
    70
  9
$TILEMODE
 70
     0
  9
$MAXACTVP
 70
    64
  9
$PINSBASE
 10
0.0
 20
0.0
 30
0.0
  9
$PLIMCHECK
 70
     0
  9
$PEXTMIN
 10
0.0
 20
0.0
 30
0.0
  9
$PEXTMAX
 10
0.0
 20
0.0
 30
0.0
  9
$PLIMMIN
 10
0.0
 20
0.0
  9
$PLIMMAX
 10
12.0
 20
9.0
  9
$UNITMODE
 70
     0
  9
$VISRETAIN
 70
     1
  9
$PLINEGEN
 70
     0
  9
$PSLTSCALE
 70
     1
  9
$TREEDEPTH
 70
  3020
  9
$CMLSTYLE
  2
Standard
  9
$CMLJUST
 70
     0
  9
$CMLSCALE
 40
1.0
  9
$PROXYGRAPHICS
 70
     1
  9
$MEASUREMENT
 70
     0
  9
$CELWEIGHT
370
    -1
  9
$ENDCAPS
280
     0
  9
$JOINSTYLE
280
     0
  9
$LWDISPLAY
290
     0
  9
$INSUNITS
 70
     4
  9
$HYPERLINKBASE
  1

  9
$STYLESHEET
  1

  9
$XEDIT
290
     1
  9
$CEPSNTYPE
380
     0
  9
$PSTYLEMODE
290
     1
  9
$FINGERPRINTGUID
  2
{2193D064-C2BA-43C2-9938-ECF544E82636}
  9
$VERSIONGUID
  2
{FAEB1C32-E019-11D5-929B-00C0DF256EC4}
  9
$EXTNAMES
290
     1
  9
$PSVPSCALE
 40
0.0
  9
$OLESTARTUP
290
     0
  9
$SORTENTS
280
   127
  9
$INDEXCTL
280
     0
  9
$HIDETEXT
280
     1
  9
$XCLIPFRAME
290
     0
  9
$HALOGAP
280
     0
  9
$OBSCOLOR
 70
   257
  9
$OBSLTYPE
280
     0
  9
$INTERSECTIONDISPLAY
280
     0
  9
$INTERSECTIONCOLOR
 70
   257
  9
$DIMASSOC
280
     2
  9
$PROJECTNAME
  1

  0
ENDSEC
  0
SECTION
  2
CLASSES
  0
CLASS
  1
ACDBDICTIONARYWDFLT
  2
AcDbDictionaryWithDefault
  3
ObjectDBX Classes
 90
        0
 91
        4
280
     0
281
     0
  0
CLASS
  1
VISUALSTYLE
  2
AcDbVisualStyle
  3
ObjectDBX Classes
 90
     4095
 91
        4
280
     0
281
     0
  0
CLASS
  1
SCALE
  2
AcDbScale
  3
ObjectDBX Classes
 90
     1153
 91
        4
280
     0
281
     0
  0
CLASS
  1
DICTIONARYVAR
  2
AcDbDictionaryVar
  3
ObjectDBX Classes
 90
        0
 91
        4
280
     0
281
     0
  0
ENDSEC
  0
SECTION
  2
TABLES
  0
TABLE
  2
VPORT
  5
8
330
0
100
AcDbSymbolTable
 70
     1
  0
VPORT
  5
29
330
8
100
AcDbSymbolTableRecord
100
AcDbViewportTableRecord
  2
*Active
 70
     0
 10
0.0
 20
0.0
 11
1.0
 21
1.0
 12
141.4202929328675
 22
767.8868209495208
 13
0.0
 23
0.0
 14
0.5
 24
0.5
 15
0.5
 25
0.5
 16
0.0
 26
0.0
 36
1.0
 17
0.0
 27
0.0
 37
0.0
 40
1016.512210850624
 41
0.9628044329460992
 42
50.0
 43
0.0
 44
0.0
 50
0.0
 51
0.0
 71
     0
 72
   100
 73
     1
 74
     3
 75
     0
 76
     0
 77
     0
 78
     0
281
     0
 65
     1
110
0.0
120
0.0
130
0.0
111
1.0
121
0.0
131
0.0
112
0.0
122
1.0
132
0.0
 79
     0
146
0.0
  0
ENDTAB
  0
TABLE
  2
LTYPE
  5
5
330
0
100
AcDbSymbolTable
 70
     1
  0
LTYPE
  5
14
330
5
100
AcDbSymbolTableRecord
100
AcDbLinetypeTableRecord
  2
ByBlock
 70
     0
  3

 72
    65
 73
     0
 40
0.0
  0
LTYPE
  5
15
330
5
100
AcDbSymbolTableRecord
100
AcDbLinetypeTableRecord
  2
ByLayer
 70
     0
  3

 72
    65
 73
     0
 40
0.0
  0
LTYPE
  5
16
330
5
100
AcDbSymbolTableRecord
100
AcDbLinetypeTableRecord
  2
Continuous
 70
     0
  3
Solid line
 72
    65
 73
     0
 40
0.0
  0
ENDTAB
  0
TABLE
  2
LAYER
  5
2
330
0
100
AcDbSymbolTable
 70
     2
  0
LAYER
  5
10
330
2
100
AcDbSymbolTableRecord
100
AcDbLayerTableRecord
  2
0
 70
     0
 62
     7
  6
Continuous
370
    -3
390
F
  0
LAYER
  5
3B
330
2
100
AcDbSymbolTableRecord
100
AcDbLayerTableRecord
  2
Predefinito
 70
     0
 62
     7
  6
Continuous
370
    -3
390
F
  0
ENDTAB
  0
TABLE
  2
STYLE
  5
3
330
0
100
AcDbSymbolTable
 70
     1
  0
STYLE
  5
11
330
3
100
AcDbSymbolTableRecord
100
AcDbTextStyleTableRecord
  2
Standard
 70
     0
 40
0.0
 41
1.0
 50
0.0
 71
     0
 42
0.2
  3
txt
  4

  0
ENDTAB
  0
TABLE
  2
VIEW
  5
6
330
0
100
AcDbSymbolTable
 70
     0
  0
ENDTAB
  0
TABLE
  2
UCS
  5
7
330
0
100
AcDbSymbolTable
 70
     0
  0
ENDTAB
  0
TABLE
  2
APPID
  5
9
330
0
100
AcDbSymbolTable
 70
     1
  0
APPID
  5
12
330
9
100
AcDbSymbolTableRecord
100
AcDbRegAppTableRecord
  2
ACAD
 70
     0
  0
ENDTAB
  0
TABLE
  2
DIMSTYLE
  5
A
330
0
100
AcDbSymbolTable
 70
     1
100
AcDbDimStyleTable
  0
DIMSTYLE
105
27
330
A
100
AcDbSymbolTableRecord
100
AcDbDimStyleTableRecord
  2
Standard
 70
     0
340
11
  0
ENDTAB
  0
TABLE
  2
BLOCK_RECORD
  5
1
330
0
100
AcDbSymbolTable
 70
     3
  0
BLOCK_RECORD
  5
1F
330
1
100
AcDbSymbolTableRecord
100
AcDbBlockTableRecord
  2
*Model_Space
340
22
  0
BLOCK_RECORD
  5
724
330
1
100
AcDbSymbolTableRecord
100
AcDbBlockTableRecord
  2
*Paper_Space
340
725
  0
BLOCK_RECORD
  5
23
330
1
100
AcDbSymbolTableRecord
100
AcDbBlockTableRecord
  2
*Paper_Space0
340
26
  0
BLOCK_RECORD
  5
1B
330
1
100
AcDbSymbolTableRecord
100
AcDbBlockTableRecord
  2
*Paper_Space1
340
1E
  0
BLOCK_RECORD
  5
71F
330
1
100
AcDbSymbolTableRecord
100
AcDbBlockTableRecord
  2
*Paper_Space2
340
720
  0
ENDTAB
  0
ENDSEC
  0
SECTION
  2
BLOCKS
  0
BLOCK
  5
20
330
1F
100
AcDbEntity
  8
0
100
AcDbBlockBegin
  2
*Model_Space
 70
     0
 10
0.0
 20
0.0
 30
0.0
  3
*Model_Space
  1

  0
ENDBLK
  5
21
330
1F
100
AcDbEntity
  8
0
100
AcDbBlockEnd
  0
BLOCK
  5
726
330
724
100
AcDbEntity
 67
     1
  8
0
100
AcDbBlockBegin
  2
*Paper_Space
 70
     0
 10
0.0
 20
0.0
 30
0.0
  3
*Paper_Space
  1

  0
ENDBLK
  5
727
330
724
100
AcDbEntity
 67
     1
  8
0
100
AcDbBlockEnd
  0
BLOCK
  5
24
330
23
100
AcDbEntity
  8
0
100
AcDbBlockBegin
  2
*Paper_Space0
 70
     0
 10
0.0
 20
0.0
 30
0.0
  3
*Paper_Space0
  1

  0
ENDBLK
  5
25
330
23
100
AcDbEntity
  8
0
100
AcDbBlockEnd
  0
BLOCK
  5
1C
330
1B
100
AcDbEntity
  8
0
100
AcDbBlockBegin
  2
*Paper_Space1
 70
     0
 10
0.0
 20
0.0
 30
0.0
  3
*Paper_Space1
  1

  0
ENDBLK
  5
1D
330
1B
100
AcDbEntity
  8
0
100
AcDbBlockEnd
  0
BLOCK
  5
721
330
71F
100
AcDbEntity
  8
0
100
AcDbBlockBegin
  2
*Paper_Space2
 70
     0
 10
0.0
 20
0.0
 30
0.0
  3
*Paper_Space2
  1

  0
VIEWPORT
  5
723
330
71F
100
AcDbEntity
  8
0
100
AcDbViewport
 10
6.0
 20
4.5
 30
0.0
 40
12.696
 41
9.522
 68
     1
 69
     1
 12
6.0
 22
4.5
 13
0.0
 23
0.0
 14
0.5
 24
0.5
 15
0.5
 25
0.5
 16
0.0
 26
0.0
 36
1.0
 17
0.0
 27
0.0
 37
0.0
 42
50.0
 43
0.0
 44
0.0
 45
9.522
 50
0.0
 51
0.0
 72
   100
 90
   557152
  1

281
     0
 71
     1
 74
     0
110
0.0
120
0.0
130
0.0
111
1.0
121
0.0
131
0.0
112
0.0
122
1.0
132
0.0
 79
     0
146
0.0
170
     0
  0
ENDBLK
  5
722
330
71F
100
AcDbEntity
  8
0
100
AcDbBlockEnd
  0
ENDSEC
  0
SECTION
  2
ENTITIES
  0
POLYLINE
  5
3C
330
1F
100
AcDbEntity
  8
Predefinito
 62
   255
370
    25
100
AcDb2dPolyline
 66
     1
 10
0.0
 20
0.0
 30
0.0
  0
VERTEX
  5
3D
330
3C
100
AcDbEntity
  8
Predefinito
 62
   255
370
    25
100
AcDbVertex
100
AcDb2dVertex
 10
580.9003519258771
 20
687.9667559940798
 30
0.0
  0
VERTEX
  5
3E
330
3C
100
AcDbEntity
  8
Predefinito
 62
   255
370
    25
100
AcDbVertex
100
AcDb2dVertex
 10
607.7929424374231
 20
687.9679610597818
 30
0.0
  0
SEQEND
  5
3F
330
3C
100
AcDbEntity
  8
Predefinito
 62
   255
370
    25
  0
POLYLINE
  5
40
330
1F
100
AcDbEntity
  8
Predefinito
 62
   255
370
    25
100
AcDb2dPolyline
 66
     1
 10
0.0
 20
0.0
 30
0.0
  0
VERTEX
  5
41
330
40
100
AcDbEntity
  8
Predefinito
 62
   255
370
    25
100
AcDbVertex
100
AcDb2dVertex
 10
607.7929424374231
 20
687.9679610597818
 30
0.0
  0
VERTEX
  5
42
330
40
100
AcDbEntity
  8
Predefinito
 62
   255
370
    25
100
AcDbVertex
100
AcDb2dVertex
 10
608.0769936386217
 20
687.9701990389428
 30
0.0
  0
VERTEX
  5
43
330
40
100
AcDbEntity
  8
Predefinito
 62
   255
370
    25
100
AcDbVertex
100
AcDb2dVertex
 10
608.1672014140329
 20
687.9791509555866
 30
0.0
  0
VERTEX
  5
44
330
40
100
AcDbEntity
  8
Predefinito
 62
   255
370
    25
100
AcDbVertex
100
AcDb2dVertex
 10
608.2549990580395
 20
687.9970547888744
 30
0.0
  0
VERTEX
  5
45
330
40
100
AcDbEntity
  8
Predefinito
 62
   255
370
    25
100
AcDbVertex
100
AcDb2dVertex
 10
608.2766902406767
 20
688.0032522696278
 30
0.0
  0
VERTEX
  5
46
330
40
100
AcDbEntity
  8
Predefinito
 62
   255
370
    25
100
AcDbVertex
100
AcDb2dVertex
 10
608.2983814233136
 20
688.0097940548675
 30
0.0
  0
VERTEX
  5
47
330
40
100
AcDbEntity
  8
Predefinito
 62
   255
370
    25
100
AcDbVertex
100
AcDb2dVertex
 10
608.3197283014642
 20
688.0170244490798
 30
0.0
  0
VERTEX
  5
48
330
40
100
AcDbEntity
  8
Predefinito
 62
   255
370
    25
100
AcDbVertex
100
AcDb2dVertex
 10
608.341075179615
 20
688.0245991477784
 30
0.0
  0
VERTEX
  5
49
330
40
100
AcDbEntity
  8
Predefinito
 62
   255
370
    25
100
AcDbVertex
100
AcDb2dVertex
 10
608.3830803269439
 20
688.0421586765798
 30
0.0
  0
VERTEX
  5
4A
330
40
100
AcDbEntity
  8
Predefinito
 62
   255
370
    25
100
AcDbVertex
100
AcDb2dVertex
 10
608.4240525608136
 20
688.0617840322989
 30
0.0
  0
VERTEX
  5
4B
330
40
100
AcDbEntity
  8
Predefinito
 62
   255
370
    25
100
AcDbVertex
100
AcDb2dVertex
 10
608.5039312016357
 20
688.1082651379497
 30
0.0
  0
VERTEX
  5
4C
330
40
100
AcDbEntity
  8
Predefinito
 62
   255
370
    25
100
AcDbVertex
100
AcDb2dVertex
 10
608.5803667975944
 20
688.1636981602442
 30
0.0
  0
VERTEX
  5
4D
330
40
100
AcDbEntity
  8
Predefinito
 62
   255
370
    25
100
AcDbVertex
100
AcDb2dVertex
 10
608.6533593486904
 20
688.2287717081551
 30
0.0
  0
VERTEX
  5
4E
330
40
100
AcDbEntity
  8
Predefinito
 62
   255
370
    25
100
AcDbVertex
100
AcDb2dVertex
 10
608.7229088549234
 20
688.3031414771963
 30
0.0
  0
VERTEX
  5
4F
330
40
100
AcDbEntity
  8
Predefinito
 62
   255
370
    25
100
AcDbVertex
100
AcDb2dVertex
 10
608.7883267073205
 20
688.3868074673676
 30
0.0
  0
VERTEX
  5
50
330
40
100
AcDbEntity
  8
Predefinito
 62
   255
370
    25
100
AcDbVertex
100
AcDb2dVertex
 10
608.8499572103686
 20
688.4804582876416
 30
0.0
  0
VERTEX
  5
51
330
40
100
AcDbEntity
  8
Predefinito
 62
   255
370
    25
100
AcDbVertex
100
AcDb2dVertex
 10
608.8848295205048
 20
688.5431031561498
 30
0.0
  0
SEQEND
  5
52
330
40
100
AcDbEntity
  8
Predefinito
 62
   255
370
    25
  0
POLYLINE
  5
53
330
1F
100
AcDbEntity
  8
Predefinito
 62
   255
370
    25
100
AcDb2dPolyline
 66
     1
 10
0.0
 20
0.0
 30
0.0
  0
VERTEX
  5
54
330
53
100
AcDbEntity
  8
Predefinito
 62
   255
370
    25
100
AcDbVertex
100
AcDb2dVertex
 10
608.8848295205048
 20
688.5431031561498
 30
0.0
  0
VERTEX
  5
55
330
53
100
AcDbEntity
  8
Predefinito
 62
   255
370
    25
100
AcDbVertex
100
AcDb2dVertex
 10
608.9103618240988
 20
688.6036431952393
 30
0.0
  0
VERTEX
  5
56
330
53
100
AcDbEntity
  8
Predefinito
 62
   255
370
    25
100
AcDbVertex
100
AcDb2dVertex
 10
608.9611498670814
 20
688.7421657807141
 30
0.0
  0
VERTEX
  5
57
330
53
100
AcDbEntity
  8
Predefinito
 62
   255
370
    25
100
AcDbVertex
100
AcDb2dVertex
 10
609.0059528444856
 20
688.8921637264689
 30
0.0
  0
VERTEX
  5
58
330
53
100
AcDbEntity
  8
Predefinito
 62
   255
370
    25
100
AcDbVertex
100
AcDb2dVertex
 10
609.0434129896335
 20
689.0546953845859
 30
0.0
  0
VERTEX
  5
59
330
53
100
AcDbEntity
  8
Predefinito
 62
   255
370
    25
100
AcDbVertex
100
AcDb2dVertex
 10
609.0728290040242
 20
689.2290850738927
 30
0.0
  0
VERTEX
  5
5A
330
53
100
AcDbEntity
  8
Predefinito
 62
   255
370
    25
100
AcDbVertex
100
AcDb2dVertex
 10
609.0785002090215
 20
689.2747799873889
 30
0.0
  0
VERTEX
  5
5B
330
53
100
AcDbEntity
  8
Predefinito
 62
   255
370
    25
100
AcDbVertex
100
AcDb2dVertex
 10
609.0834957328456
 20
689.3211761993858
 30
0.0
  0
VERTEX
  5
5C
330
53
100
AcDbEntity
  8
Predefinito
 62
   255
370
    25
100
AcDbVertex
100
AcDb2dVertex
 10
609.0878219798287
 20
689.3686179548014
 30
0.0
  0
VERTEX
  5
5D
330
53
100
AcDbEntity
  8
Predefinito
 62
   255
370
    25
100
AcDbVertex
100
AcDb2dVertex
 10
609.0921546311437
 20
689.4164039551355
 30
0.0
  0
VERTEX
  5
5E
330
53
100
AcDbEntity
  8
Predefinito
 62
   255
370
    25
100
AcDbVertex
100
AcDb2dVertex
 10
609.0981108047499
 20
689.514436904887
 30
0.0
  0
VERTEX
  5
5F
330
53
100
AcDbEntity
  8
Predefinito
 62
   255
370
    25
100
AcDbVertex
100
AcDb2dVertex
 10
609.1013450406687
 20
689.6142423138855
 30
0.0
  0
VERTEX
  5
60
330
53
100
AcDbEntity
  8
Predefinito
 62
   255
370
    25
100
AcDbVertex
100
AcDb2dVertex
 10
609.0996925297667
 20
689.8215802240516
 30
0.0
  0
VERTEX
  5
61
330
53
100
AcDbEntity
  8
Predefinito
 62
   255
370
    25
100
AcDbVertex
100
AcDb2dVertex
 10
609.0878791839426
 20
690.0380606320516
 30
0.0
  0
VERTEX
  5
62
330
53
100
AcDbEntity
  8
Predefinito
 62
   255
370
    25
100
AcDbVertex
100
AcDb2dVertex
 10
609.0665934930332
 20
690.2636707292218
 30
0.0
  0
VERTEX
  5
63
330
53
100
AcDbEntity
  8
Predefinito
 62
   255
370
    25
100
AcDbVertex
100
AcDb2dVertex
 10
609.0358290527066
 20
690.4980662706439
 30
0.0
  0
VERTEX
  5
64
330
53
100
AcDbEntity
  8
Predefinito
 62
   255
370
    25
100
AcDbVertex
100
AcDb2dVertex
 10
609.0181043635994
 20
690.6189234433208
 30
0.0
  0
VERTEX
  5
65
330
53
100
AcDbEntity
  8
Predefinito
 62
   255
370
    25
100
AcDbVertex
100
AcDb2dVertex
 10
608.9983526309733
 20
690.7418845114993
 30
0.0
  0
VERTEX
  5
66
330
53
100
AcDbEntity
  8
Predefinito
 62
   255
370
    25
100
AcDbVertex
100
AcDb2dVertex
 10
608.9878074878192
 20
690.8044105890073
 30
0.0
  0
VERTEX
  5
67
330
53
100
AcDbEntity
  8
Predefinito
 62
   255
370
    25
100
AcDbVertex
100
AcDb2dVertex
 10
608.9765738548283
 20
690.8669494751791
 30
0.0
  0
VERTEX
  5
68
330
53
100
AcDbEntity
  8
Predefinito
 62
   255
370
    25
100
AcDbVertex
100
AcDb2dVertex
 10
608.9653530305013
 20
690.9301768511876
 30
0.0
  0
VERTEX
  5
69
330
53
100
AcDbEntity
  8
Predefinito
 62
   255
370
    25
100
AcDbVertex
100
AcDb2dVertex
 10
608.9541386105061
 20
690.9937484721146
 30
0.0
  0
VERTEX
  5
6A
330
53
100
AcDbEntity
  8
Predefinito
 62
   255
370
    25
100
AcDbVertex
100
AcDb2dVertex
 10
608.9058961203286
 20
691.2511972034064
 30
0.0
  0
VERTEX
  5
6B
330
53
100
AcDbEntity
  8
Predefinito
 62
   255
370
    25
100
AcDbVertex
100
AcDb2dVertex
 10
608.8543136502774
 20
691.5142178967108
 30
0.0
  0
SEQEND
  5
6C
330
53
100
AcDbEntity
  8
Predefinito
 62
   255
370
    25
  0
POLYLINE
  5
6D
330
1F
100
AcDbEntity
  8
Predefinito
 62
   255
370
    25
100
AcDb2dPolyline
 66
     1
 10
0.0
 20
0.0
 30
0.0
  0
VERTEX
  5
6E
330
6D
100
AcDbEntity
  8
Predefinito
 62
   255
370
    25
100
AcDbVertex
100
AcDb2dVertex
 10
608.8848295205048
 20
646.3503098823405
 30
0.0
  0
VERTEX
  5
6F
330
6D
100
AcDbEntity
  8
Predefinito
 62
   255
370
    25
100
AcDbVertex
100
AcDb2dVertex
 10
608.8499572103686
 20
646.2876650138323
 30
0.0
  0
VERTEX
  5
70
330
6D
100
AcDbEntity
  8
Predefinito
 62
   255
370
    25
100
AcDbVertex
100
AcDb2dVertex
 10
608.7883267073205
 20
646.1940141935584
 30
0.0
  0
VERTEX
  5
71
330
6D
100
AcDbEntity
  8
Predefinito
 62
   255
370
    25
100
AcDbVertex
100
AcDb2dVertex
 10
608.7229088549234
 20
646.110348203387
 30
0.0
  0
VERTEX
  5
72
330
6D
100
AcDbEntity
  8
Predefinito
 62
   255
370
    25
100
AcDbVertex
100
AcDb2dVertex
 10
608.6533593486904
 20
646.0359784343459
 30
0.0
  0
VERTEX
  5
73
330
6D
100
AcDbEntity
  8
Predefinito
 62
   255
370
    25
100
AcDbVertex
100
AcDb2dVertex
 10
608.5803667975944
 20
645.9709048864349
 30
0.0
  0
VERTEX
  5
74
330
6D
100
AcDbEntity
  8
Predefinito
 62
   255
370
    25
100
AcDbVertex
100
AcDb2dVertex
 10
608.5039312016357
 20
645.9154718641405
 30
0.0
  0
VERTEX
  5
75
330
6D
100
AcDbEntity
  8
Predefinito
 62
   255
370
    25
100
AcDbVertex
100
AcDb2dVertex
 10
608.4240525608136
 20
645.8689907584896
 30
0.0
  0
VERTEX
  5
76
330
6D
100
AcDbEntity
  8
Predefinito
 62
   255
370
    25
100
AcDbVertex
100
AcDb2dVertex
 10
608.3830803269439
 20
645.8493654027706
 30
0.0
  0
VERTEX
  5
77
330
6D
100
AcDbEntity
  8
Predefinito
 62
   255
370
    25
100
AcDbVertex
100
AcDb2dVertex
 10
608.341075179615
 20
645.8318058739692
 30
0.0
  0
VERTEX
  5
78
330
6D
100
AcDbEntity
  8
Predefinito
 62
   255
370
    25
100
AcDbVertex
100
AcDb2dVertex
 10
608.3197283014642
 20
645.8242311752706
 30
0.0
  0
VERTEX
  5
79
330
6D
100
AcDbEntity
  8
Predefinito
 62
   255
370
    25
100
AcDbVertex
100
AcDb2dVertex
 10
608.2983814233136
 20
645.8170007810583
 30
0.0
  0
VERTEX
  5
7A
330
6D
100
AcDbEntity
  8
Predefinito
 62
   255
370
    25
100
AcDbVertex
100
AcDb2dVertex
 10
608.2766902406767
 20
645.8104589958185
 30
0.0
  0
VERTEX
  5
7B
330
6D
100
AcDbEntity
  8
Predefinito
 62
   255
370
    25
100
AcDbVertex
100
AcDb2dVertex
 10
608.2549990580395
 20
645.8042615150651
 30
0.0
  0
VERTEX
  5
7C
330
6D
100
AcDbEntity
  8
Predefinito
 62
   255
370
    25
100
AcDbVertex
100
AcDb2dVertex
 10
608.1672014140329
 20
645.7863576817774
 30
0.0
  0
VERTEX
  5
7D
330
6D
100
AcDbEntity
  8
Predefinito
 62
   255
370
    25
100
AcDbVertex
100
AcDb2dVertex
 10
608.0769936386217
 20
645.7774057651336
 30
0.0
  0
VERTEX
  5
7E
330
6D
100
AcDbEntity
  8
Predefinito
 62
   255
370
    25
100
AcDbVertex
100
AcDb2dVertex
 10
608.0342998823204
 20
645.7763728516746
 30
0.0
  0
SEQEND
  5
7F
330
6D
100
AcDbEntity
  8
Predefinito
 62
   255
370
    25
  0
POLYLINE
  5
80
330
1F
100
AcDbEntity
  8
Predefinito
 62
   255
370
    25
100
AcDb2dPolyline
 66
     1
 10
0.0
 20
0.0
 30
0.0
  0
VERTEX
  5
81
330
80
100
AcDbEntity
  8
Predefinito
 62
   255
370
    25
100
AcDbVertex
100
AcDb2dVertex
 10
608.8848295205048
 20
646.3503098823405
 30
0.0
  0
VERTEX
  5
82
330
80
100
AcDbEntity
  8
Predefinito
 62
   255
370
    25
100
AcDbVertex
100
AcDb2dVertex
 10
608.9103618240988
 20
646.4108499214301
 30
0.0
  0
VERTEX
  5
83
330
80
100
AcDbEntity
  8
Predefinito
 62
   255
370
    25
100
AcDbVertex
100
AcDb2dVertex
 10
608.9611498670814
 20
646.5493725069049
 30
0.0
  0
VERTEX
  5
84
330
80
100
AcDbEntity
  8
Predefinito
 62
   255
370
    25
100
AcDbVertex
100
AcDb2dVertex
 10
609.0059528444856
 20
646.6993704526597
 30
0.0
  0
VERTEX
  5
85
330
80
100
AcDbEntity
  8
Predefinito
 62
   255
370
    25
100
AcDbVertex
100
AcDb2dVertex
 10
609.0434129896335
 20
646.8619021107767
 30
0.0
  0
VERTEX
  5
86
330
80
100
AcDbEntity
  8
Predefinito
 62
   255
370
    25
100
AcDbVertex
100
AcDb2dVertex
 10
609.0728290040242
 20
647.0362918000835
 30
0.0
  0
VERTEX
  5
87
330
80
100
AcDbEntity
  8
Predefinito
 62
   255
370
    25
100
AcDbVertex
100
AcDb2dVertex
 10
609.0785002090215
 20
647.0819867135797
 30
0.0
  0
VERTEX
  5
88
330
80
100
AcDbEntity
  8
Predefinito
 62
   255
370
    25
100
AcDbVertex
100
AcDb2dVertex
 10
609.0834957328456
 20
647.1283829255766
 30
0.0
  0
VERTEX
  5
89
330
80
100
AcDbEntity
  8
Predefinito
 62
   255
370
    25
100
AcDbVertex
100
AcDb2dVertex
 10
609.0878219798287
 20
647.1758246809922
 30
0.0
  0
VERTEX
  5
8A
330
80
100
AcDbEntity
  8
Predefinito
 62
   255
370
    25
100
AcDbVertex
100
AcDb2dVertex
 10
609.0921546311437
 20
647.2236106813262
 30
0.0
  0
VERTEX
  5
8B
330
80
100
AcDbEntity
  8
Predefinito
 62
   255
370
    25
100
AcDbVertex
100
AcDb2dVertex
 10
609.0981108047499
 20
647.3216436310778
 30
0.0
  0
VERTEX
  5
8C
330
80
100
AcDbEntity
  8
Predefinito
 62
   255
370
    25
100
AcDbVertex
100
AcDb2dVertex
 10
609.1013450406687
 20
647.4214490400763
 30
0.0
  0
VERTEX
  5
8D
330
80
100
AcDbEntity
  8
Predefinito
 62
   255
370
    25
100
AcDbVertex
100
AcDb2dVertex
 10
609.0996925297667
 20
647.6287869502423
 30
0.0
  0
VERTEX
  5
8E
330
80
100
AcDbEntity
  8
Predefinito
 62
   255
370
    25
100
AcDbVertex
100
AcDb2dVertex
 10
609.0878791839426
 20
647.8452673582424
 30
0.0
  0
VERTEX
  5
8F
330
80
100
AcDbEntity
  8
Predefinito
 62
   255
370
    25
100
AcDbVertex
100
AcDb2dVertex
 10
609.0665934930332
 20
648.0708774554125
 30
0.0
  0
VERTEX
  5
90
330
80
100
AcDbEntity
  8
Predefinito
 62
   255
370
    25
100
AcDbVertex
100
AcDb2dVertex
 10
609.0358290527066
 20
648.3052729968347
 30
0.0
  0
VERTEX
  5
91
330
80
100
AcDbEntity
  8
Predefinito
 62
   255
370
    25
100
AcDbVertex
100
AcDb2dVertex
 10
609.0181043635994
 20
648.4261301695116
 30
0.0
  0
VERTEX
  5
92
330
80
100
AcDbEntity
  8
Predefinito
 62
   255
370
    25
100
AcDbVertex
100
AcDb2dVertex
 10
608.9983526309733
 20
648.54909123769
 30
0.0
  0
VERTEX
  5
93
330
80
100
AcDbEntity
  8
Predefinito
 62
   255
370
    25
100
AcDbVertex
100
AcDb2dVertex
 10
608.9878074878192
 20
648.611617315198
 30
0.0
  0
VERTEX
  5
94
330
80
100
AcDbEntity
  8
Predefinito
 62
   255
370
    25
100
AcDbVertex
100
AcDb2dVertex
 10
608.9765738548283
 20
648.6741562013699
 30
0.0
  0
VERTEX
  5
95
330
80
100
AcDbEntity
  8
Predefinito
 62
   255
370
    25
100
AcDbVertex
100
AcDb2dVertex
 10
608.9653530305013
 20
648.7373835773784
 30
0.0
  0
VERTEX
  5
96
330
80
100
AcDbEntity
  8
Predefinito
 62
   255
370
    25
100
AcDbVertex
100
AcDb2dVertex
 10
608.9541386105061
 20
648.8009551983054
 30
0.0
  0
VERTEX
  5
97
330
80
100
AcDbEntity
  8
Predefinito
 62
   255
370
    25
100
AcDbVertex
100
AcDb2dVertex
 10
608.9058961203286
 20
649.0584039295971
 30
0.0
  0
VERTEX
  5
98
330
80
100
AcDbEntity
  8
Predefinito
 62
   255
370
    25
100
AcDbVertex
100
AcDb2dVertex
 10
608.8543136502774
 20
649.3214246229015
 30
0.0
  0
SEQEND
  5
99
330
80
100
AcDbEntity
  8
Predefinito
 62
   255
370
    25
  0
POLYLINE
  5
9A
330
1F
100
AcDbEntity
  8
Predefinito
 62
   255
370
    25
100
AcDb2dPolyline
 66
     1
 10
0.0
 20
0.0
 30
0.0
  0
VERTEX
  5
9B
330
9A
100
AcDbEntity
  8
Predefinito
 62
   255
370
    25
100
AcDbVertex
100
AcDb2dVertex
 10
608.8543136502774
 20
691.5142178967108
 30
0.0
  0
VERTEX
  5
9C
330
9A
100
AcDbEntity
  8
Predefinito
 62
   255
370
    25
100
AcDbVertex
100
AcDb2dVertex
 10
608.8057125175145
 20
691.7523889125742
 30
0.0
  0
VERTEX
  5
9D
330
9A
100
AcDbEntity
  8
Predefinito
 62
   255
370
    25
100
AcDbVertex
100
AcDb2dVertex
 10
608.7523431905496
 20
691.9934035484309
 30
0.0
  0
VERTEX
  5
9E
330
9A
100
AcDbEntity
  8
Predefinito
 62
   255
370
    25
100
AcDbVertex
100
AcDb2dVertex
 10
608.6955762447242
 20
692.2368919420348
 30
0.0
  0
VERTEX
  5
9F
330
9A
100
AcDbEntity
  8
Predefinito
 62
   255
370
    25
100
AcDbVertex
100
AcDb2dVertex
 10
608.6340347003649
 20
692.4828797107139
 30
0.0
  0
VERTEX
  5
A0
330
9A
100
AcDbEntity
  8
Predefinito
 62
   255
370
    25
100
AcDbVertex
100
AcDb2dVertex
 10
608.5697904313137
 20
692.7316726733944
 30
0.0
  0
VERTEX
  5
A1
330
9A
100
AcDbEntity
  8
Predefinito
 62
   255
370
    25
100
AcDbVertex
100
AcDb2dVertex
 10
608.5014600535651
 20
692.9829522024866
 30
0.0
  0
VERTEX
  5
A2
330
9A
100
AcDbEntity
  8
Predefinito
 62
   255
370
    25
100
AcDbVertex
100
AcDb2dVertex
 10
608.4297320569563
 20
693.2367054893258
 30
0.0
  0
VERTEX
  5
A3
330
9A
100
AcDbEntity
  8
Predefinito
 62
   255
370
    25
100
AcDbVertex
100
AcDb2dVertex
 10
608.3546128458186
 20
693.4932767788307
 30
0.0
  0
VERTEX
  5
A4
330
9A
100
AcDbEntity
  8
Predefinito
 62
   255
370
    25
100
AcDbVertex
100
AcDb2dVertex
 10
608.3156922714061
 20
693.6224486532067
 30
0.0
  0
VERTEX
  5
A5
330
9A
100
AcDbEntity
  8
Predefinito
 62
   255
370
    25
100
AcDbVertex
100
AcDb2dVertex
 10
608.2760960158205
 20
693.7523218260833
 30
0.0
  0
VERTEX
  5
A6
330
9A
100
AcDbEntity
  8
Predefinito
 62
   255
370
    25
100
AcDbVertex
100
AcDb2dVertex
 10
608.2559568452751
 20
693.8174369393125
 30
0.0
  0
VERTEX
  5
A7
330
9A
100
AcDbEntity
  8
Predefinito
 62
   255
370
    25
100
AcDbVertex
100
AcDb2dVertex
 10
608.235824079062
 20
693.8828962974602
 30
0.0
  0
VERTEX
  5
A8
330
9A
100
AcDbEntity
  8
Predefinito
 62
   255
370
    25
100
AcDbVertex
100
AcDb2dVertex
 10
608.2156849085167
 20
693.9480114106894
 30
0.0
  0
VERTEX
  5
A9
330
9A
100
AcDbEntity
  8
Predefinito
 62
   255
370
    25
100
AcDbVertex
100
AcDb2dVertex
 10
608.1948636524667
 20
694.0134835775008
 30
0.0
  0
VERTEX
  5
AA
330
9A
100
AcDbEntity
  8
Predefinito
 62
   255
370
    25
100
AcDbVertex
100
AcDb2dVertex
 10
608.1122415007758
 20
694.2739824564092
 30
0.0
  0
VERTEX
  5
AB
330
9A
100
AcDbEntity
  8
Predefinito
 62
   255
370
    25
100
AcDbVertex
100
AcDb2dVertex
 10
608.0268653897378
 20
694.5345325699726
 30
0.0
  0
VERTEX
  5
AC
330
9A
100
AcDbEntity
  8
Predefinito
 62
   255
370
    25
100
AcDbVertex
100
AcDb2dVertex
 10
607.9401058946947
 20
694.7947640559454
 30
0.0
  0
VERTEX
  5
AD
330
9A
100
AcDbEntity
  8
Predefinito
 62
   255
370
    25
100
AcDbVertex
100
AcDb2dVertex
 10
607.8512745258095
 20
695.0546897229908
 30
0.0
  0
VERTEX
  5
AE
330
9A
100
AcDbEntity
  8
Predefinito
 62
   255
370
    25
100
AcDbVertex
100
AcDb2dVertex
 10
607.7610661772507
 20
695.3146410073638
 30
0.0
  0
VERTEX
  5
AF
330
9A
100
AcDbEntity
  8
Predefinito
 62
   255
370
    25
100
AcDbVertex
100
AcDb2dVertex
 10
607.6701629345234
 20
695.5742608554824
 30
0.0
  0
VERTEX
  5
B0
330
9A
100
AcDbEntity
  8
Predefinito
 62
   255
370
    25
100
AcDbVertex
100
AcDb2dVertex
 10
607.5772006266176
 20
695.8342633745103
 30
0.0
  0
VERTEX
  5
B1
330
9A
100
AcDbEntity
  8
Predefinito
 62
   255
370
    25
100
AcDbVertex
100
AcDb2dVertex
 10
607.4828485303748
 20
696.0936030210291
 30
0.0
  0
VERTEX
  5
B2
330
9A
100
AcDbEntity
  8
Predefinito
 62
   255
370
    25
100
AcDbVertex
100
AcDb2dVertex
 10
607.4356724822533
 20
696.2232728442887
 30
0.0
  0
VERTEX
  5
B3
330
9A
100
AcDbEntity
  8
Predefinito
 62
   255
370
    25
100
AcDbVertex
100
AcDb2dVertex
 10
607.3878015399632
 20
696.3526112312936
 30
0.0
  0
VERTEX
  5
B4
330
9A
100
AcDbEntity
  8
Predefinito
 62
   255
370
    25
100
AcDbVertex
100
AcDb2dVertex
 10
607.3399177890094
 20
696.4812611284616
 30
0.0
  0
VERTEX
  5
B5
330
9A
100
AcDbEntity
  8
Predefinito
 62
   255
370
    25
100
AcDbVertex
100
AcDb2dVertex
 10
607.2927161235604
 20
696.6095539720477
 30
0.0
  0
VERTEX
  5
B6
330
9A
100
AcDbEntity
  8
Predefinito
 62
   255
370
    25
100
AcDbVertex
100
AcDb2dVertex
 10
607.1016966926211
 20
697.1148461392604
 30
0.0
  0
VERTEX
  5
B7
330
9A
100
AcDbEntity
  8
Predefinito
 62
   255
370
    25
100
AcDbVertex
100
AcDb2dVertex
 10
606.9118749200626
 20
697.6104738314314
 30
0.0
  0
VERTEX
  5
B8
330
9A
100
AcDbEntity
  8
Predefinito
 62
   255
370
    25
100
AcDbVertex
100
AcDb2dVertex
 10
606.7225495073844
 20
698.0957613673878
 30
0.0
  0
VERTEX
  5
B9
330
9A
100
AcDbEntity
  8
Predefinito
 62
   255
370
    25
100
AcDbVertex
100
AcDb2dVertex
 10
606.5344153487553
 20
698.571040183384
 30
0.0
  0
VERTEX
  5
BA
330
9A
100
AcDbEntity
  8
Predefinito
 62
   255
370
    25
100
AcDbVertex
100
AcDb2dVertex
 10
606.4876972345228
 20
698.6883043809186
 30
0.0
  0
VERTEX
  5
BB
330
9A
100
AcDbEntity
  8
Predefinito
 62
   255
370
    25
100
AcDbVertex
100
AcDb2dVertex
 10
606.4416483971315
 20
698.8045230350341
 30
0.0
  0
VERTEX
  5
BC
330
9A
100
AcDbEntity
  8
Predefinito
 62
   255
370
    25
100
AcDbVertex
100
AcDb2dVertex
 10
606.3948918569079
 20
698.9197217630584
 30
0.0
  0
VERTEX
  5
BD
330
9A
100
AcDbEntity
  8
Predefinito
 62
   255
370
    25
100
AcDbVertex
100
AcDb2dVertex
 10
606.3494866790301
 20
699.0335178940817
 30
0.0
  0
VERTEX
  5
BE
330
9A
100
AcDbEntity
  8
Predefinito
 62
   255
370
    25
100
AcDbVertex
100
AcDb2dVertex
 10
606.2592879611288
 20
699.2569664084443
 30
0.0
  0
VERTEX
  5
BF
330
9A
100
AcDbEntity
  8
Predefinito
 62
   255
370
    25
100
AcDbVertex
100
AcDb2dVertex
 10
606.1703701579228
 20
699.4752256317038
 30
0.0
  0
VERTEX
  5
C0
330
9A
100
AcDbEntity
  8
Predefinito
 62
   255
370
    25
100
AcDbVertex
100
AcDb2dVertex
 10
605.9970785940969
 20
699.8968518860868
 30
0.0
  0
VERTEX
  5
C1
330
9A
100
AcDbEntity
  8
Predefinito
 62
   255
370
    25
100
AcDbVertex
100
AcDb2dVertex
 10
605.8302940730573
 20
700.2980396036489
 30
0.0
  0
VERTEX
  5
C2
330
9A
100
AcDbEntity
  8
Predefinito
 62
   255
370
    25
100
AcDbVertex
100
AcDb2dVertex
 10
605.7498591215017
 20
700.4910024352387
 30
0.0
  0
VERTEX
  5
C3
330
9A
100
AcDbEntity
  8
Predefinito
 62
   255
370
    25
100
AcDbVertex
100
AcDb2dVertex
 10
605.6700101904725
 20
700.678444539471
 30
0.0
  0
VERTEX
  5
C4
330
9A
100
AcDbEntity
  8
Predefinito
 62
   255
370
    25
100
AcDbVertex
100
AcDb2dVertex
 10
605.6508957613472
 20
700.7246005648627
 30
0.0
  0
VERTEX
  5
C5
330
9A
100
AcDbEntity
  8
Predefinito
 62
   255
370
    25
100
AcDbVertex
100
AcDb2dVertex
 10
605.6310800337217
 20
700.7700809090813
 30
0.0
  0
VERTEX
  5
C6
330
9A
100
AcDbEntity
  8
Predefinito
 62
   255
370
    25
100
AcDbVertex
100
AcDb2dVertex
 10
605.6112579017642
 20
700.8152170083816
 30
0.0
  0
VERTEX
  5
C7
330
9A
100
AcDbEntity
  8
Predefinito
 62
   255
370
    25
100
AcDbVertex
100
AcDb2dVertex
 10
605.5921242596435
 20
700.8603402990184
 30
0.0
  0
VERTEX
  5
C8
330
9A
100
AcDbEntity
  8
Predefinito
 62
   255
370
    25
100
AcDbVertex
100
AcDb2dVertex
 10
605.5538249537425
 20
700.9488656556995
 30
0.0
  0
VERTEX
  5
C9
330
9A
100
AcDbEntity
  8
Predefinito
 62
   255
370
    25
100
AcDbVertex
100
AcDb2dVertex
 10
605.5168642015237
 20
701.0352999255432
 30
0.0
  0
VERTEX
  5
CA
330
9A
100
AcDbEntity
  8
Predefinito
 62
   255
370
    25
100
AcDbVertex
100
AcDb2dVertex
 10
605.3728062977475
 20
701.3623709273431
 30
0.0
  0
VERTEX
  5
CB
330
9A
100
AcDbEntity
  8
Predefinito
 62
   255
370
    25
100
AcDbVertex
100
AcDb2dVertex
 10
605.238492947321
 20
701.6579235116155
 30
0.0
  0
VERTEX
  5
CC
330
9A
100
AcDbEntity
  8
Predefinito
 62
   255
370
    25
100
AcDbVertex
100
AcDb2dVertex
 10
605.17490201676
 20
701.7937529064176
 30
0.0
  0
VERTEX
  5
CD
330
9A
100
AcDbEntity
  8
Predefinito
 62
   255
370
    25
100
AcDbVertex
100
AcDb2dVertex
 10
605.1132356604079
 20
701.921970487024
 30
0.0
  0
VERTEX
  5
CE
330
9A
100
AcDbEntity
  8
Predefinito
 62
   255
370
    25
100
AcDbVertex
100
AcDb2dVertex
 10
605.0541759637694
 20
702.0422191998533
 30
0.0
  0
VERTEX
  5
CF
330
9A
100
AcDbEntity
  8
Predefinito
 62
   255
370
    25
100
AcDbVertex
100
AcDb2dVertex
 10
604.997021628344
 20
702.1538233637319
 30
0.0
  0
VERTEX
  5
D0
330
9A
100
AcDbEntity
  8
Predefinito
 62
   255
370
    25
100
AcDbVertex
100
AcDb2dVertex
 10
604.9830564753274
 20
702.1805992043851
 30
0.0
  0
VERTEX
  5
D1
330
9A
100
AcDbEntity
  8
Predefinito
 62
   255
370
    25
100
AcDbVertex
100
AcDb2dVertex
 10
604.969084917979
 20
702.2070308001197
 30
0.0
  0
VERTEX
  5
D2
330
9A
100
AcDbEntity
  8
Predefinito
 62
   255
370
    25
100
AcDbVertex
100
AcDb2dVertex
 10
604.9557826374717
 20
702.2324168524357
 30
0.0
  0
VERTEX
  5
D3
330
9A
100
AcDbEntity
  8
Predefinito
 62
   255
370
    25
100
AcDbVertex
100
AcDb2dVertex
 10
604.9424739526323
 20
702.2574586598332
 30
0.0
  0
VERTEX
  5
D4
330
9A
100
AcDbEntity
  8
Predefinito
 62
   255
370
    25
100
AcDbVertex
100
AcDb2dVertex
 10
604.9158245612946
 20
702.3058210500363
 30
0.0
  0
VERTEX
  5
D5
330
9A
100
AcDbEntity
  8
Predefinito
 62
   255
370
    25
100
AcDbVertex
100
AcDb2dVertex
 10
604.889825233802
 20
702.3521051620656
 30
0.0
  0
VERTEX
  5
D6
330
9A
100
AcDbEntity
  8
Predefinito
 62
   255
370
    25
100
AcDbVertex
100
AcDb2dVertex
 10
604.8397383443621
 20
702.4363730820921
 30
0.0
  0
VERTEX
  5
D7
330
9A
100
AcDbEntity
  8
Predefinito
 62
   255
370
    25
100
AcDbVertex
100
AcDb2dVertex
 10
604.7929145828134
 20
702.5109381010857
 30
0.0
  0
VERTEX
  5
D8
330
9A
100
AcDbEntity
  8
Predefinito
 62
   255
370
    25
100
AcDbVertex
100
AcDb2dVertex
 10
604.7479833738139
 20
702.5761700812919
 30
0.0
  0
VERTEX
  5
D9
330
9A
100
AcDbEntity
  8
Predefinito
 62
   255
370
    25
100
AcDbVertex
100
AcDb2dVertex
 10
604.7056268028689
 20
702.6317119691289
 30
0.0
  0
VERTEX
  5
DA
330
9A
100
AcDbEntity
  8
Predefinito
 62
   255
370
    25
100
AcDbVertex
100
AcDb2dVertex
 10
604.6651499758096
 20
702.677232328342
 30
0.0
  0
VERTEX
  5
DB
330
9A
100
AcDbEntity
  8
Predefinito
 62
   255
370
    25
100
AcDbVertex
100
AcDb2dVertex
 10
604.6272477868043
 20
702.7130625951858
 30
0.0
  0
VERTEX
  5
DC
330
9A
100
AcDbEntity
  8
Predefinito
 62
   255
370
    25
100
AcDbVertex
100
AcDb2dVertex
 10
604.59054325618
 20
702.739228386988
 30
0.0
  0
VERTEX
  5
DD
330
9A
100
AcDbEntity
  8
Predefinito
 62
   255
370
    25
100
AcDbVertex
100
AcDb2dVertex
 10
604.5564005549461
 20
702.755015596584
 30
0.0
  0
VERTEX
  5
DE
330
9A
100
AcDbEntity
  8
Predefinito
 62
   255
370
    25
100
AcDbVertex
100
AcDb2dVertex
 10
604.5481835072285
 20
702.7575790149779
 30
0.0
  0
VERTEX
  5
DF
330
9A
100
AcDbEntity
  8
Predefinito
 62
   255
370
    25
100
AcDbVertex
100
AcDb2dVertex
 10
604.5399536508471
 20
702.7594539435347
 30
0.0
  0
VERTEX
  5
E0
330
9A
100
AcDbEntity
  8
Predefinito
 62
   255
370
    25
100
AcDbVertex
100
AcDb2dVertex
 10
604.5248260874348
 20
702.7607684688925
 30
0.0
  0
SEQEND
  5
E1
330
9A
100
AcDbEntity
  8
Predefinito
 62
   255
370
    25
  0
POLYLINE
  5
E2
330
1F
100
AcDbEntity
  8
Predefinito
 62
   255
370
    25
100
AcDb2dPolyline
 66
     1
 10
0.0
 20
0.0
 30
0.0
  0
VERTEX
  5
E3
330
E2
100
AcDbEntity
  8
Predefinito
 62
   255
370
    25
100
AcDbVertex
100
AcDb2dVertex
 10
608.8543136502774
 20
649.3214246229015
 30
0.0
  0
VERTEX
  5
E4
330
E2
100
AcDbEntity
  8
Predefinito
 62
   255
370
    25
100
AcDbVertex
100
AcDb2dVertex
 10
608.8057125175145
 20
649.559595638765
 30
0.0
  0
VERTEX
  5
E5
330
E2
100
AcDbEntity
  8
Predefinito
 62
   255
370
    25
100
AcDbVertex
100
AcDb2dVertex
 10
608.7523431905496
 20
649.8006102746217
 30
0.0
  0
VERTEX
  5
E6
330
E2
100
AcDbEntity
  8
Predefinito
 62
   255
370
    25
100
AcDbVertex
100
AcDb2dVertex
 10
608.6955762447242
 20
650.0440986682256
 30
0.0
  0
VERTEX
  5
E7
330
E2
100
AcDbEntity
  8
Predefinito
 62
   255
370
    25
100
AcDbVertex
100
AcDb2dVertex
 10
608.6340347003649
 20
650.2900864369046
 30
0.0
  0
VERTEX
  5
E8
330
E2
100
AcDbEntity
  8
Predefinito
 62
   255
370
    25
100
AcDbVertex
100
AcDb2dVertex
 10
608.5697904313137
 20
650.5388793995852
 30
0.0
  0
VERTEX
  5
E9
330
E2
100
AcDbEntity
  8
Predefinito
 62
   255
370
    25
100
AcDbVertex
100
AcDb2dVertex
 10
608.5014600535651
 20
650.7901589286773
 30
0.0
  0
VERTEX
  5
EA
330
E2
100
AcDbEntity
  8
Predefinito
 62
   255
370
    25
100
AcDbVertex
100
AcDb2dVertex
 10
608.4297320569563
 20
651.0439122155166
 30
0.0
  0
VERTEX
  5
EB
330
E2
100
AcDbEntity
  8
Predefinito
 62
   255
370
    25
100
AcDbVertex
100
AcDb2dVertex
 10
608.3546128458186
 20
651.3004835050215
 30
0.0
  0
VERTEX
  5
EC
330
E2
100
AcDbEntity
  8
Predefinito
 62
   255
370
    25
100
AcDbVertex
100
AcDb2dVertex
 10
608.3156922714061
 20
651.4296553793974
 30
0.0
  0
VERTEX
  5
ED
330
E2
100
AcDbEntity
  8
Predefinito
 62
   255
370
    25
100
AcDbVertex
100
AcDb2dVertex
 10
608.2760960158205
 20
651.5595285522741
 30
0.0
  0
VERTEX
  5
EE
330
E2
100
AcDbEntity
  8
Predefinito
 62
   255
370
    25
100
AcDbVertex
100
AcDb2dVertex
 10
608.2559568452751
 20
651.6246436655033
 30
0.0
  0
VERTEX
  5
EF
330
E2
100
AcDbEntity
  8
Predefinito
 62
   255
370
    25
100
AcDbVertex
100
AcDb2dVertex
 10
608.235824079062
 20
651.690103023651
 30
0.0
  0
VERTEX
  5
F0
330
E2
100
AcDbEntity
  8
Predefinito
 62
   255
370
    25
100
AcDbVertex
100
AcDb2dVertex
 10
608.2156849085167
 20
651.7552181368802
 30
0.0
  0
VERTEX
  5
F1
330
E2
100
AcDbEntity
  8
Predefinito
 62
   255
370
    25
100
AcDbVertex
100
AcDb2dVertex
 10
608.1948636524667
 20
651.8206903036915
 30
0.0
  0
VERTEX
  5
F2
330
E2
100
AcDbEntity
  8
Predefinito
 62
   255
370
    25
100
AcDbVertex
100
AcDb2dVertex
 10
608.1122415007758
 20
652.0811891825999
 30
0.0
  0
VERTEX
  5
F3
330
E2
100
AcDbEntity
  8
Predefinito
 62
   255
370
    25
100
AcDbVertex
100
AcDb2dVertex
 10
608.0268653897378
 20
652.3417392961634
 30
0.0
  0
VERTEX
  5
F4
330
E2
100
AcDbEntity
  8
Predefinito
 62
   255
370
    25
100
AcDbVertex
100
AcDb2dVertex
 10
607.9401058946947
 20
652.6019707821362
 30
0.0
  0
VERTEX
  5
F5
330
E2
100
AcDbEntity
  8
Predefinito
 62
   255
370
    25
100
AcDbVertex
100
AcDb2dVertex
 10
607.8512745258095
 20
652.8618964491816
 30
0.0
  0
VERTEX
  5
F6
330
E2
100
AcDbEntity
  8
Predefinito
 62
   255
370
    25
100
AcDbVertex
100
AcDb2dVertex
 10
607.7610661772507
 20
653.1218477335545
 30
0.0
  0
VERTEX
  5
F7
330
E2
100
AcDbEntity
  8
Predefinito
 62
   255
370
    25
100
AcDbVertex
100
AcDb2dVertex
 10
607.6701629345234
 20
653.3814675816732
 30
0.0
  0
VERTEX
  5
F8
330
E2
100
AcDbEntity
  8
Predefinito
 62
   255
370
    25
100
AcDbVertex
100
AcDb2dVertex
 10
607.5772006266176
 20
653.6414701007011
 30
0.0
  0
VERTEX
  5
F9
330
E2
100
AcDbEntity
  8
Predefinito
 62
   255
370
    25
100
AcDbVertex
100
AcDb2dVertex
 10
607.4828485303748
 20
653.9008097472199
 30
0.0
  0
VERTEX
  5
FA
330
E2
100
AcDbEntity
  8
Predefinito
 62
   255
370
    25
100
AcDbVertex
100
AcDb2dVertex
 10
607.4356724822533
 20
654.0304795704794
 30
0.0
  0
VERTEX
  5
FB
330
E2
100
AcDbEntity
  8
Predefinito
 62
   255
370
    25
100
AcDbVertex
100
AcDb2dVertex
 10
607.3878015399632
 20
654.1598179574844
 30
0.0
  0
VERTEX
  5
FC
330
E2
100
AcDbEntity
  8
Predefinito
 62
   255
370
    25
100
AcDbVertex
100
AcDb2dVertex
 10
607.3399177890094
 20
654.2884678546524
 30
0.0
  0
VERTEX
  5
FD
330
E2
100
AcDbEntity
  8
Predefinito
 62
   255
370
    25
100
AcDbVertex
100
AcDb2dVertex
 10
607.2927161235604
 20
654.4167606982385
 30
0.0
  0
VERTEX
  5
FE
330
E2
100
AcDbEntity
  8
Predefinito
 62
   255
370
    25
100
AcDbVertex
100
AcDb2dVertex
 10
607.1016966926211
 20
654.9220528654512
 30
0.0
  0
VERTEX
  5
FF
330
E2
100
AcDbEntity
  8
Predefinito
 62
   255
370
    25
100
AcDbVertex
100
AcDb2dVertex
 10
606.9118749200626
 20
655.4176805576221
 30
0.0
  0
VERTEX
  5
100
330
E2
100
AcDbEntity
  8
Predefinito
 62
   255
370
    25
100
AcDbVertex
100
AcDb2dVertex
 10
606.7225495073844
 20
655.9029680935786
 30
0.0
  0
VERTEX
  5
101
330
E2
100
AcDbEntity
  8
Predefinito
 62
   255
370
    25
100
AcDbVertex
100
AcDb2dVertex
 10
606.5344153487553
 20
656.3782469095747
 30
0.0
  0
VERTEX
  5
102
330
E2
100
AcDbEntity
  8
Predefinito
 62
   255
370
    25
100
AcDbVertex
100
AcDb2dVertex
 10
606.4876972345228
 20
656.4955111071093
 30
0.0
  0
VERTEX
  5
103
330
E2
100
AcDbEntity
  8
Predefinito
 62
   255
370
    25
100
AcDbVertex
100
AcDb2dVertex
 10
606.4416483971315
 20
656.6117297612249
 30
0.0
  0
VERTEX
  5
104
330
E2
100
AcDbEntity
  8
Predefinito
 62
   255
370
    25
100
AcDbVertex
100
AcDb2dVertex
 10
606.3948918569079
 20
656.7269284892492
 30
0.0
  0
VERTEX
  5
105
330
E2
100
AcDbEntity
  8
Predefinito
 62
   255
370
    25
100
AcDbVertex
100
AcDb2dVertex
 10
606.3494866790301
 20
656.8407246202725
 30
0.0
  0
VERTEX
  5
106
330
E2
100
AcDbEntity
  8
Predefinito
 62
   255
370
    25
100
AcDbVertex
100
AcDb2dVertex
 10
606.2592879611288
 20
657.0641731346351
 30
0.0
  0
VERTEX
  5
107
330
E2
100
AcDbEntity
  8
Predefinito
 62
   255
370
    25
100
AcDbVertex
100
AcDb2dVertex
 10
606.1703701579228
 20
657.2824323578945
 30
0.0
  0
VERTEX
  5
108
330
E2
100
AcDbEntity
  8
Predefinito
 62
   255
370
    25
100
AcDbVertex
100
AcDb2dVertex
 10
605.9970785940969
 20
657.7040586122775
 30
0.0
  0
VERTEX
  5
109
330
E2
100
AcDbEntity
  8
Predefinito
 62
   255
370
    25
100
AcDbVertex
100
AcDb2dVertex
 10
605.8302940730573
 20
658.1052463298397
 30
0.0
  0
VERTEX
  5
10A
330
E2
100
AcDbEntity
  8
Predefinito
 62
   255
370
    25
100
AcDbVertex
100
AcDb2dVertex
 10
605.7498591215017
 20
658.2982091614294
 30
0.0
  0
VERTEX
  5
10B
330
E2
100
AcDbEntity
  8
Predefinito
 62
   255
370
    25
100
AcDbVertex
100
AcDb2dVertex
 10
605.6700101904725
 20
658.4856512656618
 30
0.0
  0
VERTEX
  5
10C
330
E2
100
AcDbEntity
  8
Predefinito
 62
   255
370
    25
100
AcDbVertex
100
AcDb2dVertex
 10
605.6508957613472
 20
658.5318072910535
 30
0.0
  0
VERTEX
  5
10D
330
E2
100
AcDbEntity
  8
Predefinito
 62
   255
370
    25
100
AcDbVertex
100
AcDb2dVertex
 10
605.6310800337217
 20
658.5772876352721
 30
0.0
  0
VERTEX
  5
10E
330
E2
100
AcDbEntity
  8
Predefinito
 62
   255
370
    25
100
AcDbVertex
100
AcDb2dVertex
 10
605.6112579017642
 20
658.6224237345724
 30
0.0
  0
VERTEX
  5
10F
330
E2
100
AcDbEntity
  8
Predefinito
 62
   255
370
    25
100
AcDbVertex
100
AcDb2dVertex
 10
605.5921242596435
 20
658.6675470252092
 30
0.0
  0
VERTEX
  5
110
330
E2
100
AcDbEntity
  8
Predefinito
 62
   255
370
    25
100
AcDbVertex
100
AcDb2dVertex
 10
605.5538249537425
 20
658.7560723818902
 30
0.0
  0
VERTEX
  5
111
330
E2
100
AcDbEntity
  8
Predefinito
 62
   255
370
    25
100
AcDbVertex
100
AcDb2dVertex
 10
605.5168642015237
 20
658.842506651734
 30
0.0
  0
VERTEX
  5
112
330
E2
100
AcDbEntity
  8
Predefinito
 62
   255
370
    25
100
AcDbVertex
100
AcDb2dVertex
 10
605.3728062977475
 20
659.1695776535339
 30
0.0
  0
VERTEX
  5
113
330
E2
100
AcDbEntity
  8
Predefinito
 62
   255
370
    25
100
AcDbVertex
100
AcDb2dVertex
 10
605.238492947321
 20
659.4651302378063
 30
0.0
  0
VERTEX
  5
114
330
E2
100
AcDbEntity
  8
Predefinito
 62
   255
370
    25
100
AcDbVertex
100
AcDb2dVertex
 10
605.17490201676
 20
659.6009596326084
 30
0.0
  0
VERTEX
  5
115
330
E2
100
AcDbEntity
  8
Predefinito
 62
   255
370
    25
100
AcDbVertex
100
AcDb2dVertex
 10
605.1132356604079
 20
659.7291772132148
 30
0.0
  0
VERTEX
  5
116
330
E2
100
AcDbEntity
  8
Predefinito
 62
   255
370
    25
100
AcDbVertex
100
AcDb2dVertex
 10
605.0541759637694
 20
659.8494259260441
 30
0.0
  0
VERTEX
  5
117
330
E2
100
AcDbEntity
  8
Predefinito
 62
   255
370
    25
100
AcDbVertex
100
AcDb2dVertex
 10
604.997021628344
 20
659.9610300899227
 30
0.0
  0
VERTEX
  5
118
330
E2
100
AcDbEntity
  8
Predefinito
 62
   255
370
    25
100
AcDbVertex
100
AcDb2dVertex
 10
604.9830564753274
 20
659.9878059305759
 30
0.0
  0
VERTEX
  5
119
330
E2
100
AcDbEntity
  8
Predefinito
 62
   255
370
    25
100
AcDbVertex
100
AcDb2dVertex
 10
604.969084917979
 20
660.0142375263105
 30
0.0
  0
VERTEX
  5
11A
330
E2
100
AcDbEntity
  8
Predefinito
 62
   255
370
    25
100
AcDbVertex
100
AcDb2dVertex
 10
604.9557826374717
 20
660.0396235786264
 30
0.0
  0
VERTEX
  5
11B
330
E2
100
AcDbEntity
  8
Predefinito
 62
   255
370
    25
100
AcDbVertex
100
AcDb2dVertex
 10
604.9424739526323
 20
660.064665386024
 30
0.0
  0
VERTEX
  5
11C
330
E2
100
AcDbEntity
  8
Predefinito
 62
   255
370
    25
100
AcDbVertex
100
AcDb2dVertex
 10
604.9158245612946
 20
660.1130277762271
 30
0.0
  0
VERTEX
  5
11D
330
E2
100
AcDbEntity
  8
Predefinito
 62
   255
370
    25
100
AcDbVertex
100
AcDb2dVertex
 10
604.889825233802
 20
660.1593118882564
 30
0.0
  0
VERTEX
  5
11E
330
E2
100
AcDbEntity
  8
Predefinito
 62
   255
370
    25
100
AcDbVertex
100
AcDb2dVertex
 10
604.8397383443621
 20
660.2435798082829
 30
0.0
  0
VERTEX
  5
11F
330
E2
100
AcDbEntity
  8
Predefinito
 62
   255
370
    25
100
AcDbVertex
100
AcDb2dVertex
 10
604.7929145828134
 20
660.3181448272765
 30
0.0
  0
VERTEX
  5
120
330
E2
100
AcDbEntity
  8
Predefinito
 62
   255
370
    25
100
AcDbVertex
100
AcDb2dVertex
 10
604.7479833738139
 20
660.3833768074827
 30
0.0
  0
VERTEX
  5
121
330
E2
100
AcDbEntity
  8
Predefinito
 62
   255
370
    25
100
AcDbVertex
100
AcDb2dVertex
 10
604.7056268028689
 20
660.4389186953197
 30
0.0
  0
VERTEX
  5
122
330
E2
100
AcDbEntity
  8
Predefinito
 62
   255
370
    25
100
AcDbVertex
100
AcDb2dVertex
 10
604.6651499758096
 20
660.4844390545328
 30
0.0
  0
VERTEX
  5
123
330
E2
100
AcDbEntity
  8
Predefinito
 62
   255
370
    25
100
AcDbVertex
100
AcDb2dVertex
 10
604.6272477868043
 20
660.5202693213765
 30
0.0
  0
VERTEX
  5
124
330
E2
100
AcDbEntity
  8
Predefinito
 62
   255
370
    25
100
AcDbVertex
100
AcDb2dVertex
 10
604.59054325618
 20
660.5464351131787
 30
0.0
  0
VERTEX
  5
125
330
E2
100
AcDbEntity
  8
Predefinito
 62
   255
370
    25
100
AcDbVertex
100
AcDb2dVertex
 10
604.5564005549461
 20
660.5622223227748
 30
0.0
  0
VERTEX
  5
126
330
E2
100
AcDbEntity
  8
Predefinito
 62
   255
370
    25
100
AcDbVertex
100
AcDb2dVertex
 10
604.5481835072285
 20
660.5647857411686
 30
0.0
  0
VERTEX
  5
127
330
E2
100
AcDbEntity
  8
Predefinito
 62
   255
370
    25
100
AcDbVertex
100
AcDb2dVertex
 10
604.5399536508471
 20
660.5666606697255
 30
0.0
  0
VERTEX
  5
128
330
E2
100
AcDbEntity
  8
Predefinito
 62
   255
370
    25
100
AcDbVertex
100
AcDb2dVertex
 10
604.5248260874348
 20
660.5679751950832
 30
0.0
  0
SEQEND
  5
129
330
E2
100
AcDbEntity
  8
Predefinito
 62
   255
370
    25
  0
POLYLINE
  5
12A
330
1F
100
AcDbEntity
  8
Predefinito
 62
   255
370
     9
100
AcDb2dPolyline
 66
     1
 10
0.0
 20
0.0
 30
0.0
  0
VERTEX
  5
12B
330
12A
100
AcDbEntity
  8
Predefinito
 62
   255
370
     9
100
AcDbVertex
100
AcDb2dVertex
 10
566.3190569310113
 20
1165.121472639408
 30
0.0
  0
VERTEX
  5
12C
330
12A
100
AcDbEntity
  8
Predefinito
 62
   255
370
     9
100
AcDbVertex
100
AcDb2dVertex
 10
566.3190569310113
 20
1164.821239127353
 30
0.0
  0
SEQEND
  5
12D
330
12A
100
AcDbEntity
  8
Predefinito
 62
   255
370
     9
  0
POLYLINE
  5
12E
330
1F
100
AcDbEntity
  8
Predefinito
 62
   255
370
     9
100
AcDb2dPolyline
 66
     1
 10
0.0
 20
0.0
 30
0.0
  0
VERTEX
  5
12F
330
12E
100
AcDbEntity
  8
Predefinito
 62
   255
370
     9
100
AcDbVertex
100
AcDb2dVertex
 10
563.1008428975516
 20
1165.121472639408
 30
0.0
  0
VERTEX
  5
130
330
12E
100
AcDbEntity
  8
Predefinito
 62
   255
370
     9
100
AcDbVertex
100
AcDb2dVertex
 10
563.1008428975516
 20
1164.821239127353
 30
0.0
  0
SEQEND
  5
131
330
12E
100
AcDbEntity
  8
Predefinito
 62
   255
370
     9
  0
POLYLINE
  5
132
330
1F
100
AcDbEntity
  8
Predefinito
 62
   255
370
    25
100
AcDb2dPolyline
 66
     1
 10
0.0
 20
0.0
 30
0.0
  0
VERTEX
  5
133
330
132
100
AcDbEntity
  8
Predefinito
 62
   255
370
    25
100
AcDbVertex
100
AcDb2dVertex
 10
-187.7246389889573
 20
677.7929027283587
 30
0.0
  0
VERTEX
  5
134
330
132
100
AcDbEntity
  8
Predefinito
 62
   255
370
    25
100
AcDbVertex
100
AcDb2dVertex
 10
-187.7952214086491
 20
677.8638294525368
 30
0.0
  0
SEQEND
  5
135
330
132
100
AcDbEntity
  8
Predefinito
 62
   255
370
    25
  0
POLYLINE
  5
136
330
1F
100
AcDbEntity
  8
Predefinito
 62
   255
370
    25
100
AcDb2dPolyline
 66
     1
 10
0.0
 20
0.0
 30
0.0
  0
VERTEX
  5
137
330
136
100
AcDbEntity
  8
Predefinito
 62
   255
370
    25
100
AcDbVertex
100
AcDb2dVertex
 10
-186.0447774002926
 20
679.4589921375713
 30
0.0
  0
VERTEX
  5
138
330
136
100
AcDbEntity
  8
Predefinito
 62
   255
370
    25
100
AcDbVertex
100
AcDb2dVertex
 10
-185.4367356774843
 20
680.0666895558933
 30
0.0
  0
SEQEND
  5
139
330
136
100
AcDbEntity
  8
Predefinito
 62
   255
370
    25
  0
POLYLINE
  5
13A
330
1F
100
AcDbEntity
  8
Predefinito
 62
   255
370
    25
100
AcDb2dPolyline
 66
     1
 10
0.0
 20
0.0
 30
0.0
  0
VERTEX
  5
13B
330
13A
100
AcDbEntity
  8
Predefinito
 62
   255
370
    25
100
AcDbVertex
100
AcDb2dVertex
 10
-187.4929220696764
 20
678.0249639521259
 30
0.0
  0
VERTEX
  5
13C
330
13A
100
AcDbEntity
  8
Predefinito
 62
   255
370
    25
100
AcDbVertex
100
AcDb2dVertex
 10
-187.6612869634778
 20
677.8562547538381
 30
0.0
  0
VERTEX
  5
13D
330
13A
100
AcDbEntity
  8
Predefinito
 62
   255
370
    25
100
AcDbVertex
100
AcDb2dVertex
 10
-187.8293075527929
 20
677.688234164523
 30
0.0
  0
VERTEX
  5
13E
330
13A
100
AcDbEntity
  8
Predefinito
 62
   255
370
    25
100
AcDbVertex
100
AcDb2dVertex
 10
-187.9966395331354
 20
677.5209021841806
 30
0.0
  0
VERTEX
  5
13F
330
13A
100
AcDbEntity
  8
Predefinito
 62
   255
370
    25
100
AcDbVertex
100
AcDb2dVertex
 10
-188.162938600019
 20
677.3549474217833
 30
0.0
  0
VERTEX
  5
140
330
13A
100
AcDbEntity
  8
Predefinito
 62
   255
370
    25
100
AcDbVertex
100
AcDb2dVertex
 10
-188.3275161444711
 20
677.1903698773311
 30
0.0
  0
VERTEX
  5
141
330
13A
100
AcDbEntity
  8
Predefinito
 62
   255
370
    25
100
AcDbVertex
100
AcDb2dVertex
 10
-188.489683557519
 20
677.0278581597969
 30
0.0
  0
VERTEX
  5
142
330
13A
100
AcDbEntity
  8
Predefinito
 62
   255
370
    25
100
AcDbVertex
100
AcDb2dVertex
 10
-188.6497851436492
 20
676.8677565736667
 30
0.0
  0
VERTEX
  5
143
330
13A
100
AcDbEntity
  8
Predefinito
 62
   255
370
    25
100
AcDbVertex
100
AcDb2dVertex
 10
-188.8081652073479
 20
676.7097208144544
 30
0.0
  0
SEQEND
  5
144
330
13A
100
AcDbEntity
  8
Predefinito
 62
   255
370
    25
  0
POLYLINE
  5
145
330
1F
100
AcDbEntity
  8
Predefinito
 62
   255
370
    25
100
AcDb2dPolyline
 66
     1
 10
0.0
 20
0.0
 30
0.0
  0
VERTEX
  5
146
330
145
100
AcDbEntity
  8
Predefinito
 62
   255
370
    25
100
AcDbVertex
100
AcDb2dVertex
 10
-187.4788055857381
 20
678.0105031637013
 30
0.0
  0
VERTEX
  5
147
330
145
100
AcDbEntity
  8
Predefinito
 62
   255
370
    25
100
AcDbVertex
100
AcDb2dVertex
 10
-187.6471704795395
 20
677.8421382698998
 30
0.0
  0
VERTEX
  5
148
330
145
100
AcDbEntity
  8
Predefinito
 62
   255
370
    25
100
AcDbVertex
100
AcDb2dVertex
 10
-187.8151910688546
 20
677.6741176805847
 30
0.0
  0
VERTEX
  5
149
330
145
100
AcDbEntity
  8
Predefinito
 62
   255
370
    25
100
AcDbVertex
100
AcDb2dVertex
 10
-187.9825230491971
 20
677.5067857002423
 30
0.0
  0
VERTEX
  5
14A
330
145
100
AcDbEntity
  8
Predefinito
 62
   255
370
    25
100
AcDbVertex
100
AcDb2dVertex
 10
-188.1488221160806
 20
677.3408309378449
 30
0.0
  0
VERTEX
  5
14B
330
145
100
AcDbEntity
  8
Predefinito
 62
   255
370
    25
100
AcDbVertex
100
AcDb2dVertex
 10
-188.3133996605327
 20
677.1762533933928
 30
0.0
  0
VERTEX
  5
14C
330
145
100
AcDbEntity
  8
Predefinito
 62
   255
370
    25
100
AcDbVertex
100
AcDb2dVertex
 10
-188.4755670735807
 20
677.0137416758586
 30
0.0
  0
VERTEX
  5
14D
330
145
100
AcDbEntity
  8
Predefinito
 62
   255
370
    25
100
AcDbVertex
100
AcDb2dVertex
 10
-188.6360129641972
 20
676.8536400897283
 30
0.0
  0
VERTEX
  5
14E
330
145
100
AcDbEntity
  8
Predefinito
 62
   255
370
    25
100
AcDbVertex
100
AcDb2dVertex
 10
-188.7937044189232
 20
676.695604330516
 30
0.0
  0
SEQEND
  5
14F
330
145
100
AcDbEntity
  8
Predefinito
 62
   255
370
    25
  0
POLYLINE
  5
150
330
1F
100
AcDbEntity
  8
Predefinito
 62
   255
370
    25
100
AcDb2dPolyline
 66
     1
 10
0.0
 20
0.0
 30
0.0
  0
VERTEX
  5
151
330
150
100
AcDbEntity
  8
Predefinito
 62
   255
370
    25
100
AcDbVertex
100
AcDb2dVertex
 10
-174.7481472047425
 20
690.7693945125735
 30
0.0
  0
VERTEX
  5
152
330
150
100
AcDbEntity
  8
Predefinito
 62
   255
370
    25
100
AcDbVertex
100
AcDb2dVertex
 10
-181.1205346372095
 20
684.3973513845929
 30
0.0
  0
VERTEX
  5
153
330
150
100
AcDbEntity
  8
Predefinito
 62
   255
370
    25
100
AcDbVertex
100
AcDb2dVertex
 10
-187.4929220696764
 20
678.0249639521259
 30
0.0
  0
SEQEND
  5
154
330
150
100
AcDbEntity
  8
Predefinito
 62
   255
370
    25
  0
POLYLINE
  5
155
330
1F
100
AcDbEntity
  8
Predefinito
 62
   255
370
    25
100
AcDb2dPolyline
 66
     1
 10
0.0
 20
0.0
 30
0.0
  0
VERTEX
  5
156
330
155
100
AcDbEntity
  8
Predefinito
 62
   255
370
    25
100
AcDbVertex
100
AcDb2dVertex
 10
-174.7340307208042
 20
690.7552780286351
 30
0.0
  0
VERTEX
  5
157
330
155
100
AcDbEntity
  8
Predefinito
 62
   255
370
    25
100
AcDbVertex
100
AcDb2dVertex
 10
-181.1064181532711
 20
684.3828905961682
 30
0.0
  0
VERTEX
  5
158
330
155
100
AcDbEntity
  8
Predefinito
 62
   255
370
    25
100
AcDbVertex
100
AcDb2dVertex
 10
-187.4788055857381
 20
678.0105031637013
 30
0.0
  0
SEQEND
  5
159
330
155
100
AcDbEntity
  8
Predefinito
 62
   255
370
    25
  0
POLYLINE
  5
15A
330
1F
100
AcDbEntity
  8
Predefinito
 62
   255
370
    25
100
AcDb2dPolyline
 66
     1
 10
0.0
 20
0.0
 30
0.0
  0
VERTEX
  5
15B
330
15A
100
AcDbEntity
  8
Predefinito
 62
   255
370
    25
100
AcDbVertex
100
AcDb2dVertex
 10
-188.8081652073479
 20
676.7097208144544
 30
0.0
  0
VERTEX
  5
15C
330
15A
100
AcDbEntity
  8
Predefinito
 62
   255
370
    25
100
AcDbVertex
100
AcDb2dVertex
 10
-189.9567649736495
 20
675.5607767436666
 30
0.0
  0
VERTEX
  5
15D
330
15A
100
AcDbEntity
  8
Predefinito
 62
   255
370
    25
100
AcDbVertex
100
AcDb2dVertex
 10
-191.083673557314
 20
674.4342124644883
 30
0.0
  0
VERTEX
  5
15E
330
15A
100
AcDbEntity
  8
Predefinito
 62
   255
370
    25
100
AcDbVertex
100
AcDb2dVertex
 10
-192.188202349369
 20
673.3293393679469
 30
0.0
  0
VERTEX
  5
15F
330
15A
100
AcDbEntity
  8
Predefinito
 62
   255
370
    25
100
AcDbVertex
100
AcDb2dVertex
 10
-193.271039958787
 20
672.2468460630153
 30
0.0
  0
VERTEX
  5
160
330
15A
100
AcDbEntity
  8
Predefinito
 62
   255
370
    25
100
AcDbVertex
100
AcDb2dVertex
 10
-194.3314977765955
 20
671.1860439407205
 30
0.0
  0
VERTEX
  5
161
330
15A
100
AcDbEntity
  8
Predefinito
 62
   255
370
    25
100
AcDbVertex
100
AcDb2dVertex
 10
-195.3699201072806
 20
670.1479659145216
 30
0.0
  0
VERTEX
  5
162
330
15A
100
AcDbEntity
  8
Predefinito
 62
   255
370
    25
100
AcDbVertex
100
AcDb2dVertex
 10
-195.8808679649519
 20
669.6370180568503
 30
0.0
  0
VERTEX
  5
163
330
15A
100
AcDbEntity
  8
Predefinito
 62
   255
370
    25
100
AcDbVertex
100
AcDb2dVertex
 10
-196.3859626463561
 20
669.1319233754463
 30
0.0
  0
VERTEX
  5
164
330
15A
100
AcDbEntity
  8
Predefinito
 62
   255
370
    25
100
AcDbVertex
100
AcDb2dVertex
 10
-196.5112894793699
 20
669.0062522379461
 30
0.0
  0
VERTEX
  5
165
330
15A
100
AcDbEntity
  8
Predefinito
 62
   255
370
    25
100
AcDbVertex
100
AcDb2dVertex
 10
-196.6362720078972
 20
668.8816140139049
 30
0.0
  0
VERTEX
  5
166
330
15A
100
AcDbEntity
  8
Predefinito
 62
   255
370
    25
100
AcDbVertex
100
AcDb2dVertex
 10
-196.7609102319384
 20
668.7569757898639
 30
0.0
  0
VERTEX
  5
167
330
15A
100
AcDbEntity
  8
Predefinito
 62
   255
370
    25
100
AcDbVertex
100
AcDb2dVertex
 10
-196.8848598470069
 20
668.6330261747953
 30
0.0
  0
VERTEX
  5
168
330
15A
100
AcDbEntity
  8
Predefinito
 62
   255
370
    25
100
AcDbVertex
100
AcDb2dVertex
 10
-197.1310375547124
 20
668.3865041626035
 30
0.0
  0
VERTEX
  5
169
330
15A
100
AcDbEntity
  8
Predefinito
 62
   255
370
    25
100
AcDbVertex
100
AcDb2dVertex
 10
-197.3751494355002
 20
668.1423922818159
 30
0.0
  0
SEQEND
  5
16A
330
15A
100
AcDbEntity
  8
Predefinito
 62
   255
370
    25
  0
POLYLINE
  5
16B
330
1F
100
AcDbEntity
  8
Predefinito
 62
   255
370
    25
100
AcDb2dPolyline
 66
     1
 10
0.0
 20
0.0
 30
0.0
  0
VERTEX
  5
16C
330
16B
100
AcDbEntity
  8
Predefinito
 62
   255
370
    25
100
AcDbVertex
100
AcDb2dVertex
 10
-188.7937044189232
 20
676.695604330516
 30
0.0
  0
VERTEX
  5
16D
330
16B
100
AcDbEntity
  8
Predefinito
 62
   255
370
    25
100
AcDbVertex
100
AcDb2dVertex
 10
-189.9426484897111
 20
675.5466602597281
 30
0.0
  0
VERTEX
  5
16E
330
16B
100
AcDbEntity
  8
Predefinito
 62
   255
370
    25
100
AcDbVertex
100
AcDb2dVertex
 10
-191.0695570733757
 20
674.4200959805498
 30
0.0
  0
VERTEX
  5
16F
330
16B
100
AcDbEntity
  8
Predefinito
 62
   255
370
    25
100
AcDbVertex
100
AcDb2dVertex
 10
-192.1740858654307
 20
673.3152228840084
 30
0.0
  0
VERTEX
  5
170
330
16B
100
AcDbEntity
  8
Predefinito
 62
   255
370
    25
100
AcDbVertex
100
AcDb2dVertex
 10
-193.2569234748487
 20
672.2323852745905
 30
0.0
  0
VERTEX
  5
171
330
16B
100
AcDbEntity
  8
Predefinito
 62
   255
370
    25
100
AcDbVertex
100
AcDb2dVertex
 10
-194.3173812926571
 20
671.1719274567821
 30
0.0
  0
VERTEX
  5
172
330
16B
100
AcDbEntity
  8
Predefinito
 62
   255
370
    25
100
AcDbVertex
100
AcDb2dVertex
 10
-195.3558036233422
 20
670.133505126097
 30
0.0
  0
VERTEX
  5
173
330
16B
100
AcDbEntity
  8
Predefinito
 62
   255
370
    25
100
AcDbVertex
100
AcDb2dVertex
 10
-195.8667514810136
 20
669.622901572912
 30
0.0
  0
VERTEX
  5
174
330
16B
100
AcDbEntity
  8
Predefinito
 62
   255
370
    25
100
AcDbVertex
100
AcDb2dVertex
 10
-196.3718461624178
 20
669.1178068915078
 30
0.0
  0
VERTEX
  5
175
330
16B
100
AcDbEntity
  8
Predefinito
 62
   255
370
    25
100
AcDbVertex
100
AcDb2dVertex
 10
-196.4971729954315
 20
668.9924800584939
 30
0.0
  0
VERTEX
  5
176
330
16B
100
AcDbEntity
  8
Predefinito
 62
   255
370
    25
100
AcDbVertex
100
AcDb2dVertex
 10
-196.6221555239589
 20
668.8671532254803
 30
0.0
  0
VERTEX
  5
177
330
16B
100
AcDbEntity
  8
Predefinito
 62
   255
370
    25
100
AcDbVertex
100
AcDb2dVertex
 10
-196.746793748
 20
668.7425150014392
 30
0.0
  0
VERTEX
  5
178
330
16B
100
AcDbEntity
  8
Predefinito
 62
   255
370
    25
100
AcDbVertex
100
AcDb2dVertex
 10
-196.8707433630686
 20
668.6185653863707
 30
0.0
  0
VERTEX
  5
179
330
16B
100
AcDbEntity
  8
Predefinito
 62
   255
370
    25
100
AcDbVertex
100
AcDb2dVertex
 10
-197.1169210707741
 20
668.3723876786652
 30
0.0
  0
VERTEX
  5
17A
330
16B
100
AcDbEntity
  8
Predefinito
 62
   255
370
    25
100
AcDbVertex
100
AcDb2dVertex
 10
-197.3613772560481
 20
668.1282757978774
 30
0.0
  0
SEQEND
  5
17B
330
16B
100
AcDbEntity
  8
Predefinito
 62
   255
370
    25
  0
POLYLINE
  5
17C
330
1F
100
AcDbEntity
  8
Predefinito
 62
   255
370
    25
100
AcDb2dPolyline
 66
     1
 10
0.0
 20
0.0
 30
0.0
  0
VERTEX
  5
17D
330
17C
100
AcDbEntity
  8
Predefinito
 62
   255
370
    25
100
AcDbVertex
100
AcDb2dVertex
 10
-174.6431343364206
 20
690.8744073808954
 30
0.0
  0
VERTEX
  5
17E
330
17C
100
AcDbEntity
  8
Predefinito
 62
   255
370
    25
100
AcDbVertex
100
AcDb2dVertex
 10
-174.6658584325165
 20
690.8516832847994
 30
0.0
  0
VERTEX
  5
17F
330
17C
100
AcDbEntity
  8
Predefinito
 62
   255
370
    25
100
AcDbVertex
100
AcDb2dVertex
 10
-174.6885825286124
 20
690.8289591887036
 30
0.0
  0
VERTEX
  5
180
330
17C
100
AcDbEntity
  8
Predefinito
 62
   255
370
    25
100
AcDbVertex
100
AcDb2dVertex
 10
-174.7185370189206
 20
690.7993490028817
 30
0.0
  0
VERTEX
  5
181
330
17C
100
AcDbEntity
  8
Predefinito
 62
   255
370
    25
100
AcDbVertex
100
AcDb2dVertex
 10
-174.7481472047425
 20
690.7693945125735
 30
0.0
  0
SEQEND
  5
182
330
17C
100
AcDbEntity
  8
Predefinito
 62
   255
370
    25
  0
POLYLINE
  5
183
330
1F
100
AcDbEntity
  8
Predefinito
 62
   255
370
    25
100
AcDb2dPolyline
 66
     1
 10
0.0
 20
0.0
 30
0.0
  0
VERTEX
  5
184
330
183
100
AcDbEntity
  8
Predefinito
 62
   255
370
    25
100
AcDbVertex
100
AcDb2dVertex
 10
-174.6290178524822
 20
690.8606352014433
 30
0.0
  0
VERTEX
  5
185
330
183
100
AcDbEntity
  8
Predefinito
 62
   255
370
    25
100
AcDbVertex
100
AcDb2dVertex
 10
-174.6517419485781
 20
690.837566800861
 30
0.0
  0
VERTEX
  5
186
330
183
100
AcDbEntity
  8
Predefinito
 62
   255
370
    25
100
AcDbVertex
100
AcDb2dVertex
 10
-174.674466044674
 20
690.8148427047652
 30
0.0
  0
VERTEX
  5
187
330
183
100
AcDbEntity
  8
Predefinito
 62
   255
370
    25
100
AcDbVertex
100
AcDb2dVertex
 10
-174.7044205349822
 20
690.7848882144569
 30
0.0
  0
VERTEX
  5
188
330
183
100
AcDbEntity
  8
Predefinito
 62
   255
370
    25
100
AcDbVertex
100
AcDb2dVertex
 10
-174.7340307208042
 20
690.7552780286351
 30
0.0
  0
SEQEND
  5
189
330
183
100
AcDbEntity
  8
Predefinito
 62
   255
370
    25
  0
POLYLINE
  5
18A
330
1F
100
AcDbEntity
  8
Predefinito
 62
   255
370
    25
100
AcDb2dPolyline
 66
     1
 10
0.0
 20
0.0
 30
0.0
  0
VERTEX
  5
18B
330
18A
100
AcDbEntity
  8
Predefinito
 62
   255
370
    25
100
AcDbVertex
100
AcDb2dVertex
 10
-197.3751494355002
 20
668.1423922818159
 30
0.0
  0
VERTEX
  5
18C
330
18A
100
AcDbEntity
  8
Predefinito
 62
   255
370
    25
100
AcDbVertex
100
AcDb2dVertex
 10
-197.4002836630001
 20
668.1172580543158
 30
0.0
  0
VERTEX
  5
18D
330
18A
100
AcDbEntity
  8
Predefinito
 62
   255
370
    25
100
AcDbVertex
100
AcDb2dVertex
 10
-197.4254178905001
 20
668.0924681313021
 30
0.0
  0
VERTEX
  5
18E
330
18A
100
AcDbEntity
  8
Predefinito
 62
   255
370
    25
100
AcDbVertex
100
AcDb2dVertex
 10
-197.4498635090276
 20
668.0676782082884
 30
0.0
  0
VERTEX
  5
18F
330
18A
100
AcDbEntity
  8
Predefinito
 62
   255
370
    25
100
AcDbVertex
100
AcDb2dVertex
 10
-197.4743091275549
 20
668.0435768942473
 30
0.0
  0
VERTEX
  5
190
330
18A
100
AcDbEntity
  8
Predefinito
 62
   255
370
    25
100
AcDbVertex
100
AcDb2dVertex
 10
-197.5214788421783
 20
667.9960628751377
 30
0.0
  0
VERTEX
  5
191
330
18A
100
AcDbEntity
  8
Predefinito
 62
   255
370
    25
100
AcDbVertex
100
AcDb2dVertex
 10
-197.5672713388564
 20
667.9502703784595
 30
0.0
  0
VERTEX
  5
192
330
18A
100
AcDbEntity
  8
Predefinito
 62
   255
370
    25
100
AcDbVertex
100
AcDb2dVertex
 10
-197.6543803738906
 20
667.8631613434253
 30
0.0
  0
VERTEX
  5
193
330
18A
100
AcDbEntity
  8
Predefinito
 62
   255
370
    25
100
AcDbVertex
100
AcDb2dVertex
 10
-197.7356362326578
 20
667.7822497891444
 30
0.0
  0
VERTEX
  5
194
330
18A
100
AcDbEntity
  8
Predefinito
 62
   255
370
    25
100
AcDbVertex
100
AcDb2dVertex
 10
-197.8103503061852
 20
667.7071914111308
 30
0.0
  0
VERTEX
  5
195
330
18A
100
AcDbEntity
  8
Predefinito
 62
   255
370
    25
100
AcDbVertex
100
AcDb2dVertex
 10
-197.8795555079318
 20
667.6383305138704
 30
0.0
  0
VERTEX
  5
196
330
18A
100
AcDbEntity
  8
Predefinito
 62
   255
370
    25
100
AcDbVertex
100
AcDb2dVertex
 10
-197.8957378187879
 20
667.6221482030143
 30
0.0
  0
VERTEX
  5
197
330
18A
100
AcDbEntity
  8
Predefinito
 62
   255
370
    25
100
AcDbVertex
100
AcDb2dVertex
 10
-197.9115758251578
 20
667.6063101966445
 30
0.0
  0
VERTEX
  5
198
330
18A
100
AcDbEntity
  8
Predefinito
 62
   255
370
    25
100
AcDbVertex
100
AcDb2dVertex
 10
-197.9267252225551
 20
667.5911607992473
 30
0.0
  0
VERTEX
  5
199
330
18A
100
AcDbEntity
  8
Predefinito
 62
   255
370
    25
100
AcDbVertex
100
AcDb2dVertex
 10
-197.941530315466
 20
667.57601140185
 30
0.0
  0
VERTEX
  5
19A
330
18A
100
AcDbEntity
  8
Predefinito
 62
   255
370
    25
100
AcDbVertex
100
AcDb2dVertex
 10
-197.970107587829
 20
667.5477784339732
 30
0.0
  0
VERTEX
  5
19B
330
18A
100
AcDbEntity
  8
Predefinito
 62
   255
370
    25
100
AcDbVertex
100
AcDb2dVertex
 10
-197.9966190332742
 20
667.521266988528
 30
0.0
  0
VERTEX
  5
19C
330
18A
100
AcDbEntity
  8
Predefinito
 62
   255
370
    25
100
AcDbVertex
100
AcDb2dVertex
 10
-198.0441330523838
 20
667.4737529694183
 30
0.0
  0
VERTEX
  5
19D
330
18A
100
AcDbEntity
  8
Predefinito
 62
   255
370
    25
100
AcDbVertex
100
AcDb2dVertex
 10
-198.0840723727948
 20
667.4334693445211
 30
0.0
  0
VERTEX
  5
19E
330
18A
100
AcDbEntity
  8
Predefinito
 62
   255
370
    25
100
AcDbVertex
100
AcDb2dVertex
 10
-198.1016319015962
 20
667.4162541202061
 30
0.0
  0
VERTEX
  5
19F
330
18A
100
AcDbEntity
  8
Predefinito
 62
   255
370
    25
100
AcDbVertex
100
AcDb2dVertex
 10
-198.1171256034798
 20
667.4007604183225
 30
0.0
  0
VERTEX
  5
1A0
330
18A
100
AcDbEntity
  8
Predefinito
 62
   255
370
    25
100
AcDbVertex
100
AcDb2dVertex
 10
-198.1240116932057
 20
667.3935300241102
 30
0.0
  0
VERTEX
  5
1A1
330
18A
100
AcDbEntity
  8
Predefinito
 62
   255
370
    25
100
AcDbVertex
100
AcDb2dVertex
 10
-198.1305534784455
 20
667.3873325433567
 30
0.0
  0
VERTEX
  5
1A2
330
18A
100
AcDbEntity
  8
Predefinito
 62
   255
370
    25
100
AcDbVertex
100
AcDb2dVertex
 10
-198.1367509591989
 20
667.3811350626033
 30
0.0
  0
VERTEX
  5
1A3
330
18A
100
AcDbEntity
  8
Predefinito
 62
   255
370
    25
100
AcDbVertex
100
AcDb2dVertex
 10
-198.1422598309797
 20
667.3756261908226
 30
0.0
  0
VERTEX
  5
1A4
330
18A
100
AcDbEntity
  8
Predefinito
 62
   255
370
    25
100
AcDbVertex
100
AcDb2dVertex
 10
-198.1598193597811
 20
667.3580666620212
 30
0.0
  0
VERTEX
  5
1A5
330
18A
100
AcDbEntity
  8
Predefinito
 62
   255
370
    25
100
AcDbVertex
100
AcDb2dVertex
 10
-198.1691155809113
 20
667.3484261364047
 30
0.0
  0
VERTEX
  5
1A6
330
18A
100
AcDbEntity
  8
Predefinito
 62
   255
370
    25
100
AcDbVertex
100
AcDb2dVertex
 10
-198.171181407829
 20
667.346360309487
 30
0.0
  0
SEQEND
  5
1A7
330
18A
100
AcDbEntity
  8
Predefinito
 62
   255
370
    25
  0
POLYLINE
  5
1A8
330
1F
100
AcDbEntity
  8
Predefinito
 62
   255
370
    25
100
AcDb2dPolyline
 66
     1
 10
0.0
 20
0.0
 30
0.0
  0
VERTEX
  5
1A9
330
1A8
100
AcDbEntity
  8
Predefinito
 62
   255
370
    25
100
AcDbVertex
100
AcDb2dVertex
 10
-197.3613772560481
 20
668.1282757978774
 30
0.0
  0
VERTEX
  5
1AA
330
1A8
100
AcDbEntity
  8
Predefinito
 62
   255
370
    25
100
AcDbVertex
100
AcDb2dVertex
 10
-197.3861671790618
 20
668.1031415703775
 30
0.0
  0
VERTEX
  5
1AB
330
1A8
100
AcDbEntity
  8
Predefinito
 62
   255
370
    25
100
AcDbVertex
100
AcDb2dVertex
 10
-197.4109571020755
 20
668.0783516473637
 30
0.0
  0
VERTEX
  5
1AC
330
1A8
100
AcDbEntity
  8
Predefinito
 62
   255
370
    25
100
AcDbVertex
100
AcDb2dVertex
 10
-197.4357470250892
 20
668.0535617243501
 30
0.0
  0
VERTEX
  5
1AD
330
1A8
100
AcDbEntity
  8
Predefinito
 62
   255
370
    25
100
AcDbVertex
100
AcDb2dVertex
 10
-197.4601926436166
 20
668.029460410309
 30
0.0
  0
VERTEX
  5
1AE
330
1A8
100
AcDbEntity
  8
Predefinito
 62
   255
370
    25
100
AcDbVertex
100
AcDb2dVertex
 10
-197.5073623582398
 20
667.9819463911994
 30
0.0
  0
VERTEX
  5
1AF
330
1A8
100
AcDbEntity
  8
Predefinito
 62
   255
370
    25
100
AcDbVertex
100
AcDb2dVertex
 10
-197.553154854918
 20
667.9361538945213
 30
0.0
  0
VERTEX
  5
1B0
330
1A8
100
AcDbEntity
  8
Predefinito
 62
   255
370
    25
100
AcDbVertex
100
AcDb2dVertex
 10
-197.6402638899523
 20
667.849044859487
 30
0.0
  0
VERTEX
  5
1B1
330
1A8
100
AcDbEntity
  8
Predefinito
 62
   255
370
    25
100
AcDbVertex
100
AcDb2dVertex
 10
-197.7215197487194
 20
667.7681333052061
 30
0.0
  0
VERTEX
  5
1B2
330
1A8
100
AcDbEntity
  8
Predefinito
 62
   255
370
    25
100
AcDbVertex
100
AcDb2dVertex
 10
-197.7962338222468
 20
667.6930749271925
 30
0.0
  0
VERTEX
  5
1B3
330
1A8
100
AcDbEntity
  8
Predefinito
 62
   255
370
    25
100
AcDbVertex
100
AcDb2dVertex
 10
-197.8650947195071
 20
667.6242140299321
 30
0.0
  0
VERTEX
  5
1B4
330
1A8
100
AcDbEntity
  8
Predefinito
 62
   255
370
    25
100
AcDbVertex
100
AcDb2dVertex
 10
-197.8816213348495
 20
667.6080317190759
 30
0.0
  0
VERTEX
  5
1B5
330
1A8
100
AcDbEntity
  8
Predefinito
 62
   255
370
    25
100
AcDbVertex
100
AcDb2dVertex
 10
-197.8974593412194
 20
667.592193712706
 30
0.0
  0
VERTEX
  5
1B6
330
1A8
100
AcDbEntity
  8
Predefinito
 62
   255
370
    25
100
AcDbVertex
100
AcDb2dVertex
 10
-197.9126087386167
 20
667.5767000108225
 30
0.0
  0
VERTEX
  5
1B7
330
1A8
100
AcDbEntity
  8
Predefinito
 62
   255
370
    25
100
AcDbVertex
100
AcDb2dVertex
 10
-197.9274138315276
 20
667.5618949179117
 30
0.0
  0
VERTEX
  5
1B8
330
1A8
100
AcDbEntity
  8
Predefinito
 62
   255
370
    25
100
AcDbVertex
100
AcDb2dVertex
 10
-197.9559911038907
 20
667.5333176455485
 30
0.0
  0
VERTEX
  5
1B9
330
1A8
100
AcDbEntity
  8
Predefinito
 62
   255
370
    25
100
AcDbVertex
100
AcDb2dVertex
 10
-197.9825025493359
 20
667.5071505045897
 30
0.0
  0
VERTEX
  5
1BA
330
1A8
100
AcDbEntity
  8
Predefinito
 62
   255
370
    25
100
AcDbVertex
100
AcDb2dVertex
 10
-198.0300165684454
 20
667.45963648548
 30
0.0
  0
VERTEX
  5
1BB
330
1A8
100
AcDbEntity
  8
Predefinito
 62
   255
370
    25
100
AcDbVertex
100
AcDb2dVertex
 10
-198.0699558888564
 20
667.4193528605828
 30
0.0
  0
VERTEX
  5
1BC
330
1A8
100
AcDbEntity
  8
Predefinito
 62
   255
370
    25
100
AcDbVertex
100
AcDb2dVertex
 10
-198.0875154176578
 20
667.4021376362678
 30
0.0
  0
VERTEX
  5
1BD
330
1A8
100
AcDbEntity
  8
Predefinito
 62
   255
370
    25
100
AcDbVertex
100
AcDb2dVertex
 10
-198.1030091195414
 20
667.3866439343841
 30
0.0
  0
VERTEX
  5
1BE
330
1A8
100
AcDbEntity
  8
Predefinito
 62
   255
370
    25
100
AcDbVertex
100
AcDb2dVertex
 10
-198.1098952092674
 20
667.3797578446581
 30
0.0
  0
VERTEX
  5
1BF
330
1A8
100
AcDbEntity
  8
Predefinito
 62
   255
370
    25
100
AcDbVertex
100
AcDb2dVertex
 10
-198.1164369945072
 20
667.3728717549321
 30
0.0
  0
VERTEX
  5
1C0
330
1A8
100
AcDbEntity
  8
Predefinito
 62
   255
370
    25
100
AcDbVertex
100
AcDb2dVertex
 10
-198.1226344752606
 20
667.367018578665
 30
0.0
  0
VERTEX
  5
1C1
330
1A8
100
AcDbEntity
  8
Predefinito
 62
   255
370
    25
100
AcDbVertex
100
AcDb2dVertex
 10
-198.1281433470414
 20
667.3611654023979
 30
0.0
  0
VERTEX
  5
1C2
330
1A8
100
AcDbEntity
  8
Predefinito
 62
   255
370
    25
100
AcDbVertex
100
AcDb2dVertex
 10
-198.1457028758428
 20
667.3439501780828
 30
0.0
  0
VERTEX
  5
1C3
330
1A8
100
AcDbEntity
  8
Predefinito
 62
   255
370
    25
100
AcDbVertex
100
AcDb2dVertex
 10
-198.1553434014592
 20
667.3343096524663
 30
0.0
  0
VERTEX
  5
1C4
330
1A8
100
AcDbEntity
  8
Predefinito
 62
   255
370
    25
100
AcDbVertex
100
AcDb2dVertex
 10
-198.157409228377
 20
667.3322438255485
 30
0.0
  0
SEQEND
  5
1C5
330
1A8
100
AcDbEntity
  8
Predefinito
 62
   255
370
    25
  0
POLYLINE
  5
1C6
330
1F
100
AcDbEntity
  8
Predefinito
 62
   255
370
    25
100
AcDb2dPolyline
 66
     1
 10
0.0
 20
0.0
 30
0.0
  0
VERTEX
  5
1C7
330
1C6
100
AcDbEntity
  8
Predefinito
 62
   255
370
    25
100
AcDbVertex
100
AcDb2dVertex
 10
-168.0958402249125
 20
347.8920503068592
 30
0.0
  0
VERTEX
  5
1C8
330
1C6
100
AcDbEntity
  8
Predefinito
 62
   255
370
    25
100
AcDbVertex
100
AcDb2dVertex
 10
-168.5472234064537
 20
347.8231894095989
 30
0.0
  0
VERTEX
  5
1C9
330
1C6
100
AcDbEntity
  8
Predefinito
 62
   255
370
    25
100
AcDbVertex
100
AcDb2dVertex
 10
-169.014788898851
 20
347.6193611537084
 30
0.0
  0
VERTEX
  5
1CA
330
1C6
100
AcDbEntity
  8
Predefinito
 62
   255
370
    25
100
AcDbVertex
100
AcDb2dVertex
 10
-169.210009542584
 20
347.4699330066537
 30
0.0
  0
VERTEX
  5
1CB
330
1C6
100
AcDbEntity
  8
Predefinito
 62
   255
370
    25
100
AcDbVertex
100
AcDb2dVertex
 10
-169.3704554332004
 20
347.3074212891193
 30
0.0
  0
VERTEX
  5
1CC
330
1C6
100
AcDbEntity
  8
Predefinito
 62
   255
370
    25
100
AcDbVertex
100
AcDb2dVertex
 10
-169.4964708751868
 20
347.1476640074755
 30
0.0
  0
VERTEX
  5
1CD
330
1C6
100
AcDbEntity
  8
Predefinito
 62
   255
370
    25
100
AcDbVertex
100
AcDb2dVertex
 10
-169.5980406986457
 20
346.9934155976124
 30
0.0
  0
VERTEX
  5
1CE
330
1C6
100
AcDbEntity
  8
Predefinito
 62
   255
370
    25
100
AcDbVertex
100
AcDb2dVertex
 10
-169.6744762946046
 20
346.8618912838452
 30
0.0
  0
SEQEND
  5
1CF
330
1C6
100
AcDbEntity
  8
Predefinito
 62
   255
370
    25
  0
POLYLINE
  5
1D0
330
1F
100
AcDbEntity
  8
Predefinito
 62
   255
370
    25
100
AcDb2dPolyline
 66
     1
 10
0.0
 20
0.0
 30
0.0
  0
VERTEX
  5
1D1
330
1D0
100
AcDbEntity
  8
Predefinito
 62
   255
370
    25
100
AcDbVertex
100
AcDb2dVertex
 10
-170.6653846061801
 20
346.7055770470644
 30
0.0
  0
VERTEX
  5
1D2
330
1D0
100
AcDbEntity
  8
Predefinito
 62
   255
370
    25
100
AcDbVertex
100
AcDb2dVertex
 10
-170.4815260104952
 20
347.0450612705577
 30
0.0
  0
VERTEX
  5
1D3
330
1D0
100
AcDbEntity
  8
Predefinito
 62
   255
370
    25
100
AcDbVertex
100
AcDb2dVertex
 10
-170.3765131421732
 20
347.204129943229
 30
0.0
  0
VERTEX
  5
1D4
330
1D0
100
AcDbEntity
  8
Predefinito
 62
   255
370
    25
100
AcDbVertex
100
AcDb2dVertex
 10
-170.2456774373786
 20
347.3693960966536
 30
0.0
  0
VERTEX
  5
1D5
330
1D0
100
AcDbEntity
  8
Predefinito
 62
   255
370
    25
100
AcDbVertex
100
AcDb2dVertex
 10
-170.0780011525499
 20
347.5394825128865
 30
0.0
  0
VERTEX
  5
1D6
330
1D0
100
AcDbEntity
  8
Predefinito
 62
   255
370
    25
100
AcDbVertex
100
AcDb2dVertex
 10
-169.8727956787142
 20
347.6957967496674
 30
0.0
  0
VERTEX
  5
1D7
330
1D0
100
AcDbEntity
  8
Predefinito
 62
   255
370
    25
100
AcDbVertex
100
AcDb2dVertex
 10
-169.3811288722758
 20
347.9106427491195
 30
0.0
  0
VERTEX
  5
1D8
330
1D0
100
AcDbEntity
  8
Predefinito
 62
   255
370
    25
100
AcDbVertex
100
AcDb2dVertex
 10
-168.9087431170703
 20
347.9829466912427
 30
0.0
  0
SEQEND
  5
1D9
330
1D0
100
AcDbEntity
  8
Predefinito
 62
   255
370
    25
  0
POLYLINE
  5
1DA
330
1F
100
AcDbEntity
  8
Predefinito
 62
   255
370
    25
100
AcDb2dPolyline
 66
     1
 10
0.0
 20
0.0
 30
0.0
  0
VERTEX
  5
1DB
330
1DA
100
AcDbEntity
  8
Predefinito
 62
   255
370
    25
100
AcDbVertex
100
AcDb2dVertex
 10
-163.40985616635
 20
347.9829466912427
 30
0.0
  0
VERTEX
  5
1DC
330
1DA
100
AcDbEntity
  8
Predefinito
 62
   255
370
    25
100
AcDbVertex
100
AcDb2dVertex
 10
-168.9087431170703
 20
347.9829466912427
 30
0.0
  0
SEQEND
  5
1DD
330
1DA
100
AcDbEntity
  8
Predefinito
 62
   255
370
    25
  0
POLYLINE
  5
1DE
330
1F
100
AcDbEntity
  8
Predefinito
 62
   255
370
    25
100
AcDb2dPolyline
 66
     1
 10
0.0
 20
0.0
 30
0.0
  0
VERTEX
  5
1DF
330
1DE
100
AcDbEntity
  8
Predefinito
 62
   255
370
    25
100
AcDbVertex
100
AcDb2dVertex
 10
-162.5969532741924
 20
347.8920503068592
 30
0.0
  0
VERTEX
  5
1E0
330
1DE
100
AcDbEntity
  8
Predefinito
 62
   255
370
    25
100
AcDbVertex
100
AcDb2dVertex
 10
-168.0958402249125
 20
347.8920503068592
 30
0.0
  0
SEQEND
  5
1E1
330
1DE
100
AcDbEntity
  8
Predefinito
 62
   255
370
    25
  0
POLYLINE
  5
1E2
330
1F
100
AcDbEntity
  8
Predefinito
 62
   255
370
    25
100
AcDb2dPolyline
 66
     1
 10
0.0
 20
0.0
 30
0.0
  0
VERTEX
  5
1E3
330
1E2
100
AcDbEntity
  8
Predefinito
 62
   255
370
    25
100
AcDbVertex
100
AcDb2dVertex
 10
-162.6086596267266
 20
346.8928786876124
 30
0.0
  0
VERTEX
  5
1E4
330
1E2
100
AcDbEntity
  8
Predefinito
 62
   255
370
    25
100
AcDbVertex
100
AcDb2dVertex
 10
-168.1078908819331
 20
346.8928786876124
 30
0.0
  0
SEQEND
  5
1E5
330
1E2
100
AcDbEntity
  8
Predefinito
 62
   255
370
    25
  0
POLYLINE
  5
1E6
330
1F
100
AcDbEntity
  8
Predefinito
 62
   255
370
    25
100
AcDb2dPolyline
 66
     1
 10
0.0
 20
0.0
 30
0.0
  0
VERTEX
  5
1E7
330
1E6
100
AcDbEntity
  8
Predefinito
 62
   255
370
    25
100
AcDbVertex
100
AcDb2dVertex
 10
-160.7604331442605
 20
346.8543165851466
 30
0.0
  0
VERTEX
  5
1E8
330
1E6
100
AcDbEntity
  8
Predefinito
 62
   255
370
    25
100
AcDbVertex
100
AcDb2dVertex
 10
-160.7876331986783
 20
346.8949445145303
 30
0.0
  0
VERTEX
  5
1E9
330
1E6
100
AcDbEntity
  8
Predefinito
 62
   255
370
    25
100
AcDbVertex
100
AcDb2dVertex
 10
-160.8984992432673
 20
347.0491929243933
 30
0.0
  0
VERTEX
  5
1EA
330
1E6
100
AcDbEntity
  8
Predefinito
 62
   255
370
    25
100
AcDbVertex
100
AcDb2dVertex
 10
-161.0365653422743
 20
347.2123932509002
 30
0.0
  0
VERTEX
  5
1EB
330
1E6
100
AcDbEntity
  8
Predefinito
 62
   255
370
    25
100
AcDbVertex
100
AcDb2dVertex
 10
-161.2159479796372
 20
347.3852341030234
 30
0.0
  0
VERTEX
  5
1EC
330
1E6
100
AcDbEntity
  8
Predefinito
 62
   255
370
    25
100
AcDbVertex
100
AcDb2dVertex
 10
-161.4411231136784
 20
347.5518774743933
 30
0.0
  0
VERTEX
  5
1ED
330
1E6
100
AcDbEntity
  8
Predefinito
 62
   255
370
    25
100
AcDbVertex
100
AcDb2dVertex
 10
-162.007159689158
 20
347.7997767045304
 30
0.0
  0
VERTEX
  5
1EE
330
1E6
100
AcDbEntity
  8
Predefinito
 62
   255
370
    25
100
AcDbVertex
100
AcDb2dVertex
 10
-162.5969532741924
 20
347.8920503068592
 30
0.0
  0
SEQEND
  5
1EF
330
1E6
100
AcDbEntity
  8
Predefinito
 62
   255
370
    25
  0
POLYLINE
  5
1F0
330
1F
100
AcDbEntity
  8
Predefinito
 62
   255
370
    25
100
AcDb2dPolyline
 66
     1
 10
0.0
 20
0.0
 30
0.0
  0
VERTEX
  5
1F1
330
1F0
100
AcDbEntity
  8
Predefinito
 62
   255
370
    25
100
AcDbVertex
100
AcDb2dVertex
 10
-162.4079301112128
 20
347.8810325632975
 30
0.0
  0
VERTEX
  5
1F2
330
1F0
100
AcDbEntity
  8
Predefinito
 62
   255
370
    25
100
AcDbVertex
100
AcDb2dVertex
 10
-162.8300474114184
 20
347.9271693644619
 30
0.0
  0
VERTEX
  5
1F3
330
1F0
100
AcDbEntity
  8
Predefinito
 62
   255
370
    25
100
AcDbVertex
100
AcDb2dVertex
 10
-163.2521647116239
 20
347.9733061656263
 30
0.0
  0
SEQEND
  5
1F4
330
1F0
100
AcDbEntity
  8
Predefinito
 62
   255
370
    25
  0
POLYLINE
  5
1F5
330
1F
100
AcDbEntity
  8
Predefinito
 62
   255
370
    25
100
AcDb2dPolyline
 66
     1
 10
0.0
 20
0.0
 30
0.0
  0
VERTEX
  5
1F6
330
1F5
100
AcDbEntity
  8
Predefinito
 62
   255
370
    25
100
AcDbVertex
100
AcDb2dVertex
 10
-170.115874646043
 20
346.8508735402836
 30
0.0
  0
VERTEX
  5
1F7
330
1F5
100
AcDbEntity
  8
Predefinito
 62
   255
370
    25
100
AcDbVertex
100
AcDb2dVertex
 10
-169.6159445319334
 20
346.8508735402836
 30
0.0
  0
VERTEX
  5
1F8
330
1F5
100
AcDbEntity
  8
Predefinito
 62
   255
370
    25
100
AcDbVertex
100
AcDb2dVertex
 10
-168.6167729126866
 20
346.8508735402836
 30
0.0
  0
VERTEX
  5
1F9
330
1F5
100
AcDbEntity
  8
Predefinito
 62
   255
370
    25
100
AcDbVertex
100
AcDb2dVertex
 10
-168.1171871030632
 20
346.8508735402836
 30
0.0
  0
SEQEND
  5
1FA
330
1F5
100
AcDbEntity
  8
Predefinito
 62
   255
370
    25
  0
POLYLINE
  5
1FB
330
1F
100
AcDbEntity
  8
Predefinito
 62
   255
370
    25
100
AcDb2dPolyline
 66
     1
 10
0.0
 20
0.0
 30
0.0
  0
VERTEX
  5
1FC
330
1FB
100
AcDbEntity
  8
Predefinito
 62
   255
370
    25
100
AcDbVertex
100
AcDb2dVertex
 10
299.3181581984617
 20
310.1728052235645
 30
0.0
  0
VERTEX
  5
1FD
330
1FB
100
AcDbEntity
  8
Predefinito
 62
   255
370
    25
100
AcDbVertex
100
AcDb2dVertex
 10
299.1181172919207
 20
310.3725018256193
 30
0.0
  0
SEQEND
  5
1FE
330
1FB
100
AcDbEntity
  8
Predefinito
 62
   255
370
    25
  0
POLYLINE
  5
1FF
330
1F
100
AcDbEntity
  8
Predefinito
 62
   255
370
    25
100
AcDb2dPolyline
 66
     1
 10
0.0
 20
0.0
 30
0.0
  0
VERTEX
  5
200
330
1FF
100
AcDbEntity
  8
Predefinito
 62
   255
370
    25
100
AcDbVertex
100
AcDb2dVertex
 10
284.7268783734933
 20
310.3725018256193
 30
0.0
  0
VERTEX
  5
201
330
1FF
100
AcDbEntity
  8
Predefinito
 62
   255
370
    25
100
AcDbVertex
100
AcDb2dVertex
 10
284.5268374669523
 20
310.1728052235645
 30
0.0
  0
SEQEND
  5
202
330
1FF
100
AcDbEntity
  8
Predefinito
 62
   255
370
    25
  0
POLYLINE
  5
203
330
1F
100
AcDbEntity
  8
Predefinito
 62
   255
370
    25
100
AcDb2dPolyline
 66
     1
 10
0.0
 20
0.0
 30
0.0
  0
VERTEX
  5
204
330
203
100
AcDbEntity
  8
Predefinito
 62
   255
370
    25
100
AcDbVertex
100
AcDb2dVertex
 10
299.3181581984617
 20
310.1728052235645
 30
0.0
  0
VERTEX
  5
205
330
203
100
AcDbEntity
  8
Predefinito
 62
   255
370
    25
100
AcDbVertex
100
AcDb2dVertex
 10
298.8719395842151
 20
310.1728052235645
 30
0.0
  0
VERTEX
  5
206
330
203
100
AcDbEntity
  8
Predefinito
 62
   255
370
    25
100
AcDbVertex
100
AcDb2dVertex
 10
297.5880281547971
 20
310.1728052235645
 30
0.0
  0
VERTEX
  5
207
330
203
100
AcDbEntity
  8
Predefinito
 62
   255
370
    25
100
AcDbVertex
100
AcDb2dVertex
 10
295.6203280155844
 20
310.1728052235645
 30
0.0
  0
VERTEX
  5
208
330
203
100
AcDbEntity
  8
Predefinito
 62
   255
370
    25
100
AcDbVertex
100
AcDb2dVertex
 10
293.2070978710977
 20
310.1728052235645
 30
0.0
  0
VERTEX
  5
209
330
203
100
AcDbEntity
  8
Predefinito
 62
   255
370
    25
100
AcDbVertex
100
AcDb2dVertex
 10
290.6385864032889
 20
310.1728052235645
 30
0.0
  0
VERTEX
  5
20A
330
203
100
AcDbEntity
  8
Predefinito
 62
   255
370
    25
100
AcDbVertex
100
AcDb2dVertex
 10
288.2250119543159
 20
310.1728052235645
 30
0.0
  0
VERTEX
  5
20B
330
203
100
AcDbEntity
  8
Predefinito
 62
   255
370
    25
100
AcDbVertex
100
AcDb2dVertex
 10
286.2573118151032
 20
310.1728052235645
 30
0.0
  0
VERTEX
  5
20C
330
203
100
AcDbEntity
  8
Predefinito
 62
   255
370
    25
100
AcDbVertex
100
AcDb2dVertex
 10
284.9730560811989
 20
310.1728052235645
 30
0.0
  0
VERTEX
  5
20D
330
203
100
AcDbEntity
  8
Predefinito
 62
   255
370
    25
100
AcDbVertex
100
AcDb2dVertex
 10
284.5268374669523
 20
310.1728052235645
 30
0.0
  0
SEQEND
  5
20E
330
203
100
AcDbEntity
  8
Predefinito
 62
   255
370
    25
  0
POLYLINE
  5
20F
330
1F
100
AcDbEntity
  8
Predefinito
 62
   255
370
    25
100
AcDb2dPolyline
 66
     1
 10
0.0
 20
0.0
 30
0.0
  0
VERTEX
  5
210
330
20F
100
AcDbEntity
  8
Predefinito
 62
   255
370
    25
100
AcDbVertex
100
AcDb2dVertex
 10
284.7268783734933
 20
310.3725018256193
 30
0.0
  0
VERTEX
  5
211
330
20F
100
AcDbEntity
  8
Predefinito
 62
   255
370
    25
100
AcDbVertex
100
AcDb2dVertex
 10
285.1607020262332
 20
310.3725018256193
 30
0.0
  0
VERTEX
  5
212
330
20F
100
AcDbEntity
  8
Predefinito
 62
   255
370
    25
100
AcDbVertex
100
AcDb2dVertex
 10
286.4105273115073
 20
310.3725018256193
 30
0.0
  0
VERTEX
  5
213
330
20F
100
AcDbEntity
  8
Predefinito
 62
   255
370
    25
100
AcDbVertex
100
AcDb2dVertex
 10
288.3248602553433
 20
310.3725018256193
 30
0.0
  0
VERTEX
  5
214
330
20F
100
AcDbEntity
  8
Predefinito
 62
   255
370
    25
100
AcDbVertex
100
AcDb2dVertex
 10
290.6730168519191
 20
310.3725018256193
 30
0.0
  0
VERTEX
  5
215
330
20F
100
AcDbEntity
  8
Predefinito
 62
   255
370
    25
100
AcDbVertex
100
AcDb2dVertex
 10
293.1719788134949
 20
310.3725018256193
 30
0.0
  0
VERTEX
  5
216
330
20F
100
AcDbEntity
  8
Predefinito
 62
   255
370
    25
100
AcDbVertex
100
AcDb2dVertex
 10
295.520479714557
 20
310.3725018256193
 30
0.0
  0
VERTEX
  5
217
330
20F
100
AcDbEntity
  8
Predefinito
 62
   255
370
    25
100
AcDbVertex
100
AcDb2dVertex
 10
297.434812658393
 20
310.3725018256193
 30
0.0
  0
VERTEX
  5
218
330
20F
100
AcDbEntity
  8
Predefinito
 62
   255
370
    25
100
AcDbVertex
100
AcDb2dVertex
 10
298.6842936391808
 20
310.3725018256193
 30
0.0
  0
VERTEX
  5
219
330
20F
100
AcDbEntity
  8
Predefinito
 62
   255
370
    25
100
AcDbVertex
100
AcDb2dVertex
 10
299.1181172919207
 20
310.3725018256193
 30
0.0
  0
SEQEND
  5
21A
330
20F
100
AcDbEntity
  8
Predefinito
 62
   255
370
    25
  0
POLYLINE
  5
21B
330
1F
100
AcDbEntity
  8
Predefinito
 62
   255
370
    25
100
AcDb2dPolyline
 66
     1
 10
0.0
 20
0.0
 30
0.0
  0
VERTEX
  5
21C
330
21B
100
AcDbEntity
  8
Predefinito
 62
   255
370
    25
100
AcDbVertex
100
AcDb2dVertex
 10
299.3181581984617
 20
282.5196461017786
 30
0.0
  0
VERTEX
  5
21D
330
21B
100
AcDbEntity
  8
Predefinito
 62
   255
370
    25
100
AcDbVertex
100
AcDb2dVertex
 10
299.3181581984617
 20
282.5162030569155
 30
0.0
  0
VERTEX
  5
21E
330
21B
100
AcDbEntity
  8
Predefinito
 62
   255
370
    25
100
AcDbVertex
100
AcDb2dVertex
 10
299.3133379356536
 20
282.4308155443128
 30
0.0
  0
VERTEX
  5
21F
330
21B
100
AcDbEntity
  8
Predefinito
 62
   255
370
    25
100
AcDbVertex
100
AcDb2dVertex
 10
299.2992214517151
 20
282.3488710765731
 30
0.0
  0
VERTEX
  5
220
330
21B
100
AcDbEntity
  8
Predefinito
 62
   255
370
    25
100
AcDbVertex
100
AcDb2dVertex
 10
299.2758087466467
 20
282.2689924357511
 30
0.0
  0
VERTEX
  5
221
330
21B
100
AcDbEntity
  8
Predefinito
 62
   255
370
    25
100
AcDbVertex
100
AcDb2dVertex
 10
299.2427555159617
 20
282.1918682308196
 30
0.0
  0
VERTEX
  5
222
330
21B
100
AcDbEntity
  8
Predefinito
 62
   255
370
    25
100
AcDbVertex
100
AcDb2dVertex
 10
299.2327706858591
 20
282.1732757885594
 30
0.0
  0
VERTEX
  5
223
330
21B
100
AcDbEntity
  8
Predefinito
 62
   255
370
    25
100
AcDbVertex
100
AcDb2dVertex
 10
299.2220972467837
 20
282.1546833462991
 30
0.0
  0
VERTEX
  5
224
330
21B
100
AcDbEntity
  8
Predefinito
 62
   255
370
    25
100
AcDbVertex
100
AcDb2dVertex
 10
299.2110795032221
 20
282.1360909040388
 30
0.0
  0
VERTEX
  5
225
330
21B
100
AcDbEntity
  8
Predefinito
 62
   255
370
    25
100
AcDbVertex
100
AcDb2dVertex
 10
299.1993731506878
 20
282.1181870707511
 30
0.0
  0
VERTEX
  5
226
330
21B
100
AcDbEntity
  8
Predefinito
 62
   255
370
    25
100
AcDbVertex
100
AcDb2dVertex
 10
299.1745832276741
 20
282.0830680131483
 30
0.0
  0
VERTEX
  5
227
330
21B
100
AcDbEntity
  8
Predefinito
 62
   255
370
    25
100
AcDbVertex
100
AcDb2dVertex
 10
299.14703886877
 20
282.0486375645182
 30
0.0
  0
VERTEX
  5
228
330
21B
100
AcDbEntity
  8
Predefinito
 62
   255
370
    25
100
AcDbVertex
100
AcDb2dVertex
 10
299.085408365722
 20
281.983219712121
 30
0.0
  0
VERTEX
  5
229
330
21B
100
AcDbEntity
  8
Predefinito
 62
   255
370
    25
100
AcDbVertex
100
AcDb2dVertex
 10
299.0141373370576
 20
281.9219335135593
 30
0.0
  0
VERTEX
  5
22A
330
21B
100
AcDbEntity
  8
Predefinito
 62
   255
370
    25
100
AcDbVertex
100
AcDb2dVertex
 10
298.9335700872631
 20
281.8647789688333
 30
0.0
  0
VERTEX
  5
22B
330
21B
100
AcDbEntity
  8
Predefinito
 62
   255
370
    25
100
AcDbVertex
100
AcDb2dVertex
 10
298.8437066163384
 20
281.8124446869154
 30
0.0
  0
SEQEND
  5
22C
330
21B
100
AcDbEntity
  8
Predefinito
 62
   255
370
    25
  0
POLYLINE
  5
22D
330
1F
100
AcDbEntity
  8
Predefinito
 62
   255
370
    25
100
AcDb2dPolyline
 66
     1
 10
0.0
 20
0.0
 30
0.0
  0
VERTEX
  5
22E
330
22D
100
AcDbEntity
  8
Predefinito
 62
   255
370
    25
100
AcDbVertex
100
AcDb2dVertex
 10
299.3181581984617
 20
282.5506335055456
 30
0.0
  0
VERTEX
  5
22F
330
22D
100
AcDbEntity
  8
Predefinito
 62
   255
370
    25
100
AcDbVertex
100
AcDb2dVertex
 10
299.3181581984617
 20
310.1728052235645
 30
0.0
  0
SEQEND
  5
230
330
22D
100
AcDbEntity
  8
Predefinito
 62
   255
370
    25
  0
POLYLINE
  5
231
330
1F
100
AcDbEntity
  8
Predefinito
 62
   255
370
    25
100
AcDb2dPolyline
 66
     1
 10
0.0
 20
0.0
 30
0.0
  0
VERTEX
  5
232
330
231
100
AcDbEntity
  8
Predefinito
 62
   255
370
    25
100
AcDbVertex
100
AcDb2dVertex
 10
284.5268374669523
 20
310.1728052235645
 30
0.0
  0
VERTEX
  5
233
330
231
100
AcDbEntity
  8
Predefinito
 62
   255
370
    25
100
AcDbVertex
100
AcDb2dVertex
 10
284.5268374669523
 20
286.3462461625327
 30
0.0
  0
SEQEND
  5
234
330
231
100
AcDbEntity
  8
Predefinito
 62
   255
370
    25
  0
POLYLINE
  5
235
330
1F
100
AcDbEntity
  8
Predefinito
 62
   255
370
    25
100
AcDb2dPolyline
 66
     1
 10
0.0
 20
0.0
 30
0.0
  0
VERTEX
  5
236
330
235
100
AcDbEntity
  8
Predefinito
 62
   255
370
    25
100
AcDbVertex
100
AcDb2dVertex
 10
298.8437066163384
 20
281.8124446869154
 30
0.0
  0
VERTEX
  5
237
330
235
100
AcDbEntity
  8
Predefinito
 62
   255
370
    25
100
AcDbVertex
100
AcDb2dVertex
 10
298.815817952948
 20
281.7979838984908
 30
0.0
  0
VERTEX
  5
238
330
235
100
AcDbEntity
  8
Predefinito
 62
   255
370
    25
100
AcDbVertex
100
AcDb2dVertex
 10
298.7872406805849
 20
281.783523110066
 30
0.0
  0
VERTEX
  5
239
330
235
100
AcDbEntity
  8
Predefinito
 62
   255
370
    25
100
AcDbVertex
100
AcDb2dVertex
 10
298.7579747992493
 20
281.7697509306141
 30
0.0
  0
VERTEX
  5
23A
330
235
100
AcDbEntity
  8
Predefinito
 62
   255
370
    25
100
AcDbVertex
100
AcDb2dVertex
 10
298.7276760044548
 20
281.7559787511619
 30
0.0
  0
VERTEX
  5
23B
330
235
100
AcDbEntity
  8
Predefinito
 62
   255
370
    25
100
AcDbVertex
100
AcDb2dVertex
 10
298.6653568924343
 20
281.7284343922578
 30
0.0
  0
VERTEX
  5
23C
330
235
100
AcDbEntity
  8
Predefinito
 62
   255
370
    25
100
AcDbVertex
100
AcDb2dVertex
 10
298.5999390400369
 20
281.702267251299
 30
0.0
  0
VERTEX
  5
23D
330
235
100
AcDbEntity
  8
Predefinito
 62
   255
370
    25
100
AcDbVertex
100
AcDb2dVertex
 10
298.4604957230849
 20
281.6540646232168
 30
0.0
  0
VERTEX
  5
23E
330
235
100
AcDbEntity
  8
Predefinito
 62
   255
370
    25
100
AcDbVertex
100
AcDb2dVertex
 10
298.3096903580848
 20
281.612059475888
 30
0.0
  0
VERTEX
  5
23F
330
235
100
AcDbEntity
  8
Predefinito
 62
   255
370
    25
100
AcDbVertex
100
AcDb2dVertex
 10
298.146490031578
 20
281.5776290272578
 30
0.0
  0
VERTEX
  5
240
330
235
100
AcDbEntity
  8
Predefinito
 62
   255
370
    25
100
AcDbVertex
100
AcDb2dVertex
 10
297.9715833525369
 20
281.5514618862989
 30
0.0
  0
VERTEX
  5
241
330
235
100
AcDbEntity
  8
Predefinito
 62
   255
370
    25
100
AcDbVertex
100
AcDb2dVertex
 10
297.9257908558588
 20
281.5466416234907
 30
0.0
  0
VERTEX
  5
242
330
235
100
AcDbEntity
  8
Predefinito
 62
   255
370
    25
100
AcDbVertex
100
AcDb2dVertex
 10
297.8793097502081
 20
281.5425099696551
 30
0.0
  0
VERTEX
  5
243
330
235
100
AcDbEntity
  8
Predefinito
 62
   255
370
    25
100
AcDbVertex
100
AcDb2dVertex
 10
297.8317957310986
 20
281.5390669247921
 30
0.0
  0
VERTEX
  5
244
330
235
100
AcDbEntity
  8
Predefinito
 62
   255
370
    25
100
AcDbVertex
100
AcDb2dVertex
 10
297.7839374075026
 20
281.5356238799291
 30
0.0
  0
VERTEX
  5
245
330
235
100
AcDbEntity
  8
Predefinito
 62
   255
370
    25
100
AcDbVertex
100
AcDb2dVertex
 10
297.6858106289067
 20
281.5314922260934
 30
0.0
  0
VERTEX
  5
246
330
235
100
AcDbEntity
  8
Predefinito
 62
   255
370
    25
100
AcDbVertex
100
AcDb2dVertex
 10
297.5859623278793
 20
281.5301150081483
 30
0.0
  0
VERTEX
  5
247
330
235
100
AcDbEntity
  8
Predefinito
 62
   255
370
    25
100
AcDbVertex
100
AcDb2dVertex
 10
297.3786910271258
 20
281.5356238799291
 30
0.0
  0
VERTEX
  5
248
330
235
100
AcDbEntity
  8
Predefinito
 62
   255
370
    25
100
AcDbVertex
100
AcDb2dVertex
 10
297.1624678097285
 20
281.5514618862989
 30
0.0
  0
VERTEX
  5
249
330
235
100
AcDbEntity
  8
Predefinito
 62
   255
370
    25
100
AcDbVertex
100
AcDb2dVertex
 10
296.9372926756873
 20
281.5769404182853
 30
0.0
  0
VERTEX
  5
24A
330
235
100
AcDbEntity
  8
Predefinito
 62
   255
370
    25
100
AcDbVertex
100
AcDb2dVertex
 10
296.7035099294886
 20
281.612059475888
 30
0.0
  0
VERTEX
  5
24B
330
235
100
AcDbEntity
  8
Predefinito
 62
   255
370
    25
100
AcDbVertex
100
AcDb2dVertex
 10
296.5830033592832
 20
281.6320291360935
 30
0.0
  0
VERTEX
  5
24C
330
235
100
AcDbEntity
  8
Predefinito
 62
   255
370
    25
100
AcDbVertex
100
AcDb2dVertex
 10
296.4604309621599
 20
281.6540646232168
 30
0.0
  0
VERTEX
  5
24D
330
235
100
AcDbEntity
  8
Predefinito
 62
   255
370
    25
100
AcDbVertex
100
AcDb2dVertex
 10
296.3981118501393
 20
281.6657709757511
 30
0.0
  0
VERTEX
  5
24E
330
235
100
AcDbEntity
  8
Predefinito
 62
   255
370
    25
100
AcDbVertex
100
AcDb2dVertex
 10
296.3357927381188
 20
281.6781659372579
 30
0.0
  0
VERTEX
  5
24F
330
235
100
AcDbEntity
  8
Predefinito
 62
   255
370
    25
100
AcDbVertex
100
AcDb2dVertex
 10
296.2727850171256
 20
281.6905608987647
 30
0.0
  0
VERTEX
  5
250
330
235
100
AcDbEntity
  8
Predefinito
 62
   255
370
    25
100
AcDbVertex
100
AcDb2dVertex
 10
296.2094329916461
 20
281.7029558602715
 30
0.0
  0
VERTEX
  5
251
330
235
100
AcDbEntity
  8
Predefinito
 62
   255
370
    25
100
AcDbVertex
100
AcDb2dVertex
 10
295.9529261493516
 20
281.7559787511619
 30
0.0
  0
VERTEX
  5
252
330
235
100
AcDbEntity
  8
Predefinito
 62
   255
370
    25
100
AcDbVertex
100
AcDb2dVertex
 10
295.6909104352762
 20
281.8124446869154
 30
0.0
  0
SEQEND
  5
253
330
235
100
AcDbEntity
  8
Predefinito
 62
   255
370
    25
  0
POLYLINE
  5
254
330
1F
100
AcDbEntity
  8
Predefinito
 62
   255
370
    25
100
AcDb2dPolyline
 66
     1
 10
0.0
 20
0.0
 30
0.0
  0
VERTEX
  5
255
330
254
100
AcDbEntity
  8
Predefinito
 62
   255
370
    25
100
AcDbVertex
100
AcDb2dVertex
 10
295.6909104352762
 20
281.8124446869154
 30
0.0
  0
VERTEX
  5
256
330
254
100
AcDbEntity
  8
Predefinito
 62
   255
370
    25
100
AcDbVertex
100
AcDb2dVertex
 10
295.4536846442145
 20
281.8654675778059
 30
0.0
  0
VERTEX
  5
257
330
254
100
AcDbEntity
  8
Predefinito
 62
   255
370
    25
100
AcDbVertex
100
AcDb2dVertex
 10
295.2137044172624
 20
281.9233107315044
 30
0.0
  0
VERTEX
  5
258
330
254
100
AcDbEntity
  8
Predefinito
 62
   255
370
    25
100
AcDbVertex
100
AcDb2dVertex
 10
294.9713140589062
 20
281.9845969300662
 30
0.0
  0
VERTEX
  5
259
330
254
100
AcDbEntity
  8
Predefinito
 62
   255
370
    25
100
AcDbVertex
100
AcDb2dVertex
 10
294.7265135691458
 20
282.050703391436
 30
0.0
  0
VERTEX
  5
25A
330
254
100
AcDbEntity
  8
Predefinito
 62
   255
370
    25
100
AcDbVertex
100
AcDb2dVertex
 10
294.4789586434952
 20
282.1195642886963
 30
0.0
  0
VERTEX
  5
25B
330
254
100
AcDbEntity
  8
Predefinito
 62
   255
370
    25
100
AcDbVertex
100
AcDb2dVertex
 10
294.2289935864403
 20
282.1925568397922
 30
0.0
  0
VERTEX
  5
25C
330
254
100
AcDbEntity
  8
Predefinito
 62
   255
370
    25
100
AcDbVertex
100
AcDb2dVertex
 10
293.9766183979813
 20
282.2689924357511
 30
0.0
  0
VERTEX
  5
25D
330
254
100
AcDbEntity
  8
Predefinito
 62
   255
370
    25
100
AcDbVertex
100
AcDb2dVertex
 10
293.721488773632
 20
282.3488710765731
 30
0.0
  0
VERTEX
  5
25E
330
254
100
AcDbEntity
  8
Predefinito
 62
   255
370
    25
100
AcDbVertex
100
AcDb2dVertex
 10
293.5930632002416
 20
282.3901876149292
 30
0.0
  0
VERTEX
  5
25F
330
254
100
AcDbEntity
  8
Predefinito
 62
   255
370
    25
100
AcDbVertex
100
AcDb2dVertex
 10
293.4639490178785
 20
282.432192762258
 30
0.0
  0
VERTEX
  5
260
330
254
100
AcDbEntity
  8
Predefinito
 62
   255
370
    25
100
AcDbVertex
100
AcDb2dVertex
 10
293.3992197744538
 20
282.4535396404087
 30
0.0
  0
VERTEX
  5
261
330
254
100
AcDbEntity
  8
Predefinito
 62
   255
370
    25
100
AcDbVertex
100
AcDb2dVertex
 10
293.3341462265428
 20
282.4748865185593
 30
0.0
  0
VERTEX
  5
262
330
254
100
AcDbEntity
  8
Predefinito
 62
   255
370
    25
100
AcDbVertex
100
AcDb2dVertex
 10
293.2694169831182
 20
282.4962333967101
 30
0.0
  0
VERTEX
  5
263
330
254
100
AcDbEntity
  8
Predefinito
 62
   255
370
    25
100
AcDbVertex
100
AcDb2dVertex
 10
293.2043434352072
 20
282.5182688838334
 30
0.0
  0
VERTEX
  5
264
330
254
100
AcDbEntity
  8
Predefinito
 62
   255
370
    25
100
AcDbVertex
100
AcDb2dVertex
 10
292.9454264615085
 20
282.6057222233539
 30
0.0
  0
VERTEX
  5
265
330
254
100
AcDbEntity
  8
Predefinito
 62
   255
370
    25
100
AcDbVertex
100
AcDb2dVertex
 10
292.6865094878099
 20
282.6959299987649
 30
0.0
  0
VERTEX
  5
266
330
254
100
AcDbEntity
  8
Predefinito
 62
   255
370
    25
100
AcDbVertex
100
AcDb2dVertex
 10
292.4279368185975
 20
282.7875149921211
 30
0.0
  0
VERTEX
  5
267
330
254
100
AcDbEntity
  8
Predefinito
 62
   255
370
    25
100
AcDbVertex
100
AcDb2dVertex
 10
292.1697084538714
 20
282.8811658123951
 30
0.0
  0
VERTEX
  5
268
330
254
100
AcDbEntity
  8
Predefinito
 62
   255
370
    25
100
AcDbVertex
100
AcDb2dVertex
 10
291.9114800891454
 20
282.9761938506143
 30
0.0
  0
VERTEX
  5
269
330
254
100
AcDbEntity
  8
Predefinito
 62
   255
370
    25
100
AcDbVertex
100
AcDb2dVertex
 10
291.6535960289056
 20
283.071910497806
 30
0.0
  0
VERTEX
  5
26A
330
254
100
AcDbEntity
  8
Predefinito
 62
   255
370
    25
100
AcDbVertex
100
AcDb2dVertex
 10
291.3953676641795
 20
283.1696929719157
 30
0.0
  0
VERTEX
  5
26B
330
254
100
AcDbEntity
  8
Predefinito
 62
   255
370
    25
100
AcDbVertex
100
AcDb2dVertex
 10
291.1378279084261
 20
283.2688526639704
 30
0.0
  0
VERTEX
  5
26C
330
254
100
AcDbEntity
  8
Predefinito
 62
   255
370
    25
100
AcDbVertex
100
AcDb2dVertex
 10
291.0090580305493
 20
283.3184325099979
 30
0.0
  0
VERTEX
  5
26D
330
254
100
AcDbEntity
  8
Predefinito
 62
   255
370
    25
100
AcDbVertex
100
AcDb2dVertex
 10
290.8806324571589
 20
283.3687009649979
 30
0.0
  0
VERTEX
  5
26E
330
254
100
AcDbEntity
  8
Predefinito
 62
   255
370
    25
100
AcDbVertex
100
AcDb2dVertex
 10
290.7528954927411
 20
283.4189694199979
 30
0.0
  0
VERTEX
  5
26F
330
254
100
AcDbEntity
  8
Predefinito
 62
   255
370
    25
100
AcDbVertex
100
AcDb2dVertex
 10
290.6255028328094
 20
283.4685492660253
 30
0.0
  0
VERTEX
  5
270
330
254
100
AcDbEntity
  8
Predefinito
 62
   255
370
    25
100
AcDbVertex
100
AcDb2dVertex
 10
290.1238511962683
 20
283.6689344770527
 30
0.0
  0
VERTEX
  5
271
330
254
100
AcDbEntity
  8
Predefinito
 62
   255
370
    25
100
AcDbVertex
100
AcDb2dVertex
 10
289.6318400853436
 20
283.8679424701349
 30
0.0
  0
VERTEX
  5
272
330
254
100
AcDbEntity
  8
Predefinito
 62
   255
370
    25
100
AcDbVertex
100
AcDb2dVertex
 10
289.1501581090078
 20
284.0662618542446
 30
0.0
  0
VERTEX
  5
273
330
254
100
AcDbEntity
  8
Predefinito
 62
   255
370
    25
100
AcDbVertex
100
AcDb2dVertex
 10
288.6784609627749
 20
284.263204020409
 30
0.0
  0
VERTEX
  5
274
330
254
100
AcDbEntity
  8
Predefinito
 62
   255
370
    25
100
AcDbVertex
100
AcDb2dVertex
 10
288.5620860464049
 20
284.3120952574639
 30
0.0
  0
VERTEX
  5
275
330
254
100
AcDbEntity
  8
Predefinito
 62
   255
370
    25
100
AcDbVertex
100
AcDb2dVertex
 10
288.446744043494
 20
284.360297885546
 30
0.0
  0
VERTEX
  5
276
330
254
100
AcDbEntity
  8
Predefinito
 62
   255
370
    25
100
AcDbVertex
100
AcDb2dVertex
 10
288.3324349540419
 20
284.4091891226008
 30
0.0
  0
VERTEX
  5
277
330
254
100
AcDbEntity
  8
Predefinito
 62
   255
370
    25
100
AcDbVertex
100
AcDb2dVertex
 10
288.2195030825351
 20
284.4567031417104
 30
0.0
  0
VERTEX
  5
278
330
254
100
AcDbEntity
  8
Predefinito
 62
   255
370
    25
100
AcDbVertex
100
AcDb2dVertex
 10
287.997770993357
 20
284.5510425709571
 30
0.0
  0
VERTEX
  5
279
330
254
100
AcDbEntity
  8
Predefinito
 62
   255
370
    25
100
AcDbVertex
100
AcDb2dVertex
 10
287.7812034714734
 20
284.6440047822584
 30
0.0
  0
VERTEX
  5
27A
330
254
100
AcDbEntity
  8
Predefinito
 62
   255
370
    25
100
AcDbVertex
100
AcDb2dVertex
 10
287.3628735206171
 20
284.825108942053
 30
0.0
  0
VERTEX
  5
27B
330
254
100
AcDbEntity
  8
Predefinito
 62
   255
370
    25
100
AcDbVertex
100
AcDb2dVertex
 10
286.9648575344526
 20
284.9993270121215
 30
0.0
  0
VERTEX
  5
27C
330
254
100
AcDbEntity
  8
Predefinito
 62
   255
370
    25
100
AcDbVertex
100
AcDb2dVertex
 10
286.7734242400691
 20
285.0833373067791
 30
0.0
  0
VERTEX
  5
27D
330
254
100
AcDbEntity
  8
Predefinito
 62
   255
370
    25
100
AcDbVertex
100
AcDb2dVertex
 10
286.5874998174663
 20
285.166658992464
 30
0.0
  0
VERTEX
  5
27E
330
254
100
AcDbEntity
  8
Predefinito
 62
   255
370
    25
100
AcDbVertex
100
AcDb2dVertex
 10
286.5417073207882
 20
285.1866286526695
 30
0.0
  0
VERTEX
  5
27F
330
254
100
AcDbEntity
  8
Predefinito
 62
   255
370
    25
100
AcDbVertex
100
AcDb2dVertex
 10
286.4966034330827
 20
285.2072869218476
 30
0.0
  0
VERTEX
  5
280
330
254
100
AcDbEntity
  8
Predefinito
 62
   255
370
    25
100
AcDbVertex
100
AcDb2dVertex
 10
286.4518438498635
 20
285.2279451910256
 30
0.0
  0
VERTEX
  5
281
330
254
100
AcDbEntity
  8
Predefinito
 62
   255
370
    25
100
AcDbVertex
100
AcDb2dVertex
 10
286.4070842666443
 20
285.2479148512311
 30
0.0
  0
VERTEX
  5
282
330
254
100
AcDbEntity
  8
Predefinito
 62
   255
370
    25
100
AcDbVertex
100
AcDb2dVertex
 10
286.3192866226375
 20
285.2878541716421
 30
0.0
  0
VERTEX
  5
283
330
254
100
AcDbEntity
  8
Predefinito
 62
   255
370
    25
100
AcDbVertex
100
AcDb2dVertex
 10
286.2335548055484
 20
285.3264162741078
 30
0.0
  0
VERTEX
  5
284
330
254
100
AcDbEntity
  8
Predefinito
 62
   255
370
    25
100
AcDbVertex
100
AcDb2dVertex
 10
285.9092199794525
 20
285.4765330301353
 30
0.0
  0
VERTEX
  5
285
330
254
100
AcDbEntity
  8
Predefinito
 62
   255
370
    25
100
AcDbVertex
100
AcDb2dVertex
 10
285.6162168616099
 20
285.6163206515737
 30
0.0
  0
VERTEX
  5
286
330
254
100
AcDbEntity
  8
Predefinito
 62
   255
370
    25
100
AcDbVertex
100
AcDb2dVertex
 10
285.481593807466
 20
285.6824271129435
 30
0.0
  0
VERTEX
  5
287
330
254
100
AcDbEntity
  8
Predefinito
 62
   255
370
    25
100
AcDbVertex
100
AcDb2dVertex
 10
285.3545454520209
 20
285.7464677473956
 30
0.0
  0
VERTEX
  5
288
330
254
100
AcDbEntity
  8
Predefinito
 62
   255
370
    25
100
AcDbVertex
100
AcDb2dVertex
 10
285.2354160997605
 20
285.8077539459572
 30
0.0
  0
VERTEX
  5
289
330
254
100
AcDbEntity
  8
Predefinito
 62
   255
370
    25
100
AcDbVertex
100
AcDb2dVertex
 10
285.1248943596578
 20
285.8669743176011
 30
0.0
  0
VERTEX
  5
28A
330
254
100
AcDbEntity
  8
Predefinito
 62
   255
370
    25
100
AcDbVertex
100
AcDb2dVertex
 10
285.0983829142126
 20
285.8814351060258
 30
0.0
  0
VERTEX
  5
28B
330
254
100
AcDbEntity
  8
Predefinito
 62
   255
370
    25
100
AcDbVertex
100
AcDb2dVertex
 10
285.0722157732537
 20
285.8958958944504
 30
0.0
  0
VERTEX
  5
28C
330
254
100
AcDbEntity
  8
Predefinito
 62
   255
370
    25
100
AcDbVertex
100
AcDb2dVertex
 10
285.0470815457537
 20
285.9096680739024
 30
0.0
  0
VERTEX
  5
28D
330
254
100
AcDbEntity
  8
Predefinito
 62
   255
370
    25
100
AcDbVertex
100
AcDb2dVertex
 10
285.02229162274
 20
285.9234402533546
 30
0.0
  0
VERTEX
  5
28E
330
254
100
AcDbEntity
  8
Predefinito
 62
   255
370
    25
100
AcDbVertex
100
AcDb2dVertex
 10
284.9744332991441
 20
285.9509846122586
 30
0.0
  0
VERTEX
  5
28F
330
254
100
AcDbEntity
  8
Predefinito
 62
   255
370
    25
100
AcDbVertex
100
AcDb2dVertex
 10
284.928640802466
 20
285.9778403621902
 30
0.0
  0
VERTEX
  5
290
330
254
100
AcDbEntity
  8
Predefinito
 62
   255
370
    25
100
AcDbVertex
100
AcDb2dVertex
 10
284.845319116781
 20
286.0294860351354
 30
0.0
  0
VERTEX
  5
291
330
254
100
AcDbEntity
  8
Predefinito
 62
   255
370
    25
100
AcDbVertex
100
AcDb2dVertex
 10
284.7716379567124
 20
286.0776886632175
 30
0.0
  0
VERTEX
  5
292
330
254
100
AcDbEntity
  8
Predefinito
 62
   255
370
    25
100
AcDbVertex
100
AcDb2dVertex
 10
284.7072530177741
 20
286.123825464382
 30
0.0
  0
VERTEX
  5
293
330
254
100
AcDbEntity
  8
Predefinito
 62
   255
370
    25
100
AcDbVertex
100
AcDb2dVertex
 10
284.6525086044522
 20
286.167207829656
 30
0.0
  0
VERTEX
  5
294
330
254
100
AcDbEntity
  8
Predefinito
 62
   255
370
    25
100
AcDbVertex
100
AcDb2dVertex
 10
284.607749021233
 20
286.208524368012
 30
0.0
  0
VERTEX
  5
295
330
254
100
AcDbEntity
  8
Predefinito
 62
   255
370
    25
100
AcDbVertex
100
AcDb2dVertex
 10
284.5726299636303
 20
286.2470864704778
 30
0.0
  0
VERTEX
  5
296
330
254
100
AcDbEntity
  8
Predefinito
 62
   255
370
    25
100
AcDbVertex
100
AcDb2dVertex
 10
284.547151431644
 20
286.2842713549984
 30
0.0
  0
VERTEX
  5
297
330
254
100
AcDbEntity
  8
Predefinito
 62
   255
370
    25
100
AcDbVertex
100
AcDb2dVertex
 10
284.5320020342467
 20
286.3187018036286
 30
0.0
  0
VERTEX
  5
298
330
254
100
AcDbEntity
  8
Predefinito
 62
   255
370
    25
100
AcDbVertex
100
AcDb2dVertex
 10
284.5295919028425
 20
286.3269651112998
 30
0.0
  0
VERTEX
  5
299
330
254
100
AcDbEntity
  8
Predefinito
 62
   255
370
    25
100
AcDbVertex
100
AcDb2dVertex
 10
284.5278703804111
 20
286.3352284189711
 30
0.0
  0
VERTEX
  5
29A
330
254
100
AcDbEntity
  8
Predefinito
 62
   255
370
    25
100
AcDbVertex
100
AcDb2dVertex
 10
284.5268374669523
 20
286.3503778163683
 30
0.0
  0
SEQEND
  5
29B
330
254
100
AcDbEntity
  8
Predefinito
 62
   255
370
    25
  0
POLYLINE
  5
29C
330
1F
100
AcDbEntity
  8
Predefinito
 62
   255
370
    25
100
AcDb2dPolyline
 66
     1
 10
0.0
 20
0.0
 30
0.0
  0
VERTEX
  5
29D
330
29C
100
AcDbEntity
  8
Predefinito
 62
   255
370
    25
100
AcDbVertex
100
AcDb2dVertex
 10
-162.7456928122746
 20
286.5376794569162
 30
0.0
  0
VERTEX
  5
29E
330
29C
100
AcDbEntity
  8
Predefinito
 62
   255
370
    25
100
AcDbVertex
100
AcDb2dVertex
 10
-162.7456928122746
 20
309.8725717115097
 30
0.0
  0
SEQEND
  5
29F
330
29C
100
AcDbEntity
  8
Predefinito
 62
   255
370
    25
  0
POLYLINE
  5
2A0
330
1F
100
AcDbEntity
  8
Predefinito
 62
   255
370
    25
100
AcDb2dPolyline
 66
     1
 10
0.0
 20
0.0
 30
0.0
  0
VERTEX
  5
2A1
330
2A0
100
AcDbEntity
  8
Predefinito
 62
   255
370
    25
100
AcDbVertex
100
AcDb2dVertex
 10
-177.5366692392978
 20
309.8725717115097
 30
0.0
  0
VERTEX
  5
2A2
330
2A0
100
AcDbEntity
  8
Predefinito
 62
   255
370
    25
100
AcDbVertex
100
AcDb2dVertex
 10
-177.5366692392978
 20
286.5383680658889
 30
0.0
  0
SEQEND
  5
2A3
330
2A0
100
AcDbEntity
  8
Predefinito
 62
   255
370
    25
  0
POLYLINE
  5
2A4
330
1F
100
AcDbEntity
  8
Predefinito
 62
   255
370
    25
100
AcDb2dPolyline
 66
     1
 10
0.0
 20
0.0
 30
0.0
  0
VERTEX
  5
2A5
330
2A4
100
AcDbEntity
  8
Predefinito
 62
   255
370
    25
100
AcDbVertex
100
AcDb2dVertex
 10
-251.5573135312979
 20
349.8490770069965
 30
0.0
  0
VERTEX
  5
2A6
330
2A4
100
AcDbEntity
  8
Predefinito
 62
   255
370
    25
100
AcDbVertex
100
AcDb2dVertex
 10
-251.0639252024279
 20
349.8490770069965
 30
0.0
  0
VERTEX
  5
2A7
330
2A4
100
AcDbEntity
  8
Predefinito
 62
   255
370
    25
100
AcDbVertex
100
AcDb2dVertex
 10
-249.6457350233523
 20
349.8490770069965
 30
0.0
  0
VERTEX
  5
2A8
330
2A4
100
AcDbEntity
  8
Predefinito
 62
   255
370
    25
100
AcDbVertex
100
AcDb2dVertex
 10
-247.4731737147902
 20
349.8490770069965
 30
0.0
  0
VERTEX
  5
2A9
330
2A4
100
AcDbEntity
  8
Predefinito
 62
   255
370
    25
100
AcDbVertex
100
AcDb2dVertex
 10
-244.8086012953034
 20
349.8490770069965
 30
0.0
  0
VERTEX
  5
2AA
330
2A4
100
AcDbEntity
  8
Predefinito
 62
   255
370
    25
100
AcDbVertex
100
AcDb2dVertex
 10
-241.9732538506112
 20
349.8490770069965
 30
0.0
  0
VERTEX
  5
2AB
330
2A4
100
AcDbEntity
  8
Predefinito
 62
   255
370
    25
100
AcDbVertex
100
AcDb2dVertex
 10
-239.3090257356106
 20
349.8490770069965
 30
0.0
  0
VERTEX
  5
2AC
330
2A4
100
AcDbEntity
  8
Predefinito
 62
   255
370
    25
100
AcDbVertex
100
AcDb2dVertex
 10
-237.1371530360212
 20
349.8490770069965
 30
0.0
  0
VERTEX
  5
2AD
330
2A4
100
AcDbEntity
  8
Predefinito
 62
   255
370
    25
100
AcDbVertex
100
AcDb2dVertex
 10
-235.7193071614319
 20
349.8490770069965
 30
0.0
  0
VERTEX
  5
2AE
330
2A4
100
AcDbEntity
  8
Predefinito
 62
   255
370
    25
100
AcDbVertex
100
AcDb2dVertex
 10
-235.2272960505072
 20
349.8490770069965
 30
0.0
  0
SEQEND
  5
2AF
330
2A4
100
AcDbEntity
  8
Predefinito
 62
   255
370
    25
  0
POLYLINE
  5
2B0
330
1F
100
AcDbEntity
  8
Predefinito
 62
   255
370
    25
100
AcDb2dPolyline
 66
     1
 10
0.0
 20
0.0
 30
0.0
  0
VERTEX
  5
2B1
330
2B0
100
AcDbEntity
  8
Predefinito
 62
   255
370
    25
100
AcDbVertex
100
AcDb2dVertex
 10
-177.9205687415239
 20
349.8490770069965
 30
0.0
  0
VERTEX
  5
2B2
330
2B0
100
AcDbEntity
  8
Predefinito
 62
   255
370
    25
100
AcDbVertex
100
AcDb2dVertex
 10
-178.4132684614213
 20
349.8490770069965
 30
0.0
  0
VERTEX
  5
2B3
330
2B0
100
AcDbEntity
  8
Predefinito
 62
   255
370
    25
100
AcDbVertex
100
AcDb2dVertex
 10
-179.8311143360106
 20
349.8490770069965
 30
0.0
  0
VERTEX
  5
2B4
330
2B0
100
AcDbEntity
  8
Predefinito
 62
   255
370
    25
100
AcDbVertex
100
AcDb2dVertex
 10
-182.0040199490589
 20
349.8490770069965
 30
0.0
  0
VERTEX
  5
2B5
330
2B0
100
AcDbEntity
  8
Predefinito
 62
   255
370
    25
100
AcDbVertex
100
AcDb2dVertex
 10
-184.6689366730321
 20
349.8490770069965
 30
0.0
  0
VERTEX
  5
2B6
330
2B0
100
AcDbEntity
  8
Predefinito
 62
   255
370
    25
100
AcDbVertex
100
AcDb2dVertex
 10
-187.5049727266969
 20
349.8490770069965
 30
0.0
  0
VERTEX
  5
2B7
330
2B0
100
AcDbEntity
  8
Predefinito
 62
   255
370
    25
100
AcDbVertex
100
AcDb2dVertex
 10
-190.1695451461837
 20
349.8490770069965
 30
0.0
  0
VERTEX
  5
2B8
330
2B0
100
AcDbEntity
  8
Predefinito
 62
   255
370
    25
100
AcDbVertex
100
AcDb2dVertex
 10
-192.3417621502595
 20
349.8490770069965
 30
0.0
  0
VERTEX
  5
2B9
330
2B0
100
AcDbEntity
  8
Predefinito
 62
   255
370
    25
100
AcDbVertex
100
AcDb2dVertex
 10
-193.7589194158762
 20
349.8490770069965
 30
0.0
  0
VERTEX
  5
2BA
330
2B0
100
AcDbEntity
  8
Predefinito
 62
   255
370
    25
100
AcDbVertex
100
AcDb2dVertex
 10
-194.2505862223146
 20
349.8490770069965
 30
0.0
  0
SEQEND
  5
2BB
330
2B0
100
AcDbEntity
  8
Predefinito
 62
   255
370
    25
  0
POLYLINE
  5
2BC
330
1F
100
AcDbEntity
  8
Predefinito
 62
   255
370
    25
100
AcDb2dPolyline
 66
     1
 10
0.0
 20
0.0
 30
0.0
  0
VERTEX
  5
2BD
330
2BC
100
AcDbEntity
  8
Predefinito
 62
   255
370
    25
100
AcDbVertex
100
AcDb2dVertex
 10
-308.8636965357948
 20
349.8490770069965
 30
0.0
  0
VERTEX
  5
2BE
330
2BC
100
AcDbEntity
  8
Predefinito
 62
   255
370
    25
100
AcDbVertex
100
AcDb2dVertex
 10
-308.3713411203837
 20
349.8490770069965
 30
0.0
  0
VERTEX
  5
2BF
330
2BC
100
AcDbEntity
  8
Predefinito
 62
   255
370
    25
100
AcDbVertex
100
AcDb2dVertex
 10
-306.9531509413081
 20
349.8490770069965
 30
0.0
  0
VERTEX
  5
2C0
330
2BC
100
AcDbEntity
  8
Predefinito
 62
   255
370
    25
100
AcDbVertex
100
AcDb2dVertex
 10
-304.7805896327461
 20
349.8490770069965
 30
0.0
  0
VERTEX
  5
2C1
330
2BC
100
AcDbEntity
  8
Predefinito
 62
   255
370
    25
100
AcDbVertex
100
AcDb2dVertex
 10
-302.1153286042867
 20
349.8490770069965
 30
0.0
  0
VERTEX
  5
2C2
330
2BC
100
AcDbEntity
  8
Predefinito
 62
   255
370
    25
100
AcDbVertex
100
AcDb2dVertex
 10
-299.2796368551081
 20
349.8490770069965
 30
0.0
  0
VERTEX
  5
2C3
330
2BC
100
AcDbEntity
  8
Predefinito
 62
   255
370
    25
100
AcDbVertex
100
AcDb2dVertex
 10
-296.614720131135
 20
349.8490770069965
 30
0.0
  0
VERTEX
  5
2C4
330
2BC
100
AcDbEntity
  8
Predefinito
 62
   255
370
    25
100
AcDbVertex
100
AcDb2dVertex
 10
-294.4428474315455
 20
349.8490770069965
 30
0.0
  0
VERTEX
  5
2C5
330
2BC
100
AcDbEntity
  8
Predefinito
 62
   255
370
    25
100
AcDbVertex
100
AcDb2dVertex
 10
-293.0253458614425
 20
349.8490770069965
 30
0.0
  0
VERTEX
  5
2C6
330
2BC
100
AcDbEntity
  8
Predefinito
 62
   255
370
    25
100
AcDbVertex
100
AcDb2dVertex
 10
-292.5336790550041
 20
349.8490770069965
 30
0.0
  0
SEQEND
  5
2C7
330
2BC
100
AcDbEntity
  8
Predefinito
 62
   255
370
    25
  0
POLYLINE
  5
2C8
330
1F
100
AcDbEntity
  8
Predefinito
 62
   255
370
    25
100
AcDb2dPolyline
 66
     1
 10
0.0
 20
0.0
 30
0.0
  0
VERTEX
  5
2C9
330
2C8
100
AcDbEntity
  8
Predefinito
 62
   255
370
    25
100
AcDbVertex
100
AcDb2dVertex
 10
-232.0534972957806
 20
346.8508735402836
 30
0.0
  0
VERTEX
  5
2CA
330
2C8
100
AcDbEntity
  8
Predefinito
 62
   255
370
    25
100
AcDbVertex
100
AcDb2dVertex
 10
-233.0633423541026
 20
348.5999403306949
 30
0.0
  0
SEQEND
  5
2CB
330
2C8
100
AcDbEntity
  8
Predefinito
 62
   255
370
    25
  0
POLYLINE
  5
2CC
330
1F
100
AcDbEntity
  8
Predefinito
 62
   255
370
    25
100
AcDb2dPolyline
 66
     1
 10
0.0
 20
0.0
 30
0.0
  0
VERTEX
  5
2CD
330
2CC
100
AcDbEntity
  8
Predefinito
 62
   255
370
    25
100
AcDbVertex
100
AcDb2dVertex
 10
-253.7209229232161
 20
348.5999403306949
 30
0.0
  0
VERTEX
  5
2CE
330
2CC
100
AcDbEntity
  8
Predefinito
 62
   255
370
    25
100
AcDbVertex
100
AcDb2dVertex
 10
-254.7307679815382
 20
346.8508735402836
 30
0.0
  0
SEQEND
  5
2CF
330
2CC
100
AcDbEntity
  8
Predefinito
 62
   255
370
    25
  0
POLYLINE
  5
2D0
330
1F
100
AcDbEntity
  8
Predefinito
 62
   255
370
    25
100
AcDb2dPolyline
 66
     1
 10
0.0
 20
0.0
 30
0.0
  0
VERTEX
  5
2D1
330
2D0
100
AcDbEntity
  8
Predefinito
 62
   255
370
    25
100
AcDbVertex
100
AcDb2dVertex
 10
-289.3602246047638
 20
346.8508735402836
 30
0.0
  0
VERTEX
  5
2D2
330
2D0
100
AcDbEntity
  8
Predefinito
 62
   255
370
    25
100
AcDbVertex
100
AcDb2dVertex
 10
-290.3700696630859
 20
348.5999403306949
 30
0.0
  0
SEQEND
  5
2D3
330
2D0
100
AcDbEntity
  8
Predefinito
 62
   255
370
    25
  0
POLYLINE
  5
2D4
330
1F
100
AcDbEntity
  8
Predefinito
 62
   255
370
    25
100
AcDb2dPolyline
 66
     1
 10
0.0
 20
0.0
 30
0.0
  0
VERTEX
  5
2D5
330
2D4
100
AcDbEntity
  8
Predefinito
 62
   255
370
    25
100
AcDbVertex
100
AcDb2dVertex
 10
-311.027305927713
 20
348.5999403306949
 30
0.0
  0
VERTEX
  5
2D6
330
2D4
100
AcDbEntity
  8
Predefinito
 62
   255
370
    25
100
AcDbVertex
100
AcDb2dVertex
 10
-312.0371509860351
 20
346.8508735402836
 30
0.0
  0
SEQEND
  5
2D7
330
2D4
100
AcDbEntity
  8
Predefinito
 62
   255
370
    25
  0
POLYLINE
  5
2D8
330
1F
100
AcDbEntity
  8
Predefinito
 62
   255
370
    25
100
AcDb2dPolyline
 66
     1
 10
0.0
 20
0.0
 30
0.0
  0
VERTEX
  5
2D9
330
2D8
100
AcDbEntity
  8
Predefinito
 62
   255
370
    25
100
AcDbVertex
100
AcDb2dVertex
 10
-174.7471142912836
 20
346.8508735402836
 30
0.0
  0
VERTEX
  5
2DA
330
2D8
100
AcDbEntity
  8
Predefinito
 62
   255
370
    25
100
AcDbVertex
100
AcDb2dVertex
 10
-175.7569593496058
 20
348.5999403306949
 30
0.0
  0
SEQEND
  5
2DB
330
2D8
100
AcDbEntity
  8
Predefinito
 62
   255
370
    25
  0
POLYLINE
  5
2DC
330
1F
100
AcDbEntity
  8
Predefinito
 62
   255
370
    25
100
AcDb2dPolyline
 66
     1
 10
0.0
 20
0.0
 30
0.0
  0
VERTEX
  5
2DD
330
2DC
100
AcDbEntity
  8
Predefinito
 62
   255
370
    25
100
AcDbVertex
100
AcDb2dVertex
 10
-196.4145399187192
 20
348.5999403306949
 30
0.0
  0
VERTEX
  5
2DE
330
2DC
100
AcDbEntity
  8
Predefinito
 62
   255
370
    25
100
AcDbVertex
100
AcDb2dVertex
 10
-197.424040672555
 20
346.8508735402836
 30
0.0
  0
SEQEND
  5
2DF
330
2DC
100
AcDbEntity
  8
Predefinito
 62
   255
370
    25
  0
POLYLINE
  5
2E0
330
1F
100
AcDbEntity
  8
Predefinito
 62
   255
370
    25
100
AcDb2dPolyline
 66
     1
 10
0.0
 20
0.0
 30
0.0
  0
VERTEX
  5
2E1
330
2E0
100
AcDbEntity
  8
Predefinito
 62
   255
370
    25
100
AcDbVertex
100
AcDb2dVertex
 10
-204.9360759546796
 20
286.5376794569162
 30
0.0
  0
VERTEX
  5
2E2
330
2E0
100
AcDbEntity
  8
Predefinito
 62
   255
370
    25
100
AcDbVertex
100
AcDb2dVertex
 10
-204.9360759546796
 20
309.8725717115097
 30
0.0
  0
SEQEND
  5
2E3
330
2E0
100
AcDbEntity
  8
Predefinito
 62
   255
370
    25
  0
POLYLINE
  5
2E4
330
1F
100
AcDbEntity
  8
Predefinito
 62
   255
370
    25
100
AcDb2dPolyline
 66
     1
 10
0.0
 20
0.0
 30
0.0
  0
VERTEX
  5
2E5
330
2E4
100
AcDbEntity
  8
Predefinito
 62
   255
370
    25
100
AcDbVertex
100
AcDb2dVertex
 10
-219.7270523817029
 20
309.8725717115097
 30
0.0
  0
VERTEX
  5
2E6
330
2E4
100
AcDbEntity
  8
Predefinito
 62
   255
370
    25
100
AcDbVertex
100
AcDb2dVertex
 10
-219.7270523817029
 20
286.5383680658889
 30
0.0
  0
SEQEND
  5
2E7
330
2E4
100
AcDbEntity
  8
Predefinito
 62
   255
370
    25
  0
POLYLINE
  5
2E8
330
1F
100
AcDbEntity
  8
Predefinito
 62
   255
370
    25
100
AcDb2dPolyline
 66
     1
 10
0.0
 20
0.0
 30
0.0
  0
VERTEX
  5
2E9
330
2E8
100
AcDbEntity
  8
Predefinito
 62
   255
370
    25
100
AcDbVertex
100
AcDb2dVertex
 10
299.3181581984617
 20
311.5713700469209
 30
0.0
  0
VERTEX
  5
2EA
330
2E8
100
AcDbEntity
  8
Predefinito
 62
   255
370
    25
100
AcDbVertex
100
AcDb2dVertex
 10
299.3181581984617
 20
349.6486917959691
 30
0.0
  0
SEQEND
  5
2EB
330
2E8
100
AcDbEntity
  8
Predefinito
 62
   255
370
    25
  0
POLYLINE
  5
2EC
330
1F
100
AcDbEntity
  8
Predefinito
 62
   255
370
    25
100
AcDb2dPolyline
 66
     1
 10
0.0
 20
0.0
 30
0.0
  0
VERTEX
  5
2ED
330
2EC
100
AcDbEntity
  8
Predefinito
 62
   255
370
    25
100
AcDbVertex
100
AcDb2dVertex
 10
284.5268374669523
 20
349.6486917959691
 30
0.0
  0
VERTEX
  5
2EE
330
2EC
100
AcDbEntity
  8
Predefinito
 62
   255
370
    25
100
AcDbVertex
100
AcDb2dVertex
 10
284.5268374669523
 20
311.5713700469209
 30
0.0
  0
SEQEND
  5
2EF
330
2EC
100
AcDbEntity
  8
Predefinito
 62
   255
370
    25
  0
POLYLINE
  5
2F0
330
1F
100
AcDbEntity
  8
Predefinito
 62
   255
370
    25
100
AcDb2dPolyline
 66
     1
 10
0.0
 20
0.0
 30
0.0
  0
VERTEX
  5
2F1
330
2F0
100
AcDbEntity
  8
Predefinito
 62
   255
370
    25
100
AcDbVertex
100
AcDb2dVertex
 10
284.5268374669523
 20
311.5713700469209
 30
0.0
  0
VERTEX
  5
2F2
330
2F0
100
AcDbEntity
  8
Predefinito
 62
   255
370
    25
100
AcDbVertex
100
AcDb2dVertex
 10
284.9727117767126
 20
311.5713700469209
 30
0.0
  0
VERTEX
  5
2F3
330
2F0
100
AcDbEntity
  8
Predefinito
 62
   255
370
    25
100
AcDbVertex
100
AcDb2dVertex
 10
286.2569675106169
 20
311.5713700469209
 30
0.0
  0
VERTEX
  5
2F4
330
2F0
100
AcDbEntity
  8
Predefinito
 62
   255
370
    25
100
AcDbVertex
100
AcDb2dVertex
 10
288.2246676498297
 20
311.5713700469209
 30
0.0
  0
VERTEX
  5
2F5
330
2F0
100
AcDbEntity
  8
Predefinito
 62
   255
370
    25
100
AcDbVertex
100
AcDb2dVertex
 10
290.6382420988026
 20
311.5713700469209
 30
0.0
  0
VERTEX
  5
2F6
330
2F0
100
AcDbEntity
  8
Predefinito
 62
   255
370
    25
100
AcDbVertex
100
AcDb2dVertex
 10
293.2067535666114
 20
311.5713700469209
 30
0.0
  0
VERTEX
  5
2F7
330
2F0
100
AcDbEntity
  8
Predefinito
 62
   255
370
    25
100
AcDbVertex
100
AcDb2dVertex
 10
295.619983711098
 20
311.5713700469209
 30
0.0
  0
VERTEX
  5
2F8
330
2F0
100
AcDbEntity
  8
Predefinito
 62
   255
370
    25
100
AcDbVertex
100
AcDb2dVertex
 10
297.5876838503108
 20
311.5713700469209
 30
0.0
  0
VERTEX
  5
2F9
330
2F0
100
AcDbEntity
  8
Predefinito
 62
   255
370
    25
100
AcDbVertex
100
AcDb2dVertex
 10
298.8719395842151
 20
311.5713700469209
 30
0.0
  0
VERTEX
  5
2FA
330
2F0
100
AcDbEntity
  8
Predefinito
 62
   255
370
    25
100
AcDbVertex
100
AcDb2dVertex
 10
299.3181581984617
 20
311.5713700469209
 30
0.0
  0
SEQEND
  5
2FB
330
2F0
100
AcDbEntity
  8
Predefinito
 62
   255
370
    25
  0
POLYLINE
  5
2FC
330
1F
100
AcDbEntity
  8
Predefinito
 62
   255
370
    25
100
AcDb2dPolyline
 66
     1
 10
0.0
 20
0.0
 30
0.0
  0
VERTEX
  5
2FD
330
2FC
100
AcDbEntity
  8
Predefinito
 62
   255
370
    25
100
AcDbVertex
100
AcDb2dVertex
 10
299.3181581984617
 20
349.6486917959691
 30
0.0
  0
VERTEX
  5
2FE
330
2FC
100
AcDbEntity
  8
Predefinito
 62
   255
370
    25
100
AcDbVertex
100
AcDb2dVertex
 10
298.8719395842151
 20
349.6486917959691
 30
0.0
  0
VERTEX
  5
2FF
330
2FC
100
AcDbEntity
  8
Predefinito
 62
   255
370
    25
100
AcDbVertex
100
AcDb2dVertex
 10
297.5876838503108
 20
349.6486917959691
 30
0.0
  0
VERTEX
  5
300
330
2FC
100
AcDbEntity
  8
Predefinito
 62
   255
370
    25
100
AcDbVertex
100
AcDb2dVertex
 10
295.619983711098
 20
349.6486917959691
 30
0.0
  0
VERTEX
  5
301
330
2FC
100
AcDbEntity
  8
Predefinito
 62
   255
370
    25
100
AcDbVertex
100
AcDb2dVertex
 10
293.2067535666114
 20
349.6486917959691
 30
0.0
  0
VERTEX
  5
302
330
2FC
100
AcDbEntity
  8
Predefinito
 62
   255
370
    25
100
AcDbVertex
100
AcDb2dVertex
 10
290.6382420988026
 20
349.6486917959691
 30
0.0
  0
VERTEX
  5
303
330
2FC
100
AcDbEntity
  8
Predefinito
 62
   255
370
    25
100
AcDbVertex
100
AcDb2dVertex
 10
288.2246676498297
 20
349.6486917959691
 30
0.0
  0
VERTEX
  5
304
330
2FC
100
AcDbEntity
  8
Predefinito
 62
   255
370
    25
100
AcDbVertex
100
AcDb2dVertex
 10
286.2569675106169
 20
349.6486917959691
 30
0.0
  0
VERTEX
  5
305
330
2FC
100
AcDbEntity
  8
Predefinito
 62
   255
370
    25
100
AcDbVertex
100
AcDb2dVertex
 10
284.9727117767126
 20
349.6486917959691
 30
0.0
  0
VERTEX
  5
306
330
2FC
100
AcDbEntity
  8
Predefinito
 62
   255
370
    25
100
AcDbVertex
100
AcDb2dVertex
 10
284.5268374669523
 20
349.6486917959691
 30
0.0
  0
SEQEND
  5
307
330
2FC
100
AcDbEntity
  8
Predefinito
 62
   255
370
    25
  0
POLYLINE
  5
308
330
1F
100
AcDbEntity
  8
Predefinito
 62
   255
370
    25
100
AcDb2dPolyline
 66
     1
 10
0.0
 20
0.0
 30
0.0
  0
VERTEX
  5
309
330
308
100
AcDbEntity
  8
Predefinito
 62
   255
370
    25
100
AcDbVertex
100
AcDb2dVertex
 10
299.3181581984617
 20
349.6486917959691
 30
0.0
  0
VERTEX
  5
30A
330
308
100
AcDbEntity
  8
Predefinito
 62
   255
370
    25
100
AcDbVertex
100
AcDb2dVertex
 10
299.1181172919207
 20
349.8490770069965
 30
0.0
  0
SEQEND
  5
30B
330
308
100
AcDbEntity
  8
Predefinito
 62
   255
370
    25
  0
POLYLINE
  5
30C
330
1F
100
AcDbEntity
  8
Predefinito
 62
   255
370
    25
100
AcDb2dPolyline
 66
     1
 10
0.0
 20
0.0
 30
0.0
  0
VERTEX
  5
30D
330
30C
100
AcDbEntity
  8
Predefinito
 62
   255
370
    25
100
AcDbVertex
100
AcDb2dVertex
 10
284.7268783734933
 20
349.8490770069965
 30
0.0
  0
VERTEX
  5
30E
330
30C
100
AcDbEntity
  8
Predefinito
 62
   255
370
    25
100
AcDbVertex
100
AcDb2dVertex
 10
284.5268374669523
 20
349.6486917959691
 30
0.0
  0
SEQEND
  5
30F
330
30C
100
AcDbEntity
  8
Predefinito
 62
   255
370
    25
  0
POLYLINE
  5
310
330
1F
100
AcDbEntity
  8
Predefinito
 62
   255
370
    25
100
AcDb2dPolyline
 66
     1
 10
0.0
 20
0.0
 30
0.0
  0
VERTEX
  5
311
330
310
100
AcDbEntity
  8
Predefinito
 62
   255
370
    25
100
AcDbVertex
100
AcDb2dVertex
 10
284.7268783734933
 20
349.8490770069965
 30
0.0
  0
VERTEX
  5
312
330
310
100
AcDbEntity
  8
Predefinito
 62
   255
370
    25
100
AcDbVertex
100
AcDb2dVertex
 10
285.1607020262332
 20
349.8490770069965
 30
0.0
  0
VERTEX
  5
313
330
310
100
AcDbEntity
  8
Predefinito
 62
   255
370
    25
100
AcDbVertex
100
AcDb2dVertex
 10
286.410183007021
 20
349.8490770069965
 30
0.0
  0
VERTEX
  5
314
330
310
100
AcDbEntity
  8
Predefinito
 62
   255
370
    25
100
AcDbVertex
100
AcDb2dVertex
 10
288.324515950857
 20
349.8490770069965
 30
0.0
  0
VERTEX
  5
315
330
310
100
AcDbEntity
  8
Predefinito
 62
   255
370
    25
100
AcDbVertex
100
AcDb2dVertex
 10
290.6730168519191
 20
349.8490770069965
 30
0.0
  0
VERTEX
  5
316
330
310
100
AcDbEntity
  8
Predefinito
 62
   255
370
    25
100
AcDbVertex
100
AcDb2dVertex
 10
293.1719788134949
 20
349.8490770069965
 30
0.0
  0
VERTEX
  5
317
330
310
100
AcDbEntity
  8
Predefinito
 62
   255
370
    25
100
AcDbVertex
100
AcDb2dVertex
 10
295.5201354100706
 20
349.8490770069965
 30
0.0
  0
VERTEX
  5
318
330
310
100
AcDbEntity
  8
Predefinito
 62
   255
370
    25
100
AcDbVertex
100
AcDb2dVertex
 10
297.4344683539067
 20
349.8490770069965
 30
0.0
  0
VERTEX
  5
319
330
310
100
AcDbEntity
  8
Predefinito
 62
   255
370
    25
100
AcDbVertex
100
AcDb2dVertex
 10
298.6842936391808
 20
349.8490770069965
 30
0.0
  0
VERTEX
  5
31A
330
310
100
AcDbEntity
  8
Predefinito
 62
   255
370
    25
100
AcDbVertex
100
AcDb2dVertex
 10
299.1181172919207
 20
349.8490770069965
 30
0.0
  0
SEQEND
  5
31B
330
310
100
AcDbEntity
  8
Predefinito
 62
   255
370
    25
  0
POLYLINE
  5
31C
330
1F
100
AcDbEntity
  8
Predefinito
 62
   255
370
    25
100
AcDb2dPolyline
 66
     1
 10
0.0
 20
0.0
 30
0.0
  0
VERTEX
  5
31D
330
31C
100
AcDbEntity
  8
Predefinito
 62
   255
370
    25
100
AcDbVertex
100
AcDb2dVertex
 10
284.5268374669523
 20
311.5713700469209
 30
0.0
  0
VERTEX
  5
31E
330
31C
100
AcDbEntity
  8
Predefinito
 62
   255
370
    25
100
AcDbVertex
100
AcDb2dVertex
 10
284.7268783734933
 20
311.3716734448661
 30
0.0
  0
SEQEND
  5
31F
330
31C
100
AcDbEntity
  8
Predefinito
 62
   255
370
    25
  0
POLYLINE
  5
320
330
1F
100
AcDbEntity
  8
Predefinito
 62
   255
370
    25
100
AcDb2dPolyline
 66
     1
 10
0.0
 20
0.0
 30
0.0
  0
VERTEX
  5
321
330
320
100
AcDbEntity
  8
Predefinito
 62
   255
370
    25
100
AcDbVertex
100
AcDb2dVertex
 10
299.1181172919207
 20
311.3716734448661
 30
0.0
  0
VERTEX
  5
322
330
320
100
AcDbEntity
  8
Predefinito
 62
   255
370
    25
100
AcDbVertex
100
AcDb2dVertex
 10
299.3181581984617
 20
311.5713700469209
 30
0.0
  0
SEQEND
  5
323
330
320
100
AcDbEntity
  8
Predefinito
 62
   255
370
    25
  0
POLYLINE
  5
324
330
1F
100
AcDbEntity
  8
Predefinito
 62
   255
370
    25
100
AcDb2dPolyline
 66
     1
 10
0.0
 20
0.0
 30
0.0
  0
VERTEX
  5
325
330
324
100
AcDbEntity
  8
Predefinito
 62
   255
370
    25
100
AcDbVertex
100
AcDb2dVertex
 10
299.1181172919207
 20
311.3716734448661
 30
0.0
  0
VERTEX
  5
326
330
324
100
AcDbEntity
  8
Predefinito
 62
   255
370
    25
100
AcDbVertex
100
AcDb2dVertex
 10
298.6842936391808
 20
311.3716734448661
 30
0.0
  0
VERTEX
  5
327
330
324
100
AcDbEntity
  8
Predefinito
 62
   255
370
    25
100
AcDbVertex
100
AcDb2dVertex
 10
297.4344683539067
 20
311.3716734448661
 30
0.0
  0
VERTEX
  5
328
330
324
100
AcDbEntity
  8
Predefinito
 62
   255
370
    25
100
AcDbVertex
100
AcDb2dVertex
 10
295.5201354100706
 20
311.3716734448661
 30
0.0
  0
VERTEX
  5
329
330
324
100
AcDbEntity
  8
Predefinito
 62
   255
370
    25
100
AcDbVertex
100
AcDb2dVertex
 10
293.1719788134949
 20
311.3716734448661
 30
0.0
  0
VERTEX
  5
32A
330
324
100
AcDbEntity
  8
Predefinito
 62
   255
370
    25
100
AcDbVertex
100
AcDb2dVertex
 10
290.6730168519191
 20
311.3716734448661
 30
0.0
  0
VERTEX
  5
32B
330
324
100
AcDbEntity
  8
Predefinito
 62
   255
370
    25
100
AcDbVertex
100
AcDb2dVertex
 10
288.324515950857
 20
311.3716734448661
 30
0.0
  0
VERTEX
  5
32C
330
324
100
AcDbEntity
  8
Predefinito
 62
   255
370
    25
100
AcDbVertex
100
AcDb2dVertex
 10
286.410183007021
 20
311.3716734448661
 30
0.0
  0
VERTEX
  5
32D
330
324
100
AcDbEntity
  8
Predefinito
 62
   255
370
    25
100
AcDbVertex
100
AcDb2dVertex
 10
285.1607020262332
 20
311.3716734448661
 30
0.0
  0
VERTEX
  5
32E
330
324
100
AcDbEntity
  8
Predefinito
 62
   255
370
    25
100
AcDbVertex
100
AcDb2dVertex
 10
284.7268783734933
 20
311.3716734448661
 30
0.0
  0
SEQEND
  5
32F
330
324
100
AcDbEntity
  8
Predefinito
 62
   255
370
    25
  0
POLYLINE
  5
330
330
1F
100
AcDbEntity
  8
Predefinito
 62
   255
370
    25
100
AcDb2dPolyline
 66
     1
 10
0.0
 20
0.0
 30
0.0
  0
VERTEX
  5
331
330
330
100
AcDbEntity
  8
Predefinito
 62
   255
370
    25
100
AcDbVertex
100
AcDb2dVertex
 10
298.8182280843521
 20
310.3725018256193
 30
0.0
  0
VERTEX
  5
332
330
330
100
AcDbEntity
  8
Predefinito
 62
   255
370
    25
100
AcDbVertex
100
AcDb2dVertex
 10
298.8182280843521
 20
311.3716734448661
 30
0.0
  0
SEQEND
  5
333
330
330
100
AcDbEntity
  8
Predefinito
 62
   255
370
    25
  0
POLYLINE
  5
334
330
1F
100
AcDbEntity
  8
Predefinito
 62
   255
370
    25
100
AcDb2dPolyline
 66
     1
 10
0.0
 20
0.0
 30
0.0
  0
VERTEX
  5
335
330
334
100
AcDbEntity
  8
Predefinito
 62
   255
370
    25
100
AcDbVertex
100
AcDb2dVertex
 10
285.0264232765756
 20
311.3716734448661
 30
0.0
  0
VERTEX
  5
336
330
334
100
AcDbEntity
  8
Predefinito
 62
   255
370
    25
100
AcDbVertex
100
AcDb2dVertex
 10
285.0264232765756
 20
310.3725018256193
 30
0.0
  0
SEQEND
  5
337
330
334
100
AcDbEntity
  8
Predefinito
 62
   255
370
    25
  0
POLYLINE
  5
338
330
1F
100
AcDbEntity
  8
Predefinito
 62
   255
370
    25
100
AcDb2dPolyline
 66
     1
 10
0.0
 20
0.0
 30
0.0
  0
VERTEX
  5
339
330
338
100
AcDbEntity
  8
Predefinito
 62
   255
370
    25
100
AcDbVertex
100
AcDb2dVertex
 10
385.5719408887517
 20
269.5965215129406
 30
0.0
  0
VERTEX
  5
33A
330
338
100
AcDbEntity
  8
Predefinito
 62
   255
370
    25
100
AcDbVertex
100
AcDb2dVertex
 10
386.5194668350533
 20
269.6929267691049
 30
0.0
  0
VERTEX
  5
33B
330
338
100
AcDbEntity
  8
Predefinito
 62
   255
370
    25
100
AcDbVertex
100
AcDb2dVertex
 10
387.4318737237521
 20
269.9607956594475
 30
0.0
  0
SEQEND
  5
33C
330
338
100
AcDbEntity
  8
Predefinito
 62
   255
370
    25
  0
POLYLINE
  5
33D
330
1F
100
AcDbEntity
  8
Predefinito
 62
   255
370
    25
100
AcDb2dPolyline
 66
     1
 10
0.0
 20
0.0
 30
0.0
  0
VERTEX
  5
33E
330
33D
100
AcDbEntity
  8
Predefinito
 62
   255
370
    25
100
AcDbVertex
100
AcDb2dVertex
 10
-287.6669351411333
 20
269.9607956594475
 30
0.0
  0
VERTEX
  5
33F
330
33D
100
AcDbEntity
  8
Predefinito
 62
   255
370
    25
100
AcDbVertex
100
AcDb2dVertex
 10
-286.752806730003
 20
269.6929267691049
 30
0.0
  0
VERTEX
  5
340
330
33D
100
AcDbEntity
  8
Predefinito
 62
   255
370
    25
100
AcDbVertex
100
AcDb2dVertex
 10
-285.807002306133
 20
269.5965215129406
 30
0.0
  0
SEQEND
  5
341
330
33D
100
AcDbEntity
  8
Predefinito
 62
   255
370
    25
  0
POLYLINE
  5
342
330
1F
100
AcDbEntity
  8
Predefinito
 62
   255
370
    25
100
AcDb2dPolyline
 66
     1
 10
0.0
 20
0.0
 30
0.0
  0
VERTEX
  5
343
330
342
100
AcDbEntity
  8
Predefinito
 62
   255
370
    25
100
AcDbVertex
100
AcDb2dVertex
 10
385.5719408887517
 20
269.5965215129406
 30
0.0
  0
VERTEX
  5
344
330
342
100
AcDbEntity
  8
Predefinito
 62
   255
370
    25
100
AcDbVertex
100
AcDb2dVertex
 10
385.1529223289229
 20
269.5965215129406
 30
0.0
  0
VERTEX
  5
345
330
342
100
AcDbEntity
  8
Predefinito
 62
   255
370
    25
100
AcDbVertex
100
AcDb2dVertex
 10
383.9003426077583
 20
269.5965215129406
 30
0.0
  0
VERTEX
  5
346
330
342
100
AcDbEntity
  8
Predefinito
 62
   255
370
    25
100
AcDbVertex
100
AcDb2dVertex
 10
381.8173004656346
 20
269.5965215129406
 30
0.0
  0
VERTEX
  5
347
330
342
100
AcDbEntity
  8
Predefinito
 62
   255
370
    25
100
AcDbVertex
100
AcDb2dVertex
 10
378.9093047743328
 20
269.5965215129406
 30
0.0
  0
VERTEX
  5
348
330
342
100
AcDbEntity
  8
Predefinito
 62
   255
370
    25
100
AcDbVertex
100
AcDb2dVertex
 10
375.1835859280649
 20
269.5965215129406
 30
0.0
  0
VERTEX
  5
349
330
342
100
AcDbEntity
  8
Predefinito
 62
   255
370
    25
100
AcDbVertex
100
AcDb2dVertex
 10
370.6487515389887
 20
269.5965215129406
 30
0.0
  0
VERTEX
  5
34A
330
342
100
AcDbEntity
  8
Predefinito
 62
   255
370
    25
100
AcDbVertex
100
AcDb2dVertex
 10
365.3168522641247
 20
269.5965215129406
 30
0.0
  0
VERTEX
  5
34B
330
342
100
AcDbEntity
  8
Predefinito
 62
   255
370
    25
100
AcDbVertex
100
AcDb2dVertex
 10
359.2006273694661
 20
269.5965215129406
 30
0.0
  0
VERTEX
  5
34C
330
342
100
AcDbEntity
  8
Predefinito
 62
   255
370
    25
100
AcDbVertex
100
AcDb2dVertex
 10
352.31522625241
 20
269.5965215129406
 30
0.0
  0
VERTEX
  5
34D
330
342
100
AcDbEntity
  8
Predefinito
 62
   255
370
    25
100
AcDbVertex
100
AcDb2dVertex
 10
344.6785527462442
 20
269.5965215129406
 30
0.0
  0
VERTEX
  5
34E
330
342
100
AcDbEntity
  8
Predefinito
 62
   255
370
    25
100
AcDbVertex
100
AcDb2dVertex
 10
336.3085106842564
 20
269.5965215129406
 30
0.0
  0
VERTEX
  5
34F
330
342
100
AcDbEntity
  8
Predefinito
 62
   255
370
    25
100
AcDbVertex
100
AcDb2dVertex
 10
327.2267912490834
 20
269.5965215129406
 30
0.0
  0
VERTEX
  5
350
330
342
100
AcDbEntity
  8
Predefinito
 62
   255
370
    25
100
AcDbVertex
100
AcDb2dVertex
 10
317.4554299278487
 20
269.5965215129406
 30
0.0
  0
VERTEX
  5
351
330
342
100
AcDbEntity
  8
Predefinito
 62
   255
370
    25
100
AcDbVertex
100
AcDb2dVertex
 10
307.0188723390797
 20
269.5965215129406
 30
0.0
  0
VERTEX
  5
352
330
342
100
AcDbEntity
  8
Predefinito
 62
   255
370
    25
100
AcDbVertex
100
AcDb2dVertex
 10
295.9429413192489
 20
269.5965215129406
 30
0.0
  0
VERTEX
  5
353
330
342
100
AcDbEntity
  8
Predefinito
 62
   255
370
    25
100
AcDbVertex
100
AcDb2dVertex
 10
284.2555255317467
 20
269.5965215129406
 30
0.0
  0
VERTEX
  5
354
330
342
100
AcDbEntity
  8
Predefinito
 62
   255
370
    25
100
AcDbVertex
100
AcDb2dVertex
 10
271.9855465534225
 20
269.5965215129406
 30
0.0
  0
VERTEX
  5
355
330
342
100
AcDbEntity
  8
Predefinito
 62
   255
370
    25
100
AcDbVertex
100
AcDb2dVertex
 10
259.1629588745845
 20
269.5965215129406
 30
0.0
  0
VERTEX
  5
356
330
342
100
AcDbEntity
  8
Predefinito
 62
   255
370
    25
100
AcDbVertex
100
AcDb2dVertex
 10
245.8208157259176
 20
269.5965215129406
 30
0.0
  0
VERTEX
  5
357
330
342
100
AcDbEntity
  8
Predefinito
 62
   255
370
    25
100
AcDbVertex
100
AcDb2dVertex
 10
231.9911374246479
 20
269.5965215129406
 30
0.0
  0
VERTEX
  5
358
330
342
100
AcDbEntity
  8
Predefinito
 62
   255
370
    25
100
AcDbVertex
100
AcDb2dVertex
 10
217.7086987238918
 20
269.5965215129406
 30
0.0
  0
VERTEX
  5
359
330
342
100
AcDbEntity
  8
Predefinito
 62
   255
370
    25
100
AcDbVertex
100
AcDb2dVertex
 10
203.0093072902248
 20
269.5965215129406
 30
0.0
  0
VERTEX
  5
35A
330
342
100
AcDbEntity
  8
Predefinito
 62
   255
370
    25
100
AcDbVertex
100
AcDb2dVertex
 10
187.9291150947083
 20
269.5965215129406
 30
0.0
  0
VERTEX
  5
35B
330
342
100
AcDbEntity
  8
Predefinito
 62
   255
370
    25
100
AcDbVertex
100
AcDb2dVertex
 10
172.5056513263493
 20
269.5965215129406
 30
0.0
  0
VERTEX
  5
35C
330
342
100
AcDbEntity
  8
Predefinito
 62
   255
370
    25
100
AcDbVertex
100
AcDb2dVertex
 10
156.7774780876134
 20
269.5965215129406
 30
0.0
  0
VERTEX
  5
35D
330
342
100
AcDbEntity
  8
Predefinito
 62
   255
370
    25
100
AcDbVertex
100
AcDb2dVertex
 10
140.7835017854529
 20
269.5965215129406
 30
0.0
  0
VERTEX
  5
35E
330
342
100
AcDbEntity
  8
Predefinito
 62
   255
370
    25
100
AcDbVertex
100
AcDb2dVertex
 10
124.5636617402787
 20
269.5965215129406
 30
0.0
  0
VERTEX
  5
35F
330
342
100
AcDbEntity
  8
Predefinito
 62
   255
370
    25
100
AcDbVertex
100
AcDb2dVertex
 10
108.158241576988
 20
269.5965215129406
 30
0.0
  0
VERTEX
  5
360
330
342
100
AcDbEntity
  8
Predefinito
 62
   255
370
    25
100
AcDbVertex
100
AcDb2dVertex
 10
91.60786922496436
 20
269.5965215129406
 30
0.0
  0
VERTEX
  5
361
330
342
100
AcDbEntity
  8
Predefinito
 62
   255
370
    25
100
AcDbVertex
100
AcDb2dVertex
 10
74.95351691807774
 20
269.5965215129406
 30
0.0
  0
VERTEX
  5
362
330
342
100
AcDbEntity
  8
Predefinito
 62
   255
370
    25
100
AcDbVertex
100
AcDb2dVertex
 10
58.23718980365679
 20
269.5965215129406
 30
0.0
  0
VERTEX
  5
363
330
342
100
AcDbEntity
  8
Predefinito
 62
   255
370
    25
100
AcDbVertex
100
AcDb2dVertex
 10
41.49986011557154
 20
269.5965215129406
 30
0.0
  0
VERTEX
  5
364
330
342
100
AcDbEntity
  8
Predefinito
 62
   255
370
    25
100
AcDbVertex
100
AcDb2dVertex
 10
24.78353300115064
 20
269.5965215129406
 30
0.0
  0
VERTEX
  5
365
330
342
100
AcDbEntity
  8
Predefinito
 62
   255
370
    25
100
AcDbVertex
100
AcDb2dVertex
 10
8.129524998750266
 20
269.5965215129406
 30
0.0
  0
VERTEX
  5
366
330
342
100
AcDbEntity
  8
Predefinito
 62
   255
370
    25
100
AcDbVertex
100
AcDb2dVertex
 10
-8.420847353273363
 20
269.5965215129406
 30
0.0
  0
VERTEX
  5
367
330
342
100
AcDbEntity
  8
Predefinito
 62
   255
370
    25
100
AcDbVertex
100
AcDb2dVertex
 10
-24.82626751656403
 20
269.5965215129406
 30
0.0
  0
VERTEX
  5
368
330
342
100
AcDbEntity
  8
Predefinito
 62
   255
370
    25
100
AcDbVertex
100
AcDb2dVertex
 10
-41.04576325725199
 20
269.5965215129406
 30
0.0
  0
VERTEX
  5
369
330
342
100
AcDbEntity
  8
Predefinito
 62
   255
370
    25
100
AcDbVertex
100
AcDb2dVertex
 10
-57.03905095043988
 20
269.5965215129406
 30
0.0
  0
VERTEX
  5
36A
330
342
100
AcDbEntity
  8
Predefinito
 62
   255
370
    25
100
AcDbVertex
100
AcDb2dVertex
 10
-72.76687988468937
 20
269.5965215129406
 30
0.0
  0
VERTEX
  5
36B
330
342
100
AcDbEntity
  8
Predefinito
 62
   255
370
    25
100
AcDbVertex
100
AcDb2dVertex
 10
-88.18965504407578
 20
269.5965215129406
 30
0.0
  0
VERTEX
  5
36C
330
342
100
AcDbEntity
  8
Predefinito
 62
   255
370
    25
100
AcDbVertex
100
AcDb2dVertex
 10
-103.2691586306197
 20
269.5965215129406
 30
0.0
  0
VERTEX
  5
36D
330
342
100
AcDbEntity
  8
Predefinito
 62
   255
370
    25
100
AcDbVertex
100
AcDb2dVertex
 10
-117.9682057598005
 20
269.5965215129406
 30
0.0
  0
VERTEX
  5
36E
330
342
100
AcDbEntity
  8
Predefinito
 62
   255
370
    25
100
AcDbVertex
100
AcDb2dVertex
 10
-132.2496115470976
 20
269.5965215129406
 30
0.0
  0
VERTEX
  5
36F
330
342
100
AcDbEntity
  8
Predefinito
 62
   255
370
    25
100
AcDbVertex
100
AcDb2dVertex
 10
-146.0786012393947
 20
269.5965215129406
 30
0.0
  0
VERTEX
  5
370
330
342
100
AcDbEntity
  8
Predefinito
 62
   255
370
    25
100
AcDbVertex
100
AcDb2dVertex
 10
-159.420055779089
 20
269.5965215129406
 30
0.0
  0
VERTEX
  5
371
330
342
100
AcDbEntity
  8
Predefinito
 62
   255
370
    25
100
AcDbVertex
100
AcDb2dVertex
 10
-172.2416105444681
 20
269.5965215129406
 30
0.0
  0
VERTEX
  5
372
330
342
100
AcDbEntity
  8
Predefinito
 62
   255
370
    25
100
AcDbVertex
100
AcDb2dVertex
 10
-184.5105566093333
 20
269.5965215129406
 30
0.0
  0
VERTEX
  5
373
330
342
100
AcDbEntity
  8
Predefinito
 62
   255
370
    25
100
AcDbVertex
100
AcDb2dVertex
 10
-196.1969394833766
 20
269.5965215129406
 30
0.0
  0
VERTEX
  5
374
330
342
100
AcDbEntity
  8
Predefinito
 62
   255
370
    25
100
AcDbVertex
100
AcDb2dVertex
 10
-207.2718375897486
 20
269.5965215129406
 30
0.0
  0
VERTEX
  5
375
330
342
100
AcDbEntity
  8
Predefinito
 62
   255
370
    25
100
AcDbVertex
100
AcDb2dVertex
 10
-217.7073622650587
 20
269.5965215129406
 30
0.0
  0
VERTEX
  5
376
330
342
100
AcDbEntity
  8
Predefinito
 62
   255
370
    25
100
AcDbVertex
100
AcDb2dVertex
 10
-227.4773463683482
 20
269.5965215129406
 30
0.0
  0
VERTEX
  5
377
330
342
100
AcDbEntity
  8
Predefinito
 62
   255
370
    25
100
AcDbVertex
100
AcDb2dVertex
 10
-236.5583771945485
 20
269.5965215129406
 30
0.0
  0
VERTEX
  5
378
330
342
100
AcDbEntity
  8
Predefinito
 62
   255
370
    25
100
AcDbVertex
100
AcDb2dVertex
 10
-244.9266977341048
 20
269.5965215129406
 30
0.0
  0
VERTEX
  5
379
330
342
100
AcDbEntity
  8
Predefinito
 62
   255
370
    25
100
AcDbVertex
100
AcDb2dVertex
 10
-252.562682631298
 20
269.5965215129406
 30
0.0
  0
VERTEX
  5
37A
330
342
100
AcDbEntity
  8
Predefinito
 62
   255
370
    25
100
AcDbVertex
100
AcDb2dVertex
 10
-259.4463622259226
 20
269.5965215129406
 30
0.0
  0
VERTEX
  5
37B
330
342
100
AcDbEntity
  8
Predefinito
 62
   255
370
    25
100
AcDbVertex
100
AcDb2dVertex
 10
-265.5615542071224
 20
269.5965215129406
 30
0.0
  0
VERTEX
  5
37C
330
342
100
AcDbEntity
  8
Predefinito
 62
   255
370
    25
100
AcDbVertex
100
AcDb2dVertex
 10
-270.8920762640412
 20
269.5965215129406
 30
0.0
  0
VERTEX
  5
37D
330
342
100
AcDbEntity
  8
Predefinito
 62
   255
370
    25
100
AcDbVertex
100
AcDb2dVertex
 10
-275.4255334351722
 20
269.5965215129406
 30
0.0
  0
VERTEX
  5
37E
330
342
100
AcDbEntity
  8
Predefinito
 62
   255
370
    25
100
AcDbVertex
100
AcDb2dVertex
 10
-279.150219367981
 20
269.5965215129406
 30
0.0
  0
VERTEX
  5
37F
330
342
100
AcDbEntity
  8
Predefinito
 62
   255
370
    25
100
AcDbVertex
100
AcDb2dVertex
 10
-282.0568378413378
 20
269.5965215129406
 30
0.0
  0
VERTEX
  5
380
330
342
100
AcDbEntity
  8
Predefinito
 62
   255
370
    25
100
AcDbVertex
100
AcDb2dVertex
 10
-284.1381584610299
 20
269.5965215129406
 30
0.0
  0
VERTEX
  5
381
330
342
100
AcDbEntity
  8
Predefinito
 62
   255
370
    25
100
AcDbVertex
100
AcDb2dVertex
 10
-285.3893609642494
 20
269.5965215129406
 30
0.0
  0
VERTEX
  5
382
330
342
100
AcDbEntity
  8
Predefinito
 62
   255
370
    25
100
AcDbVertex
100
AcDb2dVertex
 10
-285.807002306133
 20
269.5965215129406
 30
0.0
  0
SEQEND
  5
383
330
342
100
AcDbEntity
  8
Predefinito
 62
   255
370
    25
  0
POLYLINE
  5
384
330
1F
100
AcDbEntity
  8
Predefinito
 62
   255
370
    25
100
AcDb2dPolyline
 66
     1
 10
0.0
 20
0.0
 30
0.0
  0
VERTEX
  5
385
330
384
100
AcDbEntity
  8
Predefinito
 62
   255
370
    25
100
AcDbVertex
100
AcDb2dVertex
 10
384.971473864642
 20
286.5376794569162
 30
0.0
  0
VERTEX
  5
386
330
384
100
AcDbEntity
  8
Predefinito
 62
   255
370
    25
100
AcDbVertex
100
AcDb2dVertex
 10
384.51458181132
 20
286.5376794569162
 30
0.0
  0
VERTEX
  5
387
330
384
100
AcDbEntity
  8
Predefinito
 62
   255
370
    25
100
AcDbVertex
100
AcDb2dVertex
 10
383.1449385648129
 20
286.5376794569162
 30
0.0
  0
VERTEX
  5
388
330
384
100
AcDbEntity
  8
Predefinito
 62
   255
370
    25
100
AcDbVertex
100
AcDb2dVertex
 10
380.86633147447
 20
286.5376794569162
 30
0.0
  0
VERTEX
  5
389
330
384
100
AcDbEntity
  8
Predefinito
 62
   255
370
    25
100
AcDbVertex
100
AcDb2dVertex
 10
377.6853023255312
 20
286.5376794569162
 30
0.0
  0
VERTEX
  5
38A
330
384
100
AcDbEntity
  8
Predefinito
 62
   255
370
    25
100
AcDbVertex
100
AcDb2dVertex
 10
373.6104587301536
 20
286.5376794569162
 30
0.0
  0
VERTEX
  5
38B
330
384
100
AcDbEntity
  8
Predefinito
 62
   255
370
    25
100
AcDbVertex
100
AcDb2dVertex
 10
368.6521298229266
 20
286.5376794569162
 30
0.0
  0
VERTEX
  5
38C
330
384
100
AcDbEntity
  8
Predefinito
 62
   255
370
    25
100
AcDbVertex
100
AcDb2dVertex
 10
362.824776392275
 20
286.5376794569162
 30
0.0
  0
VERTEX
  5
38D
330
384
100
AcDbEntity
  8
Predefinito
 62
   255
370
    25
100
AcDbVertex
100
AcDb2dVertex
 10
356.1438921400819
 20
286.5376794569162
 30
0.0
  0
VERTEX
  5
38E
330
384
100
AcDbEntity
  8
Predefinito
 62
   255
370
    25
100
AcDbVertex
100
AcDb2dVertex
 10
348.6280695086079
 20
286.5376794569162
 30
0.0
  0
VERTEX
  5
38F
330
384
100
AcDbEntity
  8
Predefinito
 62
   255
370
    25
100
AcDbVertex
100
AcDb2dVertex
 10
340.2969338535721
 20
286.5376794569162
 30
0.0
  0
VERTEX
  5
390
330
384
100
AcDbEntity
  8
Predefinito
 62
   255
370
    25
100
AcDbVertex
100
AcDb2dVertex
 10
331.1742421845293
 20
286.5376794569162
 30
0.0
  0
VERTEX
  5
391
330
384
100
AcDbEntity
  8
Predefinito
 62
   255
370
    25
100
AcDbVertex
100
AcDb2dVertex
 10
321.2840958155207
 20
286.5376794569162
 30
0.0
  0
VERTEX
  5
392
330
384
100
AcDbEntity
  8
Predefinito
 62
   255
370
    25
100
AcDbVertex
100
AcDb2dVertex
 10
310.6540391054501
 20
286.5376794569162
 30
0.0
  0
VERTEX
  5
393
330
384
100
AcDbEntity
  8
Predefinito
 62
   255
370
    25
100
AcDbVertex
100
AcDb2dVertex
 10
299.312649326681
 20
286.5376794569162
 30
0.0
  0
SEQEND
  5
394
330
384
100
AcDbEntity
  8
Predefinito
 62
   255
370
    25
  0
POLYLINE
  5
395
330
1F
100
AcDbEntity
  8
Predefinito
 62
   255
370
    25
100
AcDb2dPolyline
 66
     1
 10
0.0
 20
0.0
 30
0.0
  0
VERTEX
  5
396
330
395
100
AcDbEntity
  8
Predefinito
 62
   255
370
    25
100
AcDbVertex
100
AcDb2dVertex
 10
284.5237387265755
 20
286.5376794569162
 30
0.0
  0
VERTEX
  5
397
330
395
100
AcDbEntity
  8
Predefinito
 62
   255
370
    25
100
AcDbVertex
100
AcDb2dVertex
 10
272.2930104596896
 20
286.5376794569162
 30
0.0
  0
VERTEX
  5
398
330
395
100
AcDbEntity
  8
Predefinito
 62
   255
370
    25
100
AcDbVertex
100
AcDb2dVertex
 10
259.5076076653722
 20
286.5376794569162
 30
0.0
  0
VERTEX
  5
399
330
395
100
AcDbEntity
  8
Predefinito
 62
   255
370
    25
100
AcDbVertex
100
AcDb2dVertex
 10
246.2002392698219
 20
286.5376794569162
 30
0.0
  0
VERTEX
  5
39A
330
395
100
AcDbEntity
  8
Predefinito
 62
   255
370
    25
100
AcDbVertex
100
AcDb2dVertex
 10
232.4032698947507
 20
286.5376794569162
 30
0.0
  0
VERTEX
  5
39B
330
395
100
AcDbEntity
  8
Predefinito
 62
   255
370
    25
100
AcDbVertex
100
AcDb2dVertex
 10
218.1514742932755
 20
286.5376794569162
 30
0.0
  0
VERTEX
  5
39C
330
395
100
AcDbEntity
  8
Predefinito
 62
   255
370
    25
100
AcDbVertex
100
AcDb2dVertex
 10
203.4806601319714
 20
286.5376794569162
 30
0.0
  0
VERTEX
  5
39D
330
395
100
AcDbEntity
  8
Predefinito
 62
   255
370
    25
100
AcDbVertex
100
AcDb2dVertex
 10
188.4269793819001
 20
286.5376794569162
 30
0.0
  0
VERTEX
  5
39E
330
395
100
AcDbEntity
  8
Predefinito
 62
   255
370
    25
100
AcDbVertex
100
AcDb2dVertex
 10
173.0276169275822
 20
286.5376794569162
 30
0.0
  0
VERTEX
  5
39F
330
395
100
AcDbEntity
  8
Predefinito
 62
   255
370
    25
100
AcDbVertex
100
AcDb2dVertex
 10
157.321823480456
 20
286.5376794569162
 30
0.0
  0
VERTEX
  5
3A0
330
395
100
AcDbEntity
  8
Predefinito
 62
   255
370
    25
100
AcDbVertex
100
AcDb2dVertex
 10
141.3481611429873
 20
286.5376794569162
 30
0.0
  0
VERTEX
  5
3A1
330
395
100
AcDbEntity
  8
Predefinito
 62
   255
370
    25
100
AcDbVertex
100
AcDb2dVertex
 10
125.1462249311007
 20
286.5376794569162
 30
0.0
  0
VERTEX
  5
3A2
330
395
100
AcDbEntity
  8
Predefinito
 62
   255
370
    25
100
AcDbVertex
100
AcDb2dVertex
 10
108.7573313831524
 20
286.5376794569162
 30
0.0
  0
VERTEX
  5
3A3
330
395
100
AcDbEntity
  8
Predefinito
 62
   255
370
    25
100
AcDbVertex
100
AcDb2dVertex
 10
92.22107551506717
 20
286.5376794569162
 30
0.0
  0
VERTEX
  5
3A4
330
395
100
AcDbEntity
  8
Predefinito
 62
   255
370
    25
100
AcDbVertex
100
AcDb2dVertex
 10
75.57980677866006
 20
286.5376794569162
 30
0.0
  0
VERTEX
  5
3A5
330
395
100
AcDbEntity
  8
Predefinito
 62
   255
370
    25
100
AcDbVertex
100
AcDb2dVertex
 10
58.87415310331447
 20
286.5376794569162
 30
0.0
  0
VERTEX
  5
3A6
330
395
100
AcDbEntity
  8
Predefinito
 62
   255
370
    25
100
AcDbVertex
100
AcDb2dVertex
 10
42.14646394084566
 20
286.5376794569162
 30
0.0
  0
VERTEX
  5
3A7
330
395
100
AcDbEntity
  8
Predefinito
 62
   255
370
    25
100
AcDbVertex
100
AcDb2dVertex
 10
25.43771152512332
 20
286.5376794569162
 30
0.0
  0
VERTEX
  5
3A8
330
395
100
AcDbEntity
  8
Predefinito
 62
   255
370
    25
100
AcDbVertex
100
AcDb2dVertex
 10
8.789901003476444
 20
286.5376794569162
 30
0.0
  0
VERTEX
  5
3A9
330
395
100
AcDbEntity
  8
Predefinito
 62
   255
370
    25
100
AcDbVertex
100
AcDb2dVertex
 10
-7.755306781252659
 20
286.5376794569162
 30
0.0
  0
VERTEX
  5
3AA
330
395
100
AcDbEntity
  8
Predefinito
 62
   255
370
    25
100
AcDbVertex
100
AcDb2dVertex
 10
-24.15693959519407
 20
286.5376794569162
 30
0.0
  0
VERTEX
  5
3AB
330
395
100
AcDbEntity
  8
Predefinito
 62
   255
370
    25
100
AcDbVertex
100
AcDb2dVertex
 10
-40.3740252044779
 20
286.5376794569162
 30
0.0
  0
VERTEX
  5
3AC
330
395
100
AcDbEntity
  8
Predefinito
 62
   255
370
    25
100
AcDbVertex
100
AcDb2dVertex
 10
-56.36627998420687
 20
286.5376794569162
 30
0.0
  0
VERTEX
  5
3AD
330
395
100
AcDbEntity
  8
Predefinito
 62
   255
370
    25
100
AcDbVertex
100
AcDb2dVertex
 10
-72.09376461397007
 20
286.5376794569162
 30
0.0
  0
VERTEX
  5
3AE
330
395
100
AcDbEntity
  8
Predefinito
 62
   255
370
    25
100
AcDbVertex
100
AcDb2dVertex
 10
-87.51722838232908
 20
286.5376794569162
 30
0.0
  0
VERTEX
  5
3AF
330
395
100
AcDbEntity
  8
Predefinito
 62
   255
370
    25
100
AcDbVertex
100
AcDb2dVertex
 10
-102.5981091868182
 20
286.5376794569162
 30
0.0
  0
VERTEX
  5
3B0
330
395
100
AcDbEntity
  8
Predefinito
 62
   255
370
    25
100
AcDbVertex
100
AcDb2dVertex
 10
-117.2992221429168
 20
286.5376794569162
 30
0.0
  0
VERTEX
  5
3B1
330
395
100
AcDbEntity
  8
Predefinito
 62
   255
370
    25
100
AcDbVertex
100
AcDb2dVertex
 10
-131.5837266705907
 20
286.5376794569162
 30
0.0
  0
VERTEX
  5
3B2
330
395
100
AcDbEntity
  8
Predefinito
 62
   255
370
    25
100
AcDbVertex
100
AcDb2dVertex
 10
-145.4158151032645
 20
286.5376794569162
 30
0.0
  0
VERTEX
  5
3B3
330
395
100
AcDbEntity
  8
Predefinito
 62
   255
370
    25
100
AcDbVertex
100
AcDb2dVertex
 10
-158.7614012967944
 20
286.5376794569162
 30
0.0
  0
VERTEX
  5
3B4
330
395
100
AcDbEntity
  8
Predefinito
 62
   255
370
    25
100
AcDbVertex
100
AcDb2dVertex
 10
-171.5870877160091
 20
286.5376794569162
 30
0.0
  0
VERTEX
  5
3B5
330
395
100
AcDbEntity
  8
Predefinito
 62
   255
370
    25
100
AcDbVertex
100
AcDb2dVertex
 10
-183.8605097391963
 20
286.5376794569162
 30
0.0
  0
VERTEX
  5
3B6
330
395
100
AcDbEntity
  8
Predefinito
 62
   255
370
    25
100
AcDbVertex
100
AcDb2dVertex
 10
-195.5517128760477
 20
286.5376794569162
 30
0.0
  0
VERTEX
  5
3B7
330
395
100
AcDbEntity
  8
Predefinito
 62
   255
370
    25
100
AcDbVertex
100
AcDb2dVertex
 10
-206.6310869407416
 20
286.5376794569162
 30
0.0
  0
VERTEX
  5
3B8
330
395
100
AcDbEntity
  8
Predefinito
 62
   255
370
    25
100
AcDbVertex
100
AcDb2dVertex
 10
-217.07143187886
 20
286.5376794569162
 30
0.0
  0
VERTEX
  5
3B9
330
395
100
AcDbEntity
  8
Predefinito
 62
   255
370
    25
100
AcDbVertex
100
AcDb2dVertex
 10
-226.8462362449577
 20
286.5376794569162
 30
0.0
  0
VERTEX
  5
3BA
330
395
100
AcDbEntity
  8
Predefinito
 62
   255
370
    25
100
AcDbVertex
100
AcDb2dVertex
 10
-235.9313987249936
 20
286.5376794569162
 30
0.0
  0
VERTEX
  5
3BB
330
395
100
AcDbEntity
  8
Predefinito
 62
   255
370
    25
100
AcDbVertex
100
AcDb2dVertex
 10
-244.3045395273582
 20
286.5376794569162
 30
0.0
  0
VERTEX
  5
3BC
330
395
100
AcDbEntity
  8
Predefinito
 62
   255
370
    25
100
AcDbVertex
100
AcDb2dVertex
 10
-251.9443117739007
 20
286.5376794569162
 30
0.0
  0
VERTEX
  5
3BD
330
395
100
AcDbEntity
  8
Predefinito
 62
   255
370
    25
100
AcDbVertex
100
AcDb2dVertex
 10
-258.8321230223609
 20
286.5376794569162
 30
0.0
  0
VERTEX
  5
3BE
330
395
100
AcDbEntity
  8
Predefinito
 62
   255
370
    25
100
AcDbVertex
100
AcDb2dVertex
 10
-264.9504137439373
 20
286.5376794569162
 30
0.0
  0
VERTEX
  5
3BF
330
395
100
AcDbEntity
  8
Predefinito
 62
   255
370
    25
100
AcDbVertex
100
AcDb2dVertex
 10
-270.2843788457191
 20
286.5376794569162
 30
0.0
  0
VERTEX
  5
3C0
330
395
100
AcDbEntity
  8
Predefinito
 62
   255
370
    25
100
AcDbVertex
100
AcDb2dVertex
 10
-274.8202461482542
 20
286.5376794569162
 30
0.0
  0
VERTEX
  5
3C1
330
395
100
AcDbEntity
  8
Predefinito
 62
   255
370
    25
100
AcDbVertex
100
AcDb2dVertex
 10
-278.5466536034947
 20
286.5376794569162
 30
0.0
  0
VERTEX
  5
3C2
330
395
100
AcDbEntity
  8
Predefinito
 62
   255
370
    25
100
AcDbVertex
100
AcDb2dVertex
 10
-281.4549935992829
 20
286.5376794569162
 30
0.0
  0
VERTEX
  5
3C3
330
395
100
AcDbEntity
  8
Predefinito
 62
   255
370
    25
100
AcDbVertex
100
AcDb2dVertex
 10
-283.5373471324339
 20
286.5376794569162
 30
0.0
  0
VERTEX
  5
3C4
330
395
100
AcDbEntity
  8
Predefinito
 62
   255
370
    25
100
AcDbVertex
100
AcDb2dVertex
 10
-284.7888939401396
 20
286.5376794569162
 30
0.0
  0
VERTEX
  5
3C5
330
395
100
AcDbEntity
  8
Predefinito
 62
   255
370
    25
100
AcDbVertex
100
AcDb2dVertex
 10
-285.2065352820233
 20
286.5376794569162
 30
0.0
  0
SEQEND
  5
3C6
330
395
100
AcDbEntity
  8
Predefinito
 62
   255
370
    25
  0
POLYLINE
  5
3C7
330
1F
100
AcDbEntity
  8
Predefinito
 62
   255
370
    25
100
AcDb2dPolyline
 66
     1
 10
0.0
 20
0.0
 30
0.0
  0
VERTEX
  5
3C8
330
3C7
100
AcDbEntity
  8
Predefinito
 62
   255
370
    25
100
AcDbVertex
100
AcDb2dVertex
 10
-190.4236418570742
 20
346.8508735402836
 30
0.0
  0
VERTEX
  5
3C9
330
3C7
100
AcDbEntity
  8
Predefinito
 62
   255
370
    25
100
AcDbVertex
100
AcDb2dVertex
 10
-189.9240560474508
 20
346.8508735402836
 30
0.0
  0
VERTEX
  5
3CA
330
3C7
100
AcDbEntity
  8
Predefinito
 62
   255
370
    25
100
AcDbVertex
100
AcDb2dVertex
 10
-188.9245401237177
 20
346.8508735402836
 30
0.0
  0
VERTEX
  5
3CB
330
3C7
100
AcDbEntity
  8
Predefinito
 62
   255
370
    25
100
AcDbVertex
100
AcDb2dVertex
 10
-188.4249543140944
 20
346.8508735402836
 30
0.0
  0
SEQEND
  5
3CC
330
3C7
100
AcDbEntity
  8
Predefinito
 62
   255
370
    25
  0
POLYLINE
  5
3CD
330
1F
100
AcDbEntity
  8
Predefinito
 62
   255
370
    25
100
AcDb2dPolyline
 66
     1
 10
0.0
 20
0.0
 30
0.0
  0
VERTEX
  5
3CE
330
3CD
100
AcDbEntity
  8
Predefinito
 62
   255
370
    25
100
AcDbVertex
100
AcDb2dVertex
 10
-308.7607494943907
 20
309.8725717115097
 30
0.0
  0
VERTEX
  5
3CF
330
3CD
100
AcDbEntity
  8
Predefinito
 62
   255
370
    25
100
AcDbVertex
100
AcDb2dVertex
 10
-314.8539059884671
 20
309.8725717115097
 30
0.0
  0
VERTEX
  5
3D0
330
3CD
100
AcDbEntity
  8
Predefinito
 62
   255
370
    25
100
AcDbVertex
100
AcDb2dVertex
 10
-320.2584535099407
 20
309.8725717115097
 30
0.0
  0
VERTEX
  5
3D1
330
3CD
100
AcDbEntity
  8
Predefinito
 62
   255
370
    25
100
AcDbVertex
100
AcDb2dVertex
 10
-324.9230906903526
 20
309.8725717115097
 30
0.0
  0
VERTEX
  5
3D2
330
3CD
100
AcDbEntity
  8
Predefinito
 62
   255
370
    25
100
AcDbVertex
100
AcDb2dVertex
 10
-328.8020250330245
 20
309.8725717115097
 30
0.0
  0
VERTEX
  5
3D3
330
3CD
100
AcDbEntity
  8
Predefinito
 62
   255
370
    25
100
AcDbVertex
100
AcDb2dVertex
 10
-331.858071653436
 20
309.8725717115097
 30
0.0
  0
VERTEX
  5
3D4
330
3CD
100
AcDbEntity
  8
Predefinito
 62
   255
370
    25
100
AcDbVertex
100
AcDb2dVertex
 10
-334.0623089747378
 20
309.8725717115097
 30
0.0
  0
VERTEX
  5
3D5
330
3CD
100
AcDbEntity
  8
Predefinito
 62
   255
370
    25
100
AcDbVertex
100
AcDb2dVertex
 10
-335.3927015098066
 20
309.8725717115097
 30
0.0
  0
VERTEX
  5
3D6
330
3CD
100
AcDbEntity
  8
Predefinito
 62
   255
370
    25
100
AcDbVertex
100
AcDb2dVertex
 10
-335.8371986016217
 20
309.8725717115097
 30
0.0
  0
SEQEND
  5
3D7
330
3CD
100
AcDbEntity
  8
Predefinito
 62
   255
370
    25
  0
POLYLINE
  5
3D8
330
1F
100
AcDbEntity
  8
Predefinito
 62
   255
370
    25
100
AcDb2dPolyline
 66
     1
 10
0.0
 20
0.0
 30
0.0
  0
VERTEX
  5
3D9
330
3D8
100
AcDbEntity
  8
Predefinito
 62
   255
370
    25
100
AcDbVertex
100
AcDb2dVertex
 10
-150.9474109801833
 20
309.8725717115097
 30
0.0
  0
VERTEX
  5
3DA
330
3D8
100
AcDbEntity
  8
Predefinito
 62
   255
370
    25
100
AcDbVertex
100
AcDb2dVertex
 10
-151.3574776233683
 20
309.8725717115097
 30
0.0
  0
VERTEX
  5
3DB
330
3D8
100
AcDbEntity
  8
Predefinito
 62
   255
370
    25
100
AcDbVertex
100
AcDb2dVertex
 10
-152.5845788125466
 20
309.8725717115097
 30
0.0
  0
VERTEX
  5
3DC
330
3D8
100
AcDbEntity
  8
Predefinito
 62
   255
370
    25
100
AcDbVertex
100
AcDb2dVertex
 10
-154.6180411086429
 20
309.8725717115097
 30
0.0
  0
VERTEX
  5
3DD
330
3D8
100
AcDbEntity
  8
Predefinito
 62
   255
370
    25
100
AcDbVertex
100
AcDb2dVertex
 10
-157.4389277649105
 20
309.8725717115097
 30
0.0
  0
VERTEX
  5
3DE
330
3D8
100
AcDbEntity
  8
Predefinito
 62
   255
370
    25
100
AcDbVertex
100
AcDb2dVertex
 10
-161.0231374673085
 20
309.8725717115097
 30
0.0
  0
VERTEX
  5
3DF
330
3D8
100
AcDbEntity
  8
Predefinito
 62
   255
370
    25
100
AcDbVertex
100
AcDb2dVertex
 10
-165.3383055941243
 20
309.8725717115097
 30
0.0
  0
VERTEX
  5
3E0
330
3D8
100
AcDbEntity
  8
Predefinito
 62
   255
370
    25
100
AcDbVertex
100
AcDb2dVertex
 10
-170.3462143473787
 20
309.8725717115097
 30
0.0
  0
VERTEX
  5
3E1
330
3D8
100
AcDbEntity
  8
Predefinito
 62
   255
370
    25
100
AcDbVertex
100
AcDb2dVertex
 10
-176.002792752825
 20
309.8725717115097
 30
0.0
  0
VERTEX
  5
3E2
330
3D8
100
AcDbEntity
  8
Predefinito
 62
   255
370
    25
100
AcDbVertex
100
AcDb2dVertex
 10
-182.2574280509768
 20
309.8725717115097
 30
0.0
  0
VERTEX
  5
3E3
330
3D8
100
AcDbEntity
  8
Predefinito
 62
   255
370
    25
100
AcDbVertex
100
AcDb2dVertex
 10
-189.0543429150534
 20
309.8725717115097
 30
0.0
  0
VERTEX
  5
3E4
330
3D8
100
AcDbEntity
  8
Predefinito
 62
   255
370
    25
100
AcDbVertex
100
AcDb2dVertex
 10
-196.3339726689246
 20
309.8725717115097
 30
0.0
  0
VERTEX
  5
3E5
330
3D8
100
AcDbEntity
  8
Predefinito
 62
   255
370
    25
100
AcDbVertex
100
AcDb2dVertex
 10
-204.0308994601932
 20
309.8725717115097
 30
0.0
  0
VERTEX
  5
3E6
330
3D8
100
AcDbEntity
  8
Predefinito
 62
   255
370
    25
100
AcDbVertex
100
AcDb2dVertex
 10
-212.077639609544
 20
309.8725717115097
 30
0.0
  0
VERTEX
  5
3E7
330
3D8
100
AcDbEntity
  8
Predefinito
 62
   255
370
    25
100
AcDbVertex
100
AcDb2dVertex
 10
-220.40223347934
 20
309.8725717115097
 30
0.0
  0
VERTEX
  5
3E8
330
3D8
100
AcDbEntity
  8
Predefinito
 62
   255
370
    25
100
AcDbVertex
100
AcDb2dVertex
 10
-228.9306556050265
 20
309.8725717115097
 30
0.0
  0
VERTEX
  5
3E9
330
3D8
100
AcDbEntity
  8
Predefinito
 62
   255
370
    25
100
AcDbVertex
100
AcDb2dVertex
 10
-237.5875033041035
 20
309.8725717115097
 30
0.0
  0
VERTEX
  5
3EA
330
3D8
100
AcDbEntity
  8
Predefinito
 62
   255
370
    25
100
AcDbVertex
100
AcDb2dVertex
 10
-246.2959966761257
 20
309.8725717115097
 30
0.0
  0
VERTEX
  5
3EB
330
3D8
100
AcDbEntity
  8
Predefinito
 62
   255
370
    25
100
AcDbVertex
100
AcDb2dVertex
 10
-254.9786672116752
 20
309.8725717115097
 30
0.0
  0
VERTEX
  5
3EC
330
3D8
100
AcDbEntity
  8
Predefinito
 62
   255
370
    25
100
AcDbVertex
100
AcDb2dVertex
 10
-263.5583907058206
 20
309.8725717115097
 30
0.0
  0
VERTEX
  5
3ED
330
3D8
100
AcDbEntity
  8
Predefinito
 62
   255
370
    25
100
AcDbVertex
100
AcDb2dVertex
 10
-271.9594201715756
 20
309.8725717115097
 30
0.0
  0
VERTEX
  5
3EE
330
3D8
100
AcDbEntity
  8
Predefinito
 62
   255
370
    25
100
AcDbVertex
100
AcDb2dVertex
 10
-280.1063529264401
 20
309.8725717115097
 30
0.0
  0
VERTEX
  5
3EF
330
3D8
100
AcDbEntity
  8
Predefinito
 62
   255
370
    25
100
AcDbVertex
100
AcDb2dVertex
 10
-287.9279179417498
 20
309.8725717115097
 30
0.0
  0
VERTEX
  5
3F0
330
3D8
100
AcDbEntity
  8
Predefinito
 62
   255
370
    25
100
AcDbVertex
100
AcDb2dVertex
 10
-295.3538771022991
 20
309.8725717115097
 30
0.0
  0
VERTEX
  5
3F1
330
3D8
100
AcDbEntity
  8
Predefinito
 62
   255
370
    25
100
AcDbVertex
100
AcDb2dVertex
 10
-302.3188125556908
 20
309.8725717115097
 30
0.0
  0
VERTEX
  5
3F2
330
3D8
100
AcDbEntity
  8
Predefinito
 62
   255
370
    25
100
AcDbVertex
100
AcDb2dVertex
 10
-308.7607494943907
 20
309.8725717115097
 30
0.0
  0
SEQEND
  5
3F3
330
3D8
100
AcDbEntity
  8
Predefinito
 62
   255
370
    25
  0
POLYLINE
  5
3F4
330
1F
100
AcDbEntity
  8
Predefinito
 62
   255
370
    25
100
AcDb2dPolyline
 66
     1
 10
0.0
 20
0.0
 30
0.0
  0
VERTEX
  5
3F5
330
3F4
100
AcDbEntity
  8
Predefinito
 62
   255
370
    25
100
AcDbVertex
100
AcDb2dVertex
 10
-338.3358162587112
 20
346.8508735402836
 30
0.0
  0
VERTEX
  5
3F6
330
3F4
100
AcDbEntity
  8
Predefinito
 62
   255
370
    25
100
AcDbVertex
100
AcDb2dVertex
 10
-338.3358162587112
 20
312.3715336730854
 30
0.0
  0
SEQEND
  5
3F7
330
3F4
100
AcDbEntity
  8
Predefinito
 62
   255
370
    25
  0
POLYLINE
  5
3F8
330
1F
100
AcDbEntity
  8
Predefinito
 62
   255
370
    25
100
AcDb2dPolyline
 66
     1
 10
0.0
 20
0.0
 30
0.0
  0
VERTEX
  5
3F9
330
3F8
100
AcDbEntity
  8
Predefinito
 62
   255
370
    25
100
AcDbVertex
100
AcDb2dVertex
 10
-148.4487933230938
 20
312.3715336730854
 30
0.0
  0
VERTEX
  5
3FA
330
3F8
100
AcDbEntity
  8
Predefinito
 62
   255
370
    25
100
AcDbVertex
100
AcDb2dVertex
 10
-148.4487933230938
 20
346.8508735402836
 30
0.0
  0
SEQEND
  5
3FB
330
3F8
100
AcDbEntity
  8
Predefinito
 62
   255
370
    25
  0
POLYLINE
  5
3FC
330
1F
100
AcDbEntity
  8
Predefinito
 62
   255
370
    25
100
AcDb2dPolyline
 66
     1
 10
0.0
 20
0.0
 30
0.0
  0
VERTEX
  5
3FD
330
3FC
100
AcDbEntity
  8
Predefinito
 62
   255
370
    25
100
AcDbVertex
100
AcDb2dVertex
 10
-310.5273758136033
 20
346.8508735402836
 30
0.0
  0
VERTEX
  5
3FE
330
3FC
100
AcDbEntity
  8
Predefinito
 62
   255
370
    25
100
AcDbVertex
100
AcDb2dVertex
 10
-303.9115651093213
 20
346.8508735402836
 30
0.0
  0
VERTEX
  5
3FF
330
3FC
100
AcDbEntity
  8
Predefinito
 62
   255
370
    25
100
AcDbVertex
100
AcDb2dVertex
 10
-296.7582951019227
 20
346.8508735402836
 30
0.0
  0
VERTEX
  5
400
330
3FC
100
AcDbEntity
  8
Predefinito
 62
   255
370
    25
100
AcDbVertex
100
AcDb2dVertex
 10
-289.1316064258596
 20
346.8508735402836
 30
0.0
  0
VERTEX
  5
401
330
3FC
100
AcDbEntity
  8
Predefinito
 62
   255
370
    25
100
AcDbVertex
100
AcDb2dVertex
 10
-281.0986384559609
 20
346.8508735402836
 30
0.0
  0
VERTEX
  5
402
330
3FC
100
AcDbEntity
  8
Predefinito
 62
   255
370
    25
100
AcDbVertex
100
AcDb2dVertex
 10
-272.7313508298634
 20
346.8508735402836
 30
0.0
  0
VERTEX
  5
403
330
3FC
100
AcDbEntity
  8
Predefinito
 62
   255
370
    25
100
AcDbVertex
100
AcDb2dVertex
 10
-264.1034247076358
 20
346.8508735402836
 30
0.0
  0
VERTEX
  5
404
330
3FC
100
AcDbEntity
  8
Predefinito
 62
   255
370
    25
100
AcDbVertex
100
AcDb2dVertex
 10
-255.2916399897232
 20
346.8508735402836
 30
0.0
  0
VERTEX
  5
405
330
3FC
100
AcDbEntity
  8
Predefinito
 62
   255
370
    25
100
AcDbVertex
100
AcDb2dVertex
 10
-246.3744980990024
 20
346.8508735402836
 30
0.0
  0
VERTEX
  5
406
330
3FC
100
AcDbEntity
  8
Predefinito
 62
   255
370
    25
100
AcDbVertex
100
AcDb2dVertex
 10
-237.43050045835
 20
346.8508735402836
 30
0.0
  0
VERTEX
  5
407
330
3FC
100
AcDbEntity
  8
Predefinito
 62
   255
370
    25
100
AcDbVertex
100
AcDb2dVertex
 10
-228.5398700130744
 20
346.8508735402836
 30
0.0
  0
VERTEX
  5
408
330
3FC
100
AcDbEntity
  8
Predefinito
 62
   255
370
    25
100
AcDbVertex
100
AcDb2dVertex
 10
-219.7807638815659
 20
346.8508735402836
 30
0.0
  0
VERTEX
  5
409
330
3FC
100
AcDbEntity
  8
Predefinito
 62
   255
370
    25
100
AcDbVertex
100
AcDb2dVertex
 10
-211.2313391822151
 20
346.8508735402836
 30
0.0
  0
VERTEX
  5
40A
330
3FC
100
AcDbEntity
  8
Predefinito
 62
   255
370
    25
100
AcDbVertex
100
AcDb2dVertex
 10
-202.967342902008
 20
346.8508735402836
 30
0.0
  0
VERTEX
  5
40B
330
3FC
100
AcDbEntity
  8
Predefinito
 62
   255
370
    25
100
AcDbVertex
100
AcDb2dVertex
 10
-195.0621118965271
 20
346.8508735402836
 30
0.0
  0
VERTEX
  5
40C
330
3FC
100
AcDbEntity
  8
Predefinito
 62
   255
370
    25
100
AcDbVertex
100
AcDb2dVertex
 10
-187.5858842809778
 20
346.8508735402836
 30
0.0
  0
VERTEX
  5
40D
330
3FC
100
AcDbEntity
  8
Predefinito
 62
   255
370
    25
100
AcDbVertex
100
AcDb2dVertex
 10
-180.6047665167299
 20
346.8508735402836
 30
0.0
  0
VERTEX
  5
40E
330
3FC
100
AcDbEntity
  8
Predefinito
 62
   255
370
    25
100
AcDbVertex
100
AcDb2dVertex
 10
-174.1814220202903
 20
346.8508735402836
 30
0.0
  0
VERTEX
  5
40F
330
3FC
100
AcDbEntity
  8
Predefinito
 62
   255
370
    25
100
AcDbVertex
100
AcDb2dVertex
 10
-168.3719724229263
 20
346.8508735402836
 30
0.0
  0
VERTEX
  5
410
330
3FC
100
AcDbEntity
  8
Predefinito
 62
   255
370
    25
100
AcDbVertex
100
AcDb2dVertex
 10
-163.2287520065555
 20
346.8508735402836
 30
0.0
  0
VERTEX
  5
411
330
3FC
100
AcDbEntity
  8
Predefinito
 62
   255
370
    25
100
AcDbVertex
100
AcDb2dVertex
 10
-158.7968646588834
 20
346.8508735402836
 30
0.0
  0
VERTEX
  5
412
330
3FC
100
AcDbEntity
  8
Predefinito
 62
   255
370
    25
100
AcDbVertex
100
AcDb2dVertex
 10
-155.1159053958348
 20
346.8508735402836
 30
0.0
  0
VERTEX
  5
413
330
3FC
100
AcDbEntity
  8
Predefinito
 62
   255
370
    25
100
AcDbVertex
100
AcDb2dVertex
 10
-152.2185831436082
 20
346.8508735402836
 30
0.0
  0
VERTEX
  5
414
330
3FC
100
AcDbEntity
  8
Predefinito
 62
   255
370
    25
100
AcDbVertex
100
AcDb2dVertex
 10
-150.13037643419
 20
346.8508735402836
 30
0.0
  0
VERTEX
  5
415
330
3FC
100
AcDbEntity
  8
Predefinito
 62
   255
370
    25
100
AcDbVertex
100
AcDb2dVertex
 10
-148.8702220143268
 20
346.8508735402836
 30
0.0
  0
VERTEX
  5
416
330
3FC
100
AcDbEntity
  8
Predefinito
 62
   255
370
    25
100
AcDbVertex
100
AcDb2dVertex
 10
-148.4487933230938
 20
346.8508735402836
 30
0.0
  0
SEQEND
  5
417
330
3FC
100
AcDbEntity
  8
Predefinito
 62
   255
370
    25
  0
POLYLINE
  5
418
330
1F
100
AcDbEntity
  8
Predefinito
 62
   255
370
    25
100
AcDb2dPolyline
 66
     1
 10
0.0
 20
0.0
 30
0.0
  0
VERTEX
  5
419
330
418
100
AcDbEntity
  8
Predefinito
 62
   255
370
    25
100
AcDbVertex
100
AcDb2dVertex
 10
-338.3358162587112
 20
346.8508735402836
 30
0.0
  0
VERTEX
  5
41A
330
418
100
AcDbEntity
  8
Predefinito
 62
   255
370
    25
100
AcDbVertex
100
AcDb2dVertex
 10
-337.8792685098755
 20
346.8508735402836
 30
0.0
  0
VERTEX
  5
41B
330
418
100
AcDbEntity
  8
Predefinito
 62
   255
370
    25
100
AcDbVertex
100
AcDb2dVertex
 10
-336.5127240037451
 20
346.8508735402836
 30
0.0
  0
VERTEX
  5
41C
330
418
100
AcDbEntity
  8
Predefinito
 62
   255
370
    25
100
AcDbVertex
100
AcDb2dVertex
 10
-334.2492663107995
 20
346.8508735402836
 30
0.0
  0
VERTEX
  5
41D
330
418
100
AcDbEntity
  8
Predefinito
 62
   255
370
    25
100
AcDbVertex
100
AcDb2dVertex
 10
-331.1102423091893
 20
346.8508735402836
 30
0.0
  0
VERTEX
  5
41E
330
418
100
AcDbEntity
  8
Predefinito
 62
   255
370
    25
100
AcDbVertex
100
AcDb2dVertex
 10
-327.1262950981954
 20
346.8508735402836
 30
0.0
  0
VERTEX
  5
41F
330
418
100
AcDbEntity
  8
Predefinito
 62
   255
370
    25
100
AcDbVertex
100
AcDb2dVertex
 10
-322.3359867802836
 20
346.8508735402836
 30
0.0
  0
VERTEX
  5
420
330
418
100
AcDbEntity
  8
Predefinito
 62
   255
370
    25
100
AcDbVertex
100
AcDb2dVertex
 10
-316.7851098521318
 20
346.8508735402836
 30
0.0
  0
VERTEX
  5
421
330
418
100
AcDbEntity
  8
Predefinito
 62
   255
370
    25
100
AcDbVertex
100
AcDb2dVertex
 10
-310.5273758136033
 20
346.8508735402836
 30
0.0
  0
SEQEND
  5
422
330
418
100
AcDbEntity
  8
Predefinito
 62
   255
370
    25
  0
POLYLINE
  5
423
330
1F
100
AcDbEntity
  8
Predefinito
 62
   255
370
    25
100
AcDb2dPolyline
 66
     1
 10
0.0
 20
0.0
 30
0.0
  0
VERTEX
  5
424
330
423
100
AcDbEntity
  8
Predefinito
 62
   255
370
    25
100
AcDbVertex
100
AcDb2dVertex
 10
542.8812176350137
 20
597.2363263728986
 30
0.0
  0
VERTEX
  5
425
330
423
100
AcDbEntity
  8
Predefinito
 62
   255
370
    25
100
AcDbVertex
100
AcDb2dVertex
 10
542.9497342277878
 20
597.3919520007067
 30
0.0
  0
VERTEX
  5
426
330
423
100
AcDbEntity
  8
Predefinito
 62
   255
370
    25
100
AcDbVertex
100
AcDb2dVertex
 10
543.1539067881646
 20
597.5527421958096
 30
0.0
  0
VERTEX
  5
427
330
423
100
AcDbEntity
  8
Predefinito
 62
   255
370
    25
100
AcDbVertex
100
AcDb2dVertex
 10
543.302990630733
 20
597.6202258751247
 30
0.0
  0
VERTEX
  5
428
330
423
100
AcDbEntity
  8
Predefinito
 62
   255
370
    25
100
AcDbVertex
100
AcDb2dVertex
 10
543.4655023482674
 20
597.6753145929329
 30
0.0
  0
VERTEX
  5
429
330
423
100
AcDbEntity
  8
Predefinito
 62
   255
370
    25
100
AcDbVertex
100
AcDb2dVertex
 10
543.6252596299112
 20
597.7186969582068
 30
0.0
  0
VERTEX
  5
42A
330
423
100
AcDbEntity
  8
Predefinito
 62
   255
370
    25
100
AcDbVertex
100
AcDb2dVertex
 10
543.7798523442605
 20
597.7538160158095
 30
0.0
  0
VERTEX
  5
42B
330
423
100
AcDbEntity
  8
Predefinito
 62
   255
370
    25
100
AcDbVertex
100
AcDb2dVertex
 10
543.9110323535415
 20
597.7799831567686
 30
0.0
  0
SEQEND
  5
42C
330
423
100
AcDbEntity
  8
Predefinito
 62
   255
370
    25
  0
POLYLINE
  5
42D
330
1F
100
AcDbEntity
  8
Predefinito
 62
   255
370
    25
100
AcDb2dPolyline
 66
     1
 10
0.0
 20
0.0
 30
0.0
  0
VERTEX
  5
42E
330
42D
100
AcDbEntity
  8
Predefinito
 62
   255
370
    25
100
AcDbVertex
100
AcDb2dVertex
 10
542.8812176350137
 20
597.2363263728986
 30
0.0
  0
VERTEX
  5
42F
330
42D
100
AcDbEntity
  8
Predefinito
 62
   255
370
    25
100
AcDbVertex
100
AcDb2dVertex
 10
542.7903212506301
 20
594.8754305103296
 30
0.0
  0
SEQEND
  5
430
330
42D
100
AcDbEntity
  8
Predefinito
 62
   255
370
    25
  0
POLYLINE
  5
431
330
1F
100
AcDbEntity
  8
Predefinito
 62
   255
370
    25
100
AcDb2dPolyline
 66
     1
 10
0.0
 20
0.0
 30
0.0
  0
VERTEX
  5
432
330
431
100
AcDbEntity
  8
Predefinito
 62
   255
370
    25
100
AcDbVertex
100
AcDb2dVertex
 10
543.908277917651
 20
595.4528291338571
 30
0.0
  0
VERTEX
  5
433
330
431
100
AcDbEntity
  8
Predefinito
 62
   255
370
    25
100
AcDbVertex
100
AcDb2dVertex
 10
543.7282066713153
 20
595.4170214672818
 30
0.0
  0
VERTEX
  5
434
330
431
100
AcDbEntity
  8
Predefinito
 62
   255
370
    25
100
AcDbVertex
100
AcDb2dVertex
 10
543.5687936941578
 20
595.3808694962202
 30
0.0
  0
VERTEX
  5
435
330
431
100
AcDbEntity
  8
Predefinito
 62
   255
370
    25
100
AcDbVertex
100
AcDb2dVertex
 10
543.4035275407331
 20
595.3361099130009
 30
0.0
  0
VERTEX
  5
436
330
431
100
AcDbEntity
  8
Predefinito
 62
   255
370
    25
100
AcDbVertex
100
AcDb2dVertex
 10
543.2337854289864
 20
595.2782667593023
 30
0.0
  0
VERTEX
  5
437
330
431
100
AcDbEntity
  8
Predefinito
 62
   255
370
    25
100
AcDbVertex
100
AcDb2dVertex
 10
543.0774711922056
 20
595.2073400351242
 30
0.0
  0
VERTEX
  5
438
330
431
100
AcDbEntity
  8
Predefinito
 62
   255
370
    25
100
AcDbVertex
100
AcDb2dVertex
 10
542.8626251927535
 20
595.0379422278638
 30
0.0
  0
VERTEX
  5
439
330
431
100
AcDbEntity
  8
Predefinito
 62
   255
370
    25
100
AcDbVertex
100
AcDb2dVertex
 10
542.7903212506301
 20
594.8754305103296
 30
0.0
  0
SEQEND
  5
43A
330
431
100
AcDbEntity
  8
Predefinito
 62
   255
370
    25
  0
POLYLINE
  5
43B
330
1F
100
AcDbEntity
  8
Predefinito
 62
   255
370
    25
100
AcDb2dPolyline
 66
     1
 10
0.0
 20
0.0
 30
0.0
  0
VERTEX
  5
43C
330
43B
100
AcDbEntity
  8
Predefinito
 62
   255
370
    25
100
AcDbVertex
100
AcDb2dVertex
 10
543.7891485653906
 20
593.2465259856375
 30
0.0
  0
VERTEX
  5
43D
330
43B
100
AcDbEntity
  8
Predefinito
 62
   255
370
    25
100
AcDbVertex
100
AcDb2dVertex
 10
543.7891485653906
 20
594.8413443661857
 30
0.0
  0
SEQEND
  5
43E
330
43B
100
AcDbEntity
  8
Predefinito
 62
   255
370
    25
  0
POLYLINE
  5
43F
330
1F
100
AcDbEntity
  8
Predefinito
 62
   255
370
    25
100
AcDb2dPolyline
 66
     1
 10
0.0
 20
0.0
 30
0.0
  0
VERTEX
  5
440
330
43F
100
AcDbEntity
  8
Predefinito
 62
   255
370
    25
100
AcDbVertex
100
AcDb2dVertex
 10
542.7903212506301
 20
592.9821001401582
 30
0.0
  0
VERTEX
  5
441
330
43F
100
AcDbEntity
  8
Predefinito
 62
   255
370
    25
100
AcDbVertex
100
AcDb2dVertex
 10
542.7903212506301
 20
594.8754305103296
 30
0.0
  0
SEQEND
  5
442
330
43F
100
AcDbEntity
  8
Predefinito
 62
   255
370
    25
  0
POLYLINE
  5
443
330
1F
100
AcDbEntity
  8
Predefinito
 62
   255
370
    25
100
AcDb2dPolyline
 66
     1
 10
0.0
 20
0.0
 30
0.0
  0
VERTEX
  5
444
330
443
100
AcDbEntity
  8
Predefinito
 62
   255
370
    25
100
AcDbVertex
100
AcDb2dVertex
 10
543.9223944015894
 20
655.5914608426697
 30
0.0
  0
VERTEX
  5
445
330
443
100
AcDbEntity
  8
Predefinito
 62
   255
370
    25
100
AcDbVertex
100
AcDb2dVertex
 10
543.9223944015894
 20
656.2979736485602
 30
0.0
  0
VERTEX
  5
446
330
443
100
AcDbEntity
  8
Predefinito
 62
   255
370
    25
100
AcDbVertex
100
AcDb2dVertex
 10
543.9223944015894
 20
656.5909767664027
 30
0.0
  0
SEQEND
  5
447
330
443
100
AcDbEntity
  8
Predefinito
 62
   255
370
    25
  0
POLYLINE
  5
448
330
1F
100
AcDbEntity
  8
Predefinito
 62
   255
370
    25
100
AcDb2dPolyline
 66
     1
 10
0.0
 20
0.0
 30
0.0
  0
VERTEX
  5
449
330
448
100
AcDbEntity
  8
Predefinito
 62
   255
370
    25
100
AcDbVertex
100
AcDb2dVertex
 10
543.9223944015894
 20
654.5922892234229
 30
0.0
  0
VERTEX
  5
44A
330
448
100
AcDbEntity
  8
Predefinito
 62
   255
370
    25
100
AcDbVertex
100
AcDb2dVertex
 10
543.9223944015894
 20
654.8849480367791
 30
0.0
  0
VERTEX
  5
44B
330
448
100
AcDbEntity
  8
Predefinito
 62
   255
370
    25
100
AcDbVertex
100
AcDb2dVertex
 10
543.9223944015894
 20
655.5914608426697
 30
0.0
  0
SEQEND
  5
44C
330
448
100
AcDbEntity
  8
Predefinito
 62
   255
370
    25
  0
POLYLINE
  5
44D
330
1F
100
AcDbEntity
  8
Predefinito
 62
   255
370
    25
100
AcDb2dPolyline
 66
     1
 10
0.0
 20
0.0
 30
0.0
  0
VERTEX
  5
44E
330
44D
100
AcDbEntity
  8
Predefinito
 62
   255
370
    25
100
AcDbVertex
100
AcDb2dVertex
 10
580.6004627183083
 20
1164.821583431839
 30
0.0
  0
VERTEX
  5
44F
330
44D
100
AcDbEntity
  8
Predefinito
 62
   255
370
    25
100
AcDbVertex
100
AcDb2dVertex
 10
580.6004627183083
 20
1164.375709122079
 30
0.0
  0
VERTEX
  5
450
330
44D
100
AcDbEntity
  8
Predefinito
 62
   255
370
    25
100
AcDbVertex
100
AcDb2dVertex
 10
580.6004627183083
 20
1163.091453388175
 30
0.0
  0
VERTEX
  5
451
330
44D
100
AcDbEntity
  8
Predefinito
 62
   255
370
    25
100
AcDbVertex
100
AcDb2dVertex
 10
580.6004627183083
 20
1161.124097553448
 30
0.0
  0
VERTEX
  5
452
330
44D
100
AcDbEntity
  8
Predefinito
 62
   255
370
    25
100
AcDbVertex
100
AcDb2dVertex
 10
580.6004627183083
 20
1158.710523104475
 30
0.0
  0
VERTEX
  5
453
330
44D
100
AcDbEntity
  8
Predefinito
 62
   255
370
    25
100
AcDbVertex
100
AcDb2dVertex
 10
580.6004627183083
 20
1156.142011636667
 30
0.0
  0
VERTEX
  5
454
330
44D
100
AcDbEntity
  8
Predefinito
 62
   255
370
    25
100
AcDbVertex
100
AcDb2dVertex
 10
580.6004627183083
 20
1153.72878149218
 30
0.0
  0
VERTEX
  5
455
330
44D
100
AcDbEntity
  8
Predefinito
 62
   255
370
    25
100
AcDbVertex
100
AcDb2dVertex
 10
580.6004627183083
 20
1151.761081352967
 30
0.0
  0
VERTEX
  5
456
330
44D
100
AcDbEntity
  8
Predefinito
 62
   255
370
    25
100
AcDbVertex
100
AcDb2dVertex
 10
580.6004627183083
 20
1150.476825619063
 30
0.0
  0
VERTEX
  5
457
330
44D
100
AcDbEntity
  8
Predefinito
 62
   255
370
    25
100
AcDbVertex
100
AcDb2dVertex
 10
580.6004627183083
 20
1150.030607004816
 30
0.0
  0
SEQEND
  5
458
330
44D
100
AcDbEntity
  8
Predefinito
 62
   255
370
    25
  0
POLYLINE
  5
459
330
1F
100
AcDbEntity
  8
Predefinito
 62
   255
370
    25
100
AcDb2dPolyline
 66
     1
 10
0.0
 20
0.0
 30
0.0
  0
VERTEX
  5
45A
330
459
100
AcDbEntity
  8
Predefinito
 62
   255
370
    25
100
AcDbVertex
100
AcDb2dVertex
 10
580.6004627183083
 20
1164.821583431839
 30
0.0
  0
VERTEX
  5
45B
330
459
100
AcDbEntity
  8
Predefinito
 62
   255
370
    25
100
AcDbVertex
100
AcDb2dVertex
 10
580.4004218117675
 20
1164.621542525298
 30
0.0
  0
SEQEND
  5
45C
330
459
100
AcDbEntity
  8
Predefinito
 62
   255
370
    25
  0
POLYLINE
  5
45D
330
1F
100
AcDbEntity
  8
Predefinito
 62
   255
370
    25
100
AcDb2dPolyline
 66
     1
 10
0.0
 20
0.0
 30
0.0
  0
VERTEX
  5
45E
330
45D
100
AcDbEntity
  8
Predefinito
 62
   255
370
    25
100
AcDbVertex
100
AcDb2dVertex
 10
580.4004218117675
 20
1150.230303606871
 30
0.0
  0
VERTEX
  5
45F
330
45D
100
AcDbEntity
  8
Predefinito
 62
   255
370
    25
100
AcDbVertex
100
AcDb2dVertex
 10
580.6004627183083
 20
1150.030607004816
 30
0.0
  0
SEQEND
  5
460
330
45D
100
AcDbEntity
  8
Predefinito
 62
   255
370
    25
  0
POLYLINE
  5
461
330
1F
100
AcDbEntity
  8
Predefinito
 62
   255
370
    25
100
AcDb2dPolyline
 66
     1
 10
0.0
 20
0.0
 30
0.0
  0
VERTEX
  5
462
330
461
100
AcDbEntity
  8
Predefinito
 62
   255
370
    25
100
AcDbVertex
100
AcDb2dVertex
 10
580.4004218117675
 20
1150.230303606871
 30
0.0
  0
VERTEX
  5
463
330
461
100
AcDbEntity
  8
Predefinito
 62
   255
370
    25
100
AcDbVertex
100
AcDb2dVertex
 10
580.4004218117675
 20
1150.664471564097
 30
0.0
  0
VERTEX
  5
464
330
461
100
AcDbEntity
  8
Predefinito
 62
   255
370
    25
100
AcDbVertex
100
AcDb2dVertex
 10
580.4004218117675
 20
1151.913952544885
 30
0.0
  0
VERTEX
  5
465
330
461
100
AcDbEntity
  8
Predefinito
 62
   255
370
    25
100
AcDbVertex
100
AcDb2dVertex
 10
580.4004218117675
 20
1153.828285488721
 30
0.0
  0
VERTEX
  5
466
330
461
100
AcDbEntity
  8
Predefinito
 62
   255
370
    25
100
AcDbVertex
100
AcDb2dVertex
 10
580.4004218117675
 20
1156.176786389783
 30
0.0
  0
VERTEX
  5
467
330
461
100
AcDbEntity
  8
Predefinito
 62
   255
370
    25
100
AcDbVertex
100
AcDb2dVertex
 10
580.4004218117675
 20
1158.675748351359
 30
0.0
  0
VERTEX
  5
468
330
461
100
AcDbEntity
  8
Predefinito
 62
   255
370
    25
100
AcDbVertex
100
AcDb2dVertex
 10
580.4004218117675
 20
1161.023904947935
 30
0.0
  0
VERTEX
  5
469
330
461
100
AcDbEntity
  8
Predefinito
 62
   255
370
    25
100
AcDbVertex
100
AcDb2dVertex
 10
580.4004218117675
 20
1162.938237891771
 30
0.0
  0
VERTEX
  5
46A
330
461
100
AcDbEntity
  8
Predefinito
 62
   255
370
    25
100
AcDbVertex
100
AcDb2dVertex
 10
580.4004218117675
 20
1164.187718872558
 30
0.0
  0
VERTEX
  5
46B
330
461
100
AcDbEntity
  8
Predefinito
 62
   255
370
    25
100
AcDbVertex
100
AcDb2dVertex
 10
580.4004218117675
 20
1164.621542525298
 30
0.0
  0
SEQEND
  5
46C
330
461
100
AcDbEntity
  8
Predefinito
 62
   255
370
    25
  0
POLYLINE
  5
46D
330
1F
100
AcDbEntity
  8
Predefinito
 62
   255
370
    25
100
AcDb2dPolyline
 66
     1
 10
0.0
 20
0.0
 30
0.0
  0
VERTEX
  5
46E
330
46D
100
AcDbEntity
  8
Predefinito
 62
   255
370
    25
100
AcDbVertex
100
AcDb2dVertex
 10
604.2348998759842
 20
1164.821583431839
 30
0.0
  0
VERTEX
  5
46F
330
46D
100
AcDbEntity
  8
Predefinito
 62
   255
370
    25
100
AcDbVertex
100
AcDb2dVertex
 10
580.6004627183083
 20
1164.821583431839
 30
0.0
  0
SEQEND
  5
470
330
46D
100
AcDbEntity
  8
Predefinito
 62
   255
370
    25
  0
POLYLINE
  5
471
330
1F
100
AcDbEntity
  8
Predefinito
 62
   255
370
    25
100
AcDb2dPolyline
 66
     1
 10
0.0
 20
0.0
 30
0.0
  0
VERTEX
  5
472
330
471
100
AcDbEntity
  8
Predefinito
 62
   255
370
    25
100
AcDbVertex
100
AcDb2dVertex
 10
580.6004627183083
 20
1150.030607004816
 30
0.0
  0
VERTEX
  5
473
330
471
100
AcDbEntity
  8
Predefinito
 62
   255
370
    25
100
AcDbVertex
100
AcDb2dVertex
 10
604.2352441804703
 20
1150.030607004816
 30
0.0
  0
SEQEND
  5
474
330
471
100
AcDbEntity
  8
Predefinito
 62
   255
370
    25
  0
POLYLINE
  5
475
330
1F
100
AcDbEntity
  8
Predefinito
 62
   255
370
    13
100
AcDb2dPolyline
 66
     1
 10
0.0
 20
0.0
 30
0.0
  0
VERTEX
  5
476
330
475
100
AcDbEntity
  8
Predefinito
 62
   255
370
    13
100
AcDbVertex
100
AcDb2dVertex
 10
-187.8021074983751
 20
677.8569433628107
 30
0.0
  0
VERTEX
  5
477
330
475
100
AcDbEntity
  8
Predefinito
 62
   255
370
    13
100
AcDbVertex
100
AcDb2dVertex
 10
-187.7315250786833
 20
677.786360943119
 30
0.0
  0
SEQEND
  5
478
330
475
100
AcDbEntity
  8
Predefinito
 62
   255
370
    13
  0
POLYLINE
  5
479
330
1F
100
AcDbEntity
  8
Predefinito
 62
   255
370
    13
100
AcDb2dPolyline
 66
     1
 10
0.0
 20
0.0
 30
0.0
  0
VERTEX
  5
47A
330
479
100
AcDbEntity
  8
Predefinito
 62
   255
370
    13
100
AcDbVertex
100
AcDb2dVertex
 10
-168.1078908819331
 20
346.8928786876124
 30
0.0
  0
VERTEX
  5
47B
330
479
100
AcDbEntity
  8
Predefinito
 62
   255
370
    13
100
AcDbVertex
100
AcDb2dVertex
 10
-168.0958402249125
 20
347.8920503068592
 30
0.0
  0
SEQEND
  5
47C
330
479
100
AcDbEntity
  8
Predefinito
 62
   255
370
    13
  0
POLYLINE
  5
47D
330
1F
100
AcDbEntity
  8
Predefinito
 62
   255
370
    13
100
AcDb2dPolyline
 66
     1
 10
0.0
 20
0.0
 30
0.0
  0
VERTEX
  5
47E
330
47D
100
AcDbEntity
  8
Predefinito
 62
   255
370
    13
100
AcDbVertex
100
AcDb2dVertex
 10
-168.0958402249125
 20
347.8920503068592
 30
0.0
  0
VERTEX
  5
47F
330
47D
100
AcDbEntity
  8
Predefinito
 62
   255
370
    13
100
AcDbVertex
100
AcDb2dVertex
 10
-168.9087431170703
 20
347.9829466912427
 30
0.0
  0
SEQEND
  5
480
330
47D
100
AcDbEntity
  8
Predefinito
 62
   255
370
    13
  0
POLYLINE
  5
481
330
1F
100
AcDbEntity
  8
Predefinito
 62
   255
370
    13
100
AcDb2dPolyline
 66
     1
 10
0.0
 20
0.0
 30
0.0
  0
VERTEX
  5
482
330
481
100
AcDbEntity
  8
Predefinito
 62
   255
370
    13
100
AcDbVertex
100
AcDb2dVertex
 10
-163.40985616635
 20
347.9829466912427
 30
0.0
  0
VERTEX
  5
483
330
481
100
AcDbEntity
  8
Predefinito
 62
   255
370
    13
100
AcDbVertex
100
AcDb2dVertex
 10
-162.5969532741924
 20
347.8920503068592
 30
0.0
  0
SEQEND
  5
484
330
481
100
AcDbEntity
  8
Predefinito
 62
   255
370
    13
  0
POLYLINE
  5
485
330
1F
100
AcDbEntity
  8
Predefinito
 62
   255
370
    13
100
AcDb2dPolyline
 66
     1
 10
0.0
 20
0.0
 30
0.0
  0
VERTEX
  5
486
330
485
100
AcDbEntity
  8
Predefinito
 62
   255
370
    13
100
AcDbVertex
100
AcDb2dVertex
 10
-162.5969532741924
 20
347.8920503068592
 30
0.0
  0
VERTEX
  5
487
330
485
100
AcDbEntity
  8
Predefinito
 62
   255
370
    13
100
AcDbVertex
100
AcDb2dVertex
 10
-162.6086596267266
 20
346.8928786876124
 30
0.0
  0
SEQEND
  5
488
330
485
100
AcDbEntity
  8
Predefinito
 62
   255
370
    13
  0
POLYLINE
  5
489
330
1F
100
AcDbEntity
  8
Predefinito
 62
   255
370
    13
100
AcDb2dPolyline
 66
     1
 10
0.0
 20
0.0
 30
0.0
  0
VERTEX
  5
48A
330
489
100
AcDbEntity
  8
Predefinito
 62
   255
370
    13
100
AcDbVertex
100
AcDb2dVertex
 10
-233.0633423541026
 20
348.5999403306949
 30
0.0
  0
VERTEX
  5
48B
330
489
100
AcDbEntity
  8
Predefinito
 62
   255
370
    13
100
AcDbVertex
100
AcDb2dVertex
 10
-233.4816723049589
 20
348.5999403306949
 30
0.0
  0
VERTEX
  5
48C
330
489
100
AcDbEntity
  8
Predefinito
 62
   255
370
    13
100
AcDbVertex
100
AcDb2dVertex
 10
-234.7029203178701
 20
348.5999403306949
 30
0.0
  0
VERTEX
  5
48D
330
489
100
AcDbEntity
  8
Predefinito
 62
   255
370
    13
100
AcDbVertex
100
AcDb2dVertex
 10
-236.6282710052677
 20
348.5999403306949
 30
0.0
  0
VERTEX
  5
48E
330
489
100
AcDbEntity
  8
Predefinito
 62
   255
370
    13
100
AcDbVertex
100
AcDb2dVertex
 10
-239.1014101303709
 20
348.5999403306949
 30
0.0
  0
VERTEX
  5
48F
330
489
100
AcDbEntity
  8
Predefinito
 62
   255
370
    13
100
AcDbVertex
100
AcDb2dVertex
 10
-241.9222967866386
 20
348.5999403306949
 30
0.0
  0
VERTEX
  5
490
330
489
100
AcDbEntity
  8
Predefinito
 62
   255
370
    13
100
AcDbVertex
100
AcDb2dVertex
 10
-244.8619684906802
 20
348.5999403306949
 30
0.0
  0
VERTEX
  5
491
330
489
100
AcDbEntity
  8
Predefinito
 62
   255
370
    13
100
AcDbVertex
100
AcDb2dVertex
 10
-247.6828551469478
 20
348.5999403306949
 30
0.0
  0
VERTEX
  5
492
330
489
100
AcDbEntity
  8
Predefinito
 62
   255
370
    13
100
AcDbVertex
100
AcDb2dVertex
 10
-250.155994272051
 20
348.5999403306949
 30
0.0
  0
VERTEX
  5
493
330
489
100
AcDbEntity
  8
Predefinito
 62
   255
370
    13
100
AcDbVertex
100
AcDb2dVertex
 10
-252.0813449594486
 20
348.5999403306949
 30
0.0
  0
VERTEX
  5
494
330
489
100
AcDbEntity
  8
Predefinito
 62
   255
370
    13
100
AcDbVertex
100
AcDb2dVertex
 10
-253.3025929723598
 20
348.5999403306949
 30
0.0
  0
VERTEX
  5
495
330
489
100
AcDbEntity
  8
Predefinito
 62
   255
370
    13
100
AcDbVertex
100
AcDb2dVertex
 10
-253.7209229232161
 20
348.5999403306949
 30
0.0
  0
SEQEND
  5
496
330
489
100
AcDbEntity
  8
Predefinito
 62
   255
370
    13
  0
POLYLINE
  5
497
330
1F
100
AcDbEntity
  8
Predefinito
 62
   255
370
    13
100
AcDb2dPolyline
 66
     1
 10
0.0
 20
0.0
 30
0.0
  0
VERTEX
  5
498
330
497
100
AcDbEntity
  8
Predefinito
 62
   255
370
    13
100
AcDbVertex
100
AcDb2dVertex
 10
-196.4145399187192
 20
348.5999403306949
 30
0.0
  0
VERTEX
  5
499
330
497
100
AcDbEntity
  8
Predefinito
 62
   255
370
    13
100
AcDbVertex
100
AcDb2dVertex
 10
-195.9962099678629
 20
348.5999403306949
 30
0.0
  0
VERTEX
  5
49A
330
497
100
AcDbEntity
  8
Predefinito
 62
   255
370
    13
100
AcDbVertex
100
AcDb2dVertex
 10
-194.7746176504654
 20
348.5999403306949
 30
0.0
  0
VERTEX
  5
49B
330
497
100
AcDbEntity
  8
Predefinito
 62
   255
370
    13
100
AcDbVertex
100
AcDb2dVertex
 10
-192.8496112675541
 20
348.5999403306949
 30
0.0
  0
VERTEX
  5
49C
330
497
100
AcDbEntity
  8
Predefinito
 62
   255
370
    13
100
AcDbVertex
100
AcDb2dVertex
 10
-190.3764721424509
 20
348.5999403306949
 30
0.0
  0
VERTEX
  5
49D
330
497
100
AcDbEntity
  8
Predefinito
 62
   255
370
    13
100
AcDbVertex
100
AcDb2dVertex
 10
-187.5555854861832
 20
348.5999403306949
 30
0.0
  0
VERTEX
  5
49E
330
497
100
AcDbEntity
  8
Predefinito
 62
   255
370
    13
100
AcDbVertex
100
AcDb2dVertex
 10
-184.6159137821416
 20
348.5999403306949
 30
0.0
  0
VERTEX
  5
49F
330
497
100
AcDbEntity
  8
Predefinito
 62
   255
370
    13
100
AcDbVertex
100
AcDb2dVertex
 10
-181.795027125874
 20
348.5999403306949
 30
0.0
  0
VERTEX
  5
4A0
330
497
100
AcDbEntity
  8
Predefinito
 62
   255
370
    13
100
AcDbVertex
100
AcDb2dVertex
 10
-179.3218880007708
 20
348.5999403306949
 30
0.0
  0
VERTEX
  5
4A1
330
497
100
AcDbEntity
  8
Predefinito
 62
   255
370
    13
100
AcDbVertex
100
AcDb2dVertex
 10
-177.3965373133731
 20
348.5999403306949
 30
0.0
  0
VERTEX
  5
4A2
330
497
100
AcDbEntity
  8
Predefinito
 62
   255
370
    13
100
AcDbVertex
100
AcDb2dVertex
 10
-176.175289300462
 20
348.5999403306949
 30
0.0
  0
VERTEX
  5
4A3
330
497
100
AcDbEntity
  8
Predefinito
 62
   255
370
    13
100
AcDbVertex
100
AcDb2dVertex
 10
-175.7569593496058
 20
348.5999403306949
 30
0.0
  0
SEQEND
  5
4A4
330
497
100
AcDbEntity
  8
Predefinito
 62
   255
370
    13
  0
POLYLINE
  5
4A5
330
1F
100
AcDbEntity
  8
Predefinito
 62
   255
370
    13
100
AcDb2dPolyline
 66
     1
 10
0.0
 20
0.0
 30
0.0
  0
VERTEX
  5
4A6
330
4A5
100
AcDbEntity
  8
Predefinito
 62
   255
370
    13
100
AcDbVertex
100
AcDb2dVertex
 10
-290.3700696630859
 20
348.5999403306949
 30
0.0
  0
VERTEX
  5
4A7
330
4A5
100
AcDbEntity
  8
Predefinito
 62
   255
370
    13
100
AcDbVertex
100
AcDb2dVertex
 10
-290.7883996139421
 20
348.5999403306949
 30
0.0
  0
VERTEX
  5
4A8
330
4A5
100
AcDbEntity
  8
Predefinito
 62
   255
370
    13
100
AcDbVertex
100
AcDb2dVertex
 10
-292.0096476268533
 20
348.5999403306949
 30
0.0
  0
VERTEX
  5
4A9
330
4A5
100
AcDbEntity
  8
Predefinito
 62
   255
370
    13
100
AcDbVertex
100
AcDb2dVertex
 10
-293.9346540097646
 20
348.5999403306949
 30
0.0
  0
VERTEX
  5
4AA
330
4A5
100
AcDbEntity
  8
Predefinito
 62
   255
370
    13
100
AcDbVertex
100
AcDb2dVertex
 10
-296.4077931348679
 20
348.5999403306949
 30
0.0
  0
VERTEX
  5
4AB
330
4A5
100
AcDbEntity
  8
Predefinito
 62
   255
370
    13
100
AcDbVertex
100
AcDb2dVertex
 10
-299.2286797911354
 20
348.5999403306949
 30
0.0
  0
VERTEX
  5
4AC
330
4A5
100
AcDbEntity
  8
Predefinito
 62
   255
370
    13
100
AcDbVertex
100
AcDb2dVertex
 10
-302.1686957996634
 20
348.5999403306949
 30
0.0
  0
VERTEX
  5
4AD
330
4A5
100
AcDbEntity
  8
Predefinito
 62
   255
370
    13
100
AcDbVertex
100
AcDb2dVertex
 10
-304.989582455931
 20
348.5999403306949
 30
0.0
  0
VERTEX
  5
4AE
330
4A5
100
AcDbEntity
  8
Predefinito
 62
   255
370
    13
100
AcDbVertex
100
AcDb2dVertex
 10
-307.4627215810343
 20
348.5999403306949
 30
0.0
  0
VERTEX
  5
4AF
330
4A5
100
AcDbEntity
  8
Predefinito
 62
   255
370
    13
100
AcDbVertex
100
AcDb2dVertex
 10
-309.3877279639455
 20
348.5999403306949
 30
0.0
  0
VERTEX
  5
4B0
330
4A5
100
AcDbEntity
  8
Predefinito
 62
   255
370
    13
100
AcDbVertex
100
AcDb2dVertex
 10
-310.6089759768568
 20
348.5999403306949
 30
0.0
  0
VERTEX
  5
4B1
330
4A5
100
AcDbEntity
  8
Predefinito
 62
   255
370
    13
100
AcDbVertex
100
AcDb2dVertex
 10
-311.027305927713
 20
348.5999403306949
 30
0.0
  0
SEQEND
  5
4B2
330
4A5
100
AcDbEntity
  8
Predefinito
 62
   255
370
    13
  0
POLYLINE
  5
4B3
330
1F
100
AcDbEntity
  8
Predefinito
 62
   255
370
    13
100
AcDb2dPolyline
 66
     1
 10
0.0
 20
0.0
 30
0.0
  0
VERTEX
  5
4B4
330
4B3
100
AcDbEntity
  8
Predefinito
 62
   255
370
    13
100
AcDbVertex
100
AcDb2dVertex
 10
542.7903212506301
 20
594.8754305103296
 30
0.0
  0
VERTEX
  5
4B5
330
4B3
100
AcDbEntity
  8
Predefinito
 62
   255
370
    13
100
AcDbVertex
100
AcDb2dVertex
 10
543.7891485653906
 20
594.8413443661857
 30
0.0
  0
SEQEND
  5
4B6
330
4B3
100
AcDbEntity
  8
Predefinito
 62
   255
370
    13
  0
POLYLINE
  5
4B7
330
1F
100
AcDbEntity
  8
Predefinito
 62
   255
370
    13
100
AcDb2dPolyline
 66
     1
 10
0.0
 20
0.0
 30
0.0
  0
VERTEX
  5
4B8
330
4B7
100
AcDbEntity
  8
Predefinito
 62
   255
370
    13
100
AcDbVertex
100
AcDb2dVertex
 10
543.8635183344318
 20
594.8812836865967
 30
0.0
  0
VERTEX
  5
4B9
330
4B7
100
AcDbEntity
  8
Predefinito
 62
   255
370
    13
100
AcDbVertex
100
AcDb2dVertex
 10
543.8008549179251
 20
593.2534120753635
 30
0.0
  0
SEQEND
  5
4BA
330
4B7
100
AcDbEntity
  8
Predefinito
 62
   255
370
    13
  0
POLYLINE
  5
4BB
330
1F
100
AcDbEntity
  8
Predefinito
 62
   255
370
    13
100
AcDb2dPolyline
 66
     1
 10
0.0
 20
0.0
 30
0.0
  0
VERTEX
  5
4BC
330
4BB
100
AcDbEntity
  8
Predefinito
 62
   255
370
    13
100
AcDbVertex
100
AcDb2dVertex
 10
543.3005804993289
 20
592.9645406113566
 30
0.0
  0
VERTEX
  5
4BD
330
4BB
100
AcDbEntity
  8
Predefinito
 62
   255
370
    13
100
AcDbVertex
100
AcDb2dVertex
 10
542.7903212506301
 20
592.9821001401582
 30
0.0
  0
SEQEND
  5
4BE
330
4BB
100
AcDbEntity
  8
Predefinito
 62
   255
370
    13
  0
POLYLINE
  5
4BF
330
1F
100
AcDbEntity
  8
Predefinito
 62
   255
370
    13
100
AcDb2dPolyline
 66
     1
 10
0.0
 20
0.0
 30
0.0
  0
VERTEX
  5
4C0
330
4BF
100
AcDbEntity
  8
Predefinito
 62
   255
370
    13
100
AcDbVertex
100
AcDb2dVertex
 10
542.173327611178
 20
581.9850148476902
 30
0.0
  0
VERTEX
  5
4C1
330
4BF
100
AcDbEntity
  8
Predefinito
 62
   255
370
    13
100
AcDbVertex
100
AcDb2dVertex
 10
542.173327611178
 20
578.7929679551896
 30
0.0
  0
VERTEX
  5
4C2
330
4BF
100
AcDbEntity
  8
Predefinito
 62
   255
370
    13
100
AcDbVertex
100
AcDb2dVertex
 10
542.173327611178
 20
575.9138938407372
 30
0.0
  0
VERTEX
  5
4C3
330
4BF
100
AcDbEntity
  8
Predefinito
 62
   255
370
    13
100
AcDbVertex
100
AcDb2dVertex
 10
542.173327611178
 20
573.6287449651544
 30
0.0
  0
VERTEX
  5
4C4
330
4BF
100
AcDbEntity
  8
Predefinito
 62
   255
370
    13
100
AcDbVertex
100
AcDb2dVertex
 10
542.173327611178
 20
572.1616635490241
 30
0.0
  0
VERTEX
  5
4C5
330
4BF
100
AcDbEntity
  8
Predefinito
 62
   255
370
    13
100
AcDbVertex
100
AcDb2dVertex
 10
542.173327611178
 20
571.6562245631336
 30
0.0
  0
SEQEND
  5
4C6
330
4BF
100
AcDbEntity
  8
Predefinito
 62
   255
370
    13
  0
POLYLINE
  5
4C7
330
1F
100
AcDbEntity
  8
Predefinito
 62
   255
370
    13
100
AcDb2dPolyline
 66
     1
 10
0.0
 20
0.0
 30
0.0
  0
VERTEX
  5
4C8
330
4C7
100
AcDbEntity
  8
Predefinito
 62
   255
370
    13
100
AcDbVertex
100
AcDb2dVertex
 10
542.173327611178
 20
592.3138051322469
 30
0.0
  0
VERTEX
  5
4C9
330
4C7
100
AcDbEntity
  8
Predefinito
 62
   255
370
    13
100
AcDbVertex
100
AcDb2dVertex
 10
542.173327611178
 20
591.8083661463564
 30
0.0
  0
VERTEX
  5
4CA
330
4C7
100
AcDbEntity
  8
Predefinito
 62
   255
370
    13
100
AcDbVertex
100
AcDb2dVertex
 10
542.173327611178
 20
590.341284730226
 30
0.0
  0
VERTEX
  5
4CB
330
4C7
100
AcDbEntity
  8
Predefinito
 62
   255
370
    13
100
AcDbVertex
100
AcDb2dVertex
 10
542.173327611178
 20
588.0561358546433
 30
0.0
  0
VERTEX
  5
4CC
330
4C7
100
AcDbEntity
  8
Predefinito
 62
   255
370
    13
100
AcDbVertex
100
AcDb2dVertex
 10
542.173327611178
 20
585.1767174357046
 30
0.0
  0
VERTEX
  5
4CD
330
4C7
100
AcDbEntity
  8
Predefinito
 62
   255
370
    13
100
AcDbVertex
100
AcDb2dVertex
 10
542.173327611178
 20
581.9850148476902
 30
0.0
  0
SEQEND
  5
4CE
330
4C7
100
AcDbEntity
  8
Predefinito
 62
   255
370
    13
  0
POLYLINE
  5
4CF
330
1F
100
AcDbEntity
  8
Predefinito
 62
   255
370
    13
100
AcDb2dPolyline
 66
     1
 10
0.0
 20
0.0
 30
0.0
  0
VERTEX
  5
4D0
330
4CF
100
AcDbEntity
  8
Predefinito
 62
   255
370
    13
100
AcDbVertex
100
AcDb2dVertex
 10
542.173327611178
 20
692.404496518019
 30
0.0
  0
VERTEX
  5
4D1
330
4CF
100
AcDbEntity
  8
Predefinito
 62
   255
370
    13
100
AcDbVertex
100
AcDb2dVertex
 10
542.173327611178
 20
691.9861665671627
 30
0.0
  0
VERTEX
  5
4D2
330
4CF
100
AcDbEntity
  8
Predefinito
 62
   255
370
    13
100
AcDbVertex
100
AcDb2dVertex
 10
542.173327611178
 20
690.7649185542516
 30
0.0
  0
VERTEX
  5
4D3
330
4CF
100
AcDbEntity
  8
Predefinito
 62
   255
370
    13
100
AcDbVertex
100
AcDb2dVertex
 10
542.173327611178
 20
688.8395678668539
 30
0.0
  0
VERTEX
  5
4D4
330
4CF
100
AcDbEntity
  8
Predefinito
 62
   255
370
    13
100
AcDbVertex
100
AcDb2dVertex
 10
542.173327611178
 20
686.3664287417507
 30
0.0
  0
VERTEX
  5
4D5
330
4CF
100
AcDbEntity
  8
Predefinito
 62
   255
370
    13
100
AcDbVertex
100
AcDb2dVertex
 10
542.173327611178
 20
683.545542085483
 30
0.0
  0
VERTEX
  5
4D6
330
4CF
100
AcDbEntity
  8
Predefinito
 62
   255
370
    13
100
AcDbVertex
100
AcDb2dVertex
 10
542.173327611178
 20
680.6058703814415
 30
0.0
  0
VERTEX
  5
4D7
330
4CF
100
AcDbEntity
  8
Predefinito
 62
   255
370
    13
100
AcDbVertex
100
AcDb2dVertex
 10
542.173327611178
 20
677.7849837251738
 30
0.0
  0
VERTEX
  5
4D8
330
4CF
100
AcDbEntity
  8
Predefinito
 62
   255
370
    13
100
AcDbVertex
100
AcDb2dVertex
 10
542.173327611178
 20
675.3118446000706
 30
0.0
  0
VERTEX
  5
4D9
330
4CF
100
AcDbEntity
  8
Predefinito
 62
   255
370
    13
100
AcDbVertex
100
AcDb2dVertex
 10
542.173327611178
 20
673.386493912673
 30
0.0
  0
VERTEX
  5
4DA
330
4CF
100
AcDbEntity
  8
Predefinito
 62
   255
370
    13
100
AcDbVertex
100
AcDb2dVertex
 10
542.173327611178
 20
672.1652458997618
 30
0.0
  0
VERTEX
  5
4DB
330
4CF
100
AcDbEntity
  8
Predefinito
 62
   255
370
    13
100
AcDbVertex
100
AcDb2dVertex
 10
542.173327611178
 20
671.7469159489056
 30
0.0
  0
SEQEND
  5
4DC
330
4CF
100
AcDbEntity
  8
Predefinito
 62
   255
370
    13
  0
POLYLINE
  5
4DD
330
1F
100
AcDbEntity
  8
Predefinito
 62
   255
370
    13
100
AcDb2dPolyline
 66
     1
 10
0.0
 20
0.0
 30
0.0
  0
VERTEX
  5
4DE
330
4DD
100
AcDbEntity
  8
Predefinito
 62
   255
370
    13
100
AcDbVertex
100
AcDb2dVertex
 10
542.7903212506301
 20
559.5435927350491
 30
0.0
  0
VERTEX
  5
4DF
330
4DD
100
AcDbEntity
  8
Predefinito
 62
   255
370
    13
100
AcDbVertex
100
AcDb2dVertex
 10
543.7891485653906
 20
559.5208686389532
 30
0.0
  0
SEQEND
  5
4E0
330
4DD
100
AcDbEntity
  8
Predefinito
 62
   255
370
    13
  0
POLYLINE
  5
4E1
330
1F
100
AcDbEntity
  8
Predefinito
 62
   255
370
    13
100
AcDb2dPolyline
 66
     1
 10
0.0
 20
0.0
 30
0.0
  0
VERTEX
  5
4E2
330
4E1
100
AcDbEntity
  8
Predefinito
 62
   255
370
    13
100
AcDbVertex
100
AcDb2dVertex
 10
543.7891485653906
 20
555.0015279517605
 30
0.0
  0
VERTEX
  5
4E3
330
4E1
100
AcDbEntity
  8
Predefinito
 62
   255
370
    13
100
AcDbVertex
100
AcDb2dVertex
 10
542.7903212506301
 20
555.0242520478565
 30
0.0
  0
SEQEND
  5
4E4
330
4E1
100
AcDbEntity
  8
Predefinito
 62
   255
370
    13
  0
POLYLINE
  5
4E5
330
1F
100
AcDbEntity
  8
Predefinito
 62
   255
370
    13
100
AcDb2dPolyline
 66
     1
 10
0.0
 20
0.0
 30
0.0
  0
VERTEX
  5
4E6
330
4E5
100
AcDbEntity
  8
Predefinito
 62
   255
370
    13
100
AcDbVertex
100
AcDb2dVertex
 10
543.8800449497742
 20
556.5729336272403
 30
0.0
  0
VERTEX
  5
4E7
330
4E5
100
AcDbEntity
  8
Predefinito
 62
   255
370
    13
100
AcDbVertex
100
AcDb2dVertex
 10
543.7891485653906
 20
555.0015279517605
 30
0.0
  0
SEQEND
  5
4E8
330
4E5
100
AcDbEntity
  8
Predefinito
 62
   255
370
    13
  0
POLYLINE
  5
4E9
330
1F
100
AcDbEntity
  8
Predefinito
 62
   255
370
    25
100
AcDb2dPolyline
 66
     1
 10
0.0
 20
0.0
 30
0.0
  0
VERTEX
  5
4EA
330
4E9
100
AcDbEntity
  8
Predefinito
 62
   255
370
    25
100
AcDbVertex
100
AcDb2dVertex
 10
604.5248042534499
 20
660.5676935831843
 30
0.0
  0
VERTEX
  5
4EB
330
4E9
100
AcDbEntity
  8
Predefinito
 62
   255
370
    25
100
AcDbVertex
100
AcDb2dVertex
 10
580.9006962303632
 20
660.5676935831843
 30
0.0
  0
SEQEND
  5
4EC
330
4E9
100
AcDbEntity
  8
Predefinito
 62
   255
370
    25
  0
POLYLINE
  5
4ED
330
1F
100
AcDbEntity
  8
Predefinito
 62
   255
370
    25
100
AcDb2dPolyline
 66
     1
 10
0.0
 20
0.0
 30
0.0
  0
VERTEX
  5
4EE
330
4ED
100
AcDbEntity
  8
Predefinito
 62
   255
370
    25
100
AcDbVertex
100
AcDb2dVertex
 10
580.9003519258771
 20
645.7763728516746
 30
0.0
  0
VERTEX
  5
4EF
330
4ED
100
AcDbEntity
  8
Predefinito
 62
   255
370
    25
100
AcDbVertex
100
AcDb2dVertex
 10
608.0174289624915
 20
645.7763728516746
 30
0.0
  0
SEQEND
  5
4F0
330
4ED
100
AcDbEntity
  8
Predefinito
 62
   255
370
    25
  0
POLYLINE
  5
4F1
330
1F
100
AcDbEntity
  8
Predefinito
 62
   255
370
    25
100
AcDb2dPolyline
 66
     1
 10
0.0
 20
0.0
 30
0.0
  0
VERTEX
  5
4F2
330
4F1
100
AcDbEntity
  8
Predefinito
 62
   255
370
    25
100
AcDbVertex
100
AcDb2dVertex
 10
540.9241909348765
 20
581.9850148476902
 30
0.0
  0
VERTEX
  5
4F3
330
4F1
100
AcDbEntity
  8
Predefinito
 62
   255
370
    25
100
AcDbVertex
100
AcDb2dVertex
 10
540.9241909348765
 20
585.1095780608758
 30
0.0
  0
VERTEX
  5
4F4
330
4F1
100
AcDbEntity
  8
Predefinito
 62
   255
370
    25
100
AcDbVertex
100
AcDb2dVertex
 10
540.9241909348765
 20
587.758656778479
 30
0.0
  0
VERTEX
  5
4F5
330
4F1
100
AcDbEntity
  8
Predefinito
 62
   255
370
    25
100
AcDbVertex
100
AcDb2dVertex
 10
540.9241909348765
 20
589.5283818380683
 30
0.0
  0
VERTEX
  5
4F6
330
4F1
100
AcDbEntity
  8
Predefinito
 62
   255
370
    25
100
AcDbVertex
100
AcDb2dVertex
 10
540.9241909348765
 20
590.1498514358424
 30
0.0
  0
SEQEND
  5
4F7
330
4F1
100
AcDbEntity
  8
Predefinito
 62
   255
370
    25
  0
POLYLINE
  5
4F8
330
1F
100
AcDbEntity
  8
Predefinito
 62
   255
370
    25
100
AcDb2dPolyline
 66
     1
 10
0.0
 20
0.0
 30
0.0
  0
VERTEX
  5
4F9
330
4F8
100
AcDbEntity
  8
Predefinito
 62
   255
370
    25
100
AcDbVertex
100
AcDb2dVertex
 10
540.9241909348765
 20
573.8198339550518
 30
0.0
  0
VERTEX
  5
4FA
330
4F8
100
AcDbEntity
  8
Predefinito
 62
   255
370
    25
100
AcDbVertex
100
AcDb2dVertex
 10
540.9241909348765
 20
574.4416478573121
 30
0.0
  0
VERTEX
  5
4FB
330
4F8
100
AcDbEntity
  8
Predefinito
 62
   255
370
    25
100
AcDbVertex
100
AcDb2dVertex
 10
540.9241909348765
 20
576.2113729169016
 30
0.0
  0
VERTEX
  5
4FC
330
4F8
100
AcDbEntity
  8
Predefinito
 62
   255
370
    25
100
AcDbVertex
100
AcDb2dVertex
 10
540.9241909348765
 20
578.8604516345047
 30
0.0
  0
VERTEX
  5
4FD
330
4F8
100
AcDbEntity
  8
Predefinito
 62
   255
370
    25
100
AcDbVertex
100
AcDb2dVertex
 10
540.9241909348765
 20
581.9850148476902
 30
0.0
  0
SEQEND
  5
4FE
330
4F8
100
AcDbEntity
  8
Predefinito
 62
   255
370
    25
  0
POLYLINE
  5
4FF
330
1F
100
AcDbEntity
  8
Predefinito
 62
   255
370
    25
100
AcDb2dPolyline
 66
     1
 10
0.0
 20
0.0
 30
0.0
  0
VERTEX
  5
500
330
4FF
100
AcDbEntity
  8
Predefinito
 62
   255
370
    25
100
AcDbVertex
100
AcDb2dVertex
 10
540.9241909348765
 20
673.9108696453101
 30
0.0
  0
VERTEX
  5
501
330
4FF
100
AcDbEntity
  8
Predefinito
 62
   255
370
    25
100
AcDbVertex
100
AcDb2dVertex
 10
540.9241909348765
 20
674.4032250607211
 30
0.0
  0
VERTEX
  5
502
330
4FF
100
AcDbEntity
  8
Predefinito
 62
   255
370
    25
100
AcDbVertex
100
AcDb2dVertex
 10
540.9241909348765
 20
675.8210709353103
 30
0.0
  0
VERTEX
  5
503
330
4FF
100
AcDbEntity
  8
Predefinito
 62
   255
370
    25
100
AcDbVertex
100
AcDb2dVertex
 10
540.9241909348765
 20
677.993287939386
 30
0.0
  0
VERTEX
  5
504
330
4FF
100
AcDbEntity
  8
Predefinito
 62
   255
370
    25
100
AcDbVertex
100
AcDb2dVertex
 10
540.9241909348765
 20
680.6578603588729
 30
0.0
  0
VERTEX
  5
505
330
4FF
100
AcDbEntity
  8
Predefinito
 62
   255
370
    25
100
AcDbVertex
100
AcDb2dVertex
 10
540.9241909348765
 20
683.4935521080515
 30
0.0
  0
VERTEX
  5
506
330
4FF
100
AcDbEntity
  8
Predefinito
 62
   255
370
    25
100
AcDbVertex
100
AcDb2dVertex
 10
540.9241909348765
 20
686.1581245275383
 30
0.0
  0
VERTEX
  5
507
330
4FF
100
AcDbEntity
  8
Predefinito
 62
   255
370
    25
100
AcDbVertex
100
AcDb2dVertex
 10
540.9241909348765
 20
688.330341531614
 30
0.0
  0
VERTEX
  5
508
330
4FF
100
AcDbEntity
  8
Predefinito
 62
   255
370
    25
100
AcDbVertex
100
AcDb2dVertex
 10
540.9241909348765
 20
689.7481874062032
 30
0.0
  0
VERTEX
  5
509
330
4FF
100
AcDbEntity
  8
Predefinito
 62
   255
370
    25
100
AcDbVertex
100
AcDb2dVertex
 10
540.9241909348765
 20
690.2405428216144
 30
0.0
  0
SEQEND
  5
50A
330
4FF
100
AcDbEntity
  8
Predefinito
 62
   255
370
    25
  0
POLYLINE
  5
50B
330
1F
100
AcDbEntity
  8
Predefinito
 62
   255
370
    25
100
AcDb2dPolyline
 66
     1
 10
0.0
 20
0.0
 30
0.0
  0
VERTEX
  5
50C
330
50B
100
AcDbEntity
  8
Predefinito
 62
   255
370
    25
100
AcDbVertex
100
AcDb2dVertex
 10
543.9223944015894
 20
593.3233058860827
 30
0.0
  0
VERTEX
  5
50D
330
50B
100
AcDbEntity
  8
Predefinito
 62
   255
370
    25
100
AcDbVertex
100
AcDb2dVertex
 10
542.173327611178
 20
592.3138051322469
 30
0.0
  0
SEQEND
  5
50E
330
50B
100
AcDbEntity
  8
Predefinito
 62
   255
370
    25
  0
POLYLINE
  5
50F
330
1F
100
AcDbEntity
  8
Predefinito
 62
   255
370
    25
100
AcDb2dPolyline
 66
     1
 10
0.0
 20
0.0
 30
0.0
  0
VERTEX
  5
510
330
50F
100
AcDbEntity
  8
Predefinito
 62
   255
370
    25
100
AcDbVertex
100
AcDb2dVertex
 10
542.173327611178
 20
571.6562245631336
 30
0.0
  0
VERTEX
  5
511
330
50F
100
AcDbEntity
  8
Predefinito
 62
   255
370
    25
100
AcDbVertex
100
AcDb2dVertex
 10
543.9223944015894
 20
570.6463795048114
 30
0.0
  0
SEQEND
  5
512
330
50F
100
AcDbEntity
  8
Predefinito
 62
   255
370
    25
  0
POLYLINE
  5
513
330
1F
100
AcDbEntity
  8
Predefinito
 62
   255
370
    25
100
AcDb2dPolyline
 66
     1
 10
0.0
 20
0.0
 30
0.0
  0
VERTEX
  5
514
330
513
100
AcDbEntity
  8
Predefinito
 62
   255
370
    25
100
AcDbVertex
100
AcDb2dVertex
 10
543.9223944015894
 20
693.4143415763411
 30
0.0
  0
VERTEX
  5
515
330
513
100
AcDbEntity
  8
Predefinito
 62
   255
370
    25
100
AcDbVertex
100
AcDb2dVertex
 10
542.173327611178
 20
692.404496518019
 30
0.0
  0
SEQEND
  5
516
330
513
100
AcDbEntity
  8
Predefinito
 62
   255
370
    25
  0
POLYLINE
  5
517
330
1F
100
AcDbEntity
  8
Predefinito
 62
   255
370
    25
100
AcDb2dPolyline
 66
     1
 10
0.0
 20
0.0
 30
0.0
  0
VERTEX
  5
518
330
517
100
AcDbEntity
  8
Predefinito
 62
   255
370
    25
100
AcDbVertex
100
AcDb2dVertex
 10
542.173327611178
 20
671.7469159489056
 30
0.0
  0
VERTEX
  5
519
330
517
100
AcDbEntity
  8
Predefinito
 62
   255
370
    25
100
AcDbVertex
100
AcDb2dVertex
 10
543.9223944015894
 20
670.7374151950697
 30
0.0
  0
SEQEND
  5
51A
330
517
100
AcDbEntity
  8
Predefinito
 62
   255
370
    25
  0
POLYLINE
  5
51B
330
1F
100
AcDbEntity
  8
Predefinito
 62
   255
370
    25
100
AcDb2dPolyline
 66
     1
 10
0.0
 20
0.0
 30
0.0
  0
VERTEX
  5
51C
330
51B
100
AcDbEntity
  8
Predefinito
 62
   255
370
    25
100
AcDbVertex
100
AcDb2dVertex
 10
604.7069413267033
 20
702.7577324211031
 30
0.0
  0
VERTEX
  5
51D
330
51B
100
AcDbEntity
  8
Predefinito
 62
   255
370
    25
100
AcDbVertex
100
AcDb2dVertex
 10
580.9003519258771
 20
702.7577324211031
 30
0.0
  0
SEQEND
  5
51E
330
51B
100
AcDbEntity
  8
Predefinito
 62
   255
370
    25
  0
POLYLINE
  5
51F
330
1F
100
AcDbEntity
  8
Predefinito
 62
   255
370
    25
100
AcDb2dPolyline
 66
     1
 10
0.0
 20
0.0
 30
0.0
  0
VERTEX
  5
520
330
51F
100
AcDbEntity
  8
Predefinito
 62
   255
370
    25
100
AcDbVertex
100
AcDb2dVertex
 10
566.6278980552238
 20
1164.821583431839
 30
0.0
  0
VERTEX
  5
521
330
51F
100
AcDbEntity
  8
Predefinito
 62
   255
370
    25
100
AcDbVertex
100
AcDb2dVertex
 10
566.6278980552238
 20
1165.121472639408
 30
0.0
  0
SEQEND
  5
522
330
51F
100
AcDbEntity
  8
Predefinito
 62
   255
370
    25
  0
POLYLINE
  5
523
330
1F
100
AcDbEntity
  8
Predefinito
 62
   255
370
    25
100
AcDb2dPolyline
 66
     1
 10
0.0
 20
0.0
 30
0.0
  0
VERTEX
  5
524
330
523
100
AcDbEntity
  8
Predefinito
 62
   255
370
    25
100
AcDbVertex
100
AcDb2dVertex
 10
562.7920017733395
 20
1165.121472639408
 30
0.0
  0
VERTEX
  5
525
330
523
100
AcDbEntity
  8
Predefinito
 62
   255
370
    25
100
AcDbVertex
100
AcDb2dVertex
 10
562.7920017733395
 20
1164.821583431839
 30
0.0
  0
SEQEND
  5
526
330
523
100
AcDbEntity
  8
Predefinito
 62
   255
370
    25
  0
POLYLINE
  5
527
330
1F
100
AcDbEntity
  8
Predefinito
 62
   255
370
    25
100
AcDb2dPolyline
 66
     1
 10
0.0
 20
0.0
 30
0.0
  0
VERTEX
  5
528
330
527
100
AcDbEntity
  8
Predefinito
 62
   255
370
    25
100
AcDbVertex
100
AcDb2dVertex
 10
564.7097777620384
 20
1165.121472639408
 30
0.0
  0
VERTEX
  5
529
330
527
100
AcDbEntity
  8
Predefinito
 62
   255
370
    25
100
AcDbVertex
100
AcDb2dVertex
 10
563.3539066949833
 20
1165.121472639408
 30
0.0
  0
VERTEX
  5
52A
330
527
100
AcDbEntity
  8
Predefinito
 62
   255
370
    25
100
AcDbVertex
100
AcDb2dVertex
 10
562.7920017733395
 20
1165.121472639408
 30
0.0
  0
SEQEND
  5
52B
330
527
100
AcDbEntity
  8
Predefinito
 62
   255
370
    25
  0
POLYLINE
  5
52C
330
1F
100
AcDbEntity
  8
Predefinito
 62
   255
370
    25
100
AcDb2dPolyline
 66
     1
 10
0.0
 20
0.0
 30
0.0
  0
VERTEX
  5
52D
330
52C
100
AcDbEntity
  8
Predefinito
 62
   255
370
    25
100
AcDbVertex
100
AcDb2dVertex
 10
566.6278980552238
 20
1165.121472639408
 30
0.0
  0
VERTEX
  5
52E
330
52C
100
AcDbEntity
  8
Predefinito
 62
   255
370
    25
100
AcDbVertex
100
AcDb2dVertex
 10
566.0659931335798
 20
1165.121472639408
 30
0.0
  0
VERTEX
  5
52F
330
52C
100
AcDbEntity
  8
Predefinito
 62
   255
370
    25
100
AcDbVertex
100
AcDb2dVertex
 10
564.7097777620384
 20
1165.121472639408
 30
0.0
  0
SEQEND
  5
530
330
52C
100
AcDbEntity
  8
Predefinito
 62
   255
370
    25
  0
POLYLINE
  5
531
330
1F
100
AcDbEntity
  8
Predefinito
 62
   255
370
    25
100
AcDb2dPolyline
 66
     1
 10
0.0
 20
0.0
 30
0.0
  0
VERTEX
  5
532
330
531
100
AcDbEntity
  8
Predefinito
 62
   255
370
    25
100
AcDbVertex
100
AcDb2dVertex
 10
562.7920017733395
 20
1165.121472639408
 30
0.0
  0
VERTEX
  5
533
330
531
100
AcDbEntity
  8
Predefinito
 62
   255
370
    25
100
AcDbVertex
100
AcDb2dVertex
 10
566.6278980552238
 20
1165.121472639408
 30
0.0
  0
SEQEND
  5
534
330
531
100
AcDbEntity
  8
Predefinito
 62
   255
370
    25
  0
POLYLINE
  5
535
330
1F
100
AcDbEntity
  8
Predefinito
 62
   255
370
    25
100
AcDb2dPolyline
 66
     1
 10
0.0
 20
0.0
 30
0.0
  0
VERTEX
  5
536
330
535
100
AcDbEntity
  8
Predefinito
 62
   255
370
    25
100
AcDbVertex
100
AcDb2dVertex
 10
542.8812176350137
 20
561.1149984105289
 30
0.0
  0
VERTEX
  5
537
330
535
100
AcDbEntity
  8
Predefinito
 62
   255
370
    25
100
AcDbVertex
100
AcDb2dVertex
 10
542.9497342277878
 20
561.4861586467619
 30
0.0
  0
VERTEX
  5
538
330
535
100
AcDbEntity
  8
Predefinito
 62
   255
370
    25
100
AcDbVertex
100
AcDb2dVertex
 10
543.1539067881646
 20
561.8704024534743
 30
0.0
  0
VERTEX
  5
539
330
535
100
AcDbEntity
  8
Predefinito
 62
   255
370
    25
100
AcDbVertex
100
AcDb2dVertex
 10
543.302990630733
 20
562.0308483440907
 30
0.0
  0
VERTEX
  5
53A
330
535
100
AcDbEntity
  8
Predefinito
 62
   255
370
    25
100
AcDbVertex
100
AcDb2dVertex
 10
543.4655023482674
 20
562.1630612668303
 30
0.0
  0
VERTEX
  5
53B
330
535
100
AcDbEntity
  8
Predefinito
 62
   255
370
    25
100
AcDbVertex
100
AcDb2dVertex
 10
543.6252596299112
 20
562.2663526127209
 30
0.0
  0
VERTEX
  5
53C
330
535
100
AcDbEntity
  8
Predefinito
 62
   255
370
    25
100
AcDbVertex
100
AcDb2dVertex
 10
543.7798523442605
 20
562.3503629073783
 30
0.0
  0
VERTEX
  5
53D
330
535
100
AcDbEntity
  8
Predefinito
 62
   255
370
    25
100
AcDbVertex
100
AcDb2dVertex
 10
543.9110323535415
 20
562.4130263238852
 30
0.0
  0
SEQEND
  5
53E
330
535
100
AcDbEntity
  8
Predefinito
 62
   255
370
    25
  0
POLYLINE
  5
53F
330
1F
100
AcDbEntity
  8
Predefinito
 62
   255
370
    25
100
AcDb2dPolyline
 66
     1
 10
0.0
 20
0.0
 30
0.0
  0
VERTEX
  5
540
330
53F
100
AcDbEntity
  8
Predefinito
 62
   255
370
    25
100
AcDbVertex
100
AcDb2dVertex
 10
543.908277917651
 20
560.9214992892274
 30
0.0
  0
VERTEX
  5
541
330
53F
100
AcDbEntity
  8
Predefinito
 62
   255
370
    25
100
AcDbVertex
100
AcDb2dVertex
 10
543.7282066713153
 20
560.8361117766246
 30
0.0
  0
VERTEX
  5
542
330
53F
100
AcDbEntity
  8
Predefinito
 62
   255
370
    25
100
AcDbVertex
100
AcDb2dVertex
 10
543.5687936941578
 20
560.7500356550494
 30
0.0
  0
VERTEX
  5
543
330
53F
100
AcDbEntity
  8
Predefinito
 62
   255
370
    25
100
AcDbVertex
100
AcDb2dVertex
 10
543.4035275407331
 20
560.6426126553232
 30
0.0
  0
VERTEX
  5
544
330
53F
100
AcDbEntity
  8
Predefinito
 62
   255
370
    25
100
AcDbVertex
100
AcDb2dVertex
 10
543.2337854289864
 20
560.5048908608027
 30
0.0
  0
VERTEX
  5
545
330
53F
100
AcDbEntity
  8
Predefinito
 62
   255
370
    25
100
AcDbVertex
100
AcDb2dVertex
 10
543.0774711922056
 20
560.336181662515
 30
0.0
  0
VERTEX
  5
546
330
53F
100
AcDbEntity
  8
Predefinito
 62
   255
370
    25
100
AcDbVertex
100
AcDb2dVertex
 10
542.8626251927535
 20
559.931968195597
 30
0.0
  0
VERTEX
  5
547
330
53F
100
AcDbEntity
  8
Predefinito
 62
   255
370
    25
100
AcDbVertex
100
AcDb2dVertex
 10
542.7903212506301
 20
559.5435927350491
 30
0.0
  0
SEQEND
  5
548
330
53F
100
AcDbEntity
  8
Predefinito
 62
   255
370
    25
  0
POLYLINE
  5
549
330
1F
100
AcDbEntity
  8
Predefinito
 62
   255
370
    25
100
AcDb2dPolyline
 66
     1
 10
0.0
 20
0.0
 30
0.0
  0
VERTEX
  5
54A
330
549
100
AcDbEntity
  8
Predefinito
 62
   255
370
    25
100
AcDbVertex
100
AcDb2dVertex
 10
542.8812176350137
 20
561.1149984105289
 30
0.0
  0
VERTEX
  5
54B
330
549
100
AcDbEntity
  8
Predefinito
 62
   255
370
    25
100
AcDbVertex
100
AcDb2dVertex
 10
542.7903212506301
 20
559.5435927350491
 30
0.0
  0
SEQEND
  5
54C
330
549
100
AcDbEntity
  8
Predefinito
 62
   255
370
    25
  0
POLYLINE
  5
54D
330
1F
100
AcDbEntity
  8
Predefinito
 62
   255
370
    25
100
AcDb2dPolyline
 66
     1
 10
0.0
 20
0.0
 30
0.0
  0
VERTEX
  5
54E
330
54D
100
AcDbEntity
  8
Predefinito
 62
   255
370
    25
100
AcDbVertex
100
AcDb2dVertex
 10
543.7891485653906
 20
555.0015279517605
 30
0.0
  0
VERTEX
  5
54F
330
54D
100
AcDbEntity
  8
Predefinito
 62
   255
370
    25
100
AcDbVertex
100
AcDb2dVertex
 10
543.7891485653906
 20
559.5208686389532
 30
0.0
  0
SEQEND
  5
550
330
54D
100
AcDbEntity
  8
Predefinito
 62
   255
370
    25
  0
POLYLINE
  5
551
330
1F
100
AcDbEntity
  8
Predefinito
 62
   255
370
    25
100
AcDb2dPolyline
 66
     1
 10
0.0
 20
0.0
 30
0.0
  0
VERTEX
  5
552
330
551
100
AcDbEntity
  8
Predefinito
 62
   255
370
    25
100
AcDbVertex
100
AcDb2dVertex
 10
542.7903212506301
 20
555.0242520478565
 30
0.0
  0
VERTEX
  5
553
330
551
100
AcDbEntity
  8
Predefinito
 62
   255
370
    25
100
AcDbVertex
100
AcDb2dVertex
 10
542.7903212506301
 20
559.5435927350491
 30
0.0
  0
SEQEND
  5
554
330
551
100
AcDbEntity
  8
Predefinito
 62
   255
370
    25
  0
POLYLINE
  5
555
330
1F
100
AcDbEntity
  8
Predefinito
 62
   255
370
    25
100
AcDb2dPolyline
 66
     1
 10
0.0
 20
0.0
 30
0.0
  0
VERTEX
  5
556
330
555
100
AcDbEntity
  8
Predefinito
 62
   255
370
    25
100
AcDbVertex
100
AcDb2dVertex
 10
543.8800449497742
 20
556.5729336272403
 30
0.0
  0
VERTEX
  5
557
330
555
100
AcDbEntity
  8
Predefinito
 62
   255
370
    25
100
AcDbVertex
100
AcDb2dVertex
 10
543.8800449497742
 20
559.6379321642958
 30
0.0
  0
SEQEND
  5
558
330
555
100
AcDbEntity
  8
Predefinito
 62
   255
370
    25
  0
POLYLINE
  5
559
330
1F
100
AcDbEntity
  8
Predefinito
 62
   255
370
    25
100
AcDb2dPolyline
 66
     1
 10
0.0
 20
0.0
 30
0.0
  0
VERTEX
  5
55A
330
559
100
AcDbEntity
  8
Predefinito
 62
   255
370
    25
100
AcDbVertex
100
AcDb2dVertex
 10
542.7903212506301
 20
555.0242520478565
 30
0.0
  0
VERTEX
  5
55B
330
559
100
AcDbEntity
  8
Predefinito
 62
   255
370
    25
100
AcDbVertex
100
AcDb2dVertex
 10
542.8681340645343
 20
554.6035119655961
 30
0.0
  0
VERTEX
  5
55C
330
559
100
AcDbEntity
  8
Predefinito
 62
   255
370
    25
100
AcDbVertex
100
AcDb2dVertex
 10
543.0819471505274
 20
554.1710655308015
 30
0.0
  0
VERTEX
  5
55D
330
559
100
AcDbEntity
  8
Predefinito
 62
   255
370
    25
100
AcDbVertex
100
AcDb2dVertex
 10
543.2286208616919
 20
553.9844524992261
 30
0.0
  0
VERTEX
  5
55E
330
559
100
AcDbEntity
  8
Predefinito
 62
   255
370
    25
100
AcDbVertex
100
AcDb2dVertex
 10
543.3856237074455
 20
553.8267610445001
 30
0.0
  0
VERTEX
  5
55F
330
559
100
AcDbEntity
  8
Predefinito
 62
   255
370
    25
100
AcDbVertex
100
AcDb2dVertex
 10
543.539527812822
 20
553.6959253397056
 30
0.0
  0
VERTEX
  5
560
330
559
100
AcDbEntity
  8
Predefinito
 62
   255
370
    25
100
AcDbVertex
100
AcDb2dVertex
 10
543.6903331778221
 20
553.5850592951165
 30
0.0
  0
VERTEX
  5
561
330
559
100
AcDbEntity
  8
Predefinito
 62
   255
370
    25
100
AcDbVertex
100
AcDb2dVertex
 10
543.9062120907331
 20
553.4425172377876
 30
0.0
  0
SEQEND
  5
562
330
559
100
AcDbEntity
  8
Predefinito
 62
   255
370
    25
  0
POLYLINE
  5
563
330
1F
100
AcDbEntity
  8
Predefinito
 62
   255
370
    25
100
AcDb2dPolyline
 66
     1
 10
0.0
 20
0.0
 30
0.0
  0
VERTEX
  5
564
330
563
100
AcDbEntity
  8
Predefinito
 62
   255
370
    25
100
AcDbVertex
100
AcDb2dVertex
 10
541.1242318414176
 20
1164.821583431839
 30
0.0
  0
VERTEX
  5
565
330
563
100
AcDbEntity
  8
Predefinito
 62
   255
370
    25
100
AcDbVertex
100
AcDb2dVertex
 10
540.9241909348765
 20
1164.621542525298
 30
0.0
  0
SEQEND
  5
566
330
563
100
AcDbEntity
  8
Predefinito
 62
   255
370
    25
  0
POLYLINE
  5
567
330
1F
100
AcDbEntity
  8
Predefinito
 62
   255
370
    25
100
AcDb2dPolyline
 66
     1
 10
0.0
 20
0.0
 30
0.0
  0
VERTEX
  5
568
330
567
100
AcDbEntity
  8
Predefinito
 62
   255
370
    25
100
AcDbVertex
100
AcDb2dVertex
 10
540.9241909348765
 20
1150.230303606871
 30
0.0
  0
VERTEX
  5
569
330
567
100
AcDbEntity
  8
Predefinito
 62
   255
370
    25
100
AcDbVertex
100
AcDb2dVertex
 10
541.1242318414176
 20
1150.030607004816
 30
0.0
  0
SEQEND
  5
56A
330
567
100
AcDbEntity
  8
Predefinito
 62
   255
370
    25
  0
POLYLINE
  5
56B
330
1F
100
AcDbEntity
  8
Predefinito
 62
   255
370
    25
100
AcDb2dPolyline
 66
     1
 10
0.0
 20
0.0
 30
0.0
  0
VERTEX
  5
56C
330
56B
100
AcDbEntity
  8
Predefinito
 62
   255
370
    25
100
AcDbVertex
100
AcDb2dVertex
 10
540.9241909348765
 20
1157.425923066085
 30
0.0
  0
VERTEX
  5
56D
330
56B
100
AcDbEntity
  8
Predefinito
 62
   255
370
    25
100
AcDbVertex
100
AcDb2dVertex
 10
540.9241909348765
 20
1160.179670347523
 30
0.0
  0
VERTEX
  5
56E
330
56B
100
AcDbEntity
  8
Predefinito
 62
   255
370
    25
100
AcDbVertex
100
AcDb2dVertex
 10
540.9241909348765
 20
1162.514054764647
 30
0.0
  0
VERTEX
  5
56F
330
56B
100
AcDbEntity
  8
Predefinito
 62
   255
370
    25
100
AcDbVertex
100
AcDb2dVertex
 10
540.9241909348765
 20
1164.074098392079
 30
0.0
  0
VERTEX
  5
570
330
56B
100
AcDbEntity
  8
Predefinito
 62
   255
370
    25
100
AcDbVertex
100
AcDb2dVertex
 10
540.9241909348765
 20
1164.621542525298
 30
0.0
  0
SEQEND
  5
571
330
56B
100
AcDbEntity
  8
Predefinito
 62
   255
370
    25
  0
POLYLINE
  5
572
330
1F
100
AcDbEntity
  8
Predefinito
 62
   255
370
    25
100
AcDb2dPolyline
 66
     1
 10
0.0
 20
0.0
 30
0.0
  0
VERTEX
  5
573
330
572
100
AcDbEntity
  8
Predefinito
 62
   255
370
    25
100
AcDbVertex
100
AcDb2dVertex
 10
540.9241909348765
 20
1150.230303606871
 30
0.0
  0
VERTEX
  5
574
330
572
100
AcDbEntity
  8
Predefinito
 62
   255
370
    25
100
AcDbVertex
100
AcDb2dVertex
 10
540.9241909348765
 20
1150.77774774009
 30
0.0
  0
VERTEX
  5
575
330
572
100
AcDbEntity
  8
Predefinito
 62
   255
370
    25
100
AcDbVertex
100
AcDb2dVertex
 10
540.9241909348765
 20
1152.337791367522
 30
0.0
  0
VERTEX
  5
576
330
572
100
AcDbEntity
  8
Predefinito
 62
   255
370
    25
100
AcDbVertex
100
AcDb2dVertex
 10
540.9241909348765
 20
1154.672175784646
 30
0.0
  0
VERTEX
  5
577
330
572
100
AcDbEntity
  8
Predefinito
 62
   255
370
    25
100
AcDbVertex
100
AcDb2dVertex
 10
540.9241909348765
 20
1157.425923066085
 30
0.0
  0
SEQEND
  5
578
330
572
100
AcDbEntity
  8
Predefinito
 62
   255
370
    25
  0
POLYLINE
  5
579
330
1F
100
AcDbEntity
  8
Predefinito
 62
   255
370
    25
100
AcDb2dPolyline
 66
     1
 10
0.0
 20
0.0
 30
0.0
  0
VERTEX
  5
57A
330
579
100
AcDbEntity
  8
Predefinito
 62
   255
370
    25
100
AcDbVertex
100
AcDb2dVertex
 10
541.1242318414176
 20
1157.425923066085
 30
0.0
  0
VERTEX
  5
57B
330
579
100
AcDbEntity
  8
Predefinito
 62
   255
370
    25
100
AcDbVertex
100
AcDb2dVertex
 10
541.1242318414176
 20
1154.595740188687
 30
0.0
  0
VERTEX
  5
57C
330
579
100
AcDbEntity
  8
Predefinito
 62
   255
370
    25
100
AcDbVertex
100
AcDb2dVertex
 10
541.1242318414176
 20
1152.196282223652
 30
0.0
  0
VERTEX
  5
57D
330
579
100
AcDbEntity
  8
Predefinito
 62
   255
370
    25
100
AcDbVertex
100
AcDb2dVertex
 10
541.1242318414176
 20
1150.593200535433
 30
0.0
  0
VERTEX
  5
57E
330
579
100
AcDbEntity
  8
Predefinito
 62
   255
370
    25
100
AcDbVertex
100
AcDb2dVertex
 10
541.1242318414176
 20
1150.030607004816
 30
0.0
  0
SEQEND
  5
57F
330
579
100
AcDbEntity
  8
Predefinito
 62
   255
370
    25
  0
POLYLINE
  5
580
330
1F
100
AcDbEntity
  8
Predefinito
 62
   255
370
    25
100
AcDb2dPolyline
 66
     1
 10
0.0
 20
0.0
 30
0.0
  0
VERTEX
  5
581
330
580
100
AcDbEntity
  8
Predefinito
 62
   255
370
    25
100
AcDbVertex
100
AcDb2dVertex
 10
541.1242318414176
 20
1164.821583431839
 30
0.0
  0
VERTEX
  5
582
330
580
100
AcDbEntity
  8
Predefinito
 62
   255
370
    25
100
AcDbVertex
100
AcDb2dVertex
 10
541.1242318414176
 20
1164.258645596736
 30
0.0
  0
VERTEX
  5
583
330
580
100
AcDbEntity
  8
Predefinito
 62
   255
370
    25
100
AcDbVertex
100
AcDb2dVertex
 10
541.1242318414176
 20
1162.655563908517
 30
0.0
  0
VERTEX
  5
584
330
580
100
AcDbEntity
  8
Predefinito
 62
   255
370
    25
100
AcDbVertex
100
AcDb2dVertex
 10
541.1242318414176
 20
1160.256105943482
 30
0.0
  0
VERTEX
  5
585
330
580
100
AcDbEntity
  8
Predefinito
 62
   255
370
    25
100
AcDbVertex
100
AcDb2dVertex
 10
541.1242318414176
 20
1157.425923066085
 30
0.0
  0
SEQEND
  5
586
330
580
100
AcDbEntity
  8
Predefinito
 62
   255
370
    25
  0
POLYLINE
  5
587
330
1F
100
AcDbEntity
  8
Predefinito
 62
   255
370
    25
100
AcDb2dPolyline
 66
     1
 10
0.0
 20
0.0
 30
0.0
  0
VERTEX
  5
588
330
587
100
AcDbEntity
  8
Predefinito
 62
   255
370
    25
100
AcDbVertex
100
AcDb2dVertex
 10
541.1242318414176
 20
1150.030607004816
 30
0.0
  0
VERTEX
  5
589
330
587
100
AcDbEntity
  8
Predefinito
 62
   255
370
    25
100
AcDbVertex
100
AcDb2dVertex
 10
579.2015535904658
 20
1150.030607004816
 30
0.0
  0
SEQEND
  5
58A
330
587
100
AcDbEntity
  8
Predefinito
 62
   255
370
    25
  0
POLYLINE
  5
58B
330
1F
100
AcDbEntity
  8
Predefinito
 62
   255
370
    25
100
AcDb2dPolyline
 66
     1
 10
0.0
 20
0.0
 30
0.0
  0
VERTEX
  5
58C
330
58B
100
AcDbEntity
  8
Predefinito
 62
   255
370
    25
100
AcDbVertex
100
AcDb2dVertex
 10
579.2015535904658
 20
1150.030607004816
 30
0.0
  0
VERTEX
  5
58D
330
58B
100
AcDbEntity
  8
Predefinito
 62
   255
370
    25
100
AcDbVertex
100
AcDb2dVertex
 10
579.2015535904658
 20
1150.476481314577
 30
0.0
  0
VERTEX
  5
58E
330
58B
100
AcDbEntity
  8
Predefinito
 62
   255
370
    25
100
AcDbVertex
100
AcDb2dVertex
 10
579.2015535904658
 20
1151.760737048481
 30
0.0
  0
VERTEX
  5
58F
330
58B
100
AcDbEntity
  8
Predefinito
 62
   255
370
    25
100
AcDbVertex
100
AcDb2dVertex
 10
579.2015535904658
 20
1153.728092883207
 30
0.0
  0
VERTEX
  5
590
330
58B
100
AcDbEntity
  8
Predefinito
 62
   255
370
    25
100
AcDbVertex
100
AcDb2dVertex
 10
579.2015535904658
 20
1156.142011636667
 30
0.0
  0
VERTEX
  5
591
330
58B
100
AcDbEntity
  8
Predefinito
 62
   255
370
    25
100
AcDbVertex
100
AcDb2dVertex
 10
579.2015535904658
 20
1158.710178799989
 30
0.0
  0
VERTEX
  5
592
330
58B
100
AcDbEntity
  8
Predefinito
 62
   255
370
    25
100
AcDbVertex
100
AcDb2dVertex
 10
579.2015535904658
 20
1161.123753248962
 30
0.0
  0
VERTEX
  5
593
330
58B
100
AcDbEntity
  8
Predefinito
 62
   255
370
    25
100
AcDbVertex
100
AcDb2dVertex
 10
579.2015535904658
 20
1163.091453388175
 30
0.0
  0
VERTEX
  5
594
330
58B
100
AcDbEntity
  8
Predefinito
 62
   255
370
    25
100
AcDbVertex
100
AcDb2dVertex
 10
579.2015535904658
 20
1164.375709122079
 30
0.0
  0
VERTEX
  5
595
330
58B
100
AcDbEntity
  8
Predefinito
 62
   255
370
    25
100
AcDbVertex
100
AcDb2dVertex
 10
579.2015535904658
 20
1164.821583431839
 30
0.0
  0
SEQEND
  5
596
330
58B
100
AcDbEntity
  8
Predefinito
 62
   255
370
    25
  0
POLYLINE
  5
597
330
1F
100
AcDbEntity
  8
Predefinito
 62
   255
370
    25
100
AcDb2dPolyline
 66
     1
 10
0.0
 20
0.0
 30
0.0
  0
VERTEX
  5
598
330
597
100
AcDbEntity
  8
Predefinito
 62
   255
370
    25
100
AcDbVertex
100
AcDb2dVertex
 10
579.2015535904658
 20
1150.030607004816
 30
0.0
  0
VERTEX
  5
599
330
597
100
AcDbEntity
  8
Predefinito
 62
   255
370
    25
100
AcDbVertex
100
AcDb2dVertex
 10
579.4012501925206
 20
1150.230303606871
 30
0.0
  0
SEQEND
  5
59A
330
597
100
AcDbEntity
  8
Predefinito
 62
   255
370
    25
  0
POLYLINE
  5
59B
330
1F
100
AcDbEntity
  8
Predefinito
 62
   255
370
    25
100
AcDb2dPolyline
 66
     1
 10
0.0
 20
0.0
 30
0.0
  0
VERTEX
  5
59C
330
59B
100
AcDbEntity
  8
Predefinito
 62
   255
370
    25
100
AcDbVertex
100
AcDb2dVertex
 10
579.4012501925206
 20
1164.621542525298
 30
0.0
  0
VERTEX
  5
59D
330
59B
100
AcDbEntity
  8
Predefinito
 62
   255
370
    25
100
AcDbVertex
100
AcDb2dVertex
 10
579.2015535904658
 20
1164.821583431839
 30
0.0
  0
SEQEND
  5
59E
330
59B
100
AcDbEntity
  8
Predefinito
 62
   255
370
    25
  0
POLYLINE
  5
59F
330
1F
100
AcDbEntity
  8
Predefinito
 62
   255
370
    25
100
AcDb2dPolyline
 66
     1
 10
0.0
 20
0.0
 30
0.0
  0
VERTEX
  5
5A0
330
59F
100
AcDbEntity
  8
Predefinito
 62
   255
370
    25
100
AcDbVertex
100
AcDb2dVertex
 10
579.4012501925206
 20
1164.621542525298
 30
0.0
  0
VERTEX
  5
5A1
330
59F
100
AcDbEntity
  8
Predefinito
 62
   255
370
    25
100
AcDbVertex
100
AcDb2dVertex
 10
579.4012501925206
 20
1164.187718872558
 30
0.0
  0
VERTEX
  5
5A2
330
59F
100
AcDbEntity
  8
Predefinito
 62
   255
370
    25
100
AcDbVertex
100
AcDb2dVertex
 10
579.4012501925206
 20
1162.938237891771
 30
0.0
  0
VERTEX
  5
5A3
330
59F
100
AcDbEntity
  8
Predefinito
 62
   255
370
    25
100
AcDbVertex
100
AcDb2dVertex
 10
579.4012501925206
 20
1161.023560643448
 30
0.0
  0
VERTEX
  5
5A4
330
59F
100
AcDbEntity
  8
Predefinito
 62
   255
370
    25
100
AcDbVertex
100
AcDb2dVertex
 10
579.4012501925206
 20
1158.675404046872
 30
0.0
  0
VERTEX
  5
5A5
330
59F
100
AcDbEntity
  8
Predefinito
 62
   255
370
    25
100
AcDbVertex
100
AcDb2dVertex
 10
579.4012501925206
 20
1156.176442085297
 30
0.0
  0
VERTEX
  5
5A6
330
59F
100
AcDbEntity
  8
Predefinito
 62
   255
370
    25
100
AcDbVertex
100
AcDb2dVertex
 10
579.4012501925206
 20
1153.828285488721
 30
0.0
  0
VERTEX
  5
5A7
330
59F
100
AcDbEntity
  8
Predefinito
 62
   255
370
    25
100
AcDbVertex
100
AcDb2dVertex
 10
579.4012501925206
 20
1151.913952544885
 30
0.0
  0
VERTEX
  5
5A8
330
59F
100
AcDbEntity
  8
Predefinito
 62
   255
370
    25
100
AcDbVertex
100
AcDb2dVertex
 10
579.4012501925206
 20
1150.664127259611
 30
0.0
  0
VERTEX
  5
5A9
330
59F
100
AcDbEntity
  8
Predefinito
 62
   255
370
    25
100
AcDbVertex
100
AcDb2dVertex
 10
579.4012501925206
 20
1150.230303606871
 30
0.0
  0
SEQEND
  5
5AA
330
59F
100
AcDbEntity
  8
Predefinito
 62
   255
370
    25
  0
POLYLINE
  5
5AB
330
1F
100
AcDbEntity
  8
Predefinito
 62
   255
370
    25
100
AcDb2dPolyline
 66
     1
 10
0.0
 20
0.0
 30
0.0
  0
VERTEX
  5
5AC
330
5AB
100
AcDbEntity
  8
Predefinito
 62
   255
370
    25
100
AcDbVertex
100
AcDb2dVertex
 10
580.4004218117675
 20
1164.321997622216
 30
0.0
  0
VERTEX
  5
5AD
330
5AB
100
AcDbEntity
  8
Predefinito
 62
   255
370
    25
100
AcDbVertex
100
AcDb2dVertex
 10
579.4012501925206
 20
1164.321997622216
 30
0.0
  0
SEQEND
  5
5AE
330
5AB
100
AcDbEntity
  8
Predefinito
 62
   255
370
    25
  0
POLYLINE
  5
5AF
330
1F
100
AcDbEntity
  8
Predefinito
 62
   255
370
    25
100
AcDb2dPolyline
 66
     1
 10
0.0
 20
0.0
 30
0.0
  0
VERTEX
  5
5B0
330
5AF
100
AcDbEntity
  8
Predefinito
 62
   255
370
    25
100
AcDbVertex
100
AcDb2dVertex
 10
579.4012501925206
 20
1150.53019281444
 30
0.0
  0
VERTEX
  5
5B1
330
5AF
100
AcDbEntity
  8
Predefinito
 62
   255
370
    25
100
AcDbVertex
100
AcDb2dVertex
 10
580.4004218117675
 20
1150.53019281444
 30
0.0
  0
SEQEND
  5
5B2
330
5AF
100
AcDbEntity
  8
Predefinito
 62
   255
370
    25
  0
POLYLINE
  5
5B3
330
1F
100
AcDbEntity
  8
Predefinito
 62
   255
370
    25
100
AcDb2dPolyline
 66
     1
 10
0.0
 20
0.0
 30
0.0
  0
VERTEX
  5
5B4
330
5B3
100
AcDbEntity
  8
Predefinito
 62
   255
370
    25
100
AcDbVertex
100
AcDb2dVertex
 10
562.7920017733395
 20
1164.821583431839
 30
0.0
  0
VERTEX
  5
5B5
330
5B3
100
AcDbEntity
  8
Predefinito
 62
   255
370
    25
100
AcDbVertex
100
AcDb2dVertex
 10
541.1242318414176
 20
1164.821583431839
 30
0.0
  0
SEQEND
  5
5B6
330
5B3
100
AcDbEntity
  8
Predefinito
 62
   255
370
    25
  0
POLYLINE
  5
5B7
330
1F
100
AcDbEntity
  8
Predefinito
 62
   255
370
    25
100
AcDb2dPolyline
 66
     1
 10
0.0
 20
0.0
 30
0.0
  0
VERTEX
  5
5B8
330
5B7
100
AcDbEntity
  8
Predefinito
 62
   255
370
    25
100
AcDbVertex
100
AcDb2dVertex
 10
579.2015535904658
 20
1164.821583431839
 30
0.0
  0
VERTEX
  5
5B9
330
5B7
100
AcDbEntity
  8
Predefinito
 62
   255
370
    25
100
AcDbVertex
100
AcDb2dVertex
 10
566.6278980552238
 20
1164.821583431839
 30
0.0
  0
SEQEND
  5
5BA
330
5B7
100
AcDbEntity
  8
Predefinito
 62
   255
370
    25
  0
POLYLINE
  5
5BB
330
1F
100
AcDbEntity
  8
Predefinito
 62
   255
370
    25
100
AcDb2dPolyline
 66
     1
 10
0.0
 20
0.0
 30
0.0
  0
VERTEX
  5
5BC
330
5BB
100
AcDbEntity
  8
Predefinito
 62
   255
370
    25
100
AcDbVertex
100
AcDb2dVertex
 10
621.1764021244461
 20
1251.075710426616
 30
0.0
  0
VERTEX
  5
5BD
330
5BB
100
AcDbEntity
  8
Predefinito
 62
   255
370
    25
100
AcDbVertex
100
AcDb2dVertex
 10
621.0796525637955
 20
1252.023236372917
 30
0.0
  0
VERTEX
  5
5BE
330
5BB
100
AcDbEntity
  8
Predefinito
 62
   255
370
    25
100
AcDbVertex
100
AcDb2dVertex
 10
620.8124722824255
 20
1252.935643261616
 30
0.0
  0
SEQEND
  5
5BF
330
5BB
100
AcDbEntity
  8
Predefinito
 62
   255
370
    25
  0
POLYLINE
  5
5C0
330
1F
100
AcDbEntity
  8
Predefinito
 62
   255
370
    25
100
AcDb2dPolyline
 66
     1
 10
0.0
 20
0.0
 30
0.0
  0
VERTEX
  5
5C1
330
5C0
100
AcDbEntity
  8
Predefinito
 62
   255
370
    25
100
AcDbVertex
100
AcDb2dVertex
 10
620.8124722824255
 20
577.8368343967306
 30
0.0
  0
VERTEX
  5
5C2
330
5C0
100
AcDbEntity
  8
Predefinito
 62
   255
370
    25
100
AcDbVertex
100
AcDb2dVertex
 10
621.0799968682817
 20
578.7509628078609
 30
0.0
  0
VERTEX
  5
5C3
330
5C0
100
AcDbEntity
  8
Predefinito
 62
   255
370
    25
100
AcDbVertex
100
AcDb2dVertex
 10
621.1764021244461
 20
579.6967672317309
 30
0.0
  0
SEQEND
  5
5C4
330
5C0
100
AcDbEntity
  8
Predefinito
 62
   255
370
    25
  0
POLYLINE
  5
5C5
330
1F
100
AcDbEntity
  8
Predefinito
 62
   255
370
    25
100
AcDb2dPolyline
 66
     1
 10
0.0
 20
0.0
 30
0.0
  0
VERTEX
  5
5C6
330
5C5
100
AcDbEntity
  8
Predefinito
 62
   255
370
    25
100
AcDbVertex
100
AcDb2dVertex
 10
621.1764021244461
 20
678.0105031637013
 30
0.0
  0
VERTEX
  5
5C7
330
5C5
100
AcDbEntity
  8
Predefinito
 62
   255
370
    25
100
AcDbVertex
100
AcDb2dVertex
 10
621.1764021244461
 20
665.9137093419865
 30
0.0
  0
VERTEX
  5
5C8
330
5C5
100
AcDbEntity
  8
Predefinito
 62
   255
370
    25
100
AcDbVertex
100
AcDb2dVertex
 10
621.1764021244461
 20
654.5003599255804
 30
0.0
  0
VERTEX
  5
5C9
330
5C5
100
AcDbEntity
  8
Predefinito
 62
   255
370
    25
100
AcDbVertex
100
AcDb2dVertex
 10
621.1764021244461
 20
643.8021309272222
 30
0.0
  0
VERTEX
  5
5CA
330
5C5
100
AcDbEntity
  8
Predefinito
 62
   255
370
    25
100
AcDbVertex
100
AcDb2dVertex
 10
621.1764021244461
 20
633.8482882282478
 30
0.0
  0
VERTEX
  5
5CB
330
5C5
100
AcDbEntity
  8
Predefinito
 62
   255
370
    25
100
AcDbVertex
100
AcDb2dVertex
 10
621.1764021244461
 20
624.6660318830749
 30
0.0
  0
VERTEX
  5
5CC
330
5C5
100
AcDbEntity
  8
Predefinito
 62
   255
370
    25
100
AcDbVertex
100
AcDb2dVertex
 10
621.1764021244461
 20
616.2804961192033
 30
0.0
  0
VERTEX
  5
5CD
330
5C5
100
AcDbEntity
  8
Predefinito
 62
   255
370
    25
100
AcDbVertex
100
AcDb2dVertex
 10
621.1764021244461
 20
608.715093641702
 30
0.0
  0
VERTEX
  5
5CE
330
5C5
100
AcDbEntity
  8
Predefinito
 62
   255
370
    25
100
AcDbVertex
100
AcDb2dVertex
 10
621.1764021244461
 20
601.9901384152624
 30
0.0
  0
VERTEX
  5
5CF
330
5C5
100
AcDbEntity
  8
Predefinito
 62
   255
370
    25
100
AcDbVertex
100
AcDb2dVertex
 10
621.1764021244461
 20
596.1238785776586
 30
0.0
  0
VERTEX
  5
5D0
330
5C5
100
AcDbEntity
  8
Predefinito
 62
   255
370
    25
100
AcDbVertex
100
AcDb2dVertex
 10
621.1764021244461
 20
591.1328407442331
 30
0.0
  0
VERTEX
  5
5D1
330
5C5
100
AcDbEntity
  8
Predefinito
 62
   255
370
    25
100
AcDbVertex
100
AcDb2dVertex
 10
621.1764021244461
 20
587.0307970944377
 30
0.0
  0
VERTEX
  5
5D2
330
5C5
100
AcDbEntity
  8
Predefinito
 62
   255
370
    25
100
AcDbVertex
100
AcDb2dVertex
 10
621.1764021244461
 20
583.8284210673481
 30
0.0
  0
VERTEX
  5
5D3
330
5C5
100
AcDbEntity
  8
Predefinito
 62
   255
370
    25
100
AcDbVertex
100
AcDb2dVertex
 10
621.1764021244461
 20
581.5350088840944
 30
0.0
  0
VERTEX
  5
5D4
330
5C5
100
AcDbEntity
  8
Predefinito
 62
   255
370
    25
100
AcDbVertex
100
AcDb2dVertex
 10
621.1764021244461
 20
580.1564137209433
 30
0.0
  0
VERTEX
  5
5D5
330
5C5
100
AcDbEntity
  8
Predefinito
 62
   255
370
    25
100
AcDbVertex
100
AcDb2dVertex
 10
621.1764021244461
 20
579.6967672317309
 30
0.0
  0
SEQEND
  5
5D6
330
5C5
100
AcDbEntity
  8
Predefinito
 62
   255
370
    25
  0
POLYLINE
  5
5D7
330
1F
100
AcDbEntity
  8
Predefinito
 62
   255
370
    25
100
AcDb2dPolyline
 66
     1
 10
0.0
 20
0.0
 30
0.0
  0
VERTEX
  5
5D8
330
5D7
100
AcDbEntity
  8
Predefinito
 62
   255
370
    25
100
AcDbVertex
100
AcDb2dVertex
 10
621.1764021244461
 20
1251.075710426616
 30
0.0
  0
VERTEX
  5
5D9
330
5D7
100
AcDbEntity
  8
Predefinito
 62
   255
370
    25
100
AcDbVertex
100
AcDb2dVertex
 10
621.1764021244461
 20
1250.65359312641
 30
0.0
  0
VERTEX
  5
5DA
330
5D7
100
AcDbEntity
  8
Predefinito
 62
   255
370
    25
100
AcDbVertex
100
AcDb2dVertex
 10
621.1764021244461
 20
1249.389995661684
 30
0.0
  0
VERTEX
  5
5DB
330
5D7
100
AcDbEntity
  8
Predefinito
 62
   255
370
    25
100
AcDbVertex
100
AcDb2dVertex
 10
621.1764021244461
 20
1247.286639554868
 30
0.0
  0
VERTEX
  5
5DC
330
5D7
100
AcDbEntity
  8
Predefinito
 62
   255
370
    25
100
AcDbVertex
100
AcDb2dVertex
 10
621.1764021244461
 20
1244.349377982231
 30
0.0
  0
VERTEX
  5
5DD
330
5D7
100
AcDbEntity
  8
Predefinito
 62
   255
370
    25
100
AcDbVertex
100
AcDb2dVertex
 10
621.1764021244461
 20
1240.58578564247
 30
0.0
  0
VERTEX
  5
5DE
330
5D7
100
AcDbEntity
  8
Predefinito
 62
   255
370
    25
100
AcDbVertex
100
AcDb2dVertex
 10
621.1764021244461
 20
1236.00481445223
 30
0.0
  0
VERTEX
  5
5DF
330
5D7
100
AcDbEntity
  8
Predefinito
 62
   255
370
    25
100
AcDbVertex
100
AcDb2dVertex
 10
621.1764021244461
 20
1230.61851506853
 30
0.0
  0
VERTEX
  5
5E0
330
5D7
100
AcDbEntity
  8
Predefinito
 62
   255
370
    25
100
AcDbVertex
100
AcDb2dVertex
 10
621.1764021244461
 20
1224.439626757364
 30
0.0
  0
VERTEX
  5
5E1
330
5D7
100
AcDbEntity
  8
Predefinito
 62
   255
370
    25
100
AcDbVertex
100
AcDb2dVertex
 10
621.1764021244461
 20
1217.484676134075
 30
0.0
  0
VERTEX
  5
5E2
330
5D7
100
AcDbEntity
  8
Predefinito
 62
   255
370
    25
100
AcDbVertex
100
AcDb2dVertex
 10
621.1764021244461
 20
1209.770878422978
 30
0.0
  0
VERTEX
  5
5E3
330
5D7
100
AcDbEntity
  8
Predefinito
 62
   255
370
    25
100
AcDbVertex
100
AcDb2dVertex
 10
621.1764021244461
 20
1201.316826066332
 30
0.0
  0
VERTEX
  5
5E4
330
5D7
100
AcDbEntity
  8
Predefinito
 62
   255
370
    25
100
AcDbVertex
100
AcDb2dVertex
 10
621.1764021244461
 20
1192.144898855749
 30
0.0
  0
VERTEX
  5
5E5
330
5D7
100
AcDbEntity
  8
Predefinito
 62
   255
370
    25
100
AcDbVertex
100
AcDb2dVertex
 10
621.1764021244461
 20
1182.27713227835
 30
0.0
  0
VERTEX
  5
5E6
330
5D7
100
AcDbEntity
  8
Predefinito
 62
   255
370
    25
100
AcDbVertex
100
AcDb2dVertex
 10
621.1764021244461
 20
1171.739004866121
 30
0.0
  0
VERTEX
  5
5E7
330
5D7
100
AcDbEntity
  8
Predefinito
 62
   255
370
    25
100
AcDbVertex
100
AcDb2dVertex
 10
621.1764021244461
 20
1160.556683760023
 30
0.0
  0
VERTEX
  5
5E8
330
5D7
100
AcDbEntity
  8
Predefinito
 62
   255
370
    25
100
AcDbVertex
100
AcDb2dVertex
 10
621.1764021244461
 20
1148.758401927932
 30
0.0
  0
VERTEX
  5
5E9
330
5D7
100
AcDbEntity
  8
Predefinito
 62
   255
370
    25
100
AcDbVertex
100
AcDb2dVertex
 10
621.1764021244461
 20
1136.37376955567
 30
0.0
  0
VERTEX
  5
5EA
330
5D7
100
AcDbEntity
  8
Predefinito
 62
   255
370
    25
100
AcDbVertex
100
AcDb2dVertex
 10
621.1764021244461
 20
1123.433774047003
 30
0.0
  0
VERTEX
  5
5EB
330
5D7
100
AcDbEntity
  8
Predefinito
 62
   255
370
    25
100
AcDbVertex
100
AcDb2dVertex
 10
621.1764021244461
 20
1109.971124328131
 30
0.0
  0
VERTEX
  5
5EC
330
5D7
100
AcDbEntity
  8
Predefinito
 62
   255
370
    25
100
AcDbVertex
100
AcDb2dVertex
 10
621.1764021244461
 20
1096.01956223871
 30
0.0
  0
VERTEX
  5
5ED
330
5D7
100
AcDbEntity
  8
Predefinito
 62
   255
370
    25
100
AcDbVertex
100
AcDb2dVertex
 10
621.1764021244461
 20
1081.613862531858
 30
0.0
  0
VERTEX
  5
5EE
330
5D7
100
AcDbEntity
  8
Predefinito
 62
   255
370
    25
100
AcDbVertex
100
AcDb2dVertex
 10
621.1764021244461
 20
1066.790865787609
 30
0.0
  0
VERTEX
  5
5EF
330
5D7
100
AcDbEntity
  8
Predefinito
 62
   255
370
    25
100
AcDbVertex
100
AcDb2dVertex
 10
621.1764021244461
 20
1051.58706828151
 30
0.0
  0
VERTEX
  5
5F0
330
5D7
100
AcDbEntity
  8
Predefinito
 62
   255
370
    25
100
AcDbVertex
100
AcDb2dVertex
 10
621.1764021244461
 20
1036.041376420514
 30
0.0
  0
VERTEX
  5
5F1
330
5D7
100
AcDbEntity
  8
Predefinito
 62
   255
370
    25
100
AcDbVertex
100
AcDb2dVertex
 10
621.1764021244461
 20
1020.192352307087
 30
0.0
  0
VERTEX
  5
5F2
330
5D7
100
AcDbEntity
  8
Predefinito
 62
   255
370
    25
100
AcDbVertex
100
AcDb2dVertex
 10
621.1764021244461
 20
1004.079935261638
 30
0.0
  0
VERTEX
  5
5F3
330
5D7
100
AcDbEntity
  8
Predefinito
 62
   255
370
    25
100
AcDbVertex
100
AcDb2dVertex
 10
621.1764021244461
 20
987.7447532135532
 30
0.0
  0
VERTEX
  5
5F4
330
5D7
100
AcDbEntity
  8
Predefinito
 62
   255
370
    25
100
AcDbVertex
100
AcDb2dVertex
 10
621.1764021244461
 20
971.2277783967006
 30
0.0
  0
VERTEX
  5
5F5
330
5D7
100
AcDbEntity
  8
Predefinito
 62
   255
370
    25
100
AcDbVertex
100
AcDb2dVertex
 10
621.1764021244461
 20
954.5706716539238
 30
0.0
  0
VERTEX
  5
5F6
330
5D7
100
AcDbEntity
  8
Predefinito
 62
   255
370
    25
100
AcDbVertex
100
AcDb2dVertex
 10
621.1764021244461
 20
937.8150938280645
 30
0.0
  0
VERTEX
  5
5F7
330
5D7
100
AcDbEntity
  8
Predefinito
 62
   255
370
    25
100
AcDbVertex
100
AcDb2dVertex
 10
621.1764021244461
 20
921.0027057619654
 30
0.0
  0
VERTEX
  5
5F8
330
5D7
100
AcDbEntity
  8
Predefinito
 62
   255
370
    25
100
AcDbVertex
100
AcDb2dVertex
 10
621.1764021244461
 20
904.1765455164143
 30
0.0
  0
VERTEX
  5
5F9
330
5D7
100
AcDbEntity
  8
Predefinito
 62
   255
370
    25
100
AcDbVertex
100
AcDb2dVertex
 10
621.1764021244461
 20
887.37861823874
 30
0.0
  0
VERTEX
  5
5FA
330
5D7
100
AcDbEntity
  8
Predefinito
 62
   255
370
    25
100
AcDbVertex
100
AcDb2dVertex
 10
621.1764021244461
 20
870.650929076271
 30
0.0
  0
VERTEX
  5
5FB
330
5D7
100
AcDbEntity
  8
Predefinito
 62
   255
370
    25
100
AcDbVertex
100
AcDb2dVertex
 10
621.1764021244461
 20
854.0354831763365
 30
0.0
  0
VERTEX
  5
5FC
330
5D7
100
AcDbEntity
  8
Predefinito
 62
   255
370
    25
100
AcDbVertex
100
AcDb2dVertex
 10
621.1764021244461
 20
837.5746299907513
 30
0.0
  0
VERTEX
  5
5FD
330
5D7
100
AcDbEntity
  8
Predefinito
 62
   255
370
    25
100
AcDbVertex
100
AcDb2dVertex
 10
621.1764021244461
 20
821.3089974488989
 30
0.0
  0
VERTEX
  5
5FE
330
5D7
100
AcDbEntity
  8
Predefinito
 62
   255
370
    25
100
AcDbVertex
100
AcDb2dVertex
 10
621.1764021244461
 20
805.2799020891357
 30
0.0
  0
VERTEX
  5
5FF
330
5D7
100
AcDbEntity
  8
Predefinito
 62
   255
370
    25
100
AcDbVertex
100
AcDb2dVertex
 10
621.1764021244461
 20
789.5272832318726
 30
0.0
  0
VERTEX
  5
600
330
5D7
100
AcDbEntity
  8
Predefinito
 62
   255
370
    25
100
AcDbVertex
100
AcDb2dVertex
 10
621.1764021244461
 20
774.090735893034
 30
0.0
  0
VERTEX
  5
601
330
5D7
100
AcDbEntity
  8
Predefinito
 62
   255
370
    25
100
AcDbVertex
100
AcDb2dVertex
 10
621.1764021244461
 20
759.0095107840586
 30
0.0
  0
VERTEX
  5
602
330
5D7
100
AcDbEntity
  8
Predefinito
 62
   255
370
    25
100
AcDbVertex
100
AcDb2dVertex
 10
621.1764021244461
 20
744.3211370939532
 30
0.0
  0
VERTEX
  5
603
330
5D7
100
AcDbEntity
  8
Predefinito
 62
   255
370
    25
100
AcDbVertex
100
AcDb2dVertex
 10
621.1764021244461
 20
730.062455402752
 30
0.0
  0
VERTEX
  5
604
330
5D7
100
AcDbEntity
  8
Predefinito
 62
   255
370
    25
100
AcDbVertex
100
AcDb2dVertex
 10
621.1764021244461
 20
716.2696176815165
 30
0.0
  0
VERTEX
  5
605
330
5D7
100
AcDbEntity
  8
Predefinito
 62
   255
370
    25
100
AcDbVertex
100
AcDb2dVertex
 10
621.1764021244461
 20
702.977054378877
 30
0.0
  0
VERTEX
  5
606
330
5D7
100
AcDbEntity
  8
Predefinito
 62
   255
370
    25
100
AcDbVertex
100
AcDb2dVertex
 10
621.1764021244461
 20
690.2181630300048
 30
0.0
  0
VERTEX
  5
607
330
5D7
100
AcDbEntity
  8
Predefinito
 62
   255
370
    25
100
AcDbVertex
100
AcDb2dVertex
 10
621.1764021244461
 20
678.0249639521259
 30
0.0
  0
SEQEND
  5
608
330
5D7
100
AcDbEntity
  8
Predefinito
 62
   255
370
    25
  0
POLYLINE
  5
609
330
1F
100
AcDbEntity
  8
Predefinito
 62
   255
370
    25
100
AcDb2dPolyline
 66
     1
 10
0.0
 20
0.0
 30
0.0
  0
VERTEX
  5
60A
330
609
100
AcDbEntity
  8
Predefinito
 62
   255
370
    25
100
AcDbVertex
100
AcDb2dVertex
 10
604.2352441804703
 20
678.437440726715
 30
0.0
  0
VERTEX
  5
60B
330
609
100
AcDbEntity
  8
Predefinito
 62
   255
370
    25
100
AcDbVertex
100
AcDb2dVertex
 10
604.2352441804703
 20
669.311306012809
 30
0.0
  0
VERTEX
  5
60C
330
609
100
AcDbEntity
  8
Predefinito
 62
   255
370
    25
100
AcDbVertex
100
AcDb2dVertex
 10
604.2352441804703
 20
660.5649391472939
 30
0.0
  0
SEQEND
  5
60D
330
609
100
AcDbEntity
  8
Predefinito
 62
   255
370
    25
  0
POLYLINE
  5
60E
330
1F
100
AcDbEntity
  8
Predefinito
 62
   255
370
    25
100
AcDb2dPolyline
 66
     1
 10
0.0
 20
0.0
 30
0.0
  0
VERTEX
  5
60F
330
60E
100
AcDbEntity
  8
Predefinito
 62
   255
370
    25
100
AcDbVertex
100
AcDb2dVertex
 10
604.2352441804703
 20
645.774651329243
 30
0.0
  0
VERTEX
  5
610
330
60E
100
AcDbEntity
  8
Predefinito
 62
   255
370
    25
100
AcDbVertex
100
AcDb2dVertex
 10
604.2352441804703
 20
635.6149145474603
 30
0.0
  0
VERTEX
  5
611
330
60E
100
AcDbEntity
  8
Predefinito
 62
   255
370
    25
100
AcDbVertex
100
AcDb2dVertex
 10
604.2352441804703
 20
626.2408806034176
 30
0.0
  0
VERTEX
  5
612
330
60E
100
AcDbEntity
  8
Predefinito
 62
   255
370
    25
100
AcDbVertex
100
AcDb2dVertex
 10
604.2352441804703
 20
617.6776837246148
 30
0.0
  0
VERTEX
  5
613
330
60E
100
AcDbEntity
  8
Predefinito
 62
   255
370
    25
100
AcDbVertex
100
AcDb2dVertex
 10
604.2352441804703
 20
609.9504581385517
 30
0.0
  0
VERTEX
  5
614
330
60E
100
AcDbEntity
  8
Predefinito
 62
   255
370
    25
100
AcDbVertex
100
AcDb2dVertex
 10
604.2352441804703
 20
603.0805507233791
 30
0.0
  0
VERTEX
  5
615
330
60E
100
AcDbEntity
  8
Predefinito
 62
   255
370
    25
100
AcDbVertex
100
AcDb2dVertex
 10
604.2352441804703
 20
597.0872425303301
 30
0.0
  0
VERTEX
  5
616
330
60E
100
AcDbEntity
  8
Predefinito
 62
   255
370
    25
100
AcDbVertex
100
AcDb2dVertex
 10
604.2352441804703
 20
591.9867158702606
 30
0.0
  0
VERTEX
  5
617
330
60E
100
AcDbEntity
  8
Predefinito
 62
   255
370
    25
100
AcDbVertex
100
AcDb2dVertex
 10
604.2352441804703
 20
587.7944644450544
 30
0.0
  0
VERTEX
  5
618
330
60E
100
AcDbEntity
  8
Predefinito
 62
   255
370
    25
100
AcDbVertex
100
AcDb2dVertex
 10
604.2352441804703
 20
584.5211616937867
 30
0.0
  0
VERTEX
  5
619
330
60E
100
AcDbEntity
  8
Predefinito
 62
   255
370
    25
100
AcDbVertex
100
AcDb2dVertex
 10
604.2352441804703
 20
582.1767924465602
 30
0.0
  0
VERTEX
  5
61A
330
60E
100
AcDbEntity
  8
Predefinito
 62
   255
370
    25
100
AcDbVertex
100
AcDb2dVertex
 10
604.2352441804703
 20
580.7672098796421
 30
0.0
  0
VERTEX
  5
61B
330
60E
100
AcDbEntity
  8
Predefinito
 62
   255
370
    25
100
AcDbVertex
100
AcDb2dVertex
 10
604.2352441804703
 20
580.2968899513543
 30
0.0
  0
SEQEND
  5
61C
330
60E
100
AcDbEntity
  8
Predefinito
 62
   255
370
    25
  0
POLYLINE
  5
61D
330
1F
100
AcDbEntity
  8
Predefinito
 62
   255
370
    25
100
AcDb2dPolyline
 66
     1
 10
0.0
 20
0.0
 30
0.0
  0
VERTEX
  5
61E
330
61D
100
AcDbEntity
  8
Predefinito
 62
   255
370
    25
100
AcDbVertex
100
AcDb2dVertex
 10
604.2352441804703
 20
1250.475243402506
 30
0.0
  0
VERTEX
  5
61F
330
61D
100
AcDbEntity
  8
Predefinito
 62
   255
370
    25
100
AcDbVertex
100
AcDb2dVertex
 10
604.2352441804703
 20
1250.053126102301
 30
0.0
  0
VERTEX
  5
620
330
61D
100
AcDbEntity
  8
Predefinito
 62
   255
370
    25
100
AcDbVertex
100
AcDb2dVertex
 10
604.2352441804703
 20
1248.788840028601
 30
0.0
  0
VERTEX
  5
621
330
61D
100
AcDbEntity
  8
Predefinito
 62
   255
370
    25
100
AcDbVertex
100
AcDb2dVertex
 10
604.2352441804703
 20
1246.6851396173
 30
0.0
  0
VERTEX
  5
622
330
61D
100
AcDbEntity
  8
Predefinito
 62
   255
370
    25
100
AcDbVertex
100
AcDb2dVertex
 10
604.2352441804703
 20
1243.74718943569
 30
0.0
  0
VERTEX
  5
623
330
61D
100
AcDbEntity
  8
Predefinito
 62
   255
370
    25
100
AcDbVertex
100
AcDb2dVertex
 10
604.2352441804703
 20
1239.982219877983
 30
0.0
  0
VERTEX
  5
624
330
61D
100
AcDbEntity
  8
Predefinito
 62
   255
370
    25
100
AcDbVertex
100
AcDb2dVertex
 10
604.2352441804703
 20
1235.40056007877
 30
0.0
  0
VERTEX
  5
625
330
61D
100
AcDbEntity
  8
Predefinito
 62
   255
370
    25
100
AcDbVertex
100
AcDb2dVertex
 10
604.2352441804703
 20
1230.012883477125
 30
0.0
  0
VERTEX
  5
626
330
61D
100
AcDbEntity
  8
Predefinito
 62
   255
370
    25
100
AcDbVertex
100
AcDb2dVertex
 10
604.2352441804703
 20
1223.833306556987
 30
0.0
  0
VERTEX
  5
627
330
61D
100
AcDbEntity
  8
Predefinito
 62
   255
370
    25
100
AcDbVertex
100
AcDb2dVertex
 10
604.2352441804703
 20
1216.876634411267
 30
0.0
  0
VERTEX
  5
628
330
61D
100
AcDbEntity
  8
Predefinito
 62
   255
370
    25
100
AcDbVertex
100
AcDb2dVertex
 10
604.2352441804703
 20
1209.161459482224
 30
0.0
  0
VERTEX
  5
629
330
61D
100
AcDbEntity
  8
Predefinito
 62
   255
370
    25
100
AcDbVertex
100
AcDb2dVertex
 10
604.2352441804703
 20
1200.70637421212
 30
0.0
  0
VERTEX
  5
62A
330
61D
100
AcDbEntity
  8
Predefinito
 62
   255
370
    25
100
AcDbVertex
100
AcDb2dVertex
 10
604.2352441804703
 20
1191.533069783591
 30
0.0
  0
VERTEX
  5
62B
330
61D
100
AcDbEntity
  8
Predefinito
 62
   255
370
    25
100
AcDbVertex
100
AcDb2dVertex
 10
604.2352441804703
 20
1181.664614597219
 30
0.0
  0
VERTEX
  5
62C
330
61D
100
AcDbEntity
  8
Predefinito
 62
   255
370
    25
100
AcDbVertex
100
AcDb2dVertex
 10
604.2352441804703
 20
1171.125454271532
 30
0.0
  0
VERTEX
  5
62D
330
61D
100
AcDbEntity
  8
Predefinito
 62
   255
370
    25
100
AcDbVertex
100
AcDb2dVertex
 10
604.2352441804703
 20
1159.942444556462
 30
0.0
  0
VERTEX
  5
62E
330
61D
100
AcDbEntity
  8
Predefinito
 62
   255
370
    25
100
AcDbVertex
100
AcDb2dVertex
 10
604.2352441804703
 20
1148.143818419884
 30
0.0
  0
VERTEX
  5
62F
330
61D
100
AcDbEntity
  8
Predefinito
 62
   255
370
    25
100
AcDbVertex
100
AcDb2dVertex
 10
604.2352441804703
 20
1135.759186047622
 30
0.0
  0
VERTEX
  5
630
330
61D
100
AcDbEntity
  8
Predefinito
 62
   255
370
    25
100
AcDbVertex
100
AcDb2dVertex
 10
604.2352441804703
 20
1122.819534843441
 30
0.0
  0
VERTEX
  5
631
330
61D
100
AcDbEntity
  8
Predefinito
 62
   255
370
    25
100
AcDbVertex
100
AcDb2dVertex
 10
604.2352441804703
 20
1109.357918038028
 30
0.0
  0
VERTEX
  5
632
330
61D
100
AcDbEntity
  8
Predefinito
 62
   255
370
    25
100
AcDbVertex
100
AcDb2dVertex
 10
604.2352441804703
 20
1095.407733166553
 30
0.0
  0
VERTEX
  5
633
330
61D
100
AcDbEntity
  8
Predefinito
 62
   255
370
    25
100
AcDbVertex
100
AcDb2dVertex
 10
604.2352441804703
 20
1081.004443591105
 30
0.0
  0
VERTEX
  5
634
330
61D
100
AcDbEntity
  8
Predefinito
 62
   255
370
    25
100
AcDbVertex
100
AcDb2dVertex
 10
604.2352441804703
 20
1066.184201282746
 30
0.0
  0
VERTEX
  5
635
330
61D
100
AcDbEntity
  8
Predefinito
 62
   255
370
    25
100
AcDbVertex
100
AcDb2dVertex
 10
604.2352441804703
 20
1050.98384682151
 30
0.0
  0
VERTEX
  5
636
330
61D
100
AcDbEntity
  8
Predefinito
 62
   255
370
    25
100
AcDbVertex
100
AcDb2dVertex
 10
604.2352441804703
 20
1035.442630918836
 30
0.0
  0
VERTEX
  5
637
330
61D
100
AcDbEntity
  8
Predefinito
 62
   255
370
    25
100
AcDbVertex
100
AcDb2dVertex
 10
604.2352441804703
 20
1019.599115677189
 30
0.0
  0
VERTEX
  5
638
330
61D
100
AcDbEntity
  8
Predefinito
 62
   255
370
    25
100
AcDbVertex
100
AcDb2dVertex
 10
604.2352441804703
 20
1003.493240416981
 30
0.0
  0
VERTEX
  5
639
330
61D
100
AcDbEntity
  8
Predefinito
 62
   255
370
    25
100
AcDbVertex
100
AcDb2dVertex
 10
604.2352441804703
 20
987.1649444586214
 30
0.0
  0
VERTEX
  5
63A
330
61D
100
AcDbEntity
  8
Predefinito
 62
   255
370
    25
100
AcDbVertex
100
AcDb2dVertex
 10
604.2352441804703
 20
970.6565772539266
 30
0.0
  0
VERTEX
  5
63B
330
61D
100
AcDbEntity
  8
Predefinito
 62
   255
370
    25
100
AcDbVertex
100
AcDb2dVertex
 10
604.2352441804703
 20
954.0087667322798
 30
0.0
  0
VERTEX
  5
63C
330
61D
100
AcDbEntity
  8
Predefinito
 62
   255
370
    25
100
AcDbVertex
100
AcDb2dVertex
 10
604.2352441804703
 20
937.2638623454959
 30
0.0
  0
VERTEX
  5
63D
330
61D
100
AcDbEntity
  8
Predefinito
 62
   255
370
    25
100
AcDbVertex
100
AcDb2dVertex
 10
604.2352441804703
 20
920.4635249364175
 30
0.0
  0
VERTEX
  5
63E
330
61D
100
AcDbEntity
  8
Predefinito
 62
   255
370
    25
100
AcDbVertex
100
AcDb2dVertex
 10
604.2352441804703
 20
903.650792565832
 30
0.0
  0
VERTEX
  5
63F
330
61D
100
AcDbEntity
  8
Predefinito
 62
   255
370
    25
100
AcDbVertex
100
AcDb2dVertex
 10
604.2352441804703
 20
886.8676703810687
 30
0.0
  0
VERTEX
  5
640
330
61D
100
AcDbEntity
  8
Predefinito
 62
   255
370
    25
100
AcDbVertex
100
AcDb2dVertex
 10
604.2352441804703
 20
870.1561635294559
 30
0.0
  0
VERTEX
  5
641
330
61D
100
AcDbEntity
  8
Predefinito
 62
   255
370
    25
100
AcDbVertex
100
AcDb2dVertex
 10
604.2352441804703
 20
853.5582771583228
 30
0.0
  0
VERTEX
  5
642
330
61D
100
AcDbEntity
  8
Predefinito
 62
   255
370
    25
100
AcDbVertex
100
AcDb2dVertex
 10
604.2352441804703
 20
837.116360719484
 30
0.0
  0
VERTEX
  5
643
330
61D
100
AcDbEntity
  8
Predefinito
 62
   255
370
    25
100
AcDbVertex
100
AcDb2dVertex
 10
604.2352441804703
 20
820.8713864468099
 30
0.0
  0
VERTEX
  5
644
330
61D
100
AcDbEntity
  8
Predefinito
 62
   255
370
    25
100
AcDbVertex
100
AcDb2dVertex
 10
604.2352441804703
 20
804.864670878656
 30
0.0
  0
VERTEX
  5
645
330
61D
100
AcDbEntity
  8
Predefinito
 62
   255
370
    25
100
AcDbVertex
100
AcDb2dVertex
 10
604.2352441804703
 20
789.1361533354342
 30
0.0
  0
VERTEX
  5
646
330
61D
100
AcDbEntity
  8
Predefinito
 62
   255
370
    25
100
AcDbVertex
100
AcDb2dVertex
 10
604.2352441804703
 20
773.725084528582
 30
0.0
  0
VERTEX
  5
647
330
61D
100
AcDbEntity
  8
Predefinito
 62
   255
370
    25
100
AcDbVertex
100
AcDb2dVertex
 10
604.2352441804703
 20
758.6710594740244
 30
0.0
  0
VERTEX
  5
648
330
61D
100
AcDbEntity
  8
Predefinito
 62
   255
370
    25
100
AcDbVertex
100
AcDb2dVertex
 10
604.2352441804703
 20
744.0116073607683
 30
0.0
  0
VERTEX
  5
649
330
61D
100
AcDbEntity
  8
Predefinito
 62
   255
370
    25
100
AcDbVertex
100
AcDb2dVertex
 10
604.2352441804703
 20
729.7832244643614
 30
0.0
  0
VERTEX
  5
64A
330
61D
100
AcDbEntity
  8
Predefinito
 62
   255
370
    25
100
AcDbVertex
100
AcDb2dVertex
 10
604.2352441804703
 20
716.0224070603521
 30
0.0
  0
VERTEX
  5
64B
330
61D
100
AcDbEntity
  8
Predefinito
 62
   255
370
    25
100
AcDbVertex
100
AcDb2dVertex
 10
604.2352441804703
 20
702.7635855973701
 30
0.0
  0
SEQEND
  5
64C
330
61D
100
AcDbEntity
  8
Predefinito
 62
   255
370
    25
  0
POLYLINE
  5
64D
330
1F
100
AcDbEntity
  8
Predefinito
 62
   255
370
    25
100
AcDb2dPolyline
 66
     1
 10
0.0
 20
0.0
 30
0.0
  0
VERTEX
  5
64E
330
64D
100
AcDbEntity
  8
Predefinito
 62
   255
370
    25
100
AcDbVertex
100
AcDb2dVertex
 10
604.2352441804703
 20
687.9671002985659
 30
0.0
  0
VERTEX
  5
64F
330
64D
100
AcDbEntity
  8
Predefinito
 62
   255
370
    25
100
AcDbVertex
100
AcDb2dVertex
 10
604.2352441804703
 20
683.1643970191474
 30
0.0
  0
VERTEX
  5
650
330
64D
100
AcDbEntity
  8
Predefinito
 62
   255
370
    25
100
AcDbVertex
100
AcDb2dVertex
 10
604.2352441804703
 20
678.4515572106533
 30
0.0
  0
SEQEND
  5
651
330
64D
100
AcDbEntity
  8
Predefinito
 62
   255
370
    25
  0
POLYLINE
  5
652
330
1F
100
AcDbEntity
  8
Predefinito
 62
   255
370
    25
100
AcDb2dPolyline
 66
     1
 10
0.0
 20
0.0
 30
0.0
  0
VERTEX
  5
653
330
652
100
AcDbEntity
  8
Predefinito
 62
   255
370
    25
100
AcDbVertex
100
AcDb2dVertex
 10
543.9223944015894
 20
649.0951237951343
 30
0.0
  0
VERTEX
  5
654
330
652
100
AcDbEntity
  8
Predefinito
 62
   255
370
    25
100
AcDbVertex
100
AcDb2dVertex
 10
543.9223944015894
 20
649.8019809055111
 30
0.0
  0
VERTEX
  5
655
330
652
100
AcDbEntity
  8
Predefinito
 62
   255
370
    25
100
AcDbVertex
100
AcDb2dVertex
 10
543.9223944015894
 20
650.0946397188673
 30
0.0
  0
SEQEND
  5
656
330
652
100
AcDbEntity
  8
Predefinito
 62
   255
370
    25
  0
POLYLINE
  5
657
330
1F
100
AcDbEntity
  8
Predefinito
 62
   255
370
    25
100
AcDb2dPolyline
 66
     1
 10
0.0
 20
0.0
 30
0.0
  0
VERTEX
  5
658
330
657
100
AcDbEntity
  8
Predefinito
 62
   255
370
    25
100
AcDbVertex
100
AcDb2dVertex
 10
543.9223944015894
 20
648.0959521758875
 30
0.0
  0
VERTEX
  5
659
330
657
100
AcDbEntity
  8
Predefinito
 62
   255
370
    25
100
AcDbVertex
100
AcDb2dVertex
 10
543.9223944015894
 20
648.3886109892436
 30
0.0
  0
VERTEX
  5
65A
330
657
100
AcDbEntity
  8
Predefinito
 62
   255
370
    25
100
AcDbVertex
100
AcDb2dVertex
 10
543.9223944015894
 20
649.0951237951343
 30
0.0
  0
SEQEND
  5
65B
330
657
100
AcDbEntity
  8
Predefinito
 62
   255
370
    25
  0
POLYLINE
  5
65C
330
1F
100
AcDbEntity
  8
Predefinito
 62
   255
370
    25
100
AcDb2dPolyline
 66
     1
 10
0.0
 20
0.0
 30
0.0
  0
VERTEX
  5
65D
330
65C
100
AcDbEntity
  8
Predefinito
 62
   255
370
    25
100
AcDbVertex
100
AcDb2dVertex
 10
580.9003519258771
 20
687.4799094504494
 30
0.0
  0
VERTEX
  5
65E
330
65C
100
AcDbEntity
  8
Predefinito
 62
   255
370
    25
100
AcDbVertex
100
AcDb2dVertex
 10
580.9003519258771
 20
681.0376282072633
 30
0.0
  0
VERTEX
  5
65F
330
65C
100
AcDbEntity
  8
Predefinito
 62
   255
370
    25
100
AcDbVertex
100
AcDb2dVertex
 10
580.9003519258771
 20
674.0726927538717
 30
0.0
  0
VERTEX
  5
660
330
65C
100
AcDbEntity
  8
Predefinito
 62
   255
370
    25
100
AcDbVertex
100
AcDb2dVertex
 10
580.9003519258771
 20
666.6460449843497
 30
0.0
  0
VERTEX
  5
661
330
65C
100
AcDbEntity
  8
Predefinito
 62
   255
370
    25
100
AcDbVertex
100
AcDb2dVertex
 10
580.9003519258771
 20
658.8244799690401
 30
0.0
  0
VERTEX
  5
662
330
65C
100
AcDbEntity
  8
Predefinito
 62
   255
370
    25
100
AcDbVertex
100
AcDb2dVertex
 10
580.9003519258771
 20
650.6768586052029
 30
0.0
  0
VERTEX
  5
663
330
65C
100
AcDbEntity
  8
Predefinito
 62
   255
370
    25
100
AcDbVertex
100
AcDb2dVertex
 10
580.9003519258771
 20
642.2754848349617
 30
0.0
  0
VERTEX
  5
664
330
65C
100
AcDbEntity
  8
Predefinito
 62
   255
370
    25
100
AcDbVertex
100
AcDb2dVertex
 10
580.9003519258771
 20
633.69541703633
 30
0.0
  0
VERTEX
  5
665
330
65C
100
AcDbEntity
  8
Predefinito
 62
   255
370
    25
100
AcDbVertex
100
AcDb2dVertex
 10
580.9003519258771
 20
625.0124021962941
 30
0.0
  0
VERTEX
  5
666
330
65C
100
AcDbEntity
  8
Predefinito
 62
   255
370
    25
100
AcDbVertex
100
AcDb2dVertex
 10
580.9003519258771
 20
616.3035645197856
 30
0.0
  0
VERTEX
  5
667
330
65C
100
AcDbEntity
  8
Predefinito
 62
   255
370
    25
100
AcDbVertex
100
AcDb2dVertex
 10
580.9003519258771
 20
607.6463725162224
 30
0.0
  0
VERTEX
  5
668
330
65C
100
AcDbEntity
  8
Predefinito
 62
   255
370
    25
100
AcDbVertex
100
AcDb2dVertex
 10
580.9003519258771
 20
599.1172617815632
 30
0.0
  0
VERTEX
  5
669
330
65C
100
AcDbEntity
  8
Predefinito
 62
   255
370
    25
100
AcDbVertex
100
AcDb2dVertex
 10
580.9003519258771
 20
590.7926679117672
 30
0.0
  0
VERTEX
  5
66A
330
65C
100
AcDbEntity
  8
Predefinito
 62
   255
370
    25
100
AcDbVertex
100
AcDb2dVertex
 10
580.9003519258771
 20
582.7459277624164
 30
0.0
  0
VERTEX
  5
66B
330
65C
100
AcDbEntity
  8
Predefinito
 62
   255
370
    25
100
AcDbVertex
100
AcDb2dVertex
 10
580.9003519258771
 20
575.0486566666615
 30
0.0
  0
VERTEX
  5
66C
330
65C
100
AcDbEntity
  8
Predefinito
 62
   255
370
    25
100
AcDbVertex
100
AcDb2dVertex
 10
580.9003519258771
 20
567.7690269127903
 30
0.0
  0
VERTEX
  5
66D
330
65C
100
AcDbEntity
  8
Predefinito
 62
   255
370
    25
100
AcDbVertex
100
AcDb2dVertex
 10
580.9003519258771
 20
560.9717677442275
 30
0.0
  0
VERTEX
  5
66E
330
65C
100
AcDbEntity
  8
Predefinito
 62
   255
370
    25
100
AcDbVertex
100
AcDb2dVertex
 10
580.9003519258771
 20
554.7178210550483
 30
0.0
  0
VERTEX
  5
66F
330
65C
100
AcDbEntity
  8
Predefinito
 62
   255
370
    25
100
AcDbVertex
100
AcDb2dVertex
 10
580.9003519258771
 20
549.0615869540883
 30
0.0
  0
VERTEX
  5
670
330
65C
100
AcDbEntity
  8
Predefinito
 62
   255
370
    25
100
AcDbVertex
100
AcDb2dVertex
 10
580.9003519258771
 20
544.0540225053203
 30
0.0
  0
VERTEX
  5
671
330
65C
100
AcDbEntity
  8
Predefinito
 62
   255
370
    25
100
AcDbVertex
100
AcDb2dVertex
 10
580.9003519258771
 20
539.7391986829907
 30
0.0
  0
VERTEX
  5
672
330
65C
100
AcDbEntity
  8
Predefinito
 62
   255
370
    25
100
AcDbVertex
100
AcDb2dVertex
 10
580.9003519258771
 20
536.1556775895654
 30
0.0
  0
VERTEX
  5
673
330
65C
100
AcDbEntity
  8
Predefinito
 62
   255
370
    25
100
AcDbVertex
100
AcDb2dVertex
 10
580.9003519258771
 20
533.335135237784
 30
0.0
  0
VERTEX
  5
674
330
65C
100
AcDbEntity
  8
Predefinito
 62
   255
370
    25
100
AcDbVertex
100
AcDb2dVertex
 10
580.9003519258771
 20
531.3023615506603
 30
0.0
  0
VERTEX
  5
675
330
65C
100
AcDbEntity
  8
Predefinito
 62
   255
370
    25
100
AcDbVertex
100
AcDb2dVertex
 10
580.9003519258771
 20
530.0759489704546
 30
0.0
  0
VERTEX
  5
676
330
65C
100
AcDbEntity
  8
Predefinito
 62
   255
370
    25
100
AcDbVertex
100
AcDb2dVertex
 10
580.9003519258771
 20
529.6662266317559
 30
0.0
  0
SEQEND
  5
677
330
65C
100
AcDbEntity
  8
Predefinito
 62
   255
370
    25
  0
POLYLINE
  5
678
330
1F
100
AcDbEntity
  8
Predefinito
 62
   255
370
    25
100
AcDb2dPolyline
 66
     1
 10
0.0
 20
0.0
 30
0.0
  0
VERTEX
  5
679
330
678
100
AcDbEntity
  8
Predefinito
 62
   255
370
    25
100
AcDbVertex
100
AcDb2dVertex
 10
580.9003519258771
 20
714.5563585576805
 30
0.0
  0
VERTEX
  5
67A
330
678
100
AcDbEntity
  8
Predefinito
 62
   255
370
    25
100
AcDbVertex
100
AcDb2dVertex
 10
580.9003519258771
 20
714.1111728568927
 30
0.0
  0
VERTEX
  5
67B
330
678
100
AcDbEntity
  8
Predefinito
 62
   255
370
    25
100
AcDbVertex
100
AcDb2dVertex
 10
580.9003519258771
 20
712.7800917128516
 30
0.0
  0
VERTEX
  5
67C
330
678
100
AcDbEntity
  8
Predefinito
 62
   255
370
    25
100
AcDbVertex
100
AcDb2dVertex
 10
580.9003519258771
 20
710.5755100870633
 30
0.0
  0
VERTEX
  5
67D
330
678
100
AcDbEntity
  8
Predefinito
 62
   255
370
    25
100
AcDbVertex
100
AcDb2dVertex
 10
580.9003519258771
 20
707.5194634666519
 30
0.0
  0
VERTEX
  5
67E
330
678
100
AcDbEntity
  8
Predefinito
 62
   255
370
    25
100
AcDbVertex
100
AcDb2dVertex
 10
580.9003519258771
 20
703.6405291239798
 30
0.0
  0
VERTEX
  5
67F
330
678
100
AcDbEntity
  8
Predefinito
 62
   255
370
    25
100
AcDbVertex
100
AcDb2dVertex
 10
580.9003519258771
 20
698.9765805525408
 30
0.0
  0
VERTEX
  5
680
330
678
100
AcDbEntity
  8
Predefinito
 62
   255
370
    25
100
AcDbVertex
100
AcDb2dVertex
 10
580.9003519258771
 20
693.5723773355535
 30
0.0
  0
VERTEX
  5
681
330
678
100
AcDbEntity
  8
Predefinito
 62
   255
370
    25
100
AcDbVertex
100
AcDb2dVertex
 10
580.9003519258771
 20
687.4799094504494
 30
0.0
  0
SEQEND
  5
682
330
678
100
AcDbEntity
  8
Predefinito
 62
   255
370
    25
  0
POLYLINE
  5
683
330
1F
100
AcDbEntity
  8
Predefinito
 62
   255
370
    25
100
AcDb2dPolyline
 66
     1
 10
0.0
 20
0.0
 30
0.0
  0
VERTEX
  5
684
330
683
100
AcDbEntity
  8
Predefinito
 62
   255
370
    25
100
AcDbVertex
100
AcDb2dVertex
 10
543.9223944015894
 20
689.2465357696622
 30
0.0
  0
VERTEX
  5
685
330
683
100
AcDbEntity
  8
Predefinito
 62
   255
370
    25
100
AcDbVertex
100
AcDb2dVertex
 10
543.9223944015894
 20
695.5039255037044
 30
0.0
  0
VERTEX
  5
686
330
683
100
AcDbEntity
  8
Predefinito
 62
   255
370
    25
100
AcDbVertex
100
AcDb2dVertex
 10
543.9223944015894
 20
701.0541138228836
 30
0.0
  0
VERTEX
  5
687
330
683
100
AcDbEntity
  8
Predefinito
 62
   255
370
    25
100
AcDbVertex
100
AcDb2dVertex
 10
543.9223944015894
 20
705.844077836309
 30
0.0
  0
VERTEX
  5
688
330
683
100
AcDbEntity
  8
Predefinito
 62
   255
370
    25
100
AcDbVertex
100
AcDb2dVertex
 10
543.9223944015894
 20
709.8276807428167
 30
0.0
  0
VERTEX
  5
689
330
683
100
AcDbEntity
  8
Predefinito
 62
   255
370
    25
100
AcDbVertex
100
AcDb2dVertex
 10
543.9223944015894
 20
712.9667047444269
 30
0.0
  0
VERTEX
  5
68A
330
683
100
AcDbEntity
  8
Predefinito
 62
   255
370
    25
100
AcDbVertex
100
AcDb2dVertex
 10
543.9223944015894
 20
715.2305067418587
 30
0.0
  0
VERTEX
  5
68B
330
683
100
AcDbEntity
  8
Predefinito
 62
   255
370
    25
100
AcDbVertex
100
AcDb2dVertex
 10
543.9223944015894
 20
716.5977398569619
 30
0.0
  0
VERTEX
  5
68C
330
683
100
AcDbEntity
  8
Predefinito
 62
   255
370
    25
100
AcDbVertex
100
AcDb2dVertex
 10
543.9223944015894
 20
717.0546319102839
 30
0.0
  0
SEQEND
  5
68D
330
683
100
AcDbEntity
  8
Predefinito
 62
   255
370
    25
  0
POLYLINE
  5
68E
330
1F
100
AcDbEntity
  8
Predefinito
 62
   255
370
    25
100
AcDb2dPolyline
 66
     1
 10
0.0
 20
0.0
 30
0.0
  0
VERTEX
  5
68F
330
68E
100
AcDbEntity
  8
Predefinito
 62
   255
370
    25
100
AcDbVertex
100
AcDb2dVertex
 10
543.9223944015894
 20
527.1679532791527
 30
0.0
  0
VERTEX
  5
690
330
68E
100
AcDbEntity
  8
Predefinito
 62
   255
370
    25
100
AcDbVertex
100
AcDb2dVertex
 10
543.9223944015894
 20
527.588693361413
 30
0.0
  0
VERTEX
  5
691
330
68E
100
AcDbEntity
  8
Predefinito
 62
   255
370
    25
100
AcDbVertex
100
AcDb2dVertex
 10
543.9223944015894
 20
528.8481591723037
 30
0.0
  0
VERTEX
  5
692
330
68E
100
AcDbEntity
  8
Predefinito
 62
   255
370
    25
100
AcDbVertex
100
AcDb2dVertex
 10
543.9223944015894
 20
530.935332968263
 30
0.0
  0
VERTEX
  5
693
330
68E
100
AcDbEntity
  8
Predefinito
 62
   255
370
    25
100
AcDbVertex
100
AcDb2dVertex
 10
543.9223944015894
 20
533.8323109160033
 30
0.0
  0
VERTEX
  5
694
330
68E
100
AcDbEntity
  8
Predefinito
 62
   255
370
    25
100
AcDbVertex
100
AcDb2dVertex
 10
543.9223944015894
 20
537.5129258745657
 30
0.0
  0
VERTEX
  5
695
330
68E
100
AcDbEntity
  8
Predefinito
 62
   255
370
    25
100
AcDbVertex
100
AcDb2dVertex
 10
543.9223944015894
 20
541.944124613265
 30
0.0
  0
VERTEX
  5
696
330
68E
100
AcDbEntity
  8
Predefinito
 62
   255
370
    25
100
AcDbVertex
100
AcDb2dVertex
 10
543.9223944015894
 20
547.0873450296358
 30
0.0
  0
VERTEX
  5
697
330
68E
100
AcDbEntity
  8
Predefinito
 62
   255
370
    25
100
AcDbVertex
100
AcDb2dVertex
 10
543.9223944015894
 20
552.8964503225137
 30
0.0
  0
VERTEX
  5
698
330
68E
100
AcDbEntity
  8
Predefinito
 62
   255
370
    25
100
AcDbVertex
100
AcDb2dVertex
 10
543.9223944015894
 20
559.3197948189531
 30
0.0
  0
VERTEX
  5
699
330
68E
100
AcDbEntity
  8
Predefinito
 62
   255
370
    25
100
AcDbVertex
100
AcDb2dVertex
 10
543.9223944015894
 20
566.3002239742283
 30
0.0
  0
VERTEX
  5
69A
330
68E
100
AcDbEntity
  8
Predefinito
 62
   255
370
    25
100
AcDbVertex
100
AcDb2dVertex
 10
543.9223944015894
 20
573.7767958942642
 30
0.0
  0
VERTEX
  5
69B
330
68E
100
AcDbEntity
  8
Predefinito
 62
   255
370
    25
100
AcDbVertex
100
AcDb2dVertex
 10
543.9223944015894
 20
581.682026899745
 30
0.0
  0
VERTEX
  5
69C
330
68E
100
AcDbEntity
  8
Predefinito
 62
   255
370
    25
100
AcDbVertex
100
AcDb2dVertex
 10
543.9223944015894
 20
589.9463674844384
 30
0.0
  0
VERTEX
  5
69D
330
68E
100
AcDbEntity
  8
Predefinito
 62
   255
370
    25
100
AcDbVertex
100
AcDb2dVertex
 10
543.9223944015894
 20
598.4961364882755
 30
0.0
  0
VERTEX
  5
69E
330
68E
100
AcDbEntity
  8
Predefinito
 62
   255
370
    25
100
AcDbVertex
100
AcDb2dVertex
 10
543.9223944015894
 20
607.255242619784
 30
0.0
  0
VERTEX
  5
69F
330
68E
100
AcDbEntity
  8
Predefinito
 62
   255
370
    25
100
AcDbVertex
100
AcDb2dVertex
 10
543.9223944015894
 20
616.1465616740322
 30
0.0
  0
VERTEX
  5
6A0
330
68E
100
AcDbEntity
  8
Predefinito
 62
   255
370
    25
100
AcDbVertex
100
AcDb2dVertex
 10
543.9223944015894
 20
625.090903619171
 30
0.0
  0
VERTEX
  5
6A1
330
68E
100
AcDbEntity
  8
Predefinito
 62
   255
370
    25
100
AcDbVertex
100
AcDb2dVertex
 10
543.9223944015894
 20
634.0083898143779
 30
0.0
  0
VERTEX
  5
6A2
330
68E
100
AcDbEntity
  8
Predefinito
 62
   255
370
    25
100
AcDbVertex
100
AcDb2dVertex
 10
543.9223944015894
 20
642.8205188367768
 30
0.0
  0
VERTEX
  5
6A3
330
68E
100
AcDbEntity
  8
Predefinito
 62
   255
370
    25
100
AcDbVertex
100
AcDb2dVertex
 10
543.9223944015894
 20
651.4487892634908
 30
0.0
  0
VERTEX
  5
6A4
330
68E
100
AcDbEntity
  8
Predefinito
 62
   255
370
    25
100
AcDbVertex
100
AcDb2dVertex
 10
543.9223944015894
 20
659.8167654985608
 30
0.0
  0
VERTEX
  5
6A5
330
68E
100
AcDbEntity
  8
Predefinito
 62
   255
370
    25
100
AcDbVertex
100
AcDb2dVertex
 10
543.9223944015894
 20
667.8497334684596
 30
0.0
  0
VERTEX
  5
6A6
330
68E
100
AcDbEntity
  8
Predefinito
 62
   255
370
    25
100
AcDbVertex
100
AcDb2dVertex
 10
543.9223944015894
 20
675.4771107534953
 30
0.0
  0
VERTEX
  5
6A7
330
68E
100
AcDbEntity
  8
Predefinito
 62
   255
370
    25
100
AcDbVertex
100
AcDb2dVertex
 10
543.9223944015894
 20
682.6303807608938
 30
0.0
  0
VERTEX
  5
6A8
330
68E
100
AcDbEntity
  8
Predefinito
 62
   255
370
    25
100
AcDbVertex
100
AcDb2dVertex
 10
543.9223944015894
 20
689.2465357696622
 30
0.0
  0
SEQEND
  5
6A9
330
68E
100
AcDbEntity
  8
Predefinito
 62
   255
370
    25
  0
POLYLINE
  5
6AA
330
1F
100
AcDbEntity
  8
Predefinito
 62
   255
370
    25
100
AcDb2dPolyline
 66
     1
 10
0.0
 20
0.0
 30
0.0
  0
VERTEX
  5
6AB
330
6AA
100
AcDbEntity
  8
Predefinito
 62
   255
370
    25
100
AcDbVertex
100
AcDb2dVertex
 10
564.6564105666616
 20
527.1679532791527
 30
0.0
  0
VERTEX
  5
6AC
330
6AA
100
AcDbEntity
  8
Predefinito
 62
   255
370
    25
100
AcDbVertex
100
AcDb2dVertex
 10
578.4017342687874
 20
527.1679532791527
 30
0.0
  0
SEQEND
  5
6AD
330
6AA
100
AcDbEntity
  8
Predefinito
 62
   255
370
    25
  0
POLYLINE
  5
6AE
330
1F
100
AcDbEntity
  8
Predefinito
 62
   255
370
    25
100
AcDb2dPolyline
 66
     1
 10
0.0
 20
0.0
 30
0.0
  0
VERTEX
  5
6AF
330
6AE
100
AcDbEntity
  8
Predefinito
 62
   255
370
    25
100
AcDbVertex
100
AcDb2dVertex
 10
543.9223944015894
 20
527.1679532791527
 30
0.0
  0
VERTEX
  5
6B0
330
6AE
100
AcDbEntity
  8
Predefinito
 62
   255
370
    25
100
AcDbVertex
100
AcDb2dVertex
 10
558.1673039133385
 20
527.1679532791527
 30
0.0
  0
SEQEND
  5
6B1
330
6AE
100
AcDbEntity
  8
Predefinito
 62
   255
370
    25
  0
POLYLINE
  5
6B2
330
1F
100
AcDbEntity
  8
Predefinito
 62
   255
370
    25
100
AcDb2dPolyline
 66
     1
 10
0.0
 20
0.0
 30
0.0
  0
VERTEX
  5
6B3
330
6B2
100
AcDbEntity
  8
Predefinito
 62
   255
370
    25
100
AcDbVertex
100
AcDb2dVertex
 10
558.1673039133385
 20
717.0546319102839
 30
0.0
  0
VERTEX
  5
6B4
330
6B2
100
AcDbEntity
  8
Predefinito
 62
   255
370
    25
100
AcDbVertex
100
AcDb2dVertex
 10
543.9223944015894
 20
717.0546319102839
 30
0.0
  0
SEQEND
  5
6B5
330
6B2
100
AcDbEntity
  8
Predefinito
 62
   255
370
    25
  0
POLYLINE
  5
6B6
330
1F
100
AcDbEntity
  8
Predefinito
 62
   255
370
    25
100
AcDb2dPolyline
 66
     1
 10
0.0
 20
0.0
 30
0.0
  0
VERTEX
  5
6B7
330
6B6
100
AcDbEntity
  8
Predefinito
 62
   255
370
    25
100
AcDbVertex
100
AcDb2dVertex
 10
578.4017342687874
 20
717.0546319102839
 30
0.0
  0
VERTEX
  5
6B8
330
6B6
100
AcDbEntity
  8
Predefinito
 62
   255
370
    25
100
AcDbVertex
100
AcDb2dVertex
 10
564.6564105666616
 20
717.0546319102839
 30
0.0
  0
SEQEND
  5
6B9
330
6B6
100
AcDbEntity
  8
Predefinito
 62
   255
370
    25
  0
POLYLINE
  5
6BA
330
1F
100
AcDbEntity
  8
Predefinito
 62
   255
370
    25
100
AcDb2dPolyline
 66
     1
 10
0.0
 20
0.0
 30
0.0
  0
VERTEX
  5
6BB
330
6BA
100
AcDbEntity
  8
Predefinito
 62
   255
370
    25
100
AcDbVertex
100
AcDb2dVertex
 10
561.4120293922432
 20
716.9991988879892
 30
0.0
  0
VERTEX
  5
6BC
330
6BA
100
AcDbEntity
  8
Predefinito
 62
   255
370
    25
100
AcDbVertex
100
AcDb2dVertex
 10
560.7785091374485
 20
717.001264714907
 30
0.0
  0
VERTEX
  5
6BD
330
6BA
100
AcDbEntity
  8
Predefinito
 62
   255
370
    25
100
AcDbVertex
100
AcDb2dVertex
 10
560.1694345011813
 20
717.0074621956605
 30
0.0
  0
VERTEX
  5
6BE
330
6BA
100
AcDbEntity
  8
Predefinito
 62
   255
370
    25
100
AcDbVertex
100
AcDb2dVertex
 10
559.6085624929963
 20
717.0164141123043
 30
0.0
  0
VERTEX
  5
6BF
330
6BA
100
AcDbEntity
  8
Predefinito
 62
   255
370
    25
100
AcDbVertex
100
AcDb2dVertex
 10
559.1172399910442
 20
717.0270875513797
 30
0.0
  0
VERTEX
  5
6C0
330
6BA
100
AcDbEntity
  8
Predefinito
 62
   255
370
    25
100
AcDbVertex
100
AcDb2dVertex
 10
558.7140594375852
 20
717.0377609904551
 30
0.0
  0
VERTEX
  5
6C1
330
6BA
100
AcDbEntity
  8
Predefinito
 62
   255
370
    25
100
AcDbVertex
100
AcDb2dVertex
 10
558.4145145345029
 20
717.0467129070989
 30
0.0
  0
VERTEX
  5
6C2
330
6BA
100
AcDbEntity
  8
Predefinito
 62
   255
370
    25
100
AcDbVertex
100
AcDb2dVertex
 10
558.2299673298454
 20
717.052566083366
 30
0.0
  0
VERTEX
  5
6C3
330
6BA
100
AcDbEntity
  8
Predefinito
 62
   255
370
    25
100
AcDbVertex
100
AcDb2dVertex
 10
558.1669596088523
 20
717.0546319102839
 30
0.0
  0
VERTEX
  5
6C4
330
6BA
100
AcDbEntity
  8
Predefinito
 62
   255
370
    25
100
AcDbVertex
100
AcDb2dVertex
 10
558.2292787208729
 20
717.052566083366
 30
0.0
  0
VERTEX
  5
6C5
330
6BA
100
AcDbEntity
  8
Predefinito
 62
   255
370
    25
100
AcDbVertex
100
AcDb2dVertex
 10
558.4131373165578
 20
717.0467129070989
 30
0.0
  0
VERTEX
  5
6C6
330
6BA
100
AcDbEntity
  8
Predefinito
 62
   255
370
    25
100
AcDbVertex
100
AcDb2dVertex
 10
558.4134816210442
 20
717.0467129070989
 30
0.0
  0
SEQEND
  5
6C7
330
6BA
100
AcDbEntity
  8
Predefinito
 62
   255
370
    25
  0
POLYLINE
  5
6C8
330
1F
100
AcDbEntity
  8
Predefinito
 62
   255
370
    25
100
AcDb2dPolyline
 66
     1
 10
0.0
 20
0.0
 30
0.0
  0
VERTEX
  5
6C9
330
6C8
100
AcDbEntity
  8
Predefinito
 62
   255
370
    25
100
AcDbVertex
100
AcDb2dVertex
 10
560.1694345011813
 20
717.0074621956605
 30
0.0
  0
VERTEX
  5
6CA
330
6C8
100
AcDbEntity
  8
Predefinito
 62
   255
370
    25
100
AcDbVertex
100
AcDb2dVertex
 10
561.4120293922432
 20
716.9991988879892
 30
0.0
  0
SEQEND
  5
6CB
330
6C8
100
AcDbEntity
  8
Predefinito
 62
   255
370
    25
  0
POLYLINE
  5
6CC
330
1F
100
AcDbEntity
  8
Predefinito
 62
   255
370
    25
100
AcDb2dPolyline
 66
     1
 10
0.0
 20
0.0
 30
0.0
  0
VERTEX
  5
6CD
330
6CC
100
AcDbEntity
  8
Predefinito
 62
   255
370
    25
100
AcDbVertex
100
AcDb2dVertex
 10
564.656754871148
 20
717.0546319102839
 30
0.0
  0
VERTEX
  5
6CE
330
6CC
100
AcDbEntity
  8
Predefinito
 62
   255
370
    25
100
AcDbVertex
100
AcDb2dVertex
 10
564.5940914546411
 20
717.052566083366
 30
0.0
  0
VERTEX
  5
6CF
330
6CC
100
AcDbEntity
  8
Predefinito
 62
   255
370
    25
100
AcDbVertex
100
AcDb2dVertex
 10
564.4095442499836
 20
717.0467129070989
 30
0.0
  0
VERTEX
  5
6D0
330
6CC
100
AcDbEntity
  8
Predefinito
 62
   255
370
    25
100
AcDbVertex
100
AcDb2dVertex
 10
564.1096550424149
 20
717.0377609904551
 30
0.0
  0
VERTEX
  5
6D1
330
6CC
100
AcDbEntity
  8
Predefinito
 62
   255
370
    25
100
AcDbVertex
100
AcDb2dVertex
 10
563.7064744889561
 20
717.0270875513797
 30
0.0
  0
VERTEX
  5
6D2
330
6CC
100
AcDbEntity
  8
Predefinito
 62
   255
370
    25
100
AcDbVertex
100
AcDb2dVertex
 10
563.2151519870038
 20
717.0164141123043
 30
0.0
  0
VERTEX
  5
6D3
330
6CC
100
AcDbEntity
  8
Predefinito
 62
   255
370
    25
100
AcDbVertex
100
AcDb2dVertex
 10
562.6542799788189
 20
717.0074621956605
 30
0.0
  0
VERTEX
  5
6D4
330
6CC
100
AcDbEntity
  8
Predefinito
 62
   255
370
    25
100
AcDbVertex
100
AcDb2dVertex
 10
562.0455496470378
 20
717.001264714907
 30
0.0
  0
VERTEX
  5
6D5
330
6CC
100
AcDbEntity
  8
Predefinito
 62
   255
370
    25
100
AcDbVertex
100
AcDb2dVertex
 10
561.4120293922432
 20
716.9991988879892
 30
0.0
  0
SEQEND
  5
6D6
330
6CC
100
AcDbEntity
  8
Predefinito
 62
   255
370
    25
  0
POLYLINE
  5
6D7
330
1F
100
AcDbEntity
  8
Predefinito
 62
   255
370
    25
100
AcDb2dPolyline
 66
     1
 10
0.0
 20
0.0
 30
0.0
  0
VERTEX
  5
6D8
330
6D7
100
AcDbEntity
  8
Predefinito
 62
   255
370
    25
100
AcDbVertex
100
AcDb2dVertex
 10
561.4120293922432
 20
527.2237306059335
 30
0.0
  0
VERTEX
  5
6D9
330
6D7
100
AcDbEntity
  8
Predefinito
 62
   255
370
    25
100
AcDbVertex
100
AcDb2dVertex
 10
560.7785091374485
 20
527.2216647790158
 30
0.0
  0
VERTEX
  5
6DA
330
6D7
100
AcDbEntity
  8
Predefinito
 62
   255
370
    25
100
AcDbVertex
100
AcDb2dVertex
 10
560.1694345011813
 20
527.2154672982623
 30
0.0
  0
SEQEND
  5
6DB
330
6D7
100
AcDbEntity
  8
Predefinito
 62
   255
370
    25
  0
POLYLINE
  5
6DC
330
1F
100
AcDbEntity
  8
Predefinito
 62
   255
370
    25
100
AcDb2dPolyline
 66
     1
 10
0.0
 20
0.0
 30
0.0
  0
VERTEX
  5
6DD
330
6DC
100
AcDbEntity
  8
Predefinito
 62
   255
370
    25
100
AcDbVertex
100
AcDb2dVertex
 10
558.1669596088523
 20
527.1679532791527
 30
0.0
  0
VERTEX
  5
6DE
330
6DC
100
AcDbEntity
  8
Predefinito
 62
   255
370
    25
100
AcDbVertex
100
AcDb2dVertex
 10
558.4131373165578
 20
527.176216586824
 30
0.0
  0
VERTEX
  5
6DF
330
6DC
100
AcDbEntity
  8
Predefinito
 62
   255
370
    25
100
AcDbVertex
100
AcDb2dVertex
 10
558.7130265241262
 20
527.1851685034678
 30
0.0
  0
VERTEX
  5
6E0
330
6DC
100
AcDbEntity
  8
Predefinito
 62
   255
370
    25
100
AcDbVertex
100
AcDb2dVertex
 10
559.1162070775853
 20
527.1954976380568
 30
0.0
  0
VERTEX
  5
6E1
330
6DC
100
AcDbEntity
  8
Predefinito
 62
   255
370
    25
100
AcDbVertex
100
AcDb2dVertex
 10
559.6082181885101
 20
527.2065153816185
 30
0.0
  0
VERTEX
  5
6E2
330
6DC
100
AcDbEntity
  8
Predefinito
 62
   255
370
    25
100
AcDbVertex
100
AcDb2dVertex
 10
560.1694345011813
 20
527.2154672982623
 30
0.0
  0
VERTEX
  5
6E3
330
6DC
100
AcDbEntity
  8
Predefinito
 62
   255
370
    25
100
AcDbVertex
100
AcDb2dVertex
 10
560.7785091374485
 20
527.2216647790158
 30
0.0
  0
VERTEX
  5
6E4
330
6DC
100
AcDbEntity
  8
Predefinito
 62
   255
370
    25
100
AcDbVertex
100
AcDb2dVertex
 10
561.4120293922432
 20
527.2237306059335
 30
0.0
  0
VERTEX
  5
6E5
330
6DC
100
AcDbEntity
  8
Predefinito
 62
   255
370
    25
100
AcDbVertex
100
AcDb2dVertex
 10
562.0455496470378
 20
527.2216647790158
 30
0.0
  0
VERTEX
  5
6E6
330
6DC
100
AcDbEntity
  8
Predefinito
 62
   255
370
    25
100
AcDbVertex
100
AcDb2dVertex
 10
562.6546242833051
 20
527.2154672982623
 30
0.0
  0
VERTEX
  5
6E7
330
6DC
100
AcDbEntity
  8
Predefinito
 62
   255
370
    25
100
AcDbVertex
100
AcDb2dVertex
 10
563.2158405959764
 20
527.2065153816185
 30
0.0
  0
VERTEX
  5
6E8
330
6DC
100
AcDbEntity
  8
Predefinito
 62
   255
370
    25
100
AcDbVertex
100
AcDb2dVertex
 10
563.707507402415
 20
527.1954976380568
 30
0.0
  0
VERTEX
  5
6E9
330
6DC
100
AcDbEntity
  8
Predefinito
 62
   255
370
    25
100
AcDbVertex
100
AcDb2dVertex
 10
564.11103226036
 20
527.1851685034678
 30
0.0
  0
VERTEX
  5
6EA
330
6DC
100
AcDbEntity
  8
Predefinito
 62
   255
370
    25
100
AcDbVertex
100
AcDb2dVertex
 10
564.4105771634423
 20
527.176216586824
 30
0.0
  0
VERTEX
  5
6EB
330
6DC
100
AcDbEntity
  8
Predefinito
 62
   255
370
    25
100
AcDbVertex
100
AcDb2dVertex
 10
564.5947800636137
 20
527.1700191060704
 30
0.0
  0
VERTEX
  5
6EC
330
6DC
100
AcDbEntity
  8
Predefinito
 62
   255
370
    25
100
AcDbVertex
100
AcDb2dVertex
 10
564.656754871148
 20
527.1679532791527
 30
0.0
  0
VERTEX
  5
6ED
330
6DC
100
AcDbEntity
  8
Predefinito
 62
   255
370
    25
100
AcDbVertex
100
AcDb2dVertex
 10
564.5940914546411
 20
527.1700191060704
 30
0.0
  0
VERTEX
  5
6EE
330
6DC
100
AcDbEntity
  8
Predefinito
 62
   255
370
    25
100
AcDbVertex
100
AcDb2dVertex
 10
564.4095442499836
 20
527.176216586824
 30
0.0
  0
VERTEX
  5
6EF
330
6DC
100
AcDbEntity
  8
Predefinito
 62
   255
370
    25
100
AcDbVertex
100
AcDb2dVertex
 10
564.1096550424149
 20
527.1851685034678
 30
0.0
  0
VERTEX
  5
6F0
330
6DC
100
AcDbEntity
  8
Predefinito
 62
   255
370
    25
100
AcDbVertex
100
AcDb2dVertex
 10
563.7064744889561
 20
527.1954976380568
 30
0.0
  0
VERTEX
  5
6F1
330
6DC
100
AcDbEntity
  8
Predefinito
 62
   255
370
    25
100
AcDbVertex
100
AcDb2dVertex
 10
563.2151519870038
 20
527.2065153816185
 30
0.0
  0
VERTEX
  5
6F2
330
6DC
100
AcDbEntity
  8
Predefinito
 62
   255
370
    25
100
AcDbVertex
100
AcDb2dVertex
 10
562.6542799788189
 20
527.2154672982623
 30
0.0
  0
VERTEX
  5
6F3
330
6DC
100
AcDbEntity
  8
Predefinito
 62
   255
370
    25
100
AcDbVertex
100
AcDb2dVertex
 10
562.0455496470378
 20
527.2216647790158
 30
0.0
  0
VERTEX
  5
6F4
330
6DC
100
AcDbEntity
  8
Predefinito
 62
   255
370
    25
100
AcDbVertex
100
AcDb2dVertex
 10
561.4120293922432
 20
527.2237306059335
 30
0.0
  0
SEQEND
  5
6F5
330
6DC
100
AcDbEntity
  8
Predefinito
 62
   255
370
    25
  0
SPLINE
  5
6F6
330
1F
100
AcDbEntity
  8
Predefinito
 62
   255
370
    25
100
AcDbSpline
210
0.0
220
0.0
230
1.0
 70
     8
 71
     3
 72
     8
 73
     4
 74
     0
 42
0.0000000001
 43
0.0000000001
 40
0.0
 40
0.0
 40
0.0
 40
0.0
 40
1.0
 40
1.0
 40
1.0
 40
1.0
 10
580.9003519258771
 20
714.5563585576805
 30
0.0
 10
580.9003519258771
 20
715.9363309387767
 30
0.0
 10
579.7817066498836
 20
717.0549762147701
 30
0.0
 10
578.4017342687874
 20
717.0549762147701
 30
0.0
  0
SPLINE
  5
6F7
330
1F
100
AcDbEntity
  8
Predefinito
 62
   255
370
    25
100
AcDbSpline
210
0.0
220
0.0
230
1.0
 70
     8
 71
     3
 72
     8
 73
     4
 74
     0
 42
0.0000000001
 43
0.0000000001
 40
0.0
 40
0.0
 40
0.0
 40
0.0
 40
1.0
 40
1.0
 40
1.0
 40
1.0
 10
578.4017342687874
 20
527.1679532791527
 30
0.0
 10
579.7817066498836
 20
527.1679532791527
 30
0.0
 10
580.9003519258771
 20
528.2869428596324
 30
0.0
 10
580.9003519258771
 20
529.6662266317559
 30
0.0
  0
SPLINE
  5
6F8
330
1F
100
AcDbEntity
  8
Predefinito
 62
   255
370
    25
100
AcDbSpline
210
0.0
220
0.0
230
1.0
 70
     8
 71
     3
 72
     8
 73
     4
 74
     0
 42
0.0000000001
 43
0.0000000001
 40
0.0
 40
0.0
 40
0.0
 40
0.0
 40
1.0
 40
1.0
 40
1.0
 40
1.0
 10
604.2352441804703
 20
580.2968899513543
 30
0.0
 10
604.2352441804703
 20
580.037284368683
 30
0.0
 10
604.2545252317033
 20
579.7783673949843
 30
0.0
 10
604.2934316386553
 20
579.5215162482035
 30
0.0
  0
SPLINE
  5
6F9
330
1F
100
AcDbEntity
  8
Predefinito
 62
   255
370
    25
100
AcDbSpline
210
0.0
220
0.0
230
1.0
 70
     8
 71
     3
 72
     8
 73
     4
 74
     0
 42
0.0000000001
 43
0.0000000001
 40
0.0
 40
0.0
 40
0.0
 40
0.0
 40
1.0
 40
1.0
 40
1.0
 40
1.0
 10
604.2934316386553
 20
1251.250617105657
 30
0.0
 10
604.2545252317033
 20
1250.993765958876
 30
0.0
 10
604.2352441804703
 20
1250.734848985177
 30
0.0
 10
604.2352441804703
 20
1250.475243402506
 30
0.0
  0
SPLINE
  5
6FA
330
1F
100
AcDbEntity
  8
Predefinito
 62
   255
370
    25
100
AcDbSpline
210
0.0
220
0.0
230
1.0
 70
     8
 71
     3
 72
     8
 73
     4
 74
     0
 42
0.0000000001
 43
0.0000000001
 40
0.0
 40
0.0
 40
0.0
 40
0.0
 40
1.0
 40
1.0
 40
1.0
 40
1.0
 10
604.2934316386553
 20
579.5215162482035
 30
0.0
 10
605.0061419252992
 20
574.799035914093
 30
0.0
 10
606.5885653443409
 20
570.2497407365921
 30
0.0
 10
608.9604789504713
 20
566.1039704170366
 30
0.0
  0
SPLINE
  5
6FB
330
1F
100
AcDbEntity
  8
Predefinito
 62
   255
370
    25
100
AcDbSpline
210
0.0
220
0.0
230
1.0
 70
     8
 71
     3
 72
     8
 73
     4
 74
     0
 42
0.0000000001
 43
0.0000000001
 40
0.0
 40
0.0
 40
0.0
 40
0.0
 40
1.0
 40
1.0
 40
1.0
 40
1.0
 10
608.9604789504713
 20
1264.667818632337
 30
0.0
 10
606.5885653443409
 20
1260.522736921754
 30
0.0
 10
605.0061419252992
 20
1255.973097439767
 30
0.0
 10
604.2934316386553
 20
1251.250617105657
 30
0.0
  0
SPLINE
  5
6FC
330
1F
100
AcDbEntity
  8
Predefinito
 62
   255
370
    25
100
AcDbSpline
210
0.0
220
0.0
230
1.0
 70
     8
 71
     3
 72
     8
 73
     4
 74
     0
 42
0.0000000001
 43
0.0000000001
 40
0.0
 40
0.0
 40
0.0
 40
0.0
 40
1.0
 40
1.0
 40
1.0
 40
1.0
 10
613.9046913737598
 20
565.7204152192968
 30
0.0
 10
616.8257706355413
 20
569.3741744279276
 30
0.0
 10
619.1567120078018
 20
573.4621015937846
 30
0.0
 10
620.8128165869117
 20
577.8368343967306
 30
0.0
  0
SPLINE
  5
6FD
330
1F
100
AcDbEntity
  8
Predefinito
 62
   255
370
    25
100
AcDbSpline
210
0.0
220
0.0
230
1.0
 70
     8
 71
     3
 72
     8
 73
     4
 74
     0
 42
0.0000000001
 43
0.0000000001
 40
0.0
 40
0.0
 40
0.0
 40
0.0
 40
1.0
 40
1.0
 40
1.0
 40
1.0
 10
620.8128165869117
 20
1252.935643261616
 30
0.0
 10
619.1567120078018
 20
1257.310031760076
 30
0.0
 10
616.8257706355413
 20
1261.398303230419
 30
0.0
 10
613.9046913737598
 20
1265.051373830077
 30
0.0
  0
SPLINE
  5
6FE
330
1F
100
AcDbEntity
  8
Predefinito
 62
   255
370
    25
100
AcDbSpline
210
0.0
220
0.0
230
1.0
 70
     8
 71
     3
 72
    11
 73
     7
 74
     0
 42
0.0000000001
 43
0.0000000001
 40
0.0
 40
0.0
 40
0.0
 40
0.0
 40
1.0
 40
1.0
 40
1.0
 40
2.0
 40
2.0
 40
2.0
 40
2.0
 10
608.9604789504713
 20
566.1039704170366
 30
0.0
 10
609.782678063759
 20
564.6668434912143
 30
0.0
 10
611.6147222353688
 20
564.16829059505
 30
0.0
 10
613.0518491611911
 20
564.9904897083378
 30
0.0
 10
613.3796270321502
 20
565.1784799578583
 30
0.0
 10
613.6688428006432
 20
565.4256905790228
 30
0.0
 10
613.9046913737598
 20
565.7204152192968
 30
0.0
  0
SPLINE
  5
6FF
330
1F
100
AcDbEntity
  8
Predefinito
 62
   255
370
    25
100
AcDbSpline
210
0.0
220
0.0
230
1.0
 70
     8
 71
     3
 72
    11
 73
     7
 74
     0
 42
0.0000000001
 43
0.0000000001
 40
0.0
 40
0.0
 40
0.0
 40
0.0
 40
1.0
 40
1.0
 40
1.0
 40
2.0
 40
2.0
 40
2.0
 40
2.0
 10
613.9046913737598
 20
1265.051373830077
 30
0.0
 10
612.8704006969103
 20
1266.344581480625
 30
0.0
 10
610.9836121119786
 20
1266.554951521756
 30
0.0
 10
609.6904044614304
 20
1265.520660844906
 30
0.0
 10
609.3956798211563
 20
1265.28481227179
 30
0.0
 10
609.1477805910192
 20
1264.995596503296
 30
0.0
 10
608.9604789504713
 20
1264.668162936824
 30
0.0
  0
SPLINE
  5
700
330
1F
100
AcDbEntity
  8
Predefinito
 62
   255
370
    25
100
AcDbSpline
210
0.0
220
0.0
230
1.0
 70
     8
 71
     3
 72
     8
 73
     4
 74
     0
 42
0.0000000001
 43
0.0000000001
 40
0.0
 40
0.0
 40
0.0
 40
0.0
 40
1.0
 40
1.0
 40
1.0
 40
1.0
 10
540.9241909348765
 20
673.9108696453101
 30
0.0
 10
540.9241909348765
 20
673.0180881123304
 30
0.0
 10
541.4003640394313
 20
672.1931345631522
 30
0.0
 10
542.173327611178
 20
671.7469159489056
 30
0.0
  0
SPLINE
  5
701
330
1F
100
AcDbEntity
  8
Predefinito
 62
   255
370
    25
100
AcDbSpline
210
0.0
220
0.0
230
1.0
 70
     8
 71
     3
 72
     8
 73
     4
 74
     0
 42
0.0000000001
 43
0.0000000001
 40
0.0
 40
0.0
 40
0.0
 40
0.0
 40
1.0
 40
1.0
 40
1.0
 40
1.0
 10
542.173327611178
 20
692.404496518019
 30
0.0
 10
541.4003640394313
 20
691.9582779037723
 30
0.0
 10
540.9241909348765
 20
691.133324354594
 30
0.0
 10
540.9241909348765
 20
690.2405428216144
 30
0.0
  0
SPLINE
  5
702
330
1F
100
AcDbEntity
  8
Predefinito
 62
   255
370
    25
100
AcDbSpline
210
0.0
220
0.0
230
1.0
 70
     8
 71
     3
 72
     8
 73
     4
 74
     0
 42
0.0000000001
 43
0.0000000001
 40
0.0
 40
0.0
 40
0.0
 40
0.0
 40
1.0
 40
1.0
 40
1.0
 40
1.0
 10
540.9241909348765
 20
573.8198339550518
 30
0.0
 10
540.9241909348765
 20
572.9273967265584
 30
0.0
 10
541.4003640394313
 20
572.1024431773802
 30
0.0
 10
542.173327611178
 20
571.6562245631336
 30
0.0
  0
SPLINE
  5
703
330
1F
100
AcDbEntity
  8
Predefinito
 62
   255
370
    25
100
AcDbSpline
210
0.0
220
0.0
230
1.0
 70
     8
 71
     3
 72
     8
 73
     4
 74
     0
 42
0.0000000001
 43
0.0000000001
 40
0.0
 40
0.0
 40
0.0
 40
0.0
 40
1.0
 40
1.0
 40
1.0
 40
1.0
 10
542.173327611178
 20
592.3138051322469
 30
0.0
 10
541.4003640394313
 20
591.8675865180003
 30
0.0
 10
540.9241909348765
 20
591.0426329688221
 30
0.0
 10
540.9241909348765
 20
590.1498514358424
 30
0.0
  0
SPLINE
  5
704
330
1F
100
AcDbEntity
  8
Predefinito
 62
   255
370
    25
100
AcDbSpline
210
0.0
220
0.0
230
1.0
 70
     8
 71
     3
 72
     8
 73
     4
 74
     0
 42
0.0000000001
 43
0.0000000001
 40
0.0
 40
0.0
 40
0.0
 40
0.0
 40
1.0
 40
1.0
 40
1.0
 40
1.0
 10
-150.9474109801833
 20
309.8725717115097
 30
0.0
 10
-149.5674385990872
 20
309.8725717115097
 30
0.0
 10
-148.4487933230938
 20
310.9915612919893
 30
0.0
 10
-148.4487933230938
 20
312.3715336730854
 30
0.0
  0
SPLINE
  5
705
330
1F
100
AcDbEntity
  8
Predefinito
 62
   255
370
    25
100
AcDbSpline
210
0.0
220
0.0
230
1.0
 70
     8
 71
     3
 72
     8
 73
     4
 74
     0
 42
0.0000000001
 43
0.0000000001
 40
0.0
 40
0.0
 40
0.0
 40
0.0
 40
1.0
 40
1.0
 40
1.0
 40
1.0
 10
-338.3358162587112
 20
312.3715336730854
 30
0.0
 10
-338.3358162587112
 20
310.9915612919893
 30
0.0
 10
-337.2171709827178
 20
309.8725717115097
 30
0.0
 10
-335.8371986016217
 20
309.8725717115097
 30
0.0
  0
SPLINE
  5
706
330
1F
100
AcDbEntity
  8
Predefinito
 62
   255
370
    25
100
AcDbSpline
210
0.0
220
0.0
230
1.0
 70
     8
 71
     3
 72
     8
 73
     4
 74
     0
 42
0.0000000001
 43
0.0000000001
 40
0.0
 40
0.0
 40
0.0
 40
0.0
 40
1.0
 40
1.0
 40
1.0
 40
1.0
 10
-285.2065352820233
 20
286.5376794569162
 30
0.0
 10
-285.4661408646946
 20
286.5376794569162
 30
0.0
 10
-285.7254021428795
 20
286.5183984056834
 30
0.0
 10
-285.9819089851741
 20
286.4798363032176
 30
0.0
  0
SPLINE
  5
707
330
1F
100
AcDbEntity
  8
Predefinito
 62
   255
370
    25
100
AcDbSpline
210
0.0
220
0.0
230
1.0
 70
     8
 71
     3
 72
     8
 73
     4
 74
     0
 42
0.0000000001
 43
0.0000000001
 40
0.0
 40
0.0
 40
0.0
 40
0.0
 40
1.0
 40
1.0
 40
1.0
 40
1.0
 10
385.7471918722791
 20
286.4798363032176
 30
0.0
 10
385.4903407254983
 20
286.5183984056834
 30
0.0
 10
385.2310794473134
 20
286.5376794569162
 30
0.0
 10
384.971473864642
 20
286.5376794569162
 30
0.0
  0
SPLINE
  5
708
330
1F
100
AcDbEntity
  8
Predefinito
 62
   255
370
    25
100
AcDbSpline
210
0.0
220
0.0
230
1.0
 70
     8
 71
     3
 72
     8
 73
     4
 74
     0
 42
0.0000000001
 43
0.0000000001
 40
0.0
 40
0.0
 40
0.0
 40
0.0
 40
1.0
 40
1.0
 40
1.0
 40
1.0
 10
-285.9819089851741
 20
286.4798363032176
 30
0.0
 10
-290.7047336237708
 20
285.7671260165737
 30
0.0
 10
-295.2540288012717
 20
284.1847025975323
 30
0.0
 10
-299.3994548163409
 20
281.8124446869154
 30
0.0
  0
SPLINE
  5
709
330
1F
100
AcDbEntity
  8
Predefinito
 62
   255
370
    25
100
AcDbSpline
210
0.0
220
0.0
230
1.0
 70
     8
 71
     3
 72
     8
 73
     4
 74
     0
 42
0.0000000001
 43
0.0000000001
 40
0.0
 40
0.0
 40
0.0
 40
0.0
 40
1.0
 40
1.0
 40
1.0
 40
1.0
 10
399.1643933989597
 20
281.8124446869154
 30
0.0
 10
395.0189673838905
 20
284.1847025975323
 30
0.0
 10
390.4696722063897
 20
285.7671260165737
 30
0.0
 10
385.7471918722791
 20
286.4798363032176
 30
0.0
  0
SPLINE
  5
70A
330
1F
100
AcDbEntity
  8
Predefinito
 62
   255
370
    25
100
AcDbSpline
210
0.0
220
0.0
230
1.0
 70
     8
 71
     3
 72
     8
 73
     4
 74
     0
 42
0.0000000001
 43
0.0000000001
 40
0.0
 40
0.0
 40
0.0
 40
0.0
 40
1.0
 40
1.0
 40
1.0
 40
1.0
 10
-299.7830100140808
 20
276.8682322636269
 30
0.0
 10
-296.1295951099362
 20
273.9471530018455
 30
0.0
 10
-292.041323639593
 20
271.6162116295847
 30
0.0
 10
-287.6669351411333
 20
269.9601070504748
 30
0.0
  0
SPLINE
  5
70B
330
1F
100
AcDbEntity
  8
Predefinito
 62
   255
370
    25
100
AcDbSpline
210
0.0
220
0.0
230
1.0
 70
     8
 71
     3
 72
     8
 73
     4
 74
     0
 42
0.0000000001
 43
0.0000000001
 40
0.0
 40
0.0
 40
0.0
 40
0.0
 40
1.0
 40
1.0
 40
1.0
 40
1.0
 10
387.4315294192658
 20
269.9601070504748
 30
0.0
 10
391.8062622222118
 20
271.6162116295847
 30
0.0
 10
395.8945336925551
 20
273.9471530018455
 30
0.0
 10
399.5476042922132
 20
276.8682322636269
 30
0.0
  0
SPLINE
  5
70C
330
1F
100
AcDbEntity
  8
Predefinito
 62
   255
370
    25
100
AcDbSpline
210
0.0
220
0.0
230
1.0
 70
     8
 71
     3
 72
    11
 73
     7
 74
     0
 42
0.0000000001
 43
0.0000000001
 40
0.0
 40
0.0
 40
0.0
 40
0.0
 40
1.0
 40
1.0
 40
1.0
 40
2.0
 40
2.0
 40
2.0
 40
2.0
 10
-299.3994548163409
 20
281.8124446869154
 30
0.0
 10
-300.8365817421632
 20
280.9902455736276
 30
0.0
 10
-301.3351346383276
 20
279.1585457065041
 30
0.0
 10
-300.5125912205535
 20
277.7214187806817
 30
0.0
 10
-300.3252895800055
 20
277.3936409097229
 30
0.0
 10
-300.0777346543548
 20
277.1044251412297
 30
0.0
 10
-299.7830100140808
 20
276.8682322636269
 30
0.0
  0
SPLINE
  5
70D
330
1F
100
AcDbEntity
  8
Predefinito
 62
   255
370
    25
100
AcDbSpline
210
0.0
220
0.0
230
1.0
 70
     8
 71
     3
 72
    11
 73
     7
 74
     0
 42
0.0000000001
 43
0.0000000001
 40
0.0
 40
0.0
 40
0.0
 40
0.0
 40
1.0
 40
1.0
 40
1.0
 40
2.0
 40
2.0
 40
2.0
 40
2.0
 10
399.5476042922132
 20
276.8682322636269
 30
0.0
 10
400.8411562472477
 20
277.9025229404763
 30
0.0
 10
401.0511819838916
 20
279.7893115254082
 30
0.0
 10
400.0168913070421
 20
281.0825191759563
 30
0.0
 10
399.7810427339256
 20
281.3772438162304
 30
0.0
 10
399.4918269654324
 20
281.6251430463674
 30
0.0
 10
399.1643933989597
 20
281.8124446869154
 30
0.0
  0
SPLINE
  5
70E
330
1F
100
AcDbEntity
  8
Predefinito
 62
   255
370
    25
100
AcDbSpline
210
0.0
220
0.0
230
1.0
 70
     8
 71
     3
 72
     8
 73
     4
 74
     0
 42
0.0000000001
 43
0.0000000001
 40
0.0
 40
0.0
 40
0.0
 40
0.0
 40
1.0
 40
1.0
 40
1.0
 40
1.0
 10
-308.8636965357948
 20
349.8490770069965
 30
0.0
 10
-309.7564780687744
 20
349.8490770069965
 30
0.0
 10
-310.5810873134663
 20
349.3725595979553
 30
0.0
 10
-311.0276502321993
 20
348.5999403306949
 30
0.0
  0
SPLINE
  5
70F
330
1F
100
AcDbEntity
  8
Predefinito
 62
   255
370
    25
100
AcDbSpline
210
0.0
220
0.0
230
1.0
 70
     8
 71
     3
 72
     8
 73
     4
 74
     0
 42
0.0000000001
 43
0.0000000001
 40
0.0
 40
0.0
 40
0.0
 40
0.0
 40
1.0
 40
1.0
 40
1.0
 40
1.0
 10
-290.3700696630859
 20
348.5999403306949
 30
0.0
 10
-290.8162882773325
 20
349.3725595979553
 30
0.0
 10
-291.6412418265107
 20
349.8490770069965
 30
0.0
 10
-292.5336790550041
 20
349.8490770069965
 30
0.0
  0
SPLINE
  5
710
330
1F
100
AcDbEntity
  8
Predefinito
 62
   255
370
    25
100
AcDbSpline
210
0.0
220
0.0
230
1.0
 70
     8
 71
     3
 72
     8
 73
     4
 74
     0
 42
0.0000000001
 43
0.0000000001
 40
0.0
 40
0.0
 40
0.0
 40
0.0
 40
1.0
 40
1.0
 40
1.0
 40
1.0
 10
-194.2505862223146
 20
349.8490770069965
 30
0.0
 10
-195.1433677552943
 20
349.8490770069965
 30
0.0
 10
-195.9683213044725
 20
349.3725595979553
 30
0.0
 10
-196.4145399187192
 20
348.5999403306949
 30
0.0
  0
SPLINE
  5
711
330
1F
100
AcDbEntity
  8
Predefinito
 62
   255
370
    25
100
AcDbSpline
210
0.0
220
0.0
230
1.0
 70
     8
 71
     3
 72
     8
 73
     4
 74
     0
 42
0.0000000001
 43
0.0000000001
 40
0.0
 40
0.0
 40
0.0
 40
0.0
 40
1.0
 40
1.0
 40
1.0
 40
1.0
 10
-175.7569593496058
 20
348.5999403306949
 30
0.0
 10
-176.2031779638524
 20
349.3725595979553
 30
0.0
 10
-177.0281315130306
 20
349.8490770069965
 30
0.0
 10
-177.9205687415239
 20
349.8490770069965
 30
0.0
  0
SPLINE
  5
712
330
1F
100
AcDbEntity
  8
Predefinito
 62
   255
370
    25
100
AcDbSpline
210
0.0
220
0.0
230
1.0
 70
     8
 71
     3
 72
     8
 73
     4
 74
     0
 42
0.0000000001
 43
0.0000000001
 40
0.0
 40
0.0
 40
0.0
 40
0.0
 40
1.0
 40
1.0
 40
1.0
 40
1.0
 10
-251.5573135312979
 20
349.8490770069965
 30
0.0
 10
-252.4497507597912
 20
349.8490770069965
 30
0.0
 10
-253.2747043089694
 20
349.3725595979553
 30
0.0
 10
-253.7209229232161
 20
348.5999403306949
 30
0.0
  0
SPLINE
  5
713
330
1F
100
AcDbEntity
  8
Predefinito
 62
   255
370
    25
100
AcDbSpline
210
0.0
220
0.0
230
1.0
 70
     8
 71
     3
 72
     8
 73
     4
 74
     0
 42
0.0000000001
 43
0.0000000001
 40
0.0
 40
0.0
 40
0.0
 40
0.0
 40
1.0
 40
1.0
 40
1.0
 40
1.0
 10
-233.0633423541026
 20
348.5999403306949
 30
0.0
 10
-233.5095609683493
 20
349.3725595979553
 30
0.0
 10
-234.3345145175275
 20
349.8490770069965
 30
0.0
 10
-235.2272960505072
 20
349.8490770069965
 30
0.0
  0
SPLINE
  5
714
330
1F
100
AcDbEntity
  8
Predefinito
 62
   255
370
    25
100
AcDbSpline
210
0.0
220
0.0
230
1.0
 70
     8
 71
     3
 72
    14
 73
    10
 74
     0
 42
0.0000000001
 43
0.0000000001
 40
0.0
 40
0.0
 40
0.0
 40
0.0
 40
1.0
 40
1.0
 40
1.0
 40
2.0
 40
2.0
 40
2.0
 40
3.0
 40
3.0
 40
3.0
 40
3.0
 10
-310.5273758136033
 20
689.2465357696622
 30
0.0
 10
-347.6051816389184
 20
652.1690742488333
 30
0.0
 10
-347.6051816389184
 20
592.0541995495757
 30
0.0
 10
-310.5273758136033
 20
554.9760494197743
 30
0.0
 10
-273.4495699882883
 20
517.8985878989455
 30
0.0
 10
-213.3346952890305
 20
517.8985878989455
 30
0.0
 10
-176.2568894637154
 20
554.9760494197743
 30
0.0
 10
-157.4719809955955
 20
573.7613021923805
 30
0.0
 10
-147.4165684731621
 20
599.5572829150565
 30
0.0
 10
-148.532459313265
 20
626.099715764034
 30
0.0
  0
SPLINE
  5
715
330
1F
100
AcDbEntity
  8
Predefinito
 62
   255
370
    25
100
AcDbSpline
210
0.0
220
0.0
230
1.0
 70
     8
 71
     3
 72
     8
 73
     4
 74
     0
 42
0.0000000001
 43
0.0000000001
 40
0.0
 40
0.0
 40
0.0
 40
0.0
 40
1.0
 40
1.0
 40
1.0
 40
1.0
 10
-239.3947575526997
 20
716.9706216156263
 30
0.0
 10
-265.9402891420539
 20
718.0896111961059
 30
0.0
 10
-291.7400572140793
 20
708.0338543691862
 30
0.0
 10
-310.5273758136033
 20
689.2465357696622
 30
0.0
  0
SPLINE
  5
716
330
1F
100
AcDbEntity
  8
Predefinito
 62
   255
370
    13
100
AcDbSpline
210
0.0
220
0.0
230
1.0
 70
     8
 71
     3
 72
     8
 73
     4
 74
     0
 42
0.0000000001
 43
0.0000000001
 40
0.0
 40
0.0
 40
0.0
 40
0.0
 40
1.0
 40
1.0
 40
1.0
 40
1.0
 10
-237.5964552207473
 20
714.3745657889134
 30
0.0
 10
-264.0782904801358
 20
716.0379007622356
 30
0.0
 10
-289.9982208178803
 20
706.2420938224736
 30
0.0
 10
-308.7607494943907
 20
687.4799094504494
 30
0.0
  0
SPLINE
  5
717
330
1F
100
AcDbEntity
  8
Predefinito
 62
   255
370
    13
100
AcDbSpline
210
0.0
220
0.0
230
1.0
 70
     8
 71
     3
 72
    14
 73
    10
 74
     0
 42
0.0000000001
 43
0.0000000001
 40
0.0
 40
0.0
 40
0.0
 40
0.0
 40
1.0
 40
1.0
 40
1.0
 40
2.0
 40
2.0
 40
2.0
 40
3.0
 40
3.0
 40
3.0
 40
3.0
 10
-308.7607494943907
 20
687.4799094504494
 30
0.0
 10
-344.8624521010412
 20
651.3778625393127
 30
0.0
 10
-344.8624521010412
 20
592.84506695461
 30
0.0
 10
-308.7607494943907
 20
556.7430200434733
 30
0.0
 10
-272.6587025832538
 20
520.6413174368228
 30
0.0
 10
-214.1255626940649
 20
520.6413174368228
 30
0.0
 10
-178.0238600874144
 20
556.7430200434733
 30
0.0
 10
-159.2633972378219
 20
575.5031385885794
 30
0.0
 10
-149.4679346025461
 20
601.4192815769746
 30
0.0
 10
-151.1285151399778
 20
627.8980180959865
 30
0.0
  0
SPLINE
  5
718
330
1F
100
AcDbEntity
  8
Predefinito
 62
   255
370
    25
100
AcDbSpline
210
0.0
220
0.0
230
1.0
 70
     8
 71
     3
 72
     8
 73
     4
 74
     0
 42
0.0000000001
 43
0.0000000001
 40
0.0
 40
0.0
 40
0.0
 40
0.0
 40
1.0
 40
1.0
 40
1.0
 40
1.0
 10
-198.1642953181031
 20
1163.433003438586
 30
0.0
 10
-335.1540985007996
 20
1026.443200255889
 30
0.0
 10
-335.1571972411763
 20
804.339950841533
 30
0.0
 10
-198.171181407829
 20
667.346360309487
 30
0.0
  0
SPLINE
  5
719
330
1F
100
AcDbEntity
  8
Predefinito
 62
   255
370
    25
100
AcDbSpline
210
0.0
220
0.0
230
1.0
 70
     8
 71
     3
 72
    14
 73
    10
 74
     0
 42
0.0000000001
 43
0.0000000001
 40
0.0
 40
0.0
 40
0.0
 40
0.0
 40
1.0
 40
1.0
 40
1.0
 40
2.0
 40
2.0
 40
2.0
 40
3.0
 40
3.0
 40
3.0
 40
3.0
 10
-198.157409228377
 20
667.3322438255485
 30
0.0
 10
-61.16071995595433
 20
530.343817860797
 30
0.0
 10
160.9476940256964
 20
530.3500153415505
 30
0.0
 10
297.9364642949341
 20
667.346360309487
 30
0.0
 10
434.9248902596855
 20
804.3427052774232
 30
0.0
 10
434.9186927789322
 20
1026.45146356356
 30
0.0
 10
297.9220035065095
 20
1163.439889528312
 30
0.0
 10
160.9284129744636
 20
1300.425561057173
 30
0.0
 10
-61.1744921354064
 20
1300.422462316796
 30
0.0
 10
-198.1642953181031
 20
1163.433003438586
 30
0.0
  0
SPLINE
  5
71A
330
1F
100
AcDbEntity
  8
Predefinito
 62
   255
370
    25
100
AcDbSpline
210
0.0
220
0.0
230
1.0
 70
     8
 71
     3
 72
    17
 73
    13
 74
     0
 42
0.0000000001
 43
0.0000000001
 40
0.0
 40
0.0
 40
0.0
 40
0.0
 40
1.0
 40
1.0
 40
1.0
 40
2.0
 40
2.0
 40
2.0
 40
3.0
 40
3.0
 40
3.0
 40
4.0
 40
4.0
 40
4.0
 40
4.0
 10
-174.6290178524822
 20
690.8606352014433
 30
0.0
 10
-50.62706850204831
 20
566.866260549708
 30
0.0
 10
150.4136982673041
 20
566.8724580304614
 30
0.0
 10
274.4080729190393
 20
690.8744073808954
 30
0.0
 10
398.4021032662884
 20
814.8767010358156
 30
0.0
 10
398.395905785535
 20
1015.917467805168
 30
0.0
 10
274.393956435101
 20
1139.911498152417
 30
0.0
 10
150.3916627801808
 20
1263.905872804153
 30
0.0
 10
-50.64875968468527
 20
1263.899675323399
 30
0.0
 10
-174.6431343364206
 20
1139.897381668479
 30
0.0
 10
-298.6316558118888
 20
1015.900941189825
 30
0.0
 10
-298.6316558118888
 20
814.8711921640347
 30
0.0
 10
-174.6431343364206
 20
690.8744073808954
 30
0.0
  0
SPLINE
  5
71B
330
1F
100
AcDbEntity
  8
Predefinito
 62
   255
370
    13
100
AcDbSpline
210
0.0
220
0.0
230
1.0
 70
     8
 71
     3
 72
    17
 73
    13
 74
     0
 42
0.0000000001
 43
0.0000000001
 40
0.0
 40
0.0
 40
0.0
 40
0.0
 40
1.0
 40
1.0
 40
1.0
 40
2.0
 40
2.0
 40
2.0
 40
3.0
 40
3.0
 40
3.0
 40
4.0
 40
4.0
 40
4.0
 40
4.0
 10
-197.3613772560481
 20
668.1282757978774
 30
0.0
 10
-60.80436481263239
 20
531.5791823576466
 30
0.0
 10
160.5913388823745
 20
531.5860684473726
 30
0.0
 10
297.1404323226052
 20
668.1423922818159
 30
0.0
 10
433.6891814583498
 20
804.6990604207452
 30
0.0
 10
433.68263967311
 20
1026.094764115752
 30
0.0
 10
297.1259715341806
 20
1162.643857555983
 30
0.0
 10
160.5693033952512
 20
1299.192950996214
 30
0.0
 10
-60.82640029975567
 20
1299.186409210974
 30
0.0
 10
-197.3751494355002
 20
1162.629741072045
 30
0.0
 10
-333.9187340039501
 20
1026.078581804896
 30
0.0
 10
-333.9187340039501
 20
804.6935515489644
 30
0.0
 10
-197.3751494355002
 20
668.1423922818159
 30
0.0
  0
SPLINE
  5
71C
330
1F
100
AcDbEntity
  8
Predefinito
 62
   255
370
    25
100
AcDbSpline
210
0.0
220
0.0
230
1.0
 70
     8
 71
     3
 72
    17
 73
    13
 74
     0
 42
0.0000000001
 43
0.0000000001
 40
0.0
 40
0.0
 40
0.0
 40
0.0
 40
1.0
 40
1.0
 40
1.0
 40
2.0
 40
2.0
 40
2.0
 40
3.0
 40
3.0
 40
3.0
 40
4.0
 40
4.0
 40
4.0
 40
4.0
 10
-174.7340307208042
 20
690.7552780286351
 30
0.0
 10
-50.67389391218531
 20
566.7030602232011
 30
0.0
 10
150.4608679819274
 20
566.7092577039544
 30
0.0
 10
274.5130857873613
 20
690.7693945125735
 30
0.0
 10
398.5656478972815
 20
814.8295313211925
 30
0.0
 10
398.5594504165281
 20
1015.964637519791
 30
0.0
 10
274.498969303423
 20
1140.016855325225
 30
0.0
 10
150.438832494804
 20
1264.069073130659
 30
0.0
 10
-50.69592939930858
 20
1264.062875649906
 30
0.0
 10
-174.7481472047425
 20
1140.002738841287
 30
0.0
 10
-298.7952004428819
 20
1015.948110904449
 30
0.0
 10
-298.7952004428819
 20
814.8240224494115
 30
0.0
 10
-174.7481472047425
 20
690.7693945125735
 30
0.0
  0
SPLINE
  5
71D
330
1F
100
AcDbEntity
  8
Predefinito
 62
   255
370
    25
100
AcDbSpline
210
0.0
220
0.0
230
1.0
 70
     8
 71
     3
 72
    17
 73
    13
 74
     0
 42
0.0000000001
 43
0.0000000001
 40
0.0
 40
0.0
 40
0.0
 40
0.0
 40
1.0
 40
1.0
 40
1.0
 40
2.0
 40
2.0
 40
2.0
 40
3.0
 40
3.0
 40
3.0
 40
4.0
 40
4.0
 40
4.0
 40
4.0
 10
-187.4788055857381
 20
678.0108474681875
 30
0.0
 10
-56.38005216365892
 20
546.9200130492933
 30
0.0
 10
156.1666819289148
 20
546.9262105300467
 30
0.0
 10
287.2578606522952
 20
678.0249639521259
 30
0.0
 10
418.3486950711894
 20
809.1237173742048
 30
0.0
 10
418.3424975904359
 20
1021.670451466779
 30
0.0
 10
287.2437441683568
 20
1152.761285885673
 30
0.0
 10
156.1449907462777
 20
1283.852120304567
 30
0.0
 10
-56.40174334629595
 20
1283.845922823813
 30
0.0
 10
-187.4929220696764
 20
1152.747169401734
 30
0.0
 10
-318.5782476167897
 20
1021.653924851436
 30
0.0
 10
-318.5782476167897
 20
809.1182085024242
 30
0.0
 10
-187.4929220696764
 20
678.0249639521259
 30
0.0
  0
SPLINE
  5
71E
330
1F
100
AcDbEntity
  8
Predefinito
 62
   255
370
    25
100
AcDbSpline
210
0.0
220
0.0
230
1.0
 70
     8
 71
     3
 72
    17
 73
    13
 74
     0
 42
0.0000000001
 43
0.0000000001
 40
0.0
 40
0.0
 40
0.0
 40
0.0
 40
1.0
 40
1.0
 40
1.0
 40
2.0
 40
2.0
 40
2.0
 40
3.0
 40
3.0
 40
3.0
 40
4.0
 40
4.0
 40
4.0
 40
4.0
 10
-188.7937044189232
 20
676.695604330516
 30
0.0
 10
-56.96881283523439
 20
544.8782874455259
 30
0.0
 10
156.7557869049764
 20
544.8844849262794
 30
0.0
 10
288.5727594854803
 20
676.7097208144544
 30
0.0
 10
420.3904206749568
 20
808.5349567026295
 30
0.0
 10
420.3838788897172
 20
1022.259212138354
 30
0.0
 10
288.5589873060283
 20
1154.076529023344
 30
0.0
 10
156.7337514178532
 20
1285.893845908334
 30
0.0
 10
-56.99084832235766
 20
1285.887648427581
 30
0.0
 10
-188.8081652073479
 20
1154.062412539406
 30
0.0
 10
-320.6199732205572
 20
1022.242685523011
 30
0.0
 10
-320.6199732205572
 20
808.5294478308487
 30
0.0
 10
-188.8081652073479
 20
676.7097208144544
 30
0.0
  0
VIEWPORT
  5
728
330
724
100
AcDbEntity
 67
     1
  8
0
100
AcDbViewport
 10
6.0
 20
4.5
 30
0.0
 40
12.696
 41
9.522
 68
     1
 69
     1
 12
6.0
 22
4.5
 13
0.0
 23
0.0
 14
0.5
 24
0.5
 15
0.5
 25
0.5
 16
0.0
 26
0.0
 36
1.0
 17
0.0
 27
0.0
 37
0.0
 42
50.0
 43
0.0
 44
0.0
 45
9.522
 50
0.0
 51
0.0
 72
   100
 90
   557152
  1

281
     0
 71
     1
 74
     0
110
0.0
120
0.0
130
0.0
111
1.0
121
0.0
131
0.0
112
0.0
122
1.0
132
0.0
 79
     0
146
0.0
170
     0
  0
ENDSEC
  0
SECTION
  2
OBJECTS
  0
DICTIONARY
  5
C
330
0
100
AcDbDictionary
281
     1
  3
ACAD_GROUP
350
D
  3
ACAD_LAYOUT
350
1A
  3
ACAD_MLEADERSTYLE
350
74E
  3
ACAD_MLINESTYLE
350
17
  3
ACAD_PLOTSETTINGS
350
19
  3
ACAD_PLOTSTYLENAME
350
E
  3
ACAD_SCALELIST
350
729
  3
ACAD_TABLESTYLE
350
74D
  3
ACAD_VISUALSTYLE
350
2A
  3
AcDbVariableDictionary
350
74B
  0
DICTIONARY
  5
D
102
{ACAD_REACTORS
330
C
102
}
330
C
100
AcDbDictionary
281
     1
  0
DICTIONARY
  5
1A
102
{ACAD_REACTORS
330
C
102
}
330
C
100
AcDbDictionary
281
     1
  3
Layout1
350
720
  3
Layout2
350
725
  3
Model
350
22
  0
DICTIONARY
  5
74E
102
{ACAD_REACTORS
330
C
102
}
330
C
100
AcDbDictionary
281
     1
  0
DICTIONARY
  5
17
102
{ACAD_REACTORS
330
C
102
}
330
C
100
AcDbDictionary
281
     1
  3
Standard
350
18
  0
DICTIONARY
  5
19
102
{ACAD_REACTORS
330
C
102
}
330
C
100
AcDbDictionary
281
     1
  0
ACDBDICTIONARYWDFLT
  5
E
102
{ACAD_REACTORS
330
C
102
}
330
C
100
AcDbDictionary
281
     1
  3
Normal
350
F
100
AcDbDictionaryWithDefault
340
F
  0
DICTIONARY
  5
729
102
{ACAD_REACTORS
330
C
102
}
330
C
100
AcDbDictionary
281
     1
  3
A0
350
72A
  3
A1
350
72B
  3
A2
350
72C
  3
A3
350
72D
  3
A4
350
72E
  3
A5
350
72F
  3
A6
350
730
  3
A7
350
731
  3
A8
350
732
  3
A9
350
733
  3
B0
350
734
  3
B1
350
735
  3
B2
350
736
  3
B3
350
737
  3
B4
350
738
  3
B5
350
739
  3
B6
350
73A
  3
B7
350
73B
  3
B8
350
73C
  3
B9
350
73D
  3
C0
350
73E
  3
C1
350
73F
  3
C2
350
740
  3
C3
350
741
  3
C4
350
742
  3
C5
350
743
  3
C6
350
744
  3
C7
350
745
  3
C8
350
746
  3
C9
350
747
  3
D0
350
748
  3
D1
350
749
  3
D2
350
74A
  0
DICTIONARY
  5
74D
102
{ACAD_REACTORS
330
C
102
}
330
C
100
AcDbDictionary
281
     1
  0
DICTIONARY
  5
2A
102
{ACAD_REACTORS
330
C
102
}
330
C
100
AcDbDictionary
281
     1
  3
2dWireframe
350
2F
  3
3D Hidden
350
31
  3
3dWireframe
350
30
  3
Basic
350
32
  3
Brighten
350
36
  3
ColorChange
350
3A
  3
Conceptual
350
34
  3
Dim
350
35
  3
Facepattern
350
39
  3
Flat
350
2B
  3
FlatWithEdges
350
2C
  3
Gouraud
350
2D
  3
GouraudWithEdges
350
2E
  3
Linepattern
350
38
  3
Realistic
350
33
  3
Thicken
350
37
  0
DICTIONARY
  5
74B
102
{ACAD_REACTORS
330
C
102
}
330
C
100
AcDbDictionary
281
     1
  3
CANNOSCALE
350
74C
  0
LAYOUT
  5
720
102
{ACAD_REACTORS
330
1A
102
}
330
1A
100
AcDbPlotSettings
  1

  2
none_device
  4
Letter_(8.50_x_11.00_Inches)
  6

 40
6.35
 41
6.35
 42
6.35000508
 43
6.35000508
 44
215.9
 45
279.4
 46
0.0
 47
0.0
 48
0.0
 49
0.0
140
0.0
141
0.0
142
1.0
143
1.0
 70
   688
 72
     0
 73
     1
 74
     5
  7

 75
    16
 76
     0
 77
     2
 78
   300
147
1.0
148
0.0
149
0.0
100
AcDbLayout
  1
Layout1
 70
     1
 71
     1
 10
0.0
 20
0.0
 11
0.0
 21
0.0
 12
0.0
 22
0.0
 32
0.0
 14
0.0
 24
0.0
 34
0.0
 15
0.0
 25
0.0
 35
0.0
146
0.0
 13
0.0
 23
0.0
 33
0.0
 16
1.0
 26
0.0
 36
0.0
 17
0.0
 27
1.0
 37
0.0
 76
     0
330
71F
331
723
  0
LAYOUT
  5
725
102
{ACAD_REACTORS
330
1A
102
}
330
1A
100
AcDbPlotSettings
  1

  2
none_device
  4
Letter_(8.50_x_11.00_Inches)
  6

 40
6.35
 41
6.35
 42
6.35000508
 43
6.35000508
 44
215.9
 45
279.4
 46
0.0
 47
0.0
 48
0.0
 49
0.0
140
0.0
141
0.0
142
1.0
143
1.0
 70
   688
 72
     0
 73
     1
 74
     5
  7

 75
    16
 76
     0
 77
     2
 78
   300
147
1.0
148
0.0
149
0.0
100
AcDbLayout
  1
Layout2
 70
     1
 71
     2
 10
0.0
 20
0.0
 11
0.0
 21
0.0
 12
0.0
 22
0.0
 32
0.0
 14
0.0
 24
0.0
 34
0.0
 15
0.0
 25
0.0
 35
0.0
146
0.0
 13
0.0
 23
0.0
 33
0.0
 16
1.0
 26
0.0
 36
0.0
 17
0.0
 27
1.0
 37
0.0
 76
     0
330
724
331
728
  0
LAYOUT
  5
22
102
{ACAD_REACTORS
330
1A
102
}
330
1A
100
AcDbPlotSettings
  1

  2
none_device
  4

  6

 40
0.0
 41
0.0
 42
0.0
 43
0.0
 44
0.0
 45
0.0
 46
0.0
 47
0.0
 48
0.0
 49
0.0
140
0.0
141
0.0
142
1.0
143
1.0
 70
  1712
 72
     0
 73
     0
 74
     0
  7

 75
     0
 76
     0
 77
     2
 78
   300
147
1.0
148
0.0
149
0.0
100
AcDbLayout
  1
Model
 70
     1
 71
     0
 10
0.0
 20
0.0
 11
12.0
 21
9.0
 12
0.0
 22
0.0
 32
0.0
 14
-338.3358162587112
 24
269.5965215129406
 34
0.0
 15
621.1764021244461
 25
1266.177120386101
 35
0.0
146
0.0
 13
0.0
 23
0.0
 33
0.0
 16
1.0
 26
0.0
 36
0.0
 17
0.0
 27
1.0
 37
0.0
 76
     0
330
1F
331
29
  0
MLINESTYLE
  5
18
102
{ACAD_REACTORS
330
17
102
}
330
17
100
AcDbMlineStyle
  2
Standard
 70
     0
  3

 62
   256
 51
90.0
 52
90.0
 71
     2
 49
0.5
 62
   256
  6
BYLAYER
 49
-0.5
 62
   256
  6
BYLAYER
  0
ACDBPLACEHOLDER
  5
F
102
{ACAD_REACTORS
330
E
102
}
330
E
  0
SCALE
  5
72A
102
{ACAD_REACTORS
330
729
102
}
330
729
100
AcDbScale
 70
     0
300
1:1
140
1.0
141
1.0
290
     1
  0
SCALE
  5
72B
102
{ACAD_REACTORS
330
729
102
}
330
729
100
AcDbScale
 70
     0
300
1:2
140
1.0
141
2.0
290
     0
  0
SCALE
  5
72C
102
{ACAD_REACTORS
330
729
102
}
330
729
100
AcDbScale
 70
     0
300
1:4
140
1.0
141
4.0
290
     0
  0
SCALE
  5
72D
102
{ACAD_REACTORS
330
729
102
}
330
729
100
AcDbScale
 70
     0
300
1:5
140
1.0
141
5.0
290
     0
  0
SCALE
  5
72E
102
{ACAD_REACTORS
330
729
102
}
330
729
100
AcDbScale
 70
     0
300
1:8
140
1.0
141
8.0
290
     0
  0
SCALE
  5
72F
102
{ACAD_REACTORS
330
729
102
}
330
729
100
AcDbScale
 70
     0
300
1:10
140
1.0
141
10.0
290
     0
  0
SCALE
  5
730
102
{ACAD_REACTORS
330
729
102
}
330
729
100
AcDbScale
 70
     0
300
1:16
140
1.0
141
16.0
290
     0
  0
SCALE
  5
731
102
{ACAD_REACTORS
330
729
102
}
330
729
100
AcDbScale
 70
     0
300
1:20
140
1.0
141
20.0
290
     0
  0
SCALE
  5
732
102
{ACAD_REACTORS
330
729
102
}
330
729
100
AcDbScale
 70
     0
300
1:30
140
1.0
141
30.0
290
     0
  0
SCALE
  5
733
102
{ACAD_REACTORS
330
729
102
}
330
729
100
AcDbScale
 70
     0
300
1:40
140
1.0
141
40.0
290
     0
  0
SCALE
  5
734
102
{ACAD_REACTORS
330
729
102
}
330
729
100
AcDbScale
 70
     0
300
1:50
140
1.0
141
50.0
290
     0
  0
SCALE
  5
735
102
{ACAD_REACTORS
330
729
102
}
330
729
100
AcDbScale
 70
     0
300
1:100
140
1.0
141
100.0
290
     0
  0
SCALE
  5
736
102
{ACAD_REACTORS
330
729
102
}
330
729
100
AcDbScale
 70
     0
300
2:1
140
2.0
141
1.0
290
     0
  0
SCALE
  5
737
102
{ACAD_REACTORS
330
729
102
}
330
729
100
AcDbScale
 70
     0
300
4:1
140
4.0
141
1.0
290
     0
  0
SCALE
  5
738
102
{ACAD_REACTORS
330
729
102
}
330
729
100
AcDbScale
 70
     0
300
8:1
140
8.0
141
1.0
290
     0
  0
SCALE
  5
739
102
{ACAD_REACTORS
330
729
102
}
330
729
100
AcDbScale
 70
     0
300
10:1
140
10.0
141
1.0
290
     0
  0
SCALE
  5
73A
102
{ACAD_REACTORS
330
729
102
}
330
729
100
AcDbScale
 70
     0
300
100:1
140
100.0
141
1.0
290
     0
  0
SCALE
  5
73B
102
{ACAD_REACTORS
330
729
102
}
330
729
100
AcDbScale
 70
     0
300
1/128" = 1'-0"
140
0.0078125
141
12.0
290
     0
  0
SCALE
  5
73C
102
{ACAD_REACTORS
330
729
102
}
330
729
100
AcDbScale
 70
     0
300
1/64" = 1'-0"
140
0.015625
141
12.0
290
     0
  0
SCALE
  5
73D
102
{ACAD_REACTORS
330
729
102
}
330
729
100
AcDbScale
 70
     0
300
1/32" = 1'-0"
140
0.03125
141
12.0
290
     0
  0
SCALE
  5
73E
102
{ACAD_REACTORS
330
729
102
}
330
729
100
AcDbScale
 70
     0
300
1/16" = 1'-0"
140
0.0625
141
12.0
290
     0
  0
SCALE
  5
73F
102
{ACAD_REACTORS
330
729
102
}
330
729
100
AcDbScale
 70
     0
300
3/32" = 1'-0"
140
0.09375
141
12.0
290
     0
  0
SCALE
  5
740
102
{ACAD_REACTORS
330
729
102
}
330
729
100
AcDbScale
 70
     0
300
1/8" = 1'-0"
140
0.125
141
12.0
290
     0
  0
SCALE
  5
741
102
{ACAD_REACTORS
330
729
102
}
330
729
100
AcDbScale
 70
     0
300
3/16" = 1'-0"
140
0.1875
141
12.0
290
     0
  0
SCALE
  5
742
102
{ACAD_REACTORS
330
729
102
}
330
729
100
AcDbScale
 70
     0
300
1/4" = 1'-0"
140
0.25
141
12.0
290
     0
  0
SCALE
  5
743
102
{ACAD_REACTORS
330
729
102
}
330
729
100
AcDbScale
 70
     0
300
3/8" = 1'-0"
140
0.375
141
12.0
290
     0
  0
SCALE
  5
744
102
{ACAD_REACTORS
330
729
102
}
330
729
100
AcDbScale
 70
     0
300
1/2" = 1'-0"
140
0.5
141
12.0
290
     0
  0
SCALE
  5
745
102
{ACAD_REACTORS
330
729
102
}
330
729
100
AcDbScale
 70
     0
300
3/4" = 1'-0"
140
0.75
141
12.0
290
     0
  0
SCALE
  5
746
102
{ACAD_REACTORS
330
729
102
}
330
729
100
AcDbScale
 70
     0
300
1" = 1'-0"
140
1.0
141
12.0
290
     0
  0
SCALE
  5
747
102
{ACAD_REACTORS
330
729
102
}
330
729
100
AcDbScale
 70
     0
300
1-1/2" = 1'-0"
140
1.5
141
12.0
290
     0
  0
SCALE
  5
748
102
{ACAD_REACTORS
330
729
102
}
330
729
100
AcDbScale
 70
     0
300
3" = 1'-0"
140
3.0
141
12.0
290
     0
  0
SCALE
  5
749
102
{ACAD_REACTORS
330
729
102
}
330
729
100
AcDbScale
 70
     0
300
6" = 1'-0"
140
6.0
141
12.0
290
     0
  0
SCALE
  5
74A
102
{ACAD_REACTORS
330
729
102
}
330
729
100
AcDbScale
 70
     0
300
1'-0" = 1'-0"
140
12.0
141
12.0
290
     0
  0
VISUALSTYLE
  5
2F
102
{ACAD_REACTORS
330
2A
102
}
330
2A
100
AcDbVisualStyle
  2
2dWireframe
 70
     4
 71
     0
 72
     2
 73
     0
 90
        0
 40
-0.6
 41
-30.0
 62
     5
 63
     7
421
 16777215
 74
     1
 91
        4
 64
     7
 65
   257
 75
     1
175
     1
 42
1.0
 92
        0
 66
   257
 43
1.0
 76
     1
 77
     6
 78
     2
 67
     7
 79
     5
170
     0
171
     0
290
     0
174
     0
 93
        1
 44
0.0
173
     0
291
     0
 45
0.0
1001
ACAD
1000
AcDbSavedByObjectVersion
1070
     0
  0
VISUALSTYLE
  5
31
102
{ACAD_REACTORS
330
2A
102
}
330
2A
100
AcDbVisualStyle
  2
3D Hidden
 70
     6
 71
     1
 72
     2
 73
     2
 90
        0
 40
-0.6
 41
-30.0
 62
     5
 63
     7
421
 16777215
 74
     2
 91
        2
 64
     7
 65
   257
 75
     2
175
     1
 42
40.0
 92
        0
 66
   257
 43
1.0
 76
     1
 77
     6
 78
     2
 67
     7
 79
     3
170
     0
171
     0
290
     0
174
     0
 93
        1
 44
0.0
173
     0
291
     0
 45
0.0
1001
ACAD
1000
AcDbSavedByObjectVersion
1070
     0
  0
VISUALSTYLE
  5
30
102
{ACAD_REACTORS
330
2A
102
}
330
2A
100
AcDbVisualStyle
  2
3dWireframe
 70
     5
 71
     0
 72
     2
 73
     0
 90
        0
 40
-0.6
 41
-30.0
 62
     5
 63
     7
421
 16777215
 74
     1
 91
        4
 64
     7
 65
   257
 75
     1
175
     1
 42
1.0
 92
        0
 66
   257
 43
1.0
 76
     1
 77
     6
 78
     2
 67
     7
 79
     5
170
     0
171
     0
290
     0
174
     0
 93
        1
 44
0.0
173
     0
291
     0
 45
0.0
1001
ACAD
1000
AcDbSavedByObjectVersion
1070
     0
  0
VISUALSTYLE
  5
32
102
{ACAD_REACTORS
330
2A
102
}
330
2A
100
AcDbVisualStyle
  2
Basic
 70
     7
 71
     1
 72
     0
 73
     1
 90
        0
 40
-0.6
 41
-30.0
 62
     5
 63
     7
421
 16777215
 74
     0
 91
        4
 64
     7
 65
   257
 75
     1
175
     1
 42
1.0
 92
        8
 66
     7
 43
1.0
 76
     1
 77
     6
 78
     2
 67
     7
 79
     5
170
     0
171
     0
290
     0
174
     0
 93
        1
 44
0.0
173
     0
291
     1
 45
0.0
1001
ACAD
1000
AcDbSavedByObjectVersion
1070
     0
  0
VISUALSTYLE
  5
36
102
{ACAD_REACTORS
330
2A
102
}
330
2A
100
AcDbVisualStyle
  2
Brighten
 70
    12
 71
     2
 72
     2
 73
     0
 90
        0
 40
-0.6
 41
-30.0
 62
     5
 63
     7
421
 16777215
 74
     1
 91
        4
 64
     7
 65
   257
 75
     1
175
     1
 42
1.0
 92
        8
 66
     7
 43
1.0
 76
     1
 77
     6
 78
     2
 67
     7
 79
     5
170
     0
171
     0
290
     0
174
     0
 93
        1
 44
50.0
173
     0
291
     1
 45
0.0
1001
ACAD
1000
AcDbSavedByObjectVersion
1070
     0
  0
VISUALSTYLE
  5
3A
102
{ACAD_REACTORS
330
2A
102
}
330
2A
100
AcDbVisualStyle
  2
ColorChange
 70
    16
 71
     2
 72
     2
 73
     3
 90
        0
 40
-0.6
 41
-30.0
 62
     5
 63
     8
421
  8421504
 74
     1
 91
        4
 64
     7
 65
   257
 75
     1
175
     1
 42
1.0
 92
        8
 66
     8
424
  8421504
 43
1.0
 76
     1
 77
     6
 78
     2
 67
     7
 79
     5
170
     0
171
     0
290
     0
174
     0
 93
        1
 44
0.0
173
     0
291
     1
 45
0.0
1001
ACAD
1000
AcDbSavedByObjectVersion
1070
     0
  0
VISUALSTYLE
  5
34
102
{ACAD_REACTORS
330
2A
102
}
330
2A
100
AcDbVisualStyle
  2
Conceptual
 70
     9
 71
     3
 72
     2
 73
     0
 90
        0
 40
-0.6
 41
-30.0
 62
     5
 63
     7
421
 16777215
 74
     2
 91
        2
 64
     7
 65
   257
 75
     1
175
     1
 42
40.0
 92
        8
 66
     7
 43
1.0
 76
     1
 77
     6
 78
     2
 67
     7
 79
     3
170
     0
171
     0
290
     0
174
     0
 93
        1
 44
0.0
173
     0
291
     0
 45
0.0
1001
ACAD
1000
AcDbSavedByObjectVersion
1070
     0
  0
VISUALSTYLE
  5
35
102
{ACAD_REACTORS
330
2A
102
}
330
2A
100
AcDbVisualStyle
  2
Dim
 70
    11
 71
     2
 72
     2
 73
     0
 90
        0
 40
-0.6
 41
-30.0
 62
     5
 63
     7
421
 16777215
 74
     1
 91
        4
 64
     7
 65
   257
 75
     1
175
     1
 42
1.0
 92
        8
 66
     7
 43
1.0
 76
     1
 77
     6
 78
     2
 67
     7
 79
     5
170
     0
171
     0
290
     0
174
     0
 93
        1
 44
-50.0
173
     0
291
     1
 45
0.0
1001
ACAD
1000
AcDbSavedByObjectVersion
1070
     0
  0
VISUALSTYLE
  5
39
102
{ACAD_REACTORS
330
2A
102
}
330
2A
100
AcDbVisualStyle
  2
Facepattern
 70
    15
 71
     2
 72
     2
 73
     0
 90
        0
 40
-0.6
 41
-30.0
 62
     5
 63
     7
421
 16777215
 74
     1
 91
        4
 64
     7
 65
   257
 75
     1
175
     1
 42
1.0
 92
        8
 66
     7
 43
1.0
 76
     1
 77
     6
 78
     2
 67
     7
 79
     5
170
     0
171
     0
290
     0
174
     0
 93
        1
 44
0.0
173
     0
291
     1
 45
0.0
1001
ACAD
1000
AcDbSavedByObjectVersion
1070
     0
  0
VISUALSTYLE
  5
2B
102
{ACAD_REACTORS
330
2A
102
}
330
2A
100
AcDbVisualStyle
  2
Flat
 70
     0
 71
     2
 72
     1
 73
     1
 90
        2
 40
-0.6
 41
30.0
 62
     5
 63
     7
421
 16777215
 74
     0
 91
        4
 64
     7
 65
   257
 75
     1
175
     1
 42
1.0
 92
        8
 66
     7
 43
1.0
 76
     1
 77
     6
 78
     2
 67
     7
 79
     5
170
     0
171
     0
290
     0
174
     0
 93
       13
 44
0.0
173
     0
291
     1
 45
0.0
1001
ACAD
1000
AcDbSavedByObjectVersion
1070
     0
  0
VISUALSTYLE
  5
2C
102
{ACAD_REACTORS
330
2A
102
}
330
2A
100
AcDbVisualStyle
  2
FlatWithEdges
 70
     1
 71
     2
 72
     1
 73
     1
 90
        2
 40
-0.6
 41
30.0
 62
     5
 63
     7
421
 16777215
 74
     1
 91
        4
 64
     7
 65
   257
 75
     1
175
     1
 42
1.0
 92
        0
 66
   257
 43
1.0
 76
     1
 77
     6
 78
     2
 67
     7
 79
     5
170
     0
171
     0
290
     0
174
     0
 93
       13
 44
0.0
173
     0
291
     1
 45
0.0
1001
ACAD
1000
AcDbSavedByObjectVersion
1070
     0
  0
VISUALSTYLE
  5
2D
102
{ACAD_REACTORS
330
2A
102
}
330
2A
100
AcDbVisualStyle
  2
Gouraud
 70
     2
 71
     2
 72
     2
 73
     1
 90
        2
 40
-0.6
 41
30.0
 62
     5
 63
     7
421
 16777215
 74
     0
 91
        4
 64
     7
 65
   257
 75
     1
175
     1
 42
1.0
 92
        0
 66
     7
 43
1.0
 76
     1
 77
     6
 78
     2
 67
     7
 79
     5
170
     0
171
     0
290
     0
174
     0
 93
       13
 44
0.0
173
     0
291
     1
 45
0.0
1001
ACAD
1000
AcDbSavedByObjectVersion
1070
     0
  0
VISUALSTYLE
  5
2E
102
{ACAD_REACTORS
330
2A
102
}
330
2A
100
AcDbVisualStyle
  2
GouraudWithEdges
 70
     3
 71
     2
 72
     2
 73
     1
 90
        2
 40
-0.6
 41
30.0
 62
     5
 63
     7
421
 16777215
 74
     1
 91
        4
 64
     7
 65
   257
 75
     1
175
     1
 42
1.0
 92
        0
 66
   257
 43
1.0
 76
     1
 77
     6
 78
     2
 67
     7
 79
     5
170
     0
171
     0
290
     0
174
     0
 93
       13
 44
0.0
173
     0
291
     1
 45
0.0
1001
ACAD
1000
AcDbSavedByObjectVersion
1070
     0
  0
VISUALSTYLE
  5
38
102
{ACAD_REACTORS
330
2A
102
}
330
2A
100
AcDbVisualStyle
  2
Linepattern
 70
    14
 71
     2
 72
     2
 73
     0
 90
        0
 40
-0.6
 41
-30.0
 62
     5
 63
     7
421
 16777215
 74
     1
 91
        4
 64
     7
 65
   257
 75
     7
175
     7
 42
1.0
 92
        8
 66
     7
 43
1.0
 76
     1
 77
     6
 78
     2
 67
     7
 79
     5
170
     0
171
     0
290
     0
174
     0
 93
        1
 44
0.0
173
     0
291
     1
 45
0.0
1001
ACAD
1000
AcDbSavedByObjectVersion
1070
     0
  0
VISUALSTYLE
  5
33
102
{ACAD_REACTORS
330
2A
102
}
330
2A
100
AcDbVisualStyle
  2
Realistic
 70
     8
 71
     2
 72
     2
 73
     0
 90
        0
 40
-0.6
 41
-30.0
 62
     5
 63
     7
421
 16777215
 74
     1
 91
        0
 64
     7
 65
   257
 75
     1
175
     1
 42
1.0
 92
        8
 66
     8
424
  7895160
 43
1.0
 76
     1
 77
     6
 78
     2
 67
     7
 79
     5
170
     0
171
     0
290
     0
174
     0
 93
       13
 44
0.0
173
     0
291
     0
 45
0.0
1001
ACAD
1000
AcDbSavedByObjectVersion
1070
     0
  0
VISUALSTYLE
  5
37
102
{ACAD_REACTORS
330
2A
102
}
330
2A
100
AcDbVisualStyle
  2
Thicken
 70
    13
 71
     2
 72
     2
 73
     0
 90
        0
 40
-0.6
 41
-30.0
 62
     5
 63
     7
421
 16777215
 74
     1
 91
        4
 64
     7
 65
   257
 75
     1
175
     1
 42
1.0
 92
       12
 66
     7
 43
1.0
 76
     1
 77
     6
 78
     2
 67
     7
 79
     5
170
     0
171
     0
290
     0
174
     0
 93
        1
 44
0.0
173
     0
291
     1
 45
0.0
1001
ACAD
1000
AcDbSavedByObjectVersion
1070
     0
  0
DICTIONARYVAR
  5
74C
102
{ACAD_REACTORS
330
74B
102
}
330
74B
100
DictionaryVariables
280
     0
  1
1:1
  0
ENDSEC
  0
EOF
