  0
SECTION
  2
HEADER
  9
$ACADVER
  1
AC1024
  9
$ACADMAINTVER
 70
   109
  9
$DWGCODEPAGE
  3
ANSI_1252
  9
$LASTSAVEDBY
  1
imac
  9
$INSBASE
 10
0.0
 20
0.0
 30
0.0
  9
$EXTMIN
 10
182.5176111596956
 20
194.9663391113281
 30
0.0
  9
$EXTMAX
 10
440.447868347168
 20
589.1026446917603
 30
0.0
  9
$LIMMIN
 10
0.0
 20
0.0
  9
$LIMMAX
 10
12.0
 20
9.0
  9
$ORTHOMODE
 70
     0
  9
$REGENMODE
 70
     1
  9
$FILLMODE
 70
     1
  9
$QTEXTMODE
 70
     0
  9
$MIRRTEXT
 70
     1
  9
$LTSCALE
 40
1.0
  9
$ATTMODE
 70
     1
  9
$TEXTSIZE
 40
0.2
  9
$TRACEWID
 40
0.05
  9
$TEXTSTYLE
  7
Standard
  9
$CLAYER
  8
0
  9
$CELTYPE
  6
ByLayer
  9
$CECOLOR
 62
   256
  9
$CELTSCALE
 40
1.0
  9
$DISPSILH
 70
     0
  9
$DIMSCALE
 40
1.0
  9
$DIMASZ
 40
0.18
  9
$DIMEXO
 40
0.0625
  9
$DIMDLI
 40
0.38
  9
$DIMRND
 40
0.0
  9
$DIMDLE
 40
0.0
  9
$DIMEXE
 40
0.18
  9
$DIMTP
 40
0.0
  9
$DIMTM
 40
0.0
  9
$DIMTXT
 40
0.18
  9
$DIMCEN
 40
0.09
  9
$DIMTSZ
 40
0.0
  9
$DIMTOL
 70
     0
  9
$DIMLIM
 70
     0
  9
$DIMTIH
 70
     1
  9
$DIMTOH
 70
     1
  9
$DIMSE1
 70
     0
  9
$DIMSE2
 70
     0
  9
$DIMTAD
 70
     0
  9
$DIMZIN
 70
     0
  9
$DIMBLK
  1

  9
$DIMASO
 70
     1
  9
$DIMSHO
 70
     1
  9
$DIMPOST
  1

  9
$DIMAPOST
  1

  9
$DIMALT
 70
     0
  9
$DIMALTD
 70
     2
  9
$DIMALTF
 40
25.4
  9
$DIMLFAC
 40
1.0
  9
$DIMTOFL
 70
     0
  9
$DIMTVP
 40
0.0
  9
$DIMTIX
 70
     0
  9
$DIMSOXD
 70
     0
  9
$DIMSAH
 70
     0
  9
$DIMBLK1
  1

  9
$DIMBLK2
  1

  9
$DIMSTYLE
  2
Standard
  9
$DIMCLRD
 70
     0
  9
$DIMCLRE
 70
     0
  9
$DIMCLRT
 70
     0
  9
$DIMTFAC
 40
1.0
  9
$DIMGAP
 40
0.09
  9
$DIMJUST
 70
     0
  9
$DIMSD1
 70
     0
  9
$DIMSD2
 70
     0
  9
$DIMTOLJ
 70
     1
  9
$DIMTZIN
 70
     0
  9
$DIMALTZ
 70
     0
  9
$DIMALTTZ
 70
     0
  9
$DIMUPT
 70
     0
  9
$DIMDEC
 70
     4
  9
$DIMTDEC
 70
     4
  9
$DIMALTU
 70
     2
  9
$DIMALTTD
 70
     2
  9
$DIMTXSTY
  7
Standard
  9
$DIMAUNIT
 70
     0
  9
$DIMADEC
 70
     0
  9
$DIMALTRND
 40
0.0
  9
$DIMAZIN
 70
     0
  9
$DIMDSEP
 70
    46
  9
$DIMATFIT
 70
     3
  9
$DIMFRAC
 70
     0
  9
$DIMLDRBLK
  1

  9
$DIMLUNIT
 70
     2
  9
$DIMLWD
 70
    -2
  9
$DIMLWE
 70
    -2
  9
$DIMTMOVE
 70
     0
  9
$DIMFXL
 40
1.0
  9
$DIMFXLON
 70
     0
  9
$DIMJOGANG
 40
0.7853981633974483
  9
$DIMTFILL
 70
     0
  9
$DIMTFILLCLR
 70
     0
  9
$DIMARCSYM
 70
     0
  9
$DIMLTYPE
  6

  9
$DIMLTEX1
  6

  9
$DIMLTEX2
  6

  9
$DIMTXTDIRECTION
 70
     0
  9
$LUNITS
 70
     2
  9
$LUPREC
 70
     4
  9
$SKETCHINC
 40
0.1
  9
$FILLETRAD
 40
0.5
  9
$AUNITS
 70
     0
  9
$AUPREC
 70
     0
  9
$MENU
  1
.
  9
$ELEVATION
 40
0.0
  9
$PELEVATION
 40
0.0
  9
$THICKNESS
 40
0.0
  9
$LIMCHECK
 70
     0
  9
$CHAMFERA
 40
0.5
  9
$CHAMFERB
 40
0.5
  9
$CHAMFERC
 40
1.0
  9
$CHAMFERD
 40
0.0
  9
$SKPOLY
 70
     0
  9
$TDCREATE
 40
2456968.664270833
  9
$TDUCREATE
 40
2456968.622604167
  9
$TDUPDATE
 40
2457434.702800695
  9
$TDUUPDATE
 40
2457434.661134028
  9
$TDINDWG
 40
0.0002136690
  9
$TDUSRTIMER
 40
0.0002136690
  9
$USRTIMER
 70
     1
  9
$ANGBASE
 50
0.0
  9
$ANGDIR
 70
     0
  9
$PDMODE
 70
     0
  9
$PDSIZE
 40
0.0
  9
$PLINEWID
 40
0.0
  9
$SPLFRAME
 70
     0
  9
$SPLINETYPE
 70
     6
  9
$SPLINESEGS
 70
     8
  9
$HANDSEED
  5
3EE
  9
$SURFTAB1
 70
     6
  9
$SURFTAB2
 70
     6
  9
$SURFTYPE
 70
     6
  9
$SURFU
 70
     6
  9
$SURFV
 70
     6
  9
$UCSBASE
  2

  9
$UCSNAME
  2

  9
$UCSORG
 10
0.0
 20
0.0
 30
0.0
  9
$UCSXDIR
 10
1.0
 20
0.0
 30
0.0
  9
$UCSYDIR
 10
0.0
 20
1.0
 30
0.0
  9
$UCSORTHOREF
  2

  9
$UCSORTHOVIEW
 70
     0
  9
$UCSORGTOP
 10
0.0
 20
0.0
 30
0.0
  9
$UCSORGBOTTOM
 10
0.0
 20
0.0
 30
0.0
  9
$UCSORGLEFT
 10
0.0
 20
0.0
 30
0.0
  9
$UCSORGRIGHT
 10
0.0
 20
0.0
 30
0.0
  9
$UCSORGFRONT
 10
0.0
 20
0.0
 30
0.0
  9
$UCSORGBACK
 10
0.0
 20
0.0
 30
0.0
  9
$PUCSBASE
  2

  9
$PUCSNAME
  2

  9
$PUCSORG
 10
0.0
 20
0.0
 30
0.0
  9
$PUCSXDIR
 10
1.0
 20
0.0
 30
0.0
  9
$PUCSYDIR
 10
0.0
 20
1.0
 30
0.0
  9
$PUCSORTHOREF
  2

  9
$PUCSORTHOVIEW
 70
     0
  9
$PUCSORGTOP
 10
0.0
 20
0.0
 30
0.0
  9
$PUCSORGBOTTOM
 10
0.0
 20
0.0
 30
0.0
  9
$PUCSORGLEFT
 10
0.0
 20
0.0
 30
0.0
  9
$PUCSORGRIGHT
 10
0.0
 20
0.0
 30
0.0
  9
$PUCSORGFRONT
 10
0.0
 20
0.0
 30
0.0
  9
$PUCSORGBACK
 10
0.0
 20
0.0
 30
0.0
  9
$USERI1
 70
     0
  9
$USERI2
 70
     0
  9
$USERI3
 70
     0
  9
$USERI4
 70
     0
  9
$USERI5
 70
     0
  9
$USERR1
 40
0.0
  9
$USERR2
 40
0.0
  9
$USERR3
 40
0.0
  9
$USERR4
 40
0.0
  9
$USERR5
 40
0.0
  9
$WORLDVIEW
 70
     1
  9
$SHADEDGE
 70
     3
  9
$SHADEDIF
 70
    70
  9
$TILEMODE
 70
     1
  9
$MAXACTVP
 70
    64
  9
$PINSBASE
 10
0.0
 20
0.0
 30
0.0
  9
$PLIMCHECK
 70
     0
  9
$PEXTMIN
 10
1.000000000000000E+20
 20
1.000000000000000E+20
 30
1.000000000000000E+20
  9
$PEXTMAX
 10
-1.000000000000000E+20
 20
-1.000000000000000E+20
 30
-1.000000000000000E+20
  9
$PLIMMIN
 10
0.0
 20
0.0
  9
$PLIMMAX
 10
12.0
 20
9.0
  9
$UNITMODE
 70
     0
  9
$VISRETAIN
 70
     1
  9
$PLINEGEN
 70
     0
  9
$PSLTSCALE
 70
     1
  9
$TREEDEPTH
 70
  3020
  9
$CMLSTYLE
  2
Standard
  9
$CMLJUST
 70
     0
  9
$CMLSCALE
 40
1.0
  9
$PROXYGRAPHICS
 70
     1
  9
$MEASUREMENT
 70
     0
  9
$CELWEIGHT
370
    -1
  9
$ENDCAPS
280
     0
  9
$JOINSTYLE
280
     0
  9
$LWDISPLAY
290
     1
  9
$INSUNITS
 70
     1
  9
$HYPERLINKBASE
  1

  9
$STYLESHEET
  1

  9
$XEDIT
290
     1
  9
$CEPSNTYPE
380
     0
  9
$PSTYLEMODE
290
     1
  9
$FINGERPRINTGUID
  2
{4A141194-61E8-7605-02B3-BA7ADEF8C906}
  9
$VERSIONGUID
  2
{FAEB1C32-E019-11D5-929B-00C0DF256EC4}
  9
$EXTNAMES
290
     1
  9
$PSVPSCALE
 40
0.0
  9
$OLESTARTUP
290
     0
  9
$SORTENTS
280
   127
  9
$INDEXCTL
280
     0
  9
$HIDETEXT
280
     1
  9
$XCLIPFRAME
280
     2
  9
$HALOGAP
280
     0
  9
$OBSCOLOR
 70
   257
  9
$OBSLTYPE
280
     0
  9
$INTERSECTIONDISPLAY
280
     0
  9
$INTERSECTIONCOLOR
 70
   257
  9
$DIMASSOC
280
     2
  9
$PROJECTNAME
  1

  9
$CAMERADISPLAY
290
     0
  9
$LENSLENGTH
 40
50.0
  9
$CAMERAHEIGHT
 40
0.0
  9
$STEPSPERSEC
 40
2.0
  9
$STEPSIZE
 40
6.0
  9
$3DDWFPREC
 40
2.0
  9
$PSOLWIDTH
 40
0.25
  9
$PSOLHEIGHT
 40
4.0
  9
$LOFTANG1
 40
1.570796326794896
  9
$LOFTANG2
 40
1.570796326794896
  9
$LOFTMAG1
 40
0.0
  9
$LOFTMAG2
 40
0.0
  9
$LOFTPARAM
 70
     7
  9
$LOFTNORMALS
280
     1
  9
$LATITUDE
 40
37.795
  9
$LONGITUDE
 40
-122.394
  9
$NORTHDIRECTION
 40
0.0
  9
$TIMEZONE
 70
 -8000
  9
$LIGHTGLYPHDISPLAY
280
     1
  9
$TILEMODELIGHTSYNCH
280
     1
  9
$CMATERIAL
347
3C
  9
$SOLIDHIST
280
     1
  9
$SHOWHIST
280
     1
  9
$DWFFRAME
280
     2
  9
$DGNFRAME
280
     2
  9
$REALWORLDSCALE
290
     1
  9
$INTERFERECOLOR
 62
   256
  9
$INTERFEREOBJVS
345
33
  9
$INTERFEREVPVS
346
375
  9
$CSHADOW
280
     0
  9
$SHADOWPLANELOCATION
 40
0.0
  0
ENDSEC
  0
SECTION
  2
CLASSES
  0
CLASS
  1
ACDBDICTIONARYWDFLT
  2
AcDbDictionaryWithDefault
  3
ObjectDBX Classes
 90
        0
 91
        1
280
     0
281
     0
  0
CLASS
  1
VISUALSTYLE
  2
AcDbVisualStyle
  3
ObjectDBX Classes
 90
     4095
 91
       26
280
     0
281
     0
  0
CLASS
  1
MATERIAL
  2
AcDbMaterial
  3
ObjectDBX Classes
 90
     1153
 91
        3
280
     0
281
     0
  0
CLASS
  1
SUN
  2
AcDbSun
  3
SCENEOE
 90
     1153
 91
        1
280
     0
281
     0
  0
CLASS
  1
TABLESTYLE
  2
AcDbTableStyle
  3
ObjectDBX Classes
 90
     4095
 91
        1
280
     0
281
     0
  0
CLASS
  1
SCALE
  2
AcDbScale
  3
ObjectDBX Classes
 90
     1153
 91
       17
280
     0
281
     0
  0
CLASS
  1
MLEADERSTYLE
  2
AcDbMLeaderStyle
  3
ACDB_MLEADERSTYLE_CLASS
 90
     4095
 91
        1
280
     0
281
     0
  0
CLASS
  1
ACDBSECTIONVIEWSTYLE
  2
AcDbSectionViewStyle
  3
ObjectDBX Classes
 90
     1025
 91
        1
280
     0
281
     0
  0
CLASS
  1
ACDBDETAILVIEWSTYLE
  2
AcDbDetailViewStyle
  3
ObjectDBX Classes
 90
     1025
 91
        1
280
     0
281
     0
  0
CLASS
  1
DICTIONARYVAR
  2
AcDbDictionaryVar
  3
ObjectDBX Classes
 90
        0
 91
        5
280
     0
281
     0
  0
CLASS
  1
CELLSTYLEMAP
  2
AcDbCellStyleMap
  3
ObjectDBX Classes
 90
     1152
 91
        1
280
     0
281
     0
  0
ENDSEC
  0
SECTION
  2
TABLES
  0
TABLE
  2
VPORT
  5
8
330
0
100
AcDbSymbolTable
 70
     1
  0
VPORT
  5
29
330
8
100
AcDbSymbolTableRecord
100
AcDbViewportTableRecord
  2
*Active
 70
     0
 10
0.0
 20
0.0
 11
1.0
 21
1.0
 12
349.5030060120241
 22
0.0
 13
0.0
 23
0.0
 14
0.5
 24
0.5
 15
0.5
 25
0.5
 16
0.0
 26
0.0
 36
1.0
 17
288.0
 27
384.0
 37
0.0
 40
792.0
 41
1.655310621242485
 42
50.0
 43
0.0
 44
0.0
 50
0.0
 51
0.0
 71
     0
 72
   100
 73
     1
 74
     3
 75
     0
 76
     0
 77
     0
 78
     0
281
     0
 65
     1
110
0.0
120
0.0
130
0.0
111
1.0
121
0.0
131
0.0
112
0.0
122
1.0
132
0.0
 79
     0
146
0.0
348
2F
 60
     3
 61
     5
292
     1
282
     1
141
0.0
142
0.0
 63
   250
361
3F
1001
ACAD_NAV_VCDISPLAY
1070
     3
  0
ENDTAB
  0
TABLE
  2
LTYPE
  5
5
330
0
100
AcDbSymbolTable
 70
     2
  0
LTYPE
  5
14
330
5
100
AcDbSymbolTableRecord
100
AcDbLinetypeTableRecord
  2
ByBlock
 70
     0
  3

 72
    65
 73
     0
 40
0.0
  0
LTYPE
  5
15
330
5
100
AcDbSymbolTableRecord
100
AcDbLinetypeTableRecord
  2
ByLayer
 70
     0
  3

 72
    65
 73
     0
 40
0.0
  0
LTYPE
  5
16
330
5
100
AcDbSymbolTableRecord
100
AcDbLinetypeTableRecord
  2
Continuous
 70
     0
  3
Solid line
 72
    65
 73
     0
 40
0.0
  0
LTYPE
  5
395
330
5
100
AcDbSymbolTableRecord
100
AcDbLinetypeTableRecord
  2
PHANTOM2
 70
     0
  3
Phantom (.5x) ___ _ _ ___ _ _ ___ _ _ ___ _ _
 72
    65
 73
     6
 40
1.25
 49
0.625
 74
     0
 49
-0.125
 74
     0
 49
0.125
 74
     0
 49
-0.125
 74
     0
 49
0.125
 74
     0
 49
-0.125
 74
     0
  0
ENDTAB
  0
TABLE
  2
LAYER
  5
2
102
{ACAD_XDICTIONARY
360
3A0
102
}
330
0
100
AcDbSymbolTable
 70
     2
  0
LAYER
  5
10
330
2
100
AcDbSymbolTableRecord
100
AcDbLayerTableRecord
  2
0
 70
     0
 62
     7
  6
Continuous
370
    -3
390
F
347
3E
  0
LAYER
  5
40
330
2
100
AcDbSymbolTableRecord
100
AcDbLayerTableRecord
  2
Linee visibili 2D
 70
     0
 62
     7
  6
Continuous
370
    -3
390
F
347
3E
  0
ENDTAB
  0
TABLE
  2
STYLE
  5
3
330
0
100
AcDbSymbolTable
 70
     1
  0
STYLE
  5
11
330
3
100
AcDbSymbolTableRecord
100
AcDbTextStyleTableRecord
  2
Standard
 70
     0
 40
0.0
 41
1.0
 50
0.0
 71
     0
 42
0.2
  3
txt
  4

  0
ENDTAB
  0
TABLE
  2
VIEW
  5
6
330
0
100
AcDbSymbolTable
 70
     1
  0
ENDTAB
  0
TABLE
  2
UCS
  5
7
330
0
100
AcDbSymbolTable
 70
     0
  0
ENDTAB
  0
TABLE
  2
APPID
  5
9
330
0
100
AcDbSymbolTable
 70
     2
  0
APPID
  5
12
330
9
100
AcDbSymbolTableRecord
100
AcDbRegAppTableRecord
  2
ACAD
 70
     0
  0
APPID
  5
3AC
330
9
100
AcDbSymbolTableRecord
100
AcDbRegAppTableRecord
  2
ACAD_NAV_VCDISPLAY
 70
     0
  0
ENDTAB
  0
TABLE
  2
DIMSTYLE
  5
A
330
0
100
AcDbSymbolTable
 70
     1
100
AcDbDimStyleTable
 71
     0
  0
DIMSTYLE
105
27
330
A
100
AcDbSymbolTableRecord
100
AcDbDimStyleTableRecord
  2
Standard
 70
     0
340
11
  0
ENDTAB
  0
TABLE
  2
BLOCK_RECORD
  5
1
330
0
100
AcDbSymbolTable
 70
     1
  0
BLOCK_RECORD
  5
1F
330
1
100
AcDbSymbolTableRecord
100
AcDbBlockTableRecord
  2
*Model_Space
340
22
 70
     0
280
     1
281
     0
  0
BLOCK_RECORD
  5
1B
330
1
100
AcDbSymbolTableRecord
100
AcDbBlockTableRecord
  2
*Paper_Space
340
1E
 70
     0
280
     1
281
     0
  0
BLOCK_RECORD
  5
23
330
1
100
AcDbSymbolTableRecord
100
AcDbBlockTableRecord
  2
*Paper_Space0
340
26
 70
     0
280
     1
281
     0
  0
ENDTAB
  0
ENDSEC
  0
SECTION
  2
BLOCKS
  0
BLOCK
  5
20
330
1F
100
AcDbEntity
  8
0
100
AcDbBlockBegin
  2
*Model_Space
 70
     0
 10
0.0
 20
0.0
 30
0.0
  3
*Model_Space
  1

  0
ENDBLK
  5
21
330
1F
100
AcDbEntity
  8
0
100
AcDbBlockEnd
  0
BLOCK
  5
1C
330
1B
100
AcDbEntity
 67
     1
  8
0
100
AcDbBlockBegin
  2
*Paper_Space
 70
     0
 10
0.0
 20
0.0
 30
0.0
  3
*Paper_Space
  1

  0
ENDBLK
  5
1D
330
1B
100
AcDbEntity
 67
     1
  8
0
100
AcDbBlockEnd
  0
BLOCK
  5
24
330
23
100
AcDbEntity
 67
     1
  8
0
100
AcDbBlockBegin
  2
*Paper_Space0
 70
     0
 10
0.0
 20
0.0
 30
0.0
  3
*Paper_Space0
  1

  0
ENDBLK
  5
25
330
23
100
AcDbEntity
 67
     1
  8
0
100
AcDbBlockEnd
  0
ENDSEC
  0
SECTION
  2
ENTITIES
  0
POLYLINE
  5
41
330
1F
100
AcDbEntity
  8
Linee visibili 2D
 62
     7
420
 16777215
370
     9
100
AcDb2dPolyline
 66
     1
 10
0.0
 20
0.0
 30
0.0
  0
VERTEX
  5
42
330
41
100
AcDbEntity
  8
Linee visibili 2D
 62
     7
420
 16777215
370
     9
100
AcDbVertex
100
AcDb2dVertex
 10
390.794049701457
 20
576.1631450186396
 30
0.0
  0
VERTEX
  5
43
330
41
100
AcDbEntity
  8
Linee visibili 2D
 62
     7
420
 16777215
370
     9
100
AcDbVertex
100
AcDb2dVertex
 10
390.7852497016793
 20
575.6387450318871
 30
0.0
  0
SEQEND
  5
44
330
41
100
AcDbEntity
  8
Linee visibili 2D
 62
     7
420
 16777215
370
     9
  0
POLYLINE
  5
45
330
1F
100
AcDbEntity
  8
Linee visibili 2D
 62
     7
420
 16777215
370
     9
100
AcDb2dPolyline
 66
     1
 10
0.0
 20
0.0
 30
0.0
  0
VERTEX
  5
46
330
45
100
AcDbEntity
  8
Linee visibili 2D
 62
     7
420
 16777215
370
     9
100
AcDbVertex
100
AcDb2dVertex
 10
390.8594496998048
 20
579.890644924475
 30
0.0
  0
VERTEX
  5
47
330
45
100
AcDbEntity
  8
Linee visibili 2D
 62
     7
420
 16777215
370
     9
100
AcDbVertex
100
AcDb2dVertex
 10
390.8516497000019
 20
579.4209449363406
 30
0.0
  0
SEQEND
  5
48
330
45
100
AcDbEntity
  8
Linee visibili 2D
 62
     7
420
 16777215
370
     9
  0
POLYLINE
  5
49
330
1F
100
AcDbEntity
  8
Linee visibili 2D
 62
     7
420
 16777215
370
     9
100
AcDb2dPolyline
 66
     1
 10
0.0
 20
0.0
 30
0.0
  0
VERTEX
  5
4A
330
49
100
AcDbEntity
  8
Linee visibili 2D
 62
     7
420
 16777215
370
     9
100
AcDbVertex
100
AcDb2dVertex
 10
427.6358487707548
 20
575.6387450318871
 30
0.0
  0
VERTEX
  5
4B
330
49
100
AcDbEntity
  8
Linee visibili 2D
 62
     7
420
 16777215
370
     9
100
AcDbVertex
100
AcDb2dVertex
 10
427.5615606689462
 20
579.890644924475
 30
0.0
  0
SEQEND
  5
4C
330
49
100
AcDbEntity
  8
Linee visibili 2D
 62
     7
420
 16777215
370
     9
  0
POLYLINE
  5
4D
330
1F
100
AcDbEntity
  8
Linee visibili 2D
 62
     7
420
 16777215
370
     9
100
AcDb2dPolyline
 66
     1
 10
0.0
 20
0.0
 30
0.0
  0
VERTEX
  5
4E
330
4D
100
AcDbEntity
  8
Linee visibili 2D
 62
     7
420
 16777215
370
     9
100
AcDbVertex
100
AcDb2dVertex
 10
387.8565606689445
 20
576.233945016851
 30
0.0
  0
VERTEX
  5
4F
330
4D
100
AcDbEntity
  8
Linee visibili 2D
 62
     7
420
 16777215
370
     9
100
AcDbVertex
100
AcDb2dVertex
 10
390.8018497012599
 20
576.233945016851
 30
0.0
  0
SEQEND
  5
50
330
4D
100
AcDbEntity
  8
Linee visibili 2D
 62
     7
420
 16777215
370
     9
  0
POLYLINE
  5
51
330
1F
100
AcDbEntity
  8
Linee visibili 2D
 62
     7
420
 16777215
370
     9
100
AcDb2dPolyline
 66
     1
 10
0.0
 20
0.0
 30
0.0
  0
VERTEX
  5
52
330
51
100
AcDbEntity
  8
Linee visibili 2D
 62
     7
420
 16777215
370
     9
100
AcDbVertex
100
AcDb2dVertex
 10
390.8565606689444
 20
579.3521449380786
 30
0.0
  0
VERTEX
  5
53
330
51
100
AcDbEntity
  8
Linee visibili 2D
 62
     7
420
 16777215
370
     9
100
AcDbVertex
100
AcDb2dVertex
 10
387.8565606689445
 20
579.3521449380786
 30
0.0
  0
SEQEND
  5
54
330
51
100
AcDbEntity
  8
Linee visibili 2D
 62
     7
420
 16777215
370
     9
  0
POLYLINE
  5
55
330
1F
100
AcDbEntity
  8
Linee visibili 2D
 62
     7
420
 16777215
370
     9
100
AcDb2dPolyline
 66
     1
 10
0.0
 20
0.0
 30
0.0
  0
VERTEX
  5
56
330
55
100
AcDbEntity
  8
Linee visibili 2D
 62
     7
420
 16777215
370
     9
100
AcDbVertex
100
AcDb2dVertex
 10
254.5586531430526
 20
588.7798446999149
 30
0.0
  0
VERTEX
  5
57
330
55
100
AcDbEntity
  8
Linee visibili 2D
 62
     7
420
 16777215
370
     9
100
AcDbVertex
100
AcDb2dVertex
 10
378.6319500086975
 20
579.9453449230932
 30
0.0
  0
SEQEND
  5
58
330
55
100
AcDbEntity
  8
Linee visibili 2D
 62
     7
420
 16777215
370
     9
  0
SPLINE
  5
59
330
1F
100
AcDbEntity
  8
Linee visibili 2D
 62
     7
420
 16777215
370
     9
100
AcDbSpline
210
0.0
220
0.0
230
1.0
 70
     8
 71
     3
 72
     8
 73
     4
 74
     0
 42
0.0000000001
 43
0.0000000001
 40
0.0
 40
0.0
 40
0.0
 40
0.0
 40
1.0
 40
1.0
 40
1.0
 40
1.0
 10
265.7490528603594
 20
432.4258486497492
 30
0.0
 10
265.7481528603821
 20
432.4649486487614
 30
0.0
 10
265.7315606689444
 20
432.4805606689451
 30
0.0
 10
265.6924528617892
 20
432.4824486483193
 30
0.0
  0
POLYLINE
  5
5A
330
1F
100
AcDbEntity
  8
Linee visibili 2D
 62
     7
420
 16777215
370
     9
100
AcDb2dPolyline
 66
     1
 10
0.0
 20
0.0
 30
0.0
  0
VERTEX
  5
5B
330
5A
100
AcDbEntity
  8
Linee visibili 2D
 62
     7
420
 16777215
370
     9
100
AcDbVertex
100
AcDb2dVertex
 10
265.8008528590508
 20
426.5293487987073
 30
0.0
  0
VERTEX
  5
5C
330
5A
100
AcDbEntity
  8
Linee visibili 2D
 62
     7
420
 16777215
370
     9
100
AcDbVertex
100
AcDb2dVertex
 10
265.7490528603594
 20
432.4258486497492
 30
0.0
  0
SEQEND
  5
5D
330
5A
100
AcDbEntity
  8
Linee visibili 2D
 62
     7
420
 16777215
370
     9
  0
POLYLINE
  5
5E
330
1F
100
AcDbEntity
  8
Linee visibili 2D
 62
     7
420
 16777215
370
     9
100
AcDb2dPolyline
 66
     1
 10
0.0
 20
0.0
 30
0.0
  0
VERTEX
  5
5F
330
5E
100
AcDbEntity
  8
Linee visibili 2D
 62
     7
420
 16777215
370
     9
100
AcDbVertex
100
AcDb2dVertex
 10
241.5977534704725
 20
449.4907482186536
 30
0.0
  0
VERTEX
  5
60
330
5E
100
AcDbEntity
  8
Linee visibili 2D
 62
     7
420
 16777215
370
     9
100
AcDbVertex
100
AcDb2dVertex
 10
237.4024535764547
 20
449.5274482177264
 30
0.0
  0
SEQEND
  5
61
330
5E
100
AcDbEntity
  8
Linee visibili 2D
 62
     7
420
 16777215
370
     9
  0
POLYLINE
  5
62
330
1F
100
AcDbEntity
  8
Linee visibili 2D
 62
     7
420
 16777215
370
     9
100
AcDb2dPolyline
 66
     1
 10
0.0
 20
0.0
 30
0.0
  0
VERTEX
  5
63
330
62
100
AcDbEntity
  8
Linee visibili 2D
 62
     7
420
 16777215
370
     9
100
AcDbVertex
100
AcDb2dVertex
 10
237.4024535764547
 20
415.4375606689455
 30
0.0
  0
VERTEX
  5
64
330
62
100
AcDbEntity
  8
Linee visibili 2D
 62
     7
420
 16777215
370
     9
100
AcDbVertex
100
AcDb2dVertex
 10
241.5977534704725
 20
415.4736490779978
 30
0.0
  0
SEQEND
  5
65
330
62
100
AcDbEntity
  8
Linee visibili 2D
 62
     7
420
 16777215
370
     9
  0
POLYLINE
  5
66
330
1F
100
AcDbEntity
  8
Linee visibili 2D
 62
     7
420
 16777215
370
     9
100
AcDb2dPolyline
 66
     1
 10
0.0
 20
0.0
 30
0.0
  0
VERTEX
  5
67
330
66
100
AcDbEntity
  8
Linee visibili 2D
 62
     7
420
 16777215
370
     9
100
AcDbVertex
100
AcDb2dVertex
 10
237.4024535764547
 20
446.6245606689454
 30
0.0
  0
VERTEX
  5
68
330
66
100
AcDbEntity
  8
Linee visibili 2D
 62
     7
420
 16777215
370
     9
100
AcDbVertex
100
AcDb2dVertex
 10
234.2842536552271
 20
446.5977482917369
 30
0.0
  0
SEQEND
  5
69
330
66
100
AcDbEntity
  8
Linee visibili 2D
 62
     7
420
 16777215
370
     9
  0
POLYLINE
  5
6A
330
1F
100
AcDbEntity
  8
Linee visibili 2D
 62
     7
420
 16777215
370
     9
100
AcDb2dPolyline
 66
     1
 10
0.0
 20
0.0
 30
0.0
  0
VERTEX
  5
6B
330
6A
100
AcDbEntity
  8
Linee visibili 2D
 62
     7
420
 16777215
370
     9
100
AcDbVertex
100
AcDb2dVertex
 10
236.1128536090328
 20
418.351149005306
 30
0.0
  0
VERTEX
  5
6C
330
6A
100
AcDbEntity
  8
Linee visibili 2D
 62
     7
420
 16777215
370
     9
100
AcDbVertex
100
AcDb2dVertex
 10
237.4024535764547
 20
418.3399490055889
 30
0.0
  0
SEQEND
  5
6D
330
6A
100
AcDbEntity
  8
Linee visibili 2D
 62
     7
420
 16777215
370
     9
  0
POLYLINE
  5
6E
330
1F
100
AcDbEntity
  8
Linee visibili 2D
 62
     7
420
 16777215
370
     9
100
AcDb2dPolyline
 66
     1
 10
0.0
 20
0.0
 30
0.0
  0
VERTEX
  5
6F
330
6E
100
AcDbEntity
  8
Linee visibili 2D
 62
     7
420
 16777215
370
     9
100
AcDbVertex
100
AcDb2dVertex
 10
234.2842536552271
 20
418.3672490048993
 30
0.0
  0
VERTEX
  5
70
330
6E
100
AcDbEntity
  8
Linee visibili 2D
 62
     7
420
 16777215
370
     9
100
AcDbVertex
100
AcDb2dVertex
 10
235.1797536326048
 20
418.3594490050963
 30
0.0
  0
SEQEND
  5
71
330
6E
100
AcDbEntity
  8
Linee visibili 2D
 62
     7
420
 16777215
370
     9
  0
SPLINE
  5
72
330
1F
100
AcDbEntity
  8
Linee visibili 2D
 62
     7
420
 16777215
370
     9
100
AcDbSpline
210
0.0
220
0.0
230
1.0
 70
     8
 71
     3
 72
     8
 73
     4
 74
     0
 42
0.0000000001
 43
0.0000000001
 40
0.0
 40
0.0
 40
0.0
 40
0.0
 40
1.0
 40
1.0
 40
1.0
 40
1.0
 10
241.5977534704725
 20
415.4736490779978
 30
0.0
 10
241.6367534694873
 20
415.4756490779472
 30
0.0
 10
241.6528534690806
 20
415.4912490775532
 30
0.0
 10
241.6543534690427
 20
415.5303490765654
 30
0.0
  0
SPLINE
  5
73
330
1F
100
AcDbEntity
  8
Linee visibili 2D
 62
     7
420
 16777215
370
     9
100
AcDbSpline
210
0.0
220
0.0
230
1.0
 70
     8
 71
     3
 72
     8
 73
     4
 74
     0
 42
0.0000000001
 43
0.0000000001
 40
0.0
 40
0.0
 40
0.0
 40
0.0
 40
1.0
 40
1.0
 40
1.0
 40
1.0
 10
241.6543534690427
 20
449.433648220096
 30
0.0
 10
241.6528534690806
 20
449.4727482191083
 30
0.0
 10
241.6367534694873
 20
449.4893482186889
 30
0.0
 10
241.5977534704725
 20
449.4903482186637
 30
0.0
  0
POLYLINE
  5
74
330
1F
100
AcDbEntity
  8
Linee visibili 2D
 62
     7
420
 16777215
370
     9
100
AcDb2dPolyline
 66
     1
 10
0.0
 20
0.0
 30
0.0
  0
VERTEX
  5
75
330
74
100
AcDbEntity
  8
Linee visibili 2D
 62
     7
420
 16777215
370
     9
100
AcDbVertex
100
AcDb2dVertex
 10
263.6504529133745
 20
432.4824486483193
 30
0.0
  0
VERTEX
  5
76
330
74
100
AcDbEntity
  8
Linee visibili 2D
 62
     7
420
 16777215
370
     9
100
AcDbVertex
100
AcDb2dVertex
 10
263.6504529133745
 20
432.5176486474301
 30
0.0
  0
SEQEND
  5
77
330
74
100
AcDbEntity
  8
Linee visibili 2D
 62
     7
420
 16777215
370
     9
  0
SPLINE
  5
78
330
1F
100
AcDbEntity
  8
Linee visibili 2D
 62
     7
420
 16777215
370
     9
100
AcDbSpline
210
0.0
220
0.0
230
1.0
 70
     8
 71
     3
 72
     8
 73
     4
 74
     0
 42
0.0000000001
 43
0.0000000001
 40
0.0
 40
0.0
 40
0.0
 40
0.0
 40
1.0
 40
1.0
 40
1.0
 40
1.0
 10
390.8945606689449
 20
577.7930449774649
 30
0.0
 10
390.8945606689449
 20
577.9776449728014
 30
0.0
 10
390.8955606689451
 20
578.1621449681406
 30
0.0
 10
390.8965606689453
 20
578.3462449634899
 30
0.0
  0
SPLINE
  5
79
330
1F
100
AcDbEntity
  8
Linee visibili 2D
 62
     7
420
 16777215
370
     9
100
AcDbSpline
210
0.0
220
0.0
230
1.0
 70
     8
 71
     3
 72
    20
 73
    16
 74
     0
 42
0.0000000001
 43
0.0000000001
 40
0.0
 40
0.0
 40
0.0
 40
0.0
 40
1.0
 40
1.0
 40
1.0
 40
2.0
 40
2.0
 40
2.0
 40
3.0
 40
3.0
 40
3.0
 40
4.0
 40
4.0
 40
4.0
 40
5.0
 40
5.0
 40
5.0
 40
5.0
 10
390.7949497014342
 20
576.1690450184905
 30
0.0
 10
390.794049701457
 20
576.1494450189856
 30
0.0
 10
390.7969497013837
 20
576.1885606689457
 30
0.0
 10
390.7988497013357
 20
576.1983450177504
 30
0.0
 10
390.8037497012119
 20
576.252560668945
 30
0.0
 10
390.8086497010882
 20
576.306745015012
 30
0.0
 10
390.814560668945
 20
576.3609450136427
 30
0.0
 10
390.8203497007926
 20
576.42874501193
 30
0.0
 10
390.8262497006435
 20
576.4966450102146
 30
0.0
 10
390.832049700497
 20
576.5650450084867
 30
0.0
 10
390.8428497002242
 20
576.7012450050461
 30
0.0
 10
390.8526496999766
 20
576.8374450016053
 30
0.0
 10
390.8613496997568
 20
576.9736449981646
 30
0.0
 10
390.8779496993375
 20
577.246644991268
 30
0.0
 10
390.8897496990394
 20
577.5195606689448
 30
0.0
 10
390.8945606689449
 20
577.7930449774649
 30
0.0
  0
SPLINE
  5
7A
330
1F
100
AcDbEntity
  8
Linee visibili 2D
 62
     7
420
 16777215
370
     9
100
AcDbSpline
210
0.0
220
0.0
230
1.0
 70
     8
 71
     3
 72
     8
 73
     4
 74
     0
 42
0.0000000001
 43
0.0000000001
 40
0.0
 40
0.0
 40
0.0
 40
0.0
 40
1.0
 40
1.0
 40
1.0
 40
1.0
 10
390.8965606689453
 20
578.3462449634899
 30
0.0
 10
390.8916496989914
 20
578.7012449545218
 30
0.0
 10
390.8770496993602
 20
579.0557449455664
 30
0.0
 10
390.8526496999766
 20
579.410244936611
 30
0.0
  0
POLYLINE
  5
7B
330
1F
100
AcDbEntity
  8
Linee visibili 2D
 62
     7
420
 16777215
370
     9
100
AcDb2dPolyline
 66
     1
 10
0.0
 20
0.0
 30
0.0
  0
VERTEX
  5
7C
330
7B
100
AcDbEntity
  8
Linee visibili 2D
 62
     7
420
 16777215
370
     9
100
AcDbVertex
100
AcDb2dVertex
 10
409.2100492362297
 20
579.890644924475
 30
0.0
  0
VERTEX
  5
7D
330
7B
100
AcDbEntity
  8
Linee visibili 2D
 62
     7
420
 16777215
370
     9
100
AcDbVertex
100
AcDb2dVertex
 10
427.5430487730991
 20
579.890644924475
 30
0.0
  0
SEQEND
  5
7E
330
7B
100
AcDbEntity
  8
Linee visibili 2D
 62
     7
420
 16777215
370
     9
  0
SPLINE
  5
7F
330
1F
100
AcDbEntity
  8
Linee visibili 2D
 62
     7
420
 16777215
370
     9
100
AcDbSpline
210
0.0
220
0.0
230
1.0
 70
    24
 71
     3
 72
    23
 73
    19
 74
     0
 42
0.0000000001
 43
0.0000000001
 40
0.0
 40
0.0
 40
0.0
 40
0.0
 40
1.0
 40
1.0
 40
1.0
 40
2.0
 40
2.0
 40
2.0
 40
3.0
 40
3.0
 40
3.0
 40
4.0
 40
4.0
 40
4.0
 40
5.0
 40
5.0
 40
5.0
 40
6.0
 40
6.0
 40
6.0
 40
6.0
 10
390.8779496993375
 20
579.890644924475
 30
0.0
 10
390.8457497001509
 20
579.890644924475
 30
0.0
 10
390.908249698572
 20
579.890644924475
 30
0.0
 10
390.9248496981527
 20
579.890644924475
 30
0.0
 10
391.0488496950202
 20
579.890644924475
 30
0.0
 10
391.1738496918624
 20
579.890644924475
 30
0.0
 10
391.2979496887274
 20
579.890644924475
 30
0.0
 10
391.9111496732367
 20
579.890644924475
 30
0.0
 10
392.5235606689457
 20
579.890644924475
 30
0.0
 10
393.1367496422754
 20
579.890644924475
 30
0.0
 10
393.9024496229322
 20
579.890644924475
 30
0.0
 10
394.6670496036168
 20
579.890644924475
 30
0.0
 10
395.4317495842988
 20
579.890644924475
 30
0.0
 10
396.9639495455922
 20
579.890644924475
 30
0.0
 10
398.4951495069108
 20
579.890644924475
 30
0.0
 10
400.0274494682016
 20
579.890644924475
 30
0.0
 10
403.0879493908869
 20
579.890644924475
 30
0.0
 10
406.1485606689457
 20
579.890644924475
 30
0.0
 10
409.2100492362297
 20
579.890644924475
 30
0.0
  0
SPLINE
  5
80
330
1F
100
AcDbEntity
  8
Linee visibili 2D
 62
     7
420
 16777215
370
     9
100
AcDbSpline
210
0.0
220
0.0
230
1.0
 70
    24
 71
     3
 72
    23
 73
    19
 74
     0
 42
0.0000000001
 43
0.0000000001
 40
0.0
 40
0.0
 40
0.0
 40
0.0
 40
1.0
 40
1.0
 40
1.0
 40
2.0
 40
2.0
 40
2.0
 40
3.0
 40
3.0
 40
3.0
 40
4.0
 40
4.0
 40
4.0
 40
5.0
 40
5.0
 40
5.0
 40
6.0
 40
6.0
 40
6.0
 40
6.0
 10
427.6172487712247
 20
575.6387450318871
 30
0.0
 10
427.6904487693754
 20
575.6387450318871
 30
0.0
 10
427.5440487730739
 20
575.6387450318871
 30
0.0
 10
427.506948774011
 20
575.6387450318871
 30
0.0
 10
427.3701487774669
 20
575.6387450318871
 30
0.0
 10
427.2324487809455
 20
575.6387450318871
 30
0.0
 10
427.0957487843989
 20
575.6387450318871
 30
0.0
 10
426.5137487991014
 20
575.6387450318871
 30
0.0
 10
425.931748813804
 20
575.6387450318871
 30
0.0
 10
425.3486488285343
 20
575.6387450318871
 30
0.0
 10
424.5801488479482
 20
575.6387450318871
 30
0.0
 10
423.8115606689461
 20
575.6387450318871
 30
0.0
 10
423.0440488867534
 20
575.6387450318871
 30
0.0
 10
421.5069489255838
 20
575.6387450318871
 30
0.0
 10
419.9697489644168
 20
575.6387450318871
 30
0.0
 10
418.4326490032471
 20
575.6387450318871
 30
0.0
 10
415.3584490809079
 20
575.6387450318871
 30
0.0
 10
412.2842491585688
 20
575.6387450318871
 30
0.0
 10
409.2100492362297
 20
575.6387450318871
 30
0.0
  0
POLYLINE
  5
81
330
1F
100
AcDbEntity
  8
Linee visibili 2D
 62
     7
420
 16777215
370
     9
100
AcDb2dPolyline
 66
     1
 10
0.0
 20
0.0
 30
0.0
  0
VERTEX
  5
82
330
81
100
AcDbEntity
  8
Linee visibili 2D
 62
     7
420
 16777215
370
     9
100
AcDbVertex
100
AcDb2dVertex
 10
409.2100492362297
 20
575.6387450318871
 30
0.0
  0
VERTEX
  5
83
330
81
100
AcDbEntity
  8
Linee visibili 2D
 62
     7
420
 16777215
370
     9
100
AcDbVertex
100
AcDb2dVertex
 10
390.8028497012347
 20
575.6387450318871
 30
0.0
  0
SEQEND
  5
84
330
81
100
AcDbEntity
  8
Linee visibili 2D
 62
     7
420
 16777215
370
     9
  0
POLYLINE
  5
85
330
1F
100
AcDbEntity
  8
Linee visibili 2D
 62
     7
420
 16777215
370
     9
100
AcDb2dPolyline
 66
     1
 10
0.0
 20
0.0
 30
0.0
  0
VERTEX
  5
86
330
85
100
AcDbEntity
  8
Linee visibili 2D
 62
     7
420
 16777215
370
     9
100
AcDbVertex
100
AcDb2dVertex
 10
264.8985606689457
 20
460.2403479470958
 30
0.0
  0
VERTEX
  5
87
330
85
100
AcDbEntity
  8
Linee visibili 2D
 62
     7
420
 16777215
370
     9
100
AcDbVertex
100
AcDb2dVertex
 10
264.8985606689457
 20
569.1475606689455
 30
0.0
  0
SEQEND
  5
88
330
85
100
AcDbEntity
  8
Linee visibili 2D
 62
     7
420
 16777215
370
     9
  0
POLYLINE
  5
89
330
1F
100
AcDbEntity
  8
Linee visibili 2D
 62
     7
420
 16777215
370
     9
100
AcDb2dPolyline
 66
     1
 10
0.0
 20
0.0
 30
0.0
  0
VERTEX
  5
8A
330
89
100
AcDbEntity
  8
Linee visibili 2D
 62
     7
420
 16777215
370
     9
100
AcDbVertex
100
AcDb2dVertex
 10
260.6465606689453
 20
460.2403479470958
 30
0.0
  0
VERTEX
  5
8B
330
89
100
AcDbEntity
  8
Linee visibili 2D
 62
     7
420
 16777215
370
     9
100
AcDbVertex
100
AcDb2dVertex
 10
260.6465606689453
 20
569.1475606689455
 30
0.0
  0
SEQEND
  5
8C
330
89
100
AcDbEntity
  8
Linee visibili 2D
 62
     7
420
 16777215
370
     9
  0
POLYLINE
  5
8D
330
1F
100
AcDbEntity
  8
Linee visibili 2D
 62
     7
420
 16777215
370
     9
100
AcDb2dPolyline
 66
     1
 10
0.0
 20
0.0
 30
0.0
  0
VERTEX
  5
8E
330
8D
100
AcDbEntity
  8
Linee visibili 2D
 62
     7
420
 16777215
370
     9
100
AcDbVertex
100
AcDb2dVertex
 10
261.9746529557087
 20
432.5176486474301
 30
0.0
  0
VERTEX
  5
8F
330
8D
100
AcDbEntity
  8
Linee visibili 2D
 62
     7
420
 16777215
370
     9
100
AcDbVertex
100
AcDb2dVertex
 10
263.570352915398
 20
432.5176486474301
 30
0.0
  0
SEQEND
  5
90
330
8D
100
AcDbEntity
  8
Linee visibili 2D
 62
     7
420
 16777215
370
     9
  0
SPLINE
  5
91
330
1F
100
AcDbEntity
  8
Linee visibili 2D
 62
     7
420
 16777215
370
     9
100
AcDbSpline
210
0.0
220
0.0
230
1.0
 70
     8
 71
     3
 72
    29
 73
    25
 74
     0
 42
0.0000000001
 43
0.0000000001
 40
0.0
 40
0.0
 40
0.0
 40
0.0
 40
1.0
 40
1.0
 40
1.0
 40
2.0
 40
2.0
 40
2.0
 40
3.0
 40
3.0
 40
3.0
 40
4.0
 40
4.0
 40
4.0
 40
5.0
 40
5.0
 40
5.0
 40
6.0
 40
6.0
 40
6.0
 40
7.0
 40
7.0
 40
7.0
 40
8.0
 40
8.0
 40
8.0
 40
8.0
 10
263.570352915398
 20
432.5176486474301
 30
0.0
 10
263.570352915398
 20
434.2520486036155
 30
0.0
 10
263.570352915398
 20
435.9863485598034
 30
0.0
 10
263.570352915398
 20
437.7207485159888
 30
0.0
 10
263.570352915398
 20
438.5879484940814
 30
0.0
 10
263.570352915398
 20
439.4551484721741
 30
0.0
 10
263.570352915398
 20
440.3228484502542
 30
0.0
 10
263.570352915398
 20
440.7569484392879
 30
0.0
 10
263.570352915398
 20
441.1904484283367
 30
0.0
 10
263.570352915398
 20
441.6250484173579
 30
0.0
 10
263.570352915398
 20
442.087948405664
 30
0.0
 10
263.2539529233909
 20
442.4712483959811
 30
0.0
 10
262.7725606689455
 20
442.4712483959811
 30
0.0
 10
262.2910529477158
 20
442.4712483959811
 30
0.0
 10
261.9746529557087
 20
442.0889484056387
 30
0.0
 10
261.9746529557087
 20
441.6255606689455
 30
0.0
 10
261.9746529557087
 20
441.1919484282988
 30
0.0
 10
261.9746529557087
 20
440.7578484392652
 30
0.0
 10
261.9746529557087
 20
440.3242484502189
 30
0.0
 10
261.9746529557087
 20
439.4570484721262
 30
0.0
 10
261.9746529557087
 20
438.5903484940208
 30
0.0
 10
261.9746529557087
 20
437.7232485159257
 30
0.0
 10
261.9746529557087
 20
435.9878485597655
 30
0.0
 10
261.9746529557087
 20
434.2529486035927
 30
0.0
 10
261.9746529557087
 20
432.5176486474301
 30
0.0
  0
POLYLINE
  5
92
330
1F
100
AcDbEntity
  8
Linee visibili 2D
 62
     7
420
 16777215
370
     9
100
AcDb2dPolyline
 66
     1
 10
0.0
 20
0.0
 30
0.0
  0
VERTEX
  5
93
330
92
100
AcDbEntity
  8
Linee visibili 2D
 62
     7
420
 16777215
370
     9
100
AcDbVertex
100
AcDb2dVertex
 10
264.8985606689457
 20
432.5176486474301
 30
0.0
  0
VERTEX
  5
94
330
92
100
AcDbEntity
  8
Linee visibili 2D
 62
     7
420
 16777215
370
     9
100
AcDbVertex
100
AcDb2dVertex
 10
263.570352915398
 20
432.5176486474301
 30
0.0
  0
SEQEND
  5
95
330
92
100
AcDbEntity
  8
Linee visibili 2D
 62
     7
420
 16777215
370
     9
  0
POLYLINE
  5
96
330
1F
100
AcDbEntity
  8
Linee visibili 2D
 62
     7
420
 16777215
370
     9
100
AcDb2dPolyline
 66
     1
 10
0.0
 20
0.0
 30
0.0
  0
VERTEX
  5
97
330
96
100
AcDbEntity
  8
Linee visibili 2D
 62
     7
420
 16777215
370
     9
100
AcDbVertex
100
AcDb2dVertex
 10
261.9746529557087
 20
432.5176486474301
 30
0.0
  0
VERTEX
  5
98
330
96
100
AcDbEntity
  8
Linee visibili 2D
 62
     7
420
 16777215
370
     9
100
AcDbVertex
100
AcDb2dVertex
 10
260.6465606689453
 20
432.5176486474301
 30
0.0
  0
SEQEND
  5
99
330
96
100
AcDbEntity
  8
Linee visibili 2D
 62
     7
420
 16777215
370
     9
  0
SPLINE
  5
9A
330
1F
100
AcDbEntity
  8
Linee visibili 2D
 62
     7
420
 16777215
370
     9
100
AcDbSpline
210
0.0
220
0.0
230
1.0
 70
     8
 71
     3
 72
    50
 73
    46
 74
     0
 42
0.0000000001
 43
0.0000000001
 40
0.0
 40
0.0
 40
0.0
 40
0.0
 40
1.0
 40
1.0
 40
1.0
 40
2.0
 40
2.0
 40
2.0
 40
3.0
 40
3.0
 40
3.0
 40
4.0
 40
4.0
 40
4.0
 40
5.0
 40
5.0
 40
5.0
 40
6.0
 40
6.0
 40
6.0
 40
7.0
 40
7.0
 40
7.0
 40
8.0
 40
8.0
 40
8.0
 40
9.0
 40
9.0
 40
9.0
 40
10.0
 40
10.0
 40
10.0
 40
11.0
 40
11.0
 40
11.0
 40
12.0
 40
12.0
 40
12.0
 40
13.0
 40
13.0
 40
13.0
 40
14.0
 40
14.0
 40
14.0
 40
15.0
 40
15.0
 40
15.0
 40
15.0
 10
260.6465606689453
 20
574.5640450590363
 30
0.0
 10
260.6465606689453
 20
575.5195606689449
 30
0.0
 10
260.4414529944406
 20
576.3506450139029
 30
0.0
 10
259.9981530056393
 20
577.1963449925388
 30
0.0
 10
259.5069530180481
 20
578.1338449688555
 30
0.0
 10
258.9951530309772
 20
578.563044958013
 30
0.0
 10
258.2715606689453
 20
579.2871449397207
 30
0.0
 10
256.9824530818223
 20
580.5762449071553
 30
0.0
 10
255.6934531143852
 20
581.8657448745798
 30
0.0
 10
254.4033531469759
 20
583.1548448420144
 30
0.0
 10
253.7637531631335
 20
583.7954448258314
 30
0.0
 10
253.1231531793164
 20
584.4356448096586
 30
0.0
 10
252.4824531955019
 20
585.0757447934884
 30
0.0
 10
252.1641532035428
 20
585.3945606689449
 30
0.0
 10
251.8789532107476
 20
585.7017447776743
 30
0.0
 10
251.7315606689444
 20
586.1524447662886
 30
0.0
 10
251.5723532184929
 20
586.641144753943
 30
0.0
 10
251.5801532182959
 20
587.0625606689454
 30
0.0
 10
251.7569532138296
 20
587.5449447311111
 30
0.0
 10
252.0811532056395
 20
588.4292447087719
 30
0.0
 10
252.9444531838308
 20
588.993244694524
 30
0.0
 10
253.8848531600743
 20
588.9346446960043
 30
0.0
 10
254.3819531475165
 20
588.9038446967824
 30
0.0
 10
254.7647531378461
 20
588.7481447007157
 30
0.0
 10
255.1426531282996
 20
588.4219447089562
 30
0.0
 10
255.3115606689462
 20
588.2749447126697
 30
0.0
 10
255.4629531202081
 20
588.1089447168633
 30
0.0
 10
255.6211531162116
 20
587.9507447208598
 30
0.0
 10
255.7832531121166
 20
587.7886447249547
 30
0.0
 10
255.9453531080217
 20
587.6265606689448
 30
0.0
 10
256.1065606689445
 20
587.4649447331321
 30
0.0
 10
258.6846530388211
 20
584.8872447982503
 30
0.0
 10
261.2617529737181
 20
582.3096448633659
 30
0.0
 10
263.8399529085873
 20
579.7319449284841
 30
0.0
 10
264.1621529004478
 20
579.4092449366362
 30
0.0
 10
264.5000528919118
 20
579.1221449438889
 30
0.0
 10
264.7022528868038
 20
578.6856449549159
 30
0.0
 10
264.9063528816478
 20
578.2442449660666
 30
0.0
 10
264.8985606689457
 20
577.8081449770834
 30
0.0
 10
264.8985606689457
 20
577.3477449887141
 30
0.0
 10
264.8985606689457
 20
576.4375606689454
 30
0.0
 10
264.8985606689457
 20
575.5269450347113
 30
0.0
 10
264.8985606689457
 20
574.616745057705
 30
0.0
 10
264.8985606689457
 20
572.7935606689452
 30
0.0
 10
264.8985606689457
 20
570.9707451498107
 30
0.0
 10
264.8985606689457
 20
569.1475606689455
 30
0.0
  0
POLYLINE
  5
9B
330
1F
100
AcDbEntity
  8
Linee visibili 2D
 62
     7
420
 16777215
370
     9
100
AcDb2dPolyline
 66
     1
 10
0.0
 20
0.0
 30
0.0
  0
VERTEX
  5
9C
330
9B
100
AcDbEntity
  8
Linee visibili 2D
 62
     7
420
 16777215
370
     9
100
AcDbVertex
100
AcDb2dVertex
 10
260.6465606689453
 20
569.1475606689455
 30
0.0
  0
VERTEX
  5
9D
330
9B
100
AcDbEntity
  8
Linee visibili 2D
 62
     7
420
 16777215
370
     9
100
AcDbVertex
100
AcDb2dVertex
 10
260.6465606689453
 20
574.5640450590363
 30
0.0
  0
SEQEND
  5
9E
330
9B
100
AcDbEntity
  8
Linee visibili 2D
 62
     7
420
 16777215
370
     9
  0
POLYLINE
  5
9F
330
1F
100
AcDbEntity
  8
Linee visibili 2D
 62
     7
420
 16777215
370
     9
100
AcDb2dPolyline
 66
     1
 10
0.0
 20
0.0
 30
0.0
  0
VERTEX
  5
A0
330
9F
100
AcDbEntity
  8
Linee visibili 2D
 62
     7
420
 16777215
370
     9
100
AcDbVertex
100
AcDb2dVertex
 10
387.5293497839302
 20
579.3477449381899
 30
0.0
  0
VERTEX
  5
A1
330
9F
100
AcDbEntity
  8
Linee visibili 2D
 62
     7
420
 16777215
370
     9
100
AcDbVertex
100
AcDb2dVertex
 10
387.8565606689445
 20
579.3477449381899
 30
0.0
  0
SEQEND
  5
A2
330
9F
100
AcDbEntity
  8
Linee visibili 2D
 62
     7
420
 16777215
370
     9
  0
SPLINE
  5
A3
330
1F
100
AcDbEntity
  8
Linee visibili 2D
 62
     7
420
 16777215
370
     9
100
AcDbSpline
210
0.0
220
0.0
230
1.0
 70
     8
 71
     3
 72
     8
 73
     4
 74
     0
 42
0.0000000001
 43
0.0000000001
 40
0.0
 40
0.0
 40
0.0
 40
0.0
 40
1.0
 40
1.0
 40
1.0
 40
1.0
 10
387.8565606689445
 20
579.3477449381899
 30
0.0
 10
387.7930497772686
 20
579.3486449381671
 30
0.0
 10
387.7715606689453
 20
579.3018449393493
 30
0.0
 10
387.8125606689446
 20
579.2544449405467
 30
0.0
  0
SPLINE
  5
A4
330
1F
100
AcDbEntity
  8
Linee visibili 2D
 62
     7
420
 16777215
370
     9
100
AcDbSpline
210
0.0
220
0.0
230
1.0
 70
     8
 71
     3
 72
    20
 73
    16
 74
     0
 42
0.0000000001
 43
0.0000000001
 40
0.0
 40
0.0
 40
0.0
 40
0.0
 40
1.0
 40
1.0
 40
1.0
 40
2.0
 40
2.0
 40
2.0
 40
3.0
 40
3.0
 40
3.0
 40
4.0
 40
4.0
 40
4.0
 40
5.0
 40
5.0
 40
5.0
 40
5.0
 10
387.8125606689446
 20
579.2544449405467
 30
0.0
 10
388.1719497676968
 20
578.828144951316
 30
0.0
 10
388.3613497629121
 20
578.2852449650309
 30
0.0
 10
388.3447497633315
 20
577.7285606689456
 30
0.0
 10
388.3369497635285
 20
577.4463449862232
 30
0.0
 10
388.2822497649104
 20
577.1865606689452
 30
0.0
 10
388.1738497676488
 20
576.9253449993848
 30
0.0
 10
388.1201497690054
 20
576.7969450026284
 30
0.0
 10
388.056749770607
 20
576.6763450056751
 30
0.0
 10
387.9815606689445
 20
576.5596450086231
 30
0.0
 10
387.9444497734439
 20
576.5029450100555
 30
0.0
 10
387.9053497744317
 20
576.4473450114601
 30
0.0
 10
387.8633497754927
 20
576.3936450128166
 30
0.0
 10
387.820349776579
 20
576.3394450141858
 30
0.0
 10
387.7520497783044
 20
576.2373450167651
 30
0.0
 10
387.8565606689445
 20
576.2383450167399
 30
0.0
  0
POLYLINE
  5
A5
330
1F
100
AcDbEntity
  8
Linee visibili 2D
 62
     7
420
 16777215
370
     9
100
AcDb2dPolyline
 66
     1
 10
0.0
 20
0.0
 30
0.0
  0
VERTEX
  5
A6
330
A5
100
AcDbEntity
  8
Linee visibili 2D
 62
     7
420
 16777215
370
     9
100
AcDbVertex
100
AcDb2dVertex
 10
387.8242497764804
 20
576.2383450167399
 30
0.0
  0
VERTEX
  5
A7
330
A5
100
AcDbEntity
  8
Linee visibili 2D
 62
     7
420
 16777215
370
     9
100
AcDbVertex
100
AcDb2dVertex
 10
387.5293497839302
 20
576.2383450167399
 30
0.0
  0
SEQEND
  5
A8
330
A5
100
AcDbEntity
  8
Linee visibili 2D
 62
     7
420
 16777215
370
     9
  0
POLYLINE
  5
A9
330
1F
100
AcDbEntity
  8
Linee visibili 2D
 62
     7
420
 16777215
370
     9
100
AcDb2dPolyline
 66
     1
 10
0.0
 20
0.0
 30
0.0
  0
VERTEX
  5
AA
330
A9
100
AcDbEntity
  8
Linee visibili 2D
 62
     7
420
 16777215
370
     9
100
AcDbVertex
100
AcDb2dVertex
 10
264.8985606689457
 20
569.1475606689455
 30
0.0
  0
VERTEX
  5
AB
330
A9
100
AcDbEntity
  8
Linee visibili 2D
 62
     7
420
 16777215
370
     9
100
AcDbVertex
100
AcDb2dVertex
 10
260.6465606689453
 20
569.1475606689455
 30
0.0
  0
SEQEND
  5
AC
330
A9
100
AcDbEntity
  8
Linee visibili 2D
 62
     7
420
 16777215
370
     9
  0
SPLINE
  5
AD
330
1F
100
AcDbEntity
  8
Linee visibili 2D
 62
     7
420
 16777215
370
     9
100
AcDbSpline
210
0.0
220
0.0
230
1.0
 70
     8
 71
     3
 72
    14
 73
    10
 74
     0
 42
0.0000000001
 43
0.0000000001
 40
0.0
 40
0.0
 40
0.0
 40
0.0
 40
1.0
 40
1.0
 40
1.0
 40
2.0
 40
2.0
 40
2.0
 40
3.0
 40
3.0
 40
3.0
 40
3.0
 10
260.6465606689453
 20
456.7539480351697
 30
0.0
 10
261.0147529799578
 20
456.7539480351697
 30
0.0
 10
261.3819529706816
 20
456.7539480351697
 30
0.0
 10
261.7490529614079
 20
456.7539480351697
 30
0.0
 10
262.1162529521316
 20
456.7539480351697
 30
0.0
 10
262.4834529428554
 20
456.7652480348843
 30
0.0
 10
262.8516529335538
 20
456.7520480352177
 30
0.0
 10
263.5996529146578
 20
456.7266480358593
 30
0.0
 10
264.2891528972395
 20
456.3316480458379
 30
0.0
 10
264.689560668945
 20
455.697848061849
 30
0.0
  0
SPLINE
  5
AE
330
1F
100
AcDbEntity
  8
Linee visibili 2D
 62
     7
420
 16777215
370
     9
100
AcDbSpline
210
0.0
220
0.0
230
1.0
 70
     8
 71
     3
 72
     8
 73
     4
 74
     0
 42
0.0000000001
 43
0.0000000001
 40
0.0
 40
0.0
 40
0.0
 40
0.0
 40
1.0
 40
1.0
 40
1.0
 40
1.0
 10
264.689560668945
 20
455.697848061849
 30
0.0
 10
264.7500528855962
 20
455.6016480642792
 30
0.0
 10
264.8985606689457
 20
455.6445606689448
 30
0.0
 10
264.8985606689457
 20
455.7583480603207
 30
0.0
  0
POLYLINE
  5
AF
330
1F
100
AcDbEntity
  8
Linee visibili 2D
 62
     7
420
 16777215
370
     9
100
AcDb2dPolyline
 66
     1
 10
0.0
 20
0.0
 30
0.0
  0
VERTEX
  5
B0
330
AF
100
AcDbEntity
  8
Linee visibili 2D
 62
     7
420
 16777215
370
     9
100
AcDbVertex
100
AcDb2dVertex
 10
264.8985606689457
 20
460.2403479470958
 30
0.0
  0
VERTEX
  5
B1
330
AF
100
AcDbEntity
  8
Linee visibili 2D
 62
     7
420
 16777215
370
     9
100
AcDbVertex
100
AcDb2dVertex
 10
264.8985606689457
 20
455.7583480603207
 30
0.0
  0
SEQEND
  5
B2
330
AF
100
AcDbEntity
  8
Linee visibili 2D
 62
     7
420
 16777215
370
     9
  0
POLYLINE
  5
B3
330
1F
100
AcDbEntity
  8
Linee visibili 2D
 62
     7
420
 16777215
370
     9
100
AcDb2dPolyline
 66
     1
 10
0.0
 20
0.0
 30
0.0
  0
VERTEX
  5
B4
330
B3
100
AcDbEntity
  8
Linee visibili 2D
 62
     7
420
 16777215
370
     9
100
AcDbVertex
100
AcDb2dVertex
 10
260.6465606689453
 20
456.7539480351697
 30
0.0
  0
VERTEX
  5
B5
330
B3
100
AcDbEntity
  8
Linee visibili 2D
 62
     7
420
 16777215
370
     9
100
AcDbVertex
100
AcDb2dVertex
 10
260.6465606689453
 20
460.2403479470958
 30
0.0
  0
SEQEND
  5
B6
330
B3
100
AcDbEntity
  8
Linee visibili 2D
 62
     7
420
 16777215
370
     9
  0
POLYLINE
  5
B7
330
1F
100
AcDbEntity
  8
Linee visibili 2D
 62
     7
420
 16777215
370
     9
100
AcDb2dPolyline
 66
     1
 10
0.0
 20
0.0
 30
0.0
  0
VERTEX
  5
B8
330
B7
100
AcDbEntity
  8
Linee visibili 2D
 62
     7
420
 16777215
370
     9
100
AcDbVertex
100
AcDb2dVertex
 10
260.6465606689453
 20
456.6118480387594
 30
0.0
  0
VERTEX
  5
B9
330
B7
100
AcDbEntity
  8
Linee visibili 2D
 62
     7
420
 16777215
370
     9
100
AcDbVertex
100
AcDb2dVertex
 10
260.6465606689453
 20
456.7539480351697
 30
0.0
  0
SEQEND
  5
BA
330
B7
100
AcDbEntity
  8
Linee visibili 2D
 62
     7
420
 16777215
370
     9
  0
POLYLINE
  5
BB
330
1F
100
AcDbEntity
  8
Linee visibili 2D
 62
     7
420
 16777215
370
     9
100
AcDb2dPolyline
 66
     1
 10
0.0
 20
0.0
 30
0.0
  0
VERTEX
  5
BC
330
BB
100
AcDbEntity
  8
Linee visibili 2D
 62
     7
420
 16777215
370
     9
100
AcDbVertex
100
AcDb2dVertex
 10
264.8985606689457
 20
455.6973480618617
 30
0.0
  0
VERTEX
  5
BD
330
BB
100
AcDbEntity
  8
Linee visibili 2D
 62
     7
420
 16777215
370
     9
100
AcDbVertex
100
AcDb2dVertex
 10
264.8985606689457
 20
454.4859480924642
 30
0.0
  0
SEQEND
  5
BE
330
BB
100
AcDbEntity
  8
Linee visibili 2D
 62
     7
420
 16777215
370
     9
  0
POLYLINE
  5
BF
330
1F
100
AcDbEntity
  8
Linee visibili 2D
 62
     7
420
 16777215
370
     9
100
AcDb2dPolyline
 66
     1
 10
0.0
 20
0.0
 30
0.0
  0
VERTEX
  5
C0
330
BF
100
AcDbEntity
  8
Linee visibili 2D
 62
     7
420
 16777215
370
     9
100
AcDbVertex
100
AcDb2dVertex
 10
264.8418528832772
 20
460.2403479470958
 30
0.0
  0
VERTEX
  5
C1
330
BF
100
AcDbEntity
  8
Linee visibili 2D
 62
     7
420
 16777215
370
     9
100
AcDbVertex
100
AcDb2dVertex
 10
264.8819528822642
 20
460.2403479470958
 30
0.0
  0
SEQEND
  5
C2
330
BF
100
AcDbEntity
  8
Linee visibili 2D
 62
     7
420
 16777215
370
     9
  0
POLYLINE
  5
C3
330
1F
100
AcDbEntity
  8
Linee visibili 2D
 62
     7
420
 16777215
370
     9
100
AcDb2dPolyline
 66
     1
 10
0.0
 20
0.0
 30
0.0
  0
VERTEX
  5
C4
330
C3
100
AcDbEntity
  8
Linee visibili 2D
 62
     7
420
 16777215
370
     9
100
AcDbVertex
100
AcDb2dVertex
 10
260.6465606689453
 20
460.2403479470958
 30
0.0
  0
VERTEX
  5
C5
330
C3
100
AcDbEntity
  8
Linee visibili 2D
 62
     7
420
 16777215
370
     9
100
AcDbVertex
100
AcDb2dVertex
 10
260.7031529878295
 20
460.2403479470958
 30
0.0
  0
SEQEND
  5
C6
330
C3
100
AcDbEntity
  8
Linee visibili 2D
 62
     7
420
 16777215
370
     9
  0
POLYLINE
  5
C7
330
1F
100
AcDbEntity
  8
Linee visibili 2D
 62
     7
420
 16777215
370
     9
100
AcDb2dPolyline
 66
     1
 10
0.0
 20
0.0
 30
0.0
  0
VERTEX
  5
C8
330
C7
100
AcDbEntity
  8
Linee visibili 2D
 62
     7
420
 16777215
370
     9
100
AcDbVertex
100
AcDb2dVertex
 10
265.0401528782677
 20
578.6182449566186
 30
0.0
  0
VERTEX
  5
C9
330
C7
100
AcDbEntity
  8
Linee visibili 2D
 62
     7
420
 16777215
370
     9
100
AcDbVertex
100
AcDb2dVertex
 10
265.0401528782677
 20
579.9190449237576
 30
0.0
  0
SEQEND
  5
CA
330
C7
100
AcDbEntity
  8
Linee visibili 2D
 62
     7
420
 16777215
370
     9
  0
POLYLINE
  5
CB
330
1F
100
AcDbEntity
  8
Linee visibili 2D
 62
     7
420
 16777215
370
     9
100
AcDb2dPolyline
 66
     1
 10
0.0
 20
0.0
 30
0.0
  0
VERTEX
  5
CC
330
CB
100
AcDbEntity
  8
Linee visibili 2D
 62
     7
420
 16777215
370
     9
100
AcDbVertex
100
AcDb2dVertex
 10
267.516652815706
 20
575.6670450311721
 30
0.0
  0
VERTEX
  5
CD
330
CB
100
AcDbEntity
  8
Linee visibili 2D
 62
     7
420
 16777215
370
     9
100
AcDbVertex
100
AcDb2dVertex
 10
265.0401528782677
 20
578.6182449566186
 30
0.0
  0
SEQEND
  5
CE
330
CB
100
AcDbEntity
  8
Linee visibili 2D
 62
     7
420
 16777215
370
     9
  0
POLYLINE
  5
CF
330
1F
100
AcDbEntity
  8
Linee visibili 2D
 62
     7
420
 16777215
370
     9
100
AcDb2dPolyline
 66
     1
 10
0.0
 20
0.0
 30
0.0
  0
VERTEX
  5
D0
330
CF
100
AcDbEntity
  8
Linee visibili 2D
 62
     7
420
 16777215
370
     9
100
AcDbVertex
100
AcDb2dVertex
 10
264.8985606689457
 20
575.6670450311721
 30
0.0
  0
VERTEX
  5
D1
330
CF
100
AcDbEntity
  8
Linee visibili 2D
 62
     7
420
 16777215
370
     9
100
AcDbVertex
100
AcDb2dVertex
 10
267.516652815706
 20
575.6670450311721
 30
0.0
  0
SEQEND
  5
D2
330
CF
100
AcDbEntity
  8
Linee visibili 2D
 62
     7
420
 16777215
370
     9
  0
POLYLINE
  5
D3
330
1F
100
AcDbEntity
  8
Linee visibili 2D
 62
     7
420
 16777215
370
     9
100
AcDb2dPolyline
 66
     1
 10
0.0
 20
0.0
 30
0.0
  0
VERTEX
  5
D4
330
D3
100
AcDbEntity
  8
Linee visibili 2D
 62
     7
420
 16777215
370
     9
100
AcDbVertex
100
AcDb2dVertex
 10
265.0401528782677
 20
579.9190449237576
 30
0.0
  0
VERTEX
  5
D5
330
D3
100
AcDbEntity
  8
Linee visibili 2D
 62
     7
420
 16777215
370
     9
100
AcDbVertex
100
AcDb2dVertex
 10
263.6524529133239
 20
579.9190449237576
 30
0.0
  0
SEQEND
  5
D6
330
D3
100
AcDbEntity
  8
Linee visibili 2D
 62
     7
420
 16777215
370
     9
  0
POLYLINE
  5
D7
330
1F
100
AcDbEntity
  8
Linee visibili 2D
 62
     7
420
 16777215
370
     9
100
AcDb2dPolyline
 66
     1
 10
0.0
 20
0.0
 30
0.0
  0
VERTEX
  5
D8
330
D7
100
AcDbEntity
  8
Linee visibili 2D
 62
     7
420
 16777215
370
     9
100
AcDbVertex
100
AcDb2dVertex
 10
271.4180527171484
 20
575.6670450311721
 30
0.0
  0
VERTEX
  5
D9
330
D7
100
AcDbEntity
  8
Linee visibili 2D
 62
     7
420
 16777215
370
     9
100
AcDbVertex
100
AcDb2dVertex
 10
267.516652815706
 20
575.6670450311721
 30
0.0
  0
SEQEND
  5
DA
330
D7
100
AcDbEntity
  8
Linee visibili 2D
 62
     7
420
 16777215
370
     9
  0
POLYLINE
  5
DB
330
1F
100
AcDbEntity
  8
Linee visibili 2D
 62
     7
420
 16777215
370
     9
100
AcDb2dPolyline
 66
     1
 10
0.0
 20
0.0
 30
0.0
  0
VERTEX
  5
DC
330
DB
100
AcDbEntity
  8
Linee visibili 2D
 62
     7
420
 16777215
370
     9
100
AcDbVertex
100
AcDb2dVertex
 10
265.0401528782677
 20
579.9190449237576
 30
0.0
  0
VERTEX
  5
DD
330
DB
100
AcDbEntity
  8
Linee visibili 2D
 62
     7
420
 16777215
370
     9
100
AcDbVertex
100
AcDb2dVertex
 10
271.4180527171484
 20
579.9190449237576
 30
0.0
  0
SEQEND
  5
DE
330
DB
100
AcDbEntity
  8
Linee visibili 2D
 62
     7
420
 16777215
370
     9
  0
POLYLINE
  5
DF
330
1F
100
AcDbEntity
  8
Linee visibili 2D
 62
     7
420
 16777215
370
     9
100
AcDb2dPolyline
 66
     1
 10
0.0
 20
0.0
 30
0.0
  0
VERTEX
  5
E0
330
DF
100
AcDbEntity
  8
Linee visibili 2D
 62
     7
420
 16777215
370
     9
100
AcDbVertex
100
AcDb2dVertex
 10
271.4180527171484
 20
579.9190449237576
 30
0.0
  0
VERTEX
  5
E1
330
DF
100
AcDbEntity
  8
Linee visibili 2D
 62
     7
420
 16777215
370
     9
100
AcDbVertex
100
AcDb2dVertex
 10
271.4180527171484
 20
575.6670450311721
 30
0.0
  0
SEQEND
  5
E2
330
DF
100
AcDbEntity
  8
Linee visibili 2D
 62
     7
420
 16777215
370
     9
  0
SPLINE
  5
E3
330
1F
100
AcDbEntity
  8
Linee visibili 2D
 62
     7
420
 16777215
370
     9
100
AcDbSpline
210
0.0
220
0.0
230
1.0
 70
    11
 71
     3
 72
    17
 73
    13
 74
     0
 42
0.0000000001
 43
0.0000000001
 40
0.0
 40
0.0
 40
0.0
 40
0.0
 40
1.0
 40
1.0
 40
1.0
 40
2.0
 40
2.0
 40
2.0
 40
3.0
 40
3.0
 40
3.0
 40
4.0
 40
4.0
 40
4.0
 40
4.0
 10
384.0947498706955
 20
577.7930449774649
 30
0.0
 10
384.0947498706955
 20
578.8887449497852
 30
0.0
 10
384.9834498482451
 20
579.7774449273346
 30
0.0
 10
386.0791498205654
 20
579.7774449273346
 30
0.0
 10
387.1748497928857
 20
579.7774449273346
 30
0.0
 10
388.064560668945
 20
578.8887449497852
 30
0.0
 10
388.064560668945
 20
577.792560668945
 30
0.0
 10
388.0635606689448
 20
576.6968450051572
 30
0.0
 10
387.1748497928857
 20
575.808645027595
 30
0.0
 10
386.0781498205906
 20
575.8091450275824
 30
0.0
 10
384.9834498482451
 20
575.8091450275824
 30
0.0
 10
384.0947498706955
 20
576.6973450051446
 30
0.0
 10
384.0947498706955
 20
577.7930449774649
 30
0.0
  0
SPLINE
  5
E4
330
1F
100
AcDbEntity
  8
Linee visibili 2D
 62
     7
420
 16777215
370
     9
100
AcDbSpline
210
0.0
220
0.0
230
1.0
 70
     8
 71
     3
 72
     8
 73
     4
 74
     0
 42
0.0000000001
 43
0.0000000001
 40
0.0
 40
0.0
 40
0.0
 40
0.0
 40
1.0
 40
1.0
 40
1.0
 40
1.0
 10
254.1094531544004
 20
589.096244691922
 30
0.0
 10
254.049853155906
 20
589.1006446918108
 30
0.0
 10
253.9922531573611
 20
589.1026446917603
 30
0.0
 10
253.9336531588415
 20
589.1026446917603
 30
0.0
  0
SPLINE
  5
E5
330
1F
100
AcDbEntity
  8
Linee visibili 2D
 62
     7
420
 16777215
370
     9
100
AcDbSpline
210
0.0
220
0.0
230
1.0
 70
     8
 71
     3
 72
     8
 73
     4
 74
     0
 42
0.0000000001
 43
0.0000000001
 40
0.0
 40
0.0
 40
0.0
 40
0.0
 40
1.0
 40
1.0
 40
1.0
 40
1.0
 10
253.9336531588415
 20
589.1026446917603
 30
0.0
 10
252.58505319291
 20
589.1026446917603
 30
0.0
 10
251.4863532206655
 20
588.0195606689449
 30
0.0
 10
251.4678532211328
 20
586.6709447531902
 30
0.0
  0
POLYLINE
  5
E6
330
1F
100
AcDbEntity
  8
Linee visibili 2D
 62
     7
420
 16777215
370
     9
100
AcDb2dPolyline
 66
     1
 10
0.0
 20
0.0
 30
0.0
  0
VERTEX
  5
E7
330
E6
100
AcDbEntity
  8
Linee visibili 2D
 62
     7
420
 16777215
370
     9
100
AcDbVertex
100
AcDb2dVertex
 10
251.7442532141504
 20
586.1172447671779
 30
0.0
  0
VERTEX
  5
E8
330
E6
100
AcDbEntity
  8
Linee visibili 2D
 62
     7
420
 16777215
370
     9
100
AcDbVertex
100
AcDb2dVertex
 10
249.9356532598394
 20
456.6104480387948
 30
0.0
  0
SEQEND
  5
E9
330
E6
100
AcDbEntity
  8
Linee visibili 2D
 62
     7
420
 16777215
370
     9
  0
SPLINE
  5
EA
330
1F
100
AcDbEntity
  8
Linee visibili 2D
 62
     7
420
 16777215
370
     9
100
AcDbSpline
210
0.0
220
0.0
230
1.0
 70
    11
 71
     3
 72
    17
 73
    13
 74
     0
 42
0.0000000001
 43
0.0000000001
 40
0.0
 40
0.0
 40
0.0
 40
0.0
 40
1.0
 40
1.0
 40
1.0
 40
2.0
 40
2.0
 40
2.0
 40
3.0
 40
3.0
 40
3.0
 40
4.0
 40
4.0
 40
4.0
 40
4.0
 10
260.7881529856822
 20
577.7930449774649
 30
0.0
 10
260.7881529856822
 20
578.8887449497852
 30
0.0
 10
261.6758529632571
 20
579.7774449273346
 30
0.0
 10
262.7725606689455
 20
579.7774449273346
 30
0.0
 10
263.8682529078724
 20
579.7774449273346
 30
0.0
 10
264.7569528854219
 20
578.8887449497852
 30
0.0
 10
264.7569528854219
 20
577.792560668945
 30
0.0
 10
264.7569528854219
 20
576.6968450051572
 30
0.0
 10
263.8672529078976
 20
575.808645027595
 30
0.0
 10
262.7715606689453
 20
575.8091450275824
 30
0.0
 10
261.6758529632571
 20
575.8091450275824
 30
0.0
 10
260.7881529856822
 20
576.6973450051446
 30
0.0
 10
260.7881529856822
 20
577.7930449774649
 30
0.0
  0
SPLINE
  5
EB
330
1F
100
AcDbEntity
  8
Linee visibili 2D
 62
     7
420
 16777215
370
     9
100
AcDbSpline
210
0.0
220
0.0
230
1.0
 70
     9
 71
     3
 72
    17
 73
    13
 74
     0
 42
0.0000000001
 43
0.0000000001
 40
0.0
 40
0.0
 40
0.0
 40
0.0
 40
1.0
 40
1.0
 40
1.0
 40
2.0
 40
2.0
 40
2.0
 40
3.0
 40
3.0
 40
3.0
 40
4.0
 40
4.0
 40
4.0
 40
4.0
 10
260.7881529856822
 20
454.4859480924642
 30
0.0
 10
260.7881529856822
 20
455.5820480647744
 30
0.0
 10
261.6758529632571
 20
456.4702480423366
 30
0.0
 10
262.7725606689455
 20
456.4702480423366
 30
0.0
 10
263.8682529078724
 20
456.4702480423366
 30
0.0
 10
264.7569528854219
 20
455.5816480647845
 30
0.0
 10
264.7569528854219
 20
454.4854480924768
 30
0.0
 10
264.7569528854219
 20
453.3897481201566
 30
0.0
 10
263.8672529078976
 20
452.501048142607
 30
0.0
 10
262.7715606689453
 20
452.5020481425817
 30
0.0
 10
261.6758529632571
 20
452.5020481425817
 30
0.0
 10
260.7881529856822
 20
453.3906481201338
 30
0.0
 10
260.7881529856822
 20
454.4859480924642
 30
0.0
  0
SPLINE
  5
EC
330
1F
100
AcDbEntity
  8
Linee visibili 2D
 62
     7
420
 16777215
370
     9
100
AcDbSpline
210
0.0
220
0.0
230
1.0
 70
     8
 71
     3
 72
     8
 73
     4
 74
     0
 42
0.0000000001
 43
0.0000000001
 40
0.0
 40
0.0
 40
0.0
 40
0.0
 40
1.0
 40
1.0
 40
1.0
 40
1.0
 10
241.7959534654656
 20
432.4258486497492
 30
0.0
 10
241.7959534654656
 20
432.4658486487387
 30
0.0
 10
241.8125606689455
 20
432.4824486483193
 30
0.0
 10
241.8526534640332
 20
432.4824486483193
 30
0.0
  0
POLYLINE
  5
ED
330
1F
100
AcDbEntity
  8
Linee visibili 2D
 62
     7
420
 16777215
370
     9
100
AcDb2dPolyline
 66
     1
 10
0.0
 20
0.0
 30
0.0
  0
VERTEX
  5
EE
330
ED
100
AcDbEntity
  8
Linee visibili 2D
 62
     7
420
 16777215
370
     9
100
AcDbVertex
100
AcDb2dVertex
 10
241.7959534654656
 20
432.4258486497492
 30
0.0
  0
VERTEX
  5
EF
330
ED
100
AcDbEntity
  8
Linee visibili 2D
 62
     7
420
 16777215
370
     9
100
AcDbVertex
100
AcDb2dVertex
 10
241.7959534654656
 20
426.5293487987073
 30
0.0
  0
SEQEND
  5
F0
330
ED
100
AcDbEntity
  8
Linee visibili 2D
 62
     7
420
 16777215
370
     9
  0
POLYLINE
  5
F1
330
1F
100
AcDbEntity
  8
Linee visibili 2D
 62
     7
420
 16777215
370
     9
100
AcDb2dPolyline
 66
     1
 10
0.0
 20
0.0
 30
0.0
  0
VERTEX
  5
F2
330
F1
100
AcDbEntity
  8
Linee visibili 2D
 62
     7
420
 16777215
370
     9
100
AcDbVertex
100
AcDb2dVertex
 10
241.6543534690427
 20
432.0684486587778
 30
0.0
  0
VERTEX
  5
F3
330
F1
100
AcDbEntity
  8
Linee visibili 2D
 62
     7
420
 16777215
370
     9
100
AcDbVertex
100
AcDb2dVertex
 10
241.7959534654656
 20
432.0669486588157
 30
0.0
  0
SEQEND
  5
F4
330
F1
100
AcDbEntity
  8
Linee visibili 2D
 62
     7
420
 16777215
370
     9
  0
POLYLINE
  5
F5
330
1F
100
AcDbEntity
  8
Linee visibili 2D
 62
     7
420
 16777215
370
     9
100
AcDb2dPolyline
 66
     1
 10
0.0
 20
0.0
 30
0.0
  0
VERTEX
  5
F6
330
F5
100
AcDbEntity
  8
Linee visibili 2D
 62
     7
420
 16777215
370
     9
100
AcDbVertex
100
AcDb2dVertex
 10
241.8526534640332
 20
432.4824486483193
 30
0.0
  0
VERTEX
  5
F7
330
F5
100
AcDbEntity
  8
Linee visibili 2D
 62
     7
420
 16777215
370
     9
100
AcDbVertex
100
AcDb2dVertex
 10
262.7725606689455
 20
432.4824486483193
 30
0.0
  0
SEQEND
  5
F8
330
F5
100
AcDbEntity
  8
Linee visibili 2D
 62
     7
420
 16777215
370
     9
  0
POLYLINE
  5
F9
330
1F
100
AcDbEntity
  8
Linee visibili 2D
 62
     7
420
 16777215
370
     9
100
AcDb2dPolyline
 66
     1
 10
0.0
 20
0.0
 30
0.0
  0
VERTEX
  5
FA
330
F9
100
AcDbEntity
  8
Linee visibili 2D
 62
     7
420
 16777215
370
     9
100
AcDbVertex
100
AcDb2dVertex
 10
262.7725606689455
 20
432.4824486483193
 30
0.0
  0
VERTEX
  5
FB
330
F9
100
AcDbEntity
  8
Linee visibili 2D
 62
     7
420
 16777215
370
     9
100
AcDbVertex
100
AcDb2dVertex
 10
265.6924528617892
 20
432.4824486483193
 30
0.0
  0
SEQEND
  5
FC
330
F9
100
AcDbEntity
  8
Linee visibili 2D
 62
     7
420
 16777215
370
     9
  0
POLYLINE
  5
FD
330
1F
100
AcDbEntity
  8
Linee visibili 2D
 62
     7
420
 16777215
370
     9
100
AcDb2dPolyline
 66
     1
 10
0.0
 20
0.0
 30
0.0
  0
VERTEX
  5
FE
330
FD
100
AcDbEntity
  8
Linee visibili 2D
 62
     7
420
 16777215
370
     9
100
AcDbVertex
100
AcDb2dVertex
 10
241.6543534690427
 20
426.5293487987073
 30
0.0
  0
VERTEX
  5
FF
330
FD
100
AcDbEntity
  8
Linee visibili 2D
 62
     7
420
 16777215
370
     9
100
AcDbVertex
100
AcDb2dVertex
 10
241.7959534654656
 20
426.5293487987073
 30
0.0
  0
SEQEND
  5
100
330
FD
100
AcDbEntity
  8
Linee visibili 2D
 62
     7
420
 16777215
370
     9
  0
POLYLINE
  5
101
330
1F
100
AcDbEntity
  8
Linee visibili 2D
 62
     7
420
 16777215
370
     9
100
AcDb2dPolyline
 66
     1
 10
0.0
 20
0.0
 30
0.0
  0
VERTEX
  5
102
330
101
100
AcDbEntity
  8
Linee visibili 2D
 62
     7
420
 16777215
370
     9
100
AcDbVertex
100
AcDb2dVertex
 10
262.7725606689455
 20
426.5293487987073
 30
0.0
  0
VERTEX
  5
103
330
101
100
AcDbEntity
  8
Linee visibili 2D
 62
     7
420
 16777215
370
     9
100
AcDbVertex
100
AcDb2dVertex
 10
265.8008528590508
 20
426.5293487987073
 30
0.0
  0
SEQEND
  5
104
330
101
100
AcDbEntity
  8
Linee visibili 2D
 62
     7
420
 16777215
370
     9
  0
POLYLINE
  5
105
330
1F
100
AcDbEntity
  8
Linee visibili 2D
 62
     7
420
 16777215
370
     9
100
AcDb2dPolyline
 66
     1
 10
0.0
 20
0.0
 30
0.0
  0
VERTEX
  5
106
330
105
100
AcDbEntity
  8
Linee visibili 2D
 62
     7
420
 16777215
370
     9
100
AcDbVertex
100
AcDb2dVertex
 10
241.8526534640332
 20
426.5293487987073
 30
0.0
  0
VERTEX
  5
107
330
105
100
AcDbEntity
  8
Linee visibili 2D
 62
     7
420
 16777215
370
     9
100
AcDbVertex
100
AcDb2dVertex
 10
262.7725606689455
 20
426.5293487987073
 30
0.0
  0
SEQEND
  5
108
330
105
100
AcDbEntity
  8
Linee visibili 2D
 62
     7
420
 16777215
370
     9
  0
POLYLINE
  5
109
330
1F
100
AcDbEntity
  8
Linee visibili 2D
 62
     7
420
 16777215
370
     9
100
AcDb2dPolyline
 66
     1
 10
0.0
 20
0.0
 30
0.0
  0
VERTEX
  5
10A
330
109
100
AcDbEntity
  8
Linee visibili 2D
 62
     7
420
 16777215
370
     9
100
AcDbVertex
100
AcDb2dVertex
 10
241.7959534654656
 20
426.5293487987073
 30
0.0
  0
VERTEX
  5
10B
330
109
100
AcDbEntity
  8
Linee visibili 2D
 62
     7
420
 16777215
370
     9
100
AcDbVertex
100
AcDb2dVertex
 10
241.8526534640332
 20
426.5293487987073
 30
0.0
  0
SEQEND
  5
10C
330
109
100
AcDbEntity
  8
Linee visibili 2D
 62
     7
420
 16777215
370
     9
  0
SPLINE
  5
10D
330
1F
100
AcDbEntity
  8
Linee visibili 2D
 62
     7
420
 16777215
370
     9
100
AcDbSpline
210
0.0
220
0.0
230
1.0
 70
    24
 71
     3
 72
    23
 73
    19
 74
     0
 42
0.0000000001
 43
0.0000000001
 40
0.0
 40
0.0
 40
0.0
 40
0.0
 40
1.0
 40
1.0
 40
1.0
 40
2.0
 40
2.0
 40
2.0
 40
3.0
 40
3.0
 40
3.0
 40
4.0
 40
4.0
 40
4.0
 40
5.0
 40
5.0
 40
5.0
 40
6.0
 40
6.0
 40
6.0
 40
6.0
 10
237.4024535764547
 20
415.4541490784904
 30
0.0
 10
237.4024535764547
 20
415.4248490792306
 30
0.0
 10
237.4024535764547
 20
415.4834490777502
 30
0.0
 10
237.4024535764547
 20
415.4981490773788
 30
0.0
 10
237.4024535764547
 20
415.6133490744687
 30
0.0
 10
237.4024535764547
 20
415.7290490715459
 30
0.0
 10
237.4024535764547
 20
415.844749068623
 30
0.0
 10
237.4024535764547
 20
416.4141490542387
 30
0.0
 10
237.4024535764547
 20
416.983449039857
 30
0.0
 10
237.4024535764547
 20
417.5528490254728
 30
0.0
 10
237.4024535764547
 20
418.2632490075266
 30
0.0
 10
237.4024535764547
 20
418.9736489895803
 30
0.0
 10
237.4024535764547
 20
419.684648971619
 30
0.0
 10
237.4024535764547
 20
421.1065606689453
 30
0.0
 10
237.4024535764547
 20
422.5283488997811
 30
0.0
 10
237.4024535764547
 20
423.9502488638609
 30
0.0
 10
237.4024535764547
 20
426.7940487920204
 30
0.0
 10
237.4024535764547
 20
429.6382487201699
 30
0.0
 10
237.4024535764547
 20
432.4824486483193
 30
0.0
  0
POLYLINE
  5
10E
330
1F
100
AcDbEntity
  8
Linee visibili 2D
 62
     7
420
 16777215
370
     9
100
AcDb2dPolyline
 66
     1
 10
0.0
 20
0.0
 30
0.0
  0
VERTEX
  5
10F
330
10E
100
AcDbEntity
  8
Linee visibili 2D
 62
     7
420
 16777215
370
     9
100
AcDbVertex
100
AcDb2dVertex
 10
237.4024535764547
 20
432.4824486483193
 30
0.0
  0
VERTEX
  5
110
330
10E
100
AcDbEntity
  8
Linee visibili 2D
 62
     7
420
 16777215
370
     9
100
AcDbVertex
100
AcDb2dVertex
 10
237.4024535764547
 20
449.5103482181584
 30
0.0
  0
SEQEND
  5
111
330
10E
100
AcDbEntity
  8
Linee visibili 2D
 62
     7
420
 16777215
370
     9
  0
SPLINE
  5
112
330
1F
100
AcDbEntity
  8
Linee visibili 2D
 62
     7
420
 16777215
370
     9
100
AcDbSpline
210
0.0
220
0.0
230
1.0
 70
     8
 71
     3
 72
     8
 73
     4
 74
     0
 42
0.0000000001
 43
0.0000000001
 40
0.0
 40
0.0
 40
0.0
 40
0.0
 40
1.0
 40
1.0
 40
1.0
 40
1.0
 10
236.0889536096365
 20
418.3526490052681
 30
0.0
 10
235.7930536171116
 20
418.3643490049726
 30
0.0
 10
235.4971536245866
 20
418.3662490049246
 30
0.0
 10
235.200253632087
 20
418.3599490050837
 30
0.0
  0
SPLINE
  5
113
330
1F
100
AcDbEntity
  8
Linee visibili 2D
 62
     7
420
 16777215
370
     9
100
AcDbSpline
210
0.0
220
0.0
230
1.0
 70
    24
 71
     3
 72
    23
 73
    19
 74
     0
 42
0.0000000001
 43
0.0000000001
 40
0.0
 40
0.0
 40
0.0
 40
0.0
 40
1.0
 40
1.0
 40
1.0
 40
2.0
 40
2.0
 40
2.0
 40
3.0
 40
3.0
 40
3.0
 40
4.0
 40
4.0
 40
4.0
 40
5.0
 40
5.0
 40
5.0
 40
6.0
 40
6.0
 40
6.0
 40
6.0
 10
241.6543534690427
 20
449.4170482205154
 30
0.0
 10
241.6543534690427
 20
449.4463482197752
 30
0.0
 10
241.6543534690427
 20
449.3877482212556
 30
0.0
 10
241.6543534690427
 20
449.3736482216117
 30
0.0
 10
241.6543534690427
 20
449.2588482245118
 30
0.0
 10
241.6543534690427
 20
449.143648227422
 30
0.0
 10
241.6543534690427
 20
449.0293482303095
 30
0.0
 10
241.6543534690427
 20
448.4629482446179
 30
0.0
 10
241.6543534690427
 20
447.8970482589138
 30
0.0
 10
241.6543534690427
 20
447.3311482732096
 30
0.0
 10
241.6543534690427
 20
446.6240482910725
 30
0.0
 10
241.6543534690427
 20
445.9170483089328
 30
0.0
 10
241.6543534690427
 20
445.2100483267932
 30
0.0
 10
241.6543534690427
 20
443.7949483625415
 30
0.0
 10
241.6543534690427
 20
442.3799483982874
 30
0.0
 10
241.6543534690427
 20
440.9658484340106
 30
0.0
 10
241.6543534690427
 20
438.1377485054545
 30
0.0
 10
241.6543534690427
 20
435.3101485768856
 30
0.0
 10
241.6543534690427
 20
432.4824486483193
 30
0.0
  0
POLYLINE
  5
114
330
1F
100
AcDbEntity
  8
Linee visibili 2D
 62
     7
420
 16777215
370
     9
100
AcDb2dPolyline
 66
     1
 10
0.0
 20
0.0
 30
0.0
  0
VERTEX
  5
115
330
114
100
AcDbEntity
  8
Linee visibili 2D
 62
     7
420
 16777215
370
     9
100
AcDbVertex
100
AcDb2dVertex
 10
241.6543534690427
 20
432.4824486483193
 30
0.0
  0
VERTEX
  5
116
330
114
100
AcDbEntity
  8
Linee visibili 2D
 62
     7
420
 16777215
370
     9
100
AcDbVertex
100
AcDb2dVertex
 10
241.6543534690427
 20
415.5474490761334
 30
0.0
  0
SEQEND
  5
117
330
114
100
AcDbEntity
  8
Linee visibili 2D
 62
     7
420
 16777215
370
     9
  0
SPLINE
  5
118
330
1F
100
AcDbEntity
  8
Linee visibili 2D
 62
     7
420
 16777215
370
     9
100
AcDbSpline
210
0.0
220
0.0
230
1.0
 70
    24
 71
     3
 72
    23
 73
    19
 74
     0
 42
0.0000000001
 43
0.0000000001
 40
0.0
 40
0.0
 40
0.0
 40
0.0
 40
1.0
 40
1.0
 40
1.0
 40
2.0
 40
2.0
 40
2.0
 40
3.0
 40
3.0
 40
3.0
 40
4.0
 40
4.0
 40
4.0
 40
5.0
 40
5.0
 40
5.0
 40
6.0
 40
6.0
 40
6.0
 40
6.0
 10
234.2842536552271
 20
418.3809490045532
 30
0.0
 10
234.2842536552271
 20
418.3569490051595
 30
0.0
 10
234.2842536552271
 20
418.4053490039368
 30
0.0
 10
234.2842536552271
 20
418.417560668945
 30
0.0
 10
234.2842536552271
 20
418.5127490012237
 30
0.0
 10
234.2842536552271
 20
418.608448998806
 30
0.0
 10
234.2842536552271
 20
418.7041489963885
 30
0.0
 10
234.2842536552271
 20
419.1758489844723
 30
0.0
 10
234.2842536552271
 20
419.6465606689453
 30
0.0
 10
234.2842536552271
 20
420.1182489606654
 30
0.0
 10
234.2842536552271
 20
420.707560668945
 30
0.0
 10
234.2842536552271
 20
421.2969489308888
 30
0.0
 10
234.2842536552271
 20
421.8867489159893
 30
0.0
 10
234.2842536552271
 20
423.0635606689457
 30
0.0
 10
234.2842536552271
 20
424.2403488565323
 30
0.0
 10
234.2842536552271
 20
425.417560668945
 30
0.0
 10
234.2842536552271
 20
427.7725606689455
 30
0.0
 10
234.2842536552271
 20
430.1270487078218
 30
0.0
 10
234.2842536552271
 20
432.4824486483193
 30
0.0
  0
POLYLINE
  5
119
330
1F
100
AcDbEntity
  8
Linee visibili 2D
 62
     7
420
 16777215
370
     9
100
AcDb2dPolyline
 66
     1
 10
0.0
 20
0.0
 30
0.0
  0
VERTEX
  5
11A
330
119
100
AcDbEntity
  8
Linee visibili 2D
 62
     7
420
 16777215
370
     9
100
AcDbVertex
100
AcDb2dVertex
 10
234.2842536552271
 20
432.4824486483193
 30
0.0
  0
VERTEX
  5
11B
330
119
100
AcDbEntity
  8
Linee visibili 2D
 62
     7
420
 16777215
370
     9
100
AcDbVertex
100
AcDb2dVertex
 10
234.2842536552271
 20
446.5830482921083
 30
0.0
  0
SEQEND
  5
11C
330
119
100
AcDbEntity
  8
Linee visibili 2D
 62
     7
420
 16777215
370
     9
  0
POLYLINE
  5
11D
330
1F
100
AcDbEntity
  8
Linee visibili 2D
 62
     7
420
 16777215
370
     9
100
AcDb2dPolyline
 66
     1
 10
0.0
 20
0.0
 30
0.0
  0
VERTEX
  5
11E
330
11D
100
AcDbEntity
  8
Linee visibili 2D
 62
     7
420
 16777215
370
     9
100
AcDbVertex
100
AcDb2dVertex
 10
261.8936529577549
 20
432.5176486474301
 30
0.0
  0
VERTEX
  5
11F
330
11D
100
AcDbEntity
  8
Linee visibili 2D
 62
     7
420
 16777215
370
     9
100
AcDbVertex
100
AcDb2dVertex
 10
261.8936529577549
 20
432.4824486483193
 30
0.0
  0
SEQEND
  5
120
330
11D
100
AcDbEntity
  8
Linee visibili 2D
 62
     7
420
 16777215
370
     9
  0
POLYLINE
  5
121
330
1F
100
AcDbEntity
  8
Linee visibili 2D
 62
     7
420
 16777215
370
     9
100
AcDb2dPolyline
 66
     1
 10
0.0
 20
0.0
 30
0.0
  0
VERTEX
  5
122
330
121
100
AcDbEntity
  8
Linee visibili 2D
 62
     7
420
 16777215
370
     9
100
AcDbVertex
100
AcDb2dVertex
 10
271.4180527171484
 20
575.6670450311721
 30
0.0
  0
VERTEX
  5
123
330
121
100
AcDbEntity
  8
Linee visibili 2D
 62
     7
420
 16777215
370
     9
100
AcDbVertex
100
AcDb2dVertex
 10
380.2910499667851
 20
575.667560668945
 30
0.0
  0
SEQEND
  5
124
330
121
100
AcDbEntity
  8
Linee visibili 2D
 62
     7
420
 16777215
370
     9
  0
POLYLINE
  5
125
330
1F
100
AcDbEntity
  8
Linee visibili 2D
 62
     7
420
 16777215
370
     9
100
AcDb2dPolyline
 66
     1
 10
0.0
 20
0.0
 30
0.0
  0
VERTEX
  5
126
330
125
100
AcDbEntity
  8
Linee visibili 2D
 62
     7
420
 16777215
370
     9
100
AcDbVertex
100
AcDb2dVertex
 10
380.2910499667851
 20
579.9185606689452
 30
0.0
  0
VERTEX
  5
127
330
125
100
AcDbEntity
  8
Linee visibili 2D
 62
     7
420
 16777215
370
     9
100
AcDbVertex
100
AcDb2dVertex
 10
271.4180527171484
 20
579.9190449237576
 30
0.0
  0
SEQEND
  5
128
330
125
100
AcDbEntity
  8
Linee visibili 2D
 62
     7
420
 16777215
370
     9
  0
SPLINE
  5
129
330
1F
100
AcDbEntity
  8
Linee visibili 2D
 62
     7
420
 16777215
370
     9
100
AcDbSpline
210
0.0
220
0.0
230
1.0
 70
     9
 71
     3
 72
    50
 73
    46
 74
     0
 42
0.0000000001
 43
0.0000000001
 40
0.0
 40
0.0
 40
0.0
 40
0.0
 40
1.0
 40
1.0
 40
1.0
 40
2.0
 40
2.0
 40
2.0
 40
3.0
 40
3.0
 40
3.0
 40
4.0
 40
4.0
 40
4.0
 40
5.0
 40
5.0
 40
5.0
 40
6.0
 40
6.0
 40
6.0
 40
7.0
 40
7.0
 40
7.0
 40
8.0
 40
8.0
 40
8.0
 40
9.0
 40
9.0
 40
9.0
 40
10.0
 40
10.0
 40
10.0
 40
11.0
 40
11.0
 40
11.0
 40
12.0
 40
12.0
 40
12.0
 40
13.0
 40
13.0
 40
13.0
 40
14.0
 40
14.0
 40
14.0
 40
15.0
 40
15.0
 40
15.0
 40
15.0
 10
380.2910499667851
 20
579.9185606689452
 30
0.0
 10
380.2910499667851
 20
578.9810449474535
 30
0.0
 10
380.2910499667851
 20
578.0435606689452
 30
0.0
 10
380.2910499667851
 20
577.1060449948199
 30
0.0
 10
380.2910499667851
 20
576.6372450066628
 30
0.0
 10
380.2910499667851
 20
576.1680450185158
 30
0.0
 10
380.2910499667851
 20
575.6992450303587
 30
0.0
 10
380.2910499667851
 20
575.6865606689452
 30
0.0
 10
380.2822499670074
 20
575.667560668945
 30
0.0
 10
380.302849966487
 20
575.667560668945
 30
0.0
 10
380.3184499660929
 20
575.667560668945
 30
0.0
 10
380.3320499657493
 20
575.667560668945
 30
0.0
 10
380.3477499653527
 20
575.667560668945
 30
0.0
 10
380.3770499646125
 20
575.667560668945
 30
0.0
 10
380.4063499638724
 20
575.667560668945
 30
0.0
 10
380.4356499631321
 20
575.667560668945
 30
0.0
 10
380.4942499616518
 20
575.667560668945
 30
0.0
 10
380.5528499601714
 20
575.667560668945
 30
0.0
 10
380.6113499586936
 20
575.667560668945
 30
0.0
 10
380.7276499557556
 20
575.667560668945
 30
0.0
 10
380.8457499527722
 20
575.667560668945
 30
0.0
 10
380.9629499498115
 20
575.667560668945
 30
0.0
 10
381.19734994389
 20
575.667560668945
 30
0.0
 10
381.4317499379686
 20
575.6670450311721
 30
0.0
 10
381.6660499320497
 20
575.6670450311721
 30
0.0
 10
382.6035606689456
 20
575.6670450311721
 30
0.0
 10
383.5410498846832
 20
575.6670450311721
 30
0.0
 10
384.4785606689456
 20
575.6670450311721
 30
0.0
 10
384.9512498490585
 20
575.6670450311721
 30
0.0
 10
385.4238498371196
 20
575.6670450311721
 30
0.0
 10
385.8965606689453
 20
575.6670450311721
 30
0.0
 10
386.381949812916
 20
575.6670450311721
 30
0.0
 10
386.8037498022604
 20
575.7319450295326
 30
0.0
 10
387.2276497915518
 20
576.0039450226613
 30
0.0
 10
388.0488497708066
 20
576.5313450093381
 30
0.0
 10
388.4053497618006
 20
577.5420449838057
 30
0.0
 10
388.0957497696218
 20
578.4673449604306
 30
0.0
 10
387.9287497738405
 20
578.9658449478374
 30
0.0
 10
387.6660497804769
 20
579.3028449393241
 30
0.0
 10
387.2236497916529
 20
579.5850449321951
 30
0.0
 10
386.8076498021619
 20
579.8501449254981
 30
0.0
 10
386.3955606689451
 20
579.9190449237576
 30
0.0
 10
385.9190498246098
 20
579.9190449237576
 30
0.0
 10
384.0440498719763
 20
579.9190449237576
 30
0.0
 10
382.1670499193933
 20
579.9190449237576
 30
0.0
 10
380.2910499667851
 20
579.9185606689452
 30
0.0
  0
SPLINE
  5
12A
330
1F
100
AcDbEntity
  8
Linee visibili 2D
 62
     7
420
 16777215
370
     9
100
AcDbSpline
210
0.0
220
0.0
230
1.0
 70
     8
 71
     3
 72
    56
 73
    52
 74
     0
 42
0.0000000001
 43
0.0000000001
 40
0.0
 40
0.0
 40
0.0
 40
0.0
 40
1.0
 40
1.0
 40
1.0
 40
2.0
 40
2.0
 40
2.0
 40
3.0
 40
3.0
 40
3.0
 40
4.0
 40
4.0
 40
4.0
 40
5.0
 40
5.0
 40
5.0
 40
6.0
 40
6.0
 40
6.0
 40
7.0
 40
7.0
 40
7.0
 40
8.0
 40
8.0
 40
8.0
 40
9.0
 40
9.0
 40
9.0
 40
10.0
 40
10.0
 40
10.0
 40
11.0
 40
11.0
 40
11.0
 40
12.0
 40
12.0
 40
12.0
 40
13.0
 40
13.0
 40
13.0
 40
14.0
 40
14.0
 40
14.0
 40
15.0
 40
15.0
 40
15.0
 40
16.0
 40
16.0
 40
16.0
 40
17.0
 40
17.0
 40
17.0
 40
17.0
 10
260.6465606689453
 20
432.5176486474301
 30
0.0
 10
260.6465606689453
 20
438.7559484898374
 30
0.0
 10
260.6465606689453
 20
444.9946483322346
 30
0.0
 10
260.6465606689453
 20
451.2334481746292
 30
0.0
 10
260.6465606689453
 20
451.65974816386
 30
0.0
 10
260.6533529890876
 20
452.0049481551395
 30
0.0
 10
260.211053000261
 20
452.2520481488973
 30
0.0
 10
260.0293530048511
 20
452.3530481463458
 30
0.0
 10
259.8506530093655
 20
452.3599481461714
 30
0.0
 10
259.6553530142992
 20
452.3599481461714
 30
0.0
 10
259.4610530192076
 20
452.3599481461714
 30
0.0
 10
259.2656530241438
 20
452.3599481461714
 30
0.0
 10
259.0703530290775
 20
452.3599481461714
 30
0.0
 10
258.2910530487643
 20
452.3599481461714
 30
0.0
 10
257.5127530684258
 20
452.3599481461714
 30
0.0
 10
256.7334530881126
 20
452.3599481461714
 30
0.0
 10
255.1748531274861
 20
452.3599481461714
 30
0.0
 10
253.6162531668597
 20
452.3599481461714
 30
0.0
 10
252.0586532062079
 20
452.3599481461714
 30
0.0
 10
251.8516532114372
 20
452.3599481461714
 30
0.0
 10
249.9492532594959
 20
452.3506481464064
 30
0.0
 10
249.7403532647731
 20
452.3779481457167
 30
0.0
 10
248.9258532853491
 20
452.4844481430263
 30
0.0
 10
248.2461533025198
 20
453.0508481287179
 30
0.0
 10
247.9932533089086
 20
453.832560668945
 30
0.0
 10
247.7500533150524
 20
454.584048089986
 30
0.0
 10
247.9434533101667
 20
455.4038480692761
 30
0.0
 10
248.4942532962523
 20
455.9697480549803
 30
0.0
 10
249.1729532791069
 20
456.6665606689457
 30
0.0
 10
249.8125606689446
 20
456.6118480387594
 30
0.0
 10
250.6621532414865
 20
456.6118480387594
 30
0.0
 10
253.7793531627394
 20
456.6118480387594
 30
0.0
 10
256.8975606689455
 20
456.6118480387594
 30
0.0
 10
260.0156530051972
 20
456.6118480387594
 30
0.0
 10
260.7940529855332
 20
456.6118480387594
 30
0.0
 10
261.5733529658464
 20
456.6118480387594
 30
0.0
 10
262.3526529461596
 20
456.6118480387594
 30
0.0
 10
262.7315606689444
 20
456.6118480387594
 30
0.0
 10
263.0996529272888
 20
456.623148038474
 30
0.0
 10
263.4736529178408
 20
456.4932480417556
 30
0.0
 10
263.8809529075516
 20
456.3506480453579
 30
0.0
 10
264.1826528999299
 20
456.1348480508095
 30
0.0
 10
264.4483528932178
 20
455.7944480594087
 30
0.0
 10
265.0069528791064
 20
455.0796480774661
 30
0.0
 10
264.8985606689457
 20
454.3574480957103
 30
0.0
 10
264.8985606689457
 20
453.5713481155689
 30
0.0
 10
264.8985606689457
 20
452.792560668945
 30
0.0
 10
264.8985606689457
 20
452.0137481549173
 30
0.0
 10
264.8985606689457
 20
451.234448174604
 30
0.0
 10
264.8985606689457
 20
444.995148332222
 30
0.0
 10
264.8985606689457
 20
438.7564484898248
 30
0.0
 10
264.8985606689457
 20
432.5176486474301
 30
0.0
  0
POLYLINE
  5
12B
330
1F
100
AcDbEntity
  8
Linee visibili 2D
 62
     7
420
 16777215
370
     9
100
AcDb2dPolyline
 66
     1
 10
0.0
 20
0.0
 30
0.0
  0
VERTEX
  5
12C
330
12B
100
AcDbEntity
  8
Linee visibili 2D
 62
     7
420
 16777215
370
     9
100
AcDbVertex
100
AcDb2dVertex
 10
247.9473533100681
 20
454.4859480924642
 30
0.0
  0
VERTEX
  5
12D
330
12B
100
AcDbEntity
  8
Linee visibili 2D
 62
     7
420
 16777215
370
     9
100
AcDbVertex
100
AcDb2dVertex
 10
247.7490533150776
 20
454.4859480924642
 30
0.0
  0
SEQEND
  5
12E
330
12B
100
AcDbEntity
  8
Linee visibili 2D
 62
     7
420
 16777215
370
     9
  0
POLYLINE
  5
12F
330
1F
100
AcDbEntity
  8
Linee visibili 2D
 62
     7
420
 16777215
370
     9
100
AcDb2dPolyline
 66
     1
 10
0.0
 20
0.0
 30
0.0
  0
VERTEX
  5
130
330
12F
100
AcDbEntity
  8
Linee visibili 2D
 62
     7
420
 16777215
370
     9
100
AcDbVertex
100
AcDb2dVertex
 10
264.8418528832772
 20
460.2403479470958
 30
0.0
  0
VERTEX
  5
131
330
12F
100
AcDbEntity
  8
Linee visibili 2D
 62
     7
420
 16777215
370
     9
100
AcDbVertex
100
AcDb2dVertex
 10
260.7031529878295
 20
460.2403479470958
 30
0.0
  0
SEQEND
  5
132
330
12F
100
AcDbEntity
  8
Linee visibili 2D
 62
     7
420
 16777215
370
     9
  0
POLYLINE
  5
133
330
1F
100
AcDbEntity
  8
Linee visibili 2D
 62
     7
420
 16777215
370
     9
100
AcDb2dPolyline
 66
     1
 10
0.0
 20
0.0
 30
0.0
  0
VERTEX
  5
134
330
133
100
AcDbEntity
  8
Linee visibili 2D
 62
     7
420
 16777215
370
     9
100
AcDbVertex
100
AcDb2dVertex
 10
201.4863609400854
 20
387.3405336248979
 30
0.0
  0
VERTEX
  5
135
330
133
100
AcDbEntity
  8
Linee visibili 2D
 62
     7
420
 16777215
370
     9
100
AcDbVertex
100
AcDb2dVertex
 10
202.5918662719723
 20
387.3405336248979
 30
0.0
  0
SEQEND
  5
136
330
133
100
AcDbEntity
  8
Linee visibili 2D
 62
     7
420
 16777215
370
     9
  0
POLYLINE
  5
137
330
1F
100
AcDbEntity
  8
Linee visibili 2D
 62
     7
420
 16777215
370
     9
100
AcDb2dPolyline
 66
     1
 10
0.0
 20
0.0
 30
0.0
  0
VERTEX
  5
138
330
137
100
AcDbEntity
  8
Linee visibili 2D
 62
     7
420
 16777215
370
     9
100
AcDbVertex
100
AcDb2dVertex
 10
199.7573609837636
 20
387.3405336248979
 30
0.0
  0
VERTEX
  5
139
330
137
100
AcDbEntity
  8
Linee visibili 2D
 62
     7
420
 16777215
370
     9
100
AcDbVertex
100
AcDb2dVertex
 10
200.9194609544065
 20
387.3405336248979
 30
0.0
  0
SEQEND
  5
13A
330
137
100
AcDbEntity
  8
Linee visibili 2D
 62
     7
420
 16777215
370
     9
  0
POLYLINE
  5
13B
330
1F
100
AcDbEntity
  8
Linee visibili 2D
 62
     7
420
 16777215
370
     9
100
AcDb2dPolyline
 66
     1
 10
0.0
 20
0.0
 30
0.0
  0
VERTEX
  5
13C
330
13B
100
AcDbEntity
  8
Linee visibili 2D
 62
     7
420
 16777215
370
     9
100
AcDbVertex
100
AcDb2dVertex
 10
201.3164609443775
 20
383.6046337192747
 30
0.0
  0
VERTEX
  5
13D
330
13B
100
AcDbEntity
  8
Linee visibili 2D
 62
     7
420
 16777215
370
     9
100
AcDbVertex
100
AcDb2dVertex
 10
202.5913609121708
 20
383.6046337192747
 30
0.0
  0
SEQEND
  5
13E
330
13B
100
AcDbEntity
  8
Linee visibili 2D
 62
     7
420
 16777215
370
     9
  0
POLYLINE
  5
13F
330
1F
100
AcDbEntity
  8
Linee visibili 2D
 62
     7
420
 16777215
370
     9
100
AcDb2dPolyline
 66
     1
 10
0.0
 20
0.0
 30
0.0
  0
VERTEX
  5
140
330
13F
100
AcDbEntity
  8
Linee visibili 2D
 62
     7
420
 16777215
370
     9
100
AcDbVertex
100
AcDb2dVertex
 10
199.7573609837636
 20
383.6046337192747
 30
0.0
  0
VERTEX
  5
141
330
13F
100
AcDbEntity
  8
Linee visibili 2D
 62
     7
420
 16777215
370
     9
100
AcDbVertex
100
AcDb2dVertex
 10
201.0327609515443
 20
383.6046337192747
 30
0.0
  0
SEQEND
  5
142
330
13F
100
AcDbEntity
  8
Linee visibili 2D
 62
     7
420
 16777215
370
     9
  0
POLYLINE
  5
143
330
1F
100
AcDbEntity
  8
Linee visibili 2D
 62
     7
420
 16777215
370
     9
100
AcDb2dPolyline
 66
     1
 10
0.0
 20
0.0
 30
0.0
  0
VERTEX
  5
144
330
143
100
AcDbEntity
  8
Linee visibili 2D
 62
     7
420
 16777215
370
     9
100
AcDbVertex
100
AcDb2dVertex
 10
201.0288662719722
 20
385.0343433532708
 30
0.0
  0
VERTEX
  5
145
330
143
100
AcDbEntity
  8
Linee visibili 2D
 62
     7
420
 16777215
370
     9
100
AcDbVertex
100
AcDb2dVertex
 10
201.4902609399869
 20
385.0343433532708
 30
0.0
  0
SEQEND
  5
146
330
143
100
AcDbEntity
  8
Linee visibili 2D
 62
     7
420
 16777215
370
     9
  0
POLYLINE
  5
147
330
1F
100
AcDbEntity
  8
Linee visibili 2D
 62
     7
420
 16777215
370
     9
100
AcDb2dPolyline
 66
     1
 10
0.0
 20
0.0
 30
0.0
  0
VERTEX
  5
148
330
147
100
AcDbEntity
  8
Linee visibili 2D
 62
     7
420
 16777215
370
     9
100
AcDbVertex
100
AcDb2dVertex
 10
202.5879609122567
 20
247.025537169553
 30
0.0
  0
VERTEX
  5
149
330
147
100
AcDbEntity
  8
Linee visibili 2D
 62
     7
420
 16777215
370
     9
100
AcDbVertex
100
AcDb2dVertex
 10
202.521960913924
 20
247.025537169553
 30
0.0
  0
SEQEND
  5
14A
330
147
100
AcDbEntity
  8
Linee visibili 2D
 62
     7
420
 16777215
370
     9
  0
POLYLINE
  5
14B
330
1F
100
AcDbEntity
  8
Linee visibili 2D
 62
     7
420
 16777215
370
     9
100
AcDb2dPolyline
 66
     1
 10
0.0
 20
0.0
 30
0.0
  0
VERTEX
  5
14C
330
14B
100
AcDbEntity
  8
Linee visibili 2D
 62
     7
420
 16777215
370
     9
100
AcDbVertex
100
AcDb2dVertex
 10
202.733460908581
 20
246.8849371731049
 30
0.0
  0
VERTEX
  5
14D
330
14B
100
AcDbEntity
  8
Linee visibili 2D
 62
     7
420
 16777215
370
     9
100
AcDbVertex
100
AcDb2dVertex
 10
202.733460908581
 20
244.3341372375435
 30
0.0
  0
SEQEND
  5
14E
330
14B
100
AcDbEntity
  8
Linee visibili 2D
 62
     7
420
 16777215
370
     9
  0
POLYLINE
  5
14F
330
1F
100
AcDbEntity
  8
Linee visibili 2D
 62
     7
420
 16777215
370
     9
100
AcDb2dPolyline
 66
     1
 10
0.0
 20
0.0
 30
0.0
  0
VERTEX
  5
150
330
14F
100
AcDbEntity
  8
Linee visibili 2D
 62
     7
420
 16777215
370
     9
100
AcDbVertex
100
AcDb2dVertex
 10
201.5957609373217
 20
247.431837159289
 30
0.0
  0
VERTEX
  5
151
330
14F
100
AcDbEntity
  8
Linee visibili 2D
 62
     7
420
 16777215
370
     9
100
AcDbVertex
100
AcDb2dVertex
 10
201.6054609370767
 20
247.431837159289
 30
0.0
  0
SEQEND
  5
152
330
14F
100
AcDbEntity
  8
Linee visibili 2D
 62
     7
420
 16777215
370
     9
  0
POLYLINE
  5
153
330
1F
100
AcDbEntity
  8
Linee visibili 2D
 62
     7
420
 16777215
370
     9
100
AcDb2dPolyline
 66
     1
 10
0.0
 20
0.0
 30
0.0
  0
VERTEX
  5
154
330
153
100
AcDbEntity
  8
Linee visibili 2D
 62
     7
420
 16777215
370
     9
100
AcDbVertex
100
AcDb2dVertex
 10
201.0610609508294
 20
247.431837159289
 30
0.0
  0
VERTEX
  5
155
330
153
100
AcDbEntity
  8
Linee visibili 2D
 62
     7
420
 16777215
370
     9
100
AcDbVertex
100
AcDb2dVertex
 10
201.3784609428112
 20
247.431837159289
 30
0.0
  0
SEQEND
  5
156
330
153
100
AcDbEntity
  8
Linee visibili 2D
 62
     7
420
 16777215
370
     9
  0
POLYLINE
  5
157
330
1F
100
AcDbEntity
  8
Linee visibili 2D
 62
     7
420
 16777215
370
     9
100
AcDb2dPolyline
 66
     1
 10
0.0
 20
0.0
 30
0.0
  0
VERTEX
  5
158
330
157
100
AcDbEntity
  8
Linee visibili 2D
 62
     7
420
 16777215
370
     9
100
AcDbVertex
100
AcDb2dVertex
 10
199.7422609841451
 20
247.1671371659759
 30
0.0
  0
VERTEX
  5
159
330
157
100
AcDbEntity
  8
Linee visibili 2D
 62
     7
420
 16777215
370
     9
100
AcDbVertex
100
AcDb2dVertex
 10
199.0342610020307
 20
247.1671371659759
 30
0.0
  0
SEQEND
  5
15A
330
157
100
AcDbEntity
  8
Linee visibili 2D
 62
     7
420
 16777215
370
     9
  0
POLYLINE
  5
15B
330
1F
100
AcDbEntity
  8
Linee visibili 2D
 62
     7
420
 16777215
370
     9
100
AcDb2dPolyline
 66
     1
 10
0.0
 20
0.0
 30
0.0
  0
VERTEX
  5
15C
330
15B
100
AcDbEntity
  8
Linee visibili 2D
 62
     7
420
 16777215
370
     9
100
AcDbVertex
100
AcDb2dVertex
 10
203.313460893929
 20
247.1671371659759
 30
0.0
  0
VERTEX
  5
15D
330
15B
100
AcDbEntity
  8
Linee visibili 2D
 62
     7
420
 16777215
370
     9
100
AcDbVertex
100
AcDb2dVertex
 10
202.605960911802
 20
247.1671371659759
 30
0.0
  0
SEQEND
  5
15E
330
15B
100
AcDbEntity
  8
Linee visibili 2D
 62
     7
420
 16777215
370
     9
  0
POLYLINE
  5
15F
330
1F
100
AcDbEntity
  8
Linee visibili 2D
 62
     7
420
 16777215
370
     9
100
AcDb2dPolyline
 66
     1
 10
0.0
 20
0.0
 30
0.0
  0
VERTEX
  5
160
330
15F
100
AcDbEntity
  8
Linee visibili 2D
 62
     7
420
 16777215
370
     9
100
AcDbVertex
100
AcDb2dVertex
 10
199.7431609841223
 20
370.4747340509639
 30
0.0
  0
VERTEX
  5
161
330
15F
100
AcDbEntity
  8
Linee visibili 2D
 62
     7
420
 16777215
370
     9
100
AcDbVertex
100
AcDb2dVertex
 10
199.0351610020079
 20
370.4747340509639
 30
0.0
  0
SEQEND
  5
162
330
15F
100
AcDbEntity
  8
Linee visibili 2D
 62
     7
420
 16777215
370
     9
  0
POLYLINE
  5
163
330
1F
100
AcDbEntity
  8
Linee visibili 2D
 62
     7
420
 16777215
370
     9
100
AcDb2dPolyline
 66
     1
 10
0.0
 20
0.0
 30
0.0
  0
VERTEX
  5
164
330
163
100
AcDbEntity
  8
Linee visibili 2D
 62
     7
420
 16777215
370
     9
100
AcDbVertex
100
AcDb2dVertex
 10
203.3149608938911
 20
370.4747340509639
 30
0.0
  0
VERTEX
  5
165
330
163
100
AcDbEntity
  8
Linee visibili 2D
 62
     7
420
 16777215
370
     9
100
AcDbVertex
100
AcDb2dVertex
 10
202.6069609117767
 20
370.4747340509639
 30
0.0
  0
SEQEND
  5
166
330
163
100
AcDbEntity
  8
Linee visibili 2D
 62
     7
420
 16777215
370
     9
  0
POLYLINE
  5
167
330
1F
100
AcDbEntity
  8
Linee visibili 2D
 62
     7
420
 16777215
370
     9
100
AcDb2dPolyline
 66
     1
 10
0.0
 20
0.0
 30
0.0
  0
VERTEX
  5
168
330
167
100
AcDbEntity
  8
Linee visibili 2D
 62
     7
420
 16777215
370
     9
100
AcDbVertex
100
AcDb2dVertex
 10
218.2822605157853
 20
397.8287333599437
 30
0.0
  0
VERTEX
  5
169
330
167
100
AcDbEntity
  8
Linee visibili 2D
 62
     7
420
 16777215
370
     9
100
AcDbVertex
100
AcDb2dVertex
 10
218.2456605167099
 20
393.6329334659386
 30
0.0
  0
SEQEND
  5
16A
330
167
100
AcDbEntity
  8
Linee visibili 2D
 62
     7
420
 16777215
370
     9
  0
POLYLINE
  5
16B
330
1F
100
AcDbEntity
  8
Linee visibili 2D
 62
     7
420
 16777215
370
     9
100
AcDb2dPolyline
 66
     1
 10
0.0
 20
0.0
 30
0.0
  0
VERTEX
  5
16C
330
16B
100
AcDbEntity
  8
Linee visibili 2D
 62
     7
420
 16777215
370
     9
100
AcDbVertex
100
AcDb2dVertex
 10
187.0947613036478
 20
397.8287333599437
 30
0.0
  0
VERTEX
  5
16D
330
16B
100
AcDbEntity
  8
Linee visibili 2D
 62
     7
420
 16777215
370
     9
100
AcDbVertex
100
AcDb2dVertex
 10
187.1220613029582
 20
400.9469332811713
 30
0.0
  0
SEQEND
  5
16E
330
16B
100
AcDbEntity
  8
Linee visibili 2D
 62
     7
420
 16777215
370
     9
  0
SPLINE
  5
16F
330
1F
100
AcDbEntity
  8
Linee visibili 2D
 62
     7
420
 16777215
370
     9
100
AcDbSpline
210
0.0
220
0.0
230
1.0
 70
     8
 71
     3
 72
     8
 73
     4
 74
     0
 42
0.0000000001
 43
0.0000000001
 40
0.0
 40
0.0
 40
0.0
 40
0.0
 40
1.0
 40
1.0
 40
1.0
 40
1.0
 10
184.2856613746116
 20
393.5768334673558
 30
0.0
 10
184.2466613755969
 20
393.5783433532715
 30
0.0
 10
184.2304613760061
 20
393.5939334669238
 30
0.0
 10
184.2290613760415
 20
393.6329334659386
 30
0.0
  0
SPLINE
  5
170
330
1F
100
AcDbEntity
  8
Linee visibili 2D
 62
     7
420
 16777215
370
     9
100
AcDbSpline
210
0.0
220
0.0
230
1.0
 70
     8
 71
     3
 72
     8
 73
     4
 74
     0
 42
0.0000000001
 43
0.0000000001
 40
0.0
 40
0.0
 40
0.0
 40
0.0
 40
1.0
 40
1.0
 40
1.0
 40
1.0
 10
202.8047609067798
 20
244.3371372374677
 30
0.0
 10
202.7724609075958
 20
244.3351372375182
 30
0.0
 10
202.7402609084092
 20
244.3341372375435
 30
0.0
 10
202.7080609092227
 20
244.3341372375435
 30
0.0
  0
SPLINE
  5
171
330
1F
100
AcDbEntity
  8
Linee visibili 2D
 62
     7
420
 16777215
370
     9
100
AcDbSpline
210
0.0
220
0.0
230
1.0
 70
     8
 71
     3
 72
     8
 73
     4
 74
     0
 42
0.0000000001
 43
0.0000000001
 40
0.0
 40
0.0
 40
0.0
 40
0.0
 40
1.0
 40
1.0
 40
1.0
 40
1.0
 10
200.1513609738104
 20
244.3576372369498
 30
0.0
 10
199.9546609787794
 20
244.3468372372227
 30
0.0
 10
199.7578662719725
 20
244.3380372374449
 30
0.0
 10
199.5610609887226
 20
244.3331372375687
 30
0.0
  0
SPLINE
  5
172
330
1F
100
AcDbEntity
  8
Linee visibili 2D
 62
     7
420
 16777215
370
     9
100
AcDbSpline
210
0.0
220
0.0
230
1.0
 70
     8
 71
     3
 72
     8
 73
     4
 74
     0
 42
0.0000000001
 43
0.0000000001
 40
0.0
 40
0.0
 40
0.0
 40
0.0
 40
1.0
 40
1.0
 40
1.0
 40
1.0
 10
202.7080609092227
 20
244.3341372375435
 30
0.0
 10
202.4931609146515
 20
244.3449372372707
 30
0.0
 10
202.2788662719722
 20
244.3537372370483
 30
0.0
 10
202.0644609254814
 20
244.3624372368286
 30
0.0
  0
POLYLINE
  5
173
330
1F
100
AcDbEntity
  8
Linee visibili 2D
 62
     7
420
 16777215
370
     9
100
AcDb2dPolyline
 66
     1
 10
0.0
 20
0.0
 30
0.0
  0
VERTEX
  5
174
330
173
100
AcDbEntity
  8
Linee visibili 2D
 62
     7
420
 16777215
370
     9
100
AcDbVertex
100
AcDb2dVertex
 10
182.8237614115423
 20
226.0206377001814
 30
0.0
  0
VERTEX
  5
175
330
173
100
AcDbEntity
  8
Linee visibili 2D
 62
     7
420
 16777215
370
     9
100
AcDbVertex
100
AcDb2dVertex
 10
182.7495614134168
 20
226.0206377001814
 30
0.0
  0
SEQEND
  5
176
330
173
100
AcDbEntity
  8
Linee visibili 2D
 62
     7
420
 16777215
370
     9
  0
SPLINE
  5
177
330
1F
100
AcDbEntity
  8
Linee visibili 2D
 62
     7
420
 16777215
370
     9
100
AcDbSpline
210
0.0
220
0.0
230
1.0
 70
     8
 71
     3
 72
    11
 73
     7
 74
     0
 42
0.0000000001
 43
0.0000000001
 40
0.0
 40
0.0
 40
0.0
 40
0.0
 40
1.0
 40
1.0
 40
1.0
 40
2.0
 40
2.0
 40
2.0
 40
2.0
 10
219.5254604843794
 20
226.0206377001814
 30
0.0
 10
219.5254604843794
 20
215.8859379562055
 30
0.0
 10
211.3095606919305
 20
207.670138163754
 30
0.0
 10
201.1748662719729
 20
207.670138163754
 30
0.0
 10
191.0395612039938
 20
207.670138163754
 30
0.0
 10
182.8237614115423
 20
215.8859379562055
 30
0.0
 10
182.8237614115423
 20
226.0206377001814
 30
0.0
  0
SPLINE
  5
178
330
1F
100
AcDbEntity
  8
Linee visibili 2D
 62
     7
420
 16777215
370
     9
100
AcDbSpline
210
0.0
220
0.0
230
1.0
 70
     8
 71
     3
 72
    11
 73
     7
 74
     0
 42
0.0000000001
 43
0.0000000001
 40
0.0
 40
0.0
 40
0.0
 40
0.0
 40
1.0
 40
1.0
 40
1.0
 40
2.0
 40
2.0
 40
2.0
 40
2.0
 10
182.8237614115423
 20
226.0206377001814
 30
0.0
 10
182.8237614115423
 20
236.1554374441548
 30
0.0
 10
191.0395612039938
 20
244.3712372366062
 30
0.0
 10
201.1748662719729
 20
244.3712372366062
 30
0.0
 10
211.3095606919305
 20
244.3712372366062
 30
0.0
 10
219.5254604843794
 20
236.1554374441548
 30
0.0
 10
219.5254604843794
 20
226.0206377001814
 30
0.0
  0
SPLINE
  5
179
330
1F
100
AcDbEntity
  8
Linee visibili 2D
 62
     7
420
 16777215
370
     9
100
AcDbSpline
210
0.0
220
0.0
230
1.0
 70
     8
 71
     3
 72
     8
 73
     4
 74
     0
 42
0.0000000001
 43
0.0000000001
 40
0.0
 40
0.0
 40
0.0
 40
0.0
 40
1.0
 40
1.0
 40
1.0
 40
1.0
 10
202.7778662719729
 20
244.3761372364825
 30
0.0
 10
202.7632609078282
 20
244.3781372364319
 30
0.0
 10
202.7485609081996
 20
244.3790372364092
 30
0.0
 10
202.733460908581
 20
244.3800372363839
 30
0.0
  0
POLYLINE
  5
17A
330
1F
100
AcDbEntity
  8
Linee visibili 2D
 62
     7
420
 16777215
370
     9
100
AcDb2dPolyline
 66
     1
 10
0.0
 20
0.0
 30
0.0
  0
VERTEX
  5
17B
330
17A
100
AcDbEntity
  8
Linee visibili 2D
 62
     7
420
 16777215
370
     9
100
AcDbVertex
100
AcDb2dVertex
 10
199.7573609837636
 20
387.3405336248979
 30
0.0
  0
VERTEX
  5
17C
330
17A
100
AcDbEntity
  8
Linee visibili 2D
 62
     7
420
 16777215
370
     9
100
AcDbVertex
100
AcDb2dVertex
 10
199.7573609837636
 20
383.6046337192747
 30
0.0
  0
SEQEND
  5
17D
330
17A
100
AcDbEntity
  8
Linee visibili 2D
 62
     7
420
 16777215
370
     9
  0
POLYLINE
  5
17E
330
1F
100
AcDbEntity
  8
Linee visibili 2D
 62
     7
420
 16777215
370
     9
100
AcDb2dPolyline
 66
     1
 10
0.0
 20
0.0
 30
0.0
  0
VERTEX
  5
17F
330
17E
100
AcDbEntity
  8
Linee visibili 2D
 62
     7
420
 16777215
370
     9
100
AcDbVertex
100
AcDb2dVertex
 10
201.4863609400854
 20
385.2140336786178
 30
0.0
  0
VERTEX
  5
180
330
17E
100
AcDbEntity
  8
Linee visibili 2D
 62
     7
420
 16777215
370
     9
100
AcDbVertex
100
AcDb2dVertex
 10
201.4863609400854
 20
387.3405336248979
 30
0.0
  0
SEQEND
  5
181
330
17E
100
AcDbEntity
  8
Linee visibili 2D
 62
     7
420
 16777215
370
     9
  0
POLYLINE
  5
182
330
1F
100
AcDbEntity
  8
Linee visibili 2D
 62
     7
420
 16777215
370
     9
100
AcDb2dPolyline
 66
     1
 10
0.0
 20
0.0
 30
0.0
  0
VERTEX
  5
183
330
182
100
AcDbEntity
  8
Linee visibili 2D
 62
     7
420
 16777215
370
     9
100
AcDbVertex
100
AcDb2dVertex
 10
200.9194609544065
 20
387.3405336248979
 30
0.0
  0
VERTEX
  5
184
330
182
100
AcDbEntity
  8
Linee visibili 2D
 62
     7
420
 16777215
370
     9
100
AcDbVertex
100
AcDb2dVertex
 10
200.9194609544065
 20
385.2140336786178
 30
0.0
  0
SEQEND
  5
185
330
182
100
AcDbEntity
  8
Linee visibili 2D
 62
     7
420
 16777215
370
     9
  0
POLYLINE
  5
186
330
1F
100
AcDbEntity
  8
Linee visibili 2D
 62
     7
420
 16777215
370
     9
100
AcDb2dPolyline
 66
     1
 10
0.0
 20
0.0
 30
0.0
  0
VERTEX
  5
187
330
186
100
AcDbEntity
  8
Linee visibili 2D
 62
     7
420
 16777215
370
     9
100
AcDbVertex
100
AcDb2dVertex
 10
202.5913609121708
 20
370.9552340388254
 30
0.0
  0
VERTEX
  5
188
330
186
100
AcDbEntity
  8
Linee visibili 2D
 62
     7
420
 16777215
370
     9
100
AcDbVertex
100
AcDb2dVertex
 10
202.5913609121708
 20
370.3497340541217
 30
0.0
  0
SEQEND
  5
189
330
186
100
AcDbEntity
  8
Linee visibili 2D
 62
     7
420
 16777215
370
     9
  0
SPLINE
  5
18A
330
1F
100
AcDbEntity
  8
Linee visibili 2D
 62
     7
420
 16777215
370
     9
100
AcDbSpline
210
0.0
220
0.0
230
1.0
 70
    24
 71
     3
 72
    23
 73
    19
 74
     0
 42
0.0000000001
 43
0.0000000001
 40
0.0
 40
0.0
 40
0.0
 40
0.0
 40
1.0
 40
1.0
 40
1.0
 40
2.0
 40
2.0
 40
2.0
 40
3.0
 40
3.0
 40
3.0
 40
4.0
 40
4.0
 40
4.0
 40
5.0
 40
5.0
 40
5.0
 40
6.0
 40
6.0
 40
6.0
 40
6.0
 10
202.5913609121708
 20
383.6046337192747
 30
0.0
 10
202.5913609121708
 20
383.687633717178
 30
0.0
 10
202.5913609121708
 20
383.5206337213967
 30
0.0
 10
202.5913609121708
 20
383.4787337224552
 30
0.0
 10
202.5913609121708
 20
383.3663433532711
 30
0.0
 10
202.5913609121708
 20
383.2550337281063
 30
0.0
 10
202.5913609121708
 20
383.1427337309433
 30
0.0
 10
202.5913609121708
 20
382.7697337403661
 30
0.0
 10
202.5913609121708
 20
382.3956337498166
 30
0.0
 10
202.5913609121708
 20
382.0226337592394
 30
0.0
 10
202.5913609121708
 20
381.4962337725374
 30
0.0
 10
202.5913609121708
 20
380.9699337858329
 30
0.0
 10
202.5913609121708
 20
380.4435337991308
 30
0.0
 10
202.5913609121708
 20
379.3878338258001
 30
0.0
 10
202.5913609121708
 20
378.333133852444
 30
0.0
 10
202.5913609121708
 20
377.2785338790854
 30
0.0
 10
202.5913609121708
 20
375.1710339323254
 30
0.0
 10
202.5913609121708
 20
373.062633985588
 30
0.0
 10
202.5913609121708
 20
370.9552340388254
 30
0.0
  0
SPLINE
  5
18B
330
1F
100
AcDbEntity
  8
Linee visibili 2D
 62
     7
420
 16777215
370
     9
100
AcDbSpline
210
0.0
220
0.0
230
1.0
 70
    24
 71
     3
 72
     8
 73
     4
 74
     0
 42
0.0000000001
 43
0.0000000001
 40
0.0
 40
0.0
 40
0.0
 40
0.0
 40
1.0
 40
1.0
 40
1.0
 40
1.0
 10
199.7573609837636
 20
383.6046337192747
 30
0.0
 10
199.7573609837636
 20
379.9259338122065
 30
0.0
 10
199.7573609837636
 20
376.2462339051635
 30
0.0
 10
199.7573609837636
 20
372.5675339980953
 30
0.0
  0
POLYLINE
  5
18C
330
1F
100
AcDbEntity
  8
Linee visibili 2D
 62
     7
420
 16777215
370
     9
100
AcDb2dPolyline
 66
     1
 10
0.0
 20
0.0
 30
0.0
  0
VERTEX
  5
18D
330
18C
100
AcDbEntity
  8
Linee visibili 2D
 62
     7
420
 16777215
370
     9
100
AcDbVertex
100
AcDb2dVertex
 10
202.5879609122567
 20
248.8712371229267
 30
0.0
  0
VERTEX
  5
18E
330
18C
100
AcDbEntity
  8
Linee visibili 2D
 62
     7
420
 16777215
370
     9
100
AcDbVertex
100
AcDb2dVertex
 10
202.5879609122567
 20
249.1515371158457
 30
0.0
  0
SEQEND
  5
18F
330
18C
100
AcDbEntity
  8
Linee visibili 2D
 62
     7
420
 16777215
370
     9
  0
POLYLINE
  5
190
330
1F
100
AcDbEntity
  8
Linee visibili 2D
 62
     7
420
 16777215
370
     9
100
AcDb2dPolyline
 66
     1
 10
0.0
 20
0.0
 30
0.0
  0
VERTEX
  5
191
330
190
100
AcDbEntity
  8
Linee visibili 2D
 62
     7
420
 16777215
370
     9
100
AcDbVertex
100
AcDb2dVertex
 10
202.5879609122567
 20
247.8126371496692
 30
0.0
  0
VERTEX
  5
192
330
190
100
AcDbEntity
  8
Linee visibili 2D
 62
     7
420
 16777215
370
     9
100
AcDbVertex
100
AcDb2dVertex
 10
202.5879609122567
 20
247.9884371452281
 30
0.0
  0
SEQEND
  5
193
330
190
100
AcDbEntity
  8
Linee visibili 2D
 62
     7
420
 16777215
370
     9
  0
SPLINE
  5
194
330
1F
100
AcDbEntity
  8
Linee visibili 2D
 62
     7
420
 16777215
370
     9
100
AcDbSpline
210
0.0
220
0.0
230
1.0
 70
     8
 71
     3
 72
     8
 73
     4
 74
     0
 42
0.0000000001
 43
0.0000000001
 40
0.0
 40
0.0
 40
0.0
 40
0.0
 40
1.0
 40
1.0
 40
1.0
 40
1.0
 10
199.7534609838622
 20
250.4240370836996
 30
0.0
 10
199.7534609838622
 20
251.92983704566
 30
0.0
 10
199.7524609838874
 20
253.4357370076177
 30
0.0
 10
199.7568662719723
 20
254.941536969578
 30
0.0
  0
SPLINE
  5
195
330
1F
100
AcDbEntity
  8
Linee visibili 2D
 62
     7
420
 16777215
370
     9
100
AcDbSpline
210
0.0
220
0.0
230
1.0
 70
     8
 71
     3
 72
     8
 73
     4
 74
     0
 42
0.0000000001
 43
0.0000000001
 40
0.0
 40
0.0
 40
0.0
 40
0.0
 40
1.0
 40
1.0
 40
1.0
 40
1.0
 10
199.7544609838369
 20
250.3156370864381
 30
0.0
 10
199.7544609838369
 20
250.3429370857484
 30
0.0
 10
199.7539609838495
 20
250.3712370850335
 30
0.0
 10
199.7534609838622
 20
250.399637084316
 30
0.0
  0
POLYLINE
  5
196
330
1F
100
AcDbEntity
  8
Linee visibili 2D
 62
     7
420
 16777215
370
     9
100
AcDb2dPolyline
 66
     1
 10
0.0
 20
0.0
 30
0.0
  0
VERTEX
  5
197
330
196
100
AcDbEntity
  8
Linee visibili 2D
 62
     7
420
 16777215
370
     9
100
AcDbVertex
100
AcDb2dVertex
 10
199.7573609837636
 20
247.4630371585008
 30
0.0
  0
VERTEX
  5
198
330
196
100
AcDbEntity
  8
Linee visibili 2D
 62
     7
420
 16777215
370
     9
100
AcDbVertex
100
AcDb2dVertex
 10
199.7573609837636
 20
247.3185371621512
 30
0.0
  0
SEQEND
  5
199
330
196
100
AcDbEntity
  8
Linee visibili 2D
 62
     7
420
 16777215
370
     9
  0
POLYLINE
  5
19A
330
1F
100
AcDbEntity
  8
Linee visibili 2D
 62
     7
420
 16777215
370
     9
100
AcDb2dPolyline
 66
     1
 10
0.0
 20
0.0
 30
0.0
  0
VERTEX
  5
19B
330
19A
100
AcDbEntity
  8
Linee visibili 2D
 62
     7
420
 16777215
370
     9
100
AcDbVertex
100
AcDb2dVertex
 10
199.7573609837636
 20
248.0363433532712
 30
0.0
  0
VERTEX
  5
19C
330
19A
100
AcDbEntity
  8
Linee visibili 2D
 62
     7
420
 16777215
370
     9
100
AcDbVertex
100
AcDb2dVertex
 10
199.7573609837636
 20
247.8126371496692
 30
0.0
  0
SEQEND
  5
19D
330
19A
100
AcDbEntity
  8
Linee visibili 2D
 62
     7
420
 16777215
370
     9
  0
POLYLINE
  5
19E
330
1F
100
AcDbEntity
  8
Linee visibili 2D
 62
     7
420
 16777215
370
     9
100
AcDb2dPolyline
 66
     1
 10
0.0
 20
0.0
 30
0.0
  0
VERTEX
  5
19F
330
19E
100
AcDbEntity
  8
Linee visibili 2D
 62
     7
420
 16777215
370
     9
100
AcDbVertex
100
AcDb2dVertex
 10
199.7573609837636
 20
249.1261371164874
 30
0.0
  0
VERTEX
  5
1A0
330
19E
100
AcDbEntity
  8
Linee visibili 2D
 62
     7
420
 16777215
370
     9
100
AcDbVertex
100
AcDb2dVertex
 10
199.7573609837636
 20
248.8712371229267
 30
0.0
  0
SEQEND
  5
1A1
330
19E
100
AcDbEntity
  8
Linee visibili 2D
 62
     7
420
 16777215
370
     9
  0
POLYLINE
  5
1A2
330
1F
100
AcDbEntity
  8
Linee visibili 2D
 62
     7
420
 16777215
370
     9
100
AcDb2dPolyline
 66
     1
 10
0.0
 20
0.0
 30
0.0
  0
VERTEX
  5
1A3
330
1A2
100
AcDbEntity
  8
Linee visibili 2D
 62
     7
420
 16777215
370
     9
100
AcDbVertex
100
AcDb2dVertex
 10
199.6157609873407
 20
246.8839371731301
 30
0.0
  0
VERTEX
  5
1A4
330
1A2
100
AcDbEntity
  8
Linee visibili 2D
 62
     7
420
 16777215
370
     9
100
AcDbVertex
100
AcDb2dVertex
 10
199.6157609873407
 20
244.3331372375687
 30
0.0
  0
SEQEND
  5
1A5
330
1A2
100
AcDbEntity
  8
Linee visibili 2D
 62
     7
420
 16777215
370
     9
  0
SPLINE
  5
1A6
330
1F
100
AcDbEntity
  8
Linee visibili 2D
 62
     7
420
 16777215
370
     9
100
AcDbSpline
210
0.0
220
0.0
230
1.0
 70
     8
 71
     3
 72
     8
 73
     4
 74
     0
 42
0.0000000001
 43
0.0000000001
 40
0.0
 40
0.0
 40
0.0
 40
0.0
 40
1.0
 40
1.0
 40
1.0
 40
1.0
 10
199.7573609837636
 20
246.9787371707353
 30
0.0
 10
199.7094609849737
 20
246.9484371715007
 30
0.0
 10
199.6621609861686
 20
246.9162371723141
 30
0.0
 10
199.6157609873407
 20
246.8839371731301
 30
0.0
  0
POLYLINE
  5
1A7
330
1F
100
AcDbEntity
  8
Linee visibili 2D
 62
     7
420
 16777215
370
     9
100
AcDb2dPolyline
 66
     1
 10
0.0
 20
0.0
 30
0.0
  0
VERTEX
  5
1A8
330
1A7
100
AcDbEntity
  8
Linee visibili 2D
 62
     7
420
 16777215
370
     9
100
AcDbVertex
100
AcDb2dVertex
 10
201.0610609508294
 20
247.7023433532722
 30
0.0
  0
VERTEX
  5
1A9
330
1A7
100
AcDbEntity
  8
Linee visibili 2D
 62
     7
420
 16777215
370
     9
100
AcDbVertex
100
AcDb2dVertex
 10
201.0610609508294
 20
247.3751371607213
 30
0.0
  0
SEQEND
  5
1AA
330
1A7
100
AcDbEntity
  8
Linee visibili 2D
 62
     7
420
 16777215
370
     9
  0
POLYLINE
  5
1AB
330
1F
100
AcDbEntity
  8
Linee visibili 2D
 62
     7
420
 16777215
370
     9
100
AcDb2dPolyline
 66
     1
 10
0.0
 20
0.0
 30
0.0
  0
VERTEX
  5
1AC
330
1AB
100
AcDbEntity
  8
Linee visibili 2D
 62
     7
420
 16777215
370
     9
100
AcDbVertex
100
AcDb2dVertex
 10
201.2881609450924
 20
247.3751371607213
 30
0.0
  0
VERTEX
  5
1AD
330
1AB
100
AcDbEntity
  8
Linee visibili 2D
 62
     7
420
 16777215
370
     9
100
AcDbVertex
100
AcDb2dVertex
 10
201.0610609508294
 20
247.3751371607213
 30
0.0
  0
SEQEND
  5
1AE
330
1AB
100
AcDbEntity
  8
Linee visibili 2D
 62
     7
420
 16777215
370
     9
  0
SPLINE
  5
1AF
330
1F
100
AcDbEntity
  8
Linee visibili 2D
 62
     7
420
 16777215
370
     9
100
AcDbSpline
210
0.0
220
0.0
230
1.0
 70
     8
 71
     3
 72
     8
 73
     4
 74
     0
 42
0.0000000001
 43
0.0000000001
 40
0.0
 40
0.0
 40
0.0
 40
0.0
 40
1.0
 40
1.0
 40
1.0
 40
1.0
 10
201.6059609370641
 20
247.4328371592637
 30
0.0
 10
201.644560936089
 20
247.433737159241
 30
0.0
 10
201.680660935177
 20
247.4288371593648
 30
0.0
 10
201.7173609342499
 20
247.4181371596351
 30
0.0
  0
SPLINE
  5
1B0
330
1F
100
AcDbEntity
  8
Linee visibili 2D
 62
     7
420
 16777215
370
     9
100
AcDbSpline
210
0.0
220
0.0
230
1.0
 70
     8
 71
     3
 72
     8
 73
     4
 74
     0
 42
0.0000000001
 43
0.0000000001
 40
0.0
 40
0.0
 40
0.0
 40
0.0
 40
1.0
 40
1.0
 40
1.0
 40
1.0
 10
201.2881609450924
 20
247.3751371607213
 30
0.0
 10
201.3886609425536
 20
247.4152371597083
 30
0.0
 10
201.4873609400602
 20
247.4328371592637
 30
0.0
 10
201.5957609373217
 20
247.4328371592637
 30
0.0
  0
SPLINE
  5
1B1
330
1F
100
AcDbEntity
  8
Linee visibili 2D
 62
     7
420
 16777215
370
     9
100
AcDbSpline
210
0.0
220
0.0
230
1.0
 70
     8
 71
     3
 72
     8
 73
     4
 74
     0
 42
0.0000000001
 43
0.0000000001
 40
0.0
 40
0.0
 40
0.0
 40
0.0
 40
1.0
 40
1.0
 40
1.0
 40
1.0
 10
201.7173609342499
 20
247.4181371596351
 30
0.0
 10
202.0825609250242
 20
247.2872371629419
 30
0.0
 10
202.4140609166498
 20
247.1134371673325
 30
0.0
 10
202.7295609086796
 20
246.8878371730316
 30
0.0
  0
SPLINE
  5
1B2
330
1F
100
AcDbEntity
  8
Linee visibili 2D
 62
     7
420
 16777215
370
     9
100
AcDbSpline
210
0.0
220
0.0
230
1.0
 70
     8
 71
     3
 72
     8
 73
     4
 74
     0
 42
0.0000000001
 43
0.0000000001
 40
0.0
 40
0.0
 40
0.0
 40
0.0
 40
1.0
 40
1.0
 40
1.0
 40
1.0
 10
201.0610609508294
 20
247.7023433532722
 30
0.0
 10
200.5361609640895
 20
247.6613433532711
 30
0.0
 10
200.1611609735628
 20
247.4093433532707
 30
0.0
 10
199.7573609837636
 20
247.1271371669863
 30
0.0
  0
POLYLINE
  5
1B3
330
1F
100
AcDbEntity
  8
Linee visibili 2D
 62
     7
420
 16777215
370
     9
100
AcDb2dPolyline
 66
     1
 10
0.0
 20
0.0
 30
0.0
  0
VERTEX
  5
1B4
330
1B3
100
AcDbEntity
  8
Linee visibili 2D
 62
     7
420
 16777215
370
     9
100
AcDbVertex
100
AcDb2dVertex
 10
202.5913609121708
 20
254.9406369696007
 30
0.0
  0
VERTEX
  5
1B5
330
1B3
100
AcDbEntity
  8
Linee visibili 2D
 62
     7
420
 16777215
370
     9
100
AcDbVertex
100
AcDb2dVertex
 10
199.7568662719723
 20
254.941536969578
 30
0.0
  0
SEQEND
  5
1B6
330
1B3
100
AcDbEntity
  8
Linee visibili 2D
 62
     7
420
 16777215
370
     9
  0
POLYLINE
  5
1B7
330
1F
100
AcDbEntity
  8
Linee visibili 2D
 62
     7
420
 16777215
370
     9
100
AcDb2dPolyline
 66
     1
 10
0.0
 20
0.0
 30
0.0
  0
VERTEX
  5
1B8
330
1B7
100
AcDbEntity
  8
Linee visibili 2D
 62
     7
420
 16777215
370
     9
100
AcDbVertex
100
AcDb2dVertex
 10
202.5918662719723
 20
370.1915340581181
 30
0.0
  0
VERTEX
  5
1B9
330
1B7
100
AcDbEntity
  8
Linee visibili 2D
 62
     7
420
 16777215
370
     9
100
AcDbVertex
100
AcDb2dVertex
 10
202.5918662719723
 20
363.8126342192627
 30
0.0
  0
SEQEND
  5
1BA
330
1B7
100
AcDbEntity
  8
Linee visibili 2D
 62
     7
420
 16777215
370
     9
  0
POLYLINE
  5
1BB
330
1F
100
AcDbEntity
  8
Linee visibili 2D
 62
     7
420
 16777215
370
     9
100
AcDb2dPolyline
 66
     1
 10
0.0
 20
0.0
 30
0.0
  0
VERTEX
  5
1BC
330
1BB
100
AcDbEntity
  8
Linee visibili 2D
 62
     7
420
 16777215
370
     9
100
AcDbVertex
100
AcDb2dVertex
 10
201.3164609443775
 20
363.8126342192627
 30
0.0
  0
VERTEX
  5
1BD
330
1BB
100
AcDbEntity
  8
Linee visibili 2D
 62
     7
420
 16777215
370
     9
100
AcDbVertex
100
AcDb2dVertex
 10
202.5918662719723
 20
363.8126342192627
 30
0.0
  0
SEQEND
  5
1BE
330
1BB
100
AcDbEntity
  8
Linee visibili 2D
 62
     7
420
 16777215
370
     9
  0
POLYLINE
  5
1BF
330
1F
100
AcDbEntity
  8
Linee visibili 2D
 62
     7
420
 16777215
370
     9
100
AcDb2dPolyline
 66
     1
 10
0.0
 20
0.0
 30
0.0
  0
VERTEX
  5
1C0
330
1BF
100
AcDbEntity
  8
Linee visibili 2D
 62
     7
420
 16777215
370
     9
100
AcDbVertex
100
AcDb2dVertex
 10
199.7568662719723
 20
363.8126342192627
 30
0.0
  0
VERTEX
  5
1C1
330
1BF
100
AcDbEntity
  8
Linee visibili 2D
 62
     7
420
 16777215
370
     9
100
AcDbVertex
100
AcDb2dVertex
 10
201.0327609515443
 20
363.8126342192627
 30
0.0
  0
SEQEND
  5
1C2
330
1BF
100
AcDbEntity
  8
Linee visibili 2D
 62
     7
420
 16777215
370
     9
  0
SPLINE
  5
1C3
330
1F
100
AcDbEntity
  8
Linee visibili 2D
 62
     7
420
 16777215
370
     9
100
AcDbSpline
210
0.0
220
0.0
230
1.0
 70
     9
 71
     3
 72
    17
 73
    13
 74
     0
 42
0.0000000001
 43
0.0000000001
 40
0.0
 40
0.0
 40
0.0
 40
0.0
 40
1.0
 40
1.0
 40
1.0
 40
2.0
 40
2.0
 40
2.0
 40
3.0
 40
3.0
 40
3.0
 40
4.0
 40
4.0
 40
4.0
 40
4.0
 10
198.3393610195853
 20
226.0206377001814
 30
0.0
 10
198.3393610195853
 20
227.5871376606083
 30
0.0
 10
199.6089609875125
 20
228.856637628538
 30
0.0
 10
201.1748662719729
 20
228.856637628538
 30
0.0
 10
202.7402609084092
 20
228.856637628538
 30
0.0
 10
204.009760876339
 20
227.5871376606083
 30
0.0
 10
204.009760876339
 20
226.0206377001814
 30
0.0
 10
204.009760876339
 20
224.4552377397267
 30
0.0
 10
202.7402609084092
 20
223.185737771797
 30
0.0
 10
201.1748662719729
 20
223.185737771797
 30
0.0
 10
199.6089609875125
 20
223.185737771797
 30
0.0
 10
198.3393610195853
 20
224.4552377397267
 30
0.0
 10
198.3393610195853
 20
226.0206377001814
 30
0.0
  0
POLYLINE
  5
1C4
330
1F
100
AcDbEntity
  8
Linee visibili 2D
 62
     7
420
 16777215
370
     9
100
AcDb2dPolyline
 66
     1
 10
0.0
 20
0.0
 30
0.0
  0
VERTEX
  5
1C5
330
1C4
100
AcDbEntity
  8
Linee visibili 2D
 62
     7
420
 16777215
370
     9
100
AcDbVertex
100
AcDb2dVertex
 10
199.0342610020307
 20
251.1359370657156
 30
0.0
  0
VERTEX
  5
1C6
330
1C4
100
AcDbEntity
  8
Linee visibili 2D
 62
     7
420
 16777215
370
     9
100
AcDbVertex
100
AcDb2dVertex
 10
199.7422609841451
 20
251.1359370657156
 30
0.0
  0
SEQEND
  5
1C7
330
1C4
100
AcDbEntity
  8
Linee visibili 2D
 62
     7
420
 16777215
370
     9
  0
POLYLINE
  5
1C8
330
1F
100
AcDbEntity
  8
Linee visibili 2D
 62
     7
420
 16777215
370
     9
100
AcDb2dPolyline
 66
     1
 10
0.0
 20
0.0
 30
0.0
  0
VERTEX
  5
1C9
330
1C8
100
AcDbEntity
  8
Linee visibili 2D
 62
     7
420
 16777215
370
     9
100
AcDbVertex
100
AcDb2dVertex
 10
199.0342610020307
 20
251.1359370657156
 30
0.0
  0
VERTEX
  5
1CA
330
1C8
100
AcDbEntity
  8
Linee visibili 2D
 62
     7
420
 16777215
370
     9
100
AcDbVertex
100
AcDb2dVertex
 10
199.0342610020307
 20
247.1788371656803
 30
0.0
  0
SEQEND
  5
1CB
330
1C8
100
AcDbEntity
  8
Linee visibili 2D
 62
     7
420
 16777215
370
     9
  0
POLYLINE
  5
1CC
330
1F
100
AcDbEntity
  8
Linee visibili 2D
 62
     7
420
 16777215
370
     9
100
AcDb2dPolyline
 66
     1
 10
0.0
 20
0.0
 30
0.0
  0
VERTEX
  5
1CD
330
1CC
100
AcDbEntity
  8
Linee visibili 2D
 62
     7
420
 16777215
370
     9
100
AcDbVertex
100
AcDb2dVertex
 10
203.313460893929
 20
251.1359370657156
 30
0.0
  0
VERTEX
  5
1CE
330
1CC
100
AcDbEntity
  8
Linee visibili 2D
 62
     7
420
 16777215
370
     9
100
AcDbVertex
100
AcDb2dVertex
 10
203.313460893929
 20
247.1788371656803
 30
0.0
  0
SEQEND
  5
1CF
330
1CC
100
AcDbEntity
  8
Linee visibili 2D
 62
     7
420
 16777215
370
     9
  0
POLYLINE
  5
1D0
330
1F
100
AcDbEntity
  8
Linee visibili 2D
 62
     7
420
 16777215
370
     9
100
AcDb2dPolyline
 66
     1
 10
0.0
 20
0.0
 30
0.0
  0
VERTEX
  5
1D1
330
1D0
100
AcDbEntity
  8
Linee visibili 2D
 62
     7
420
 16777215
370
     9
100
AcDbVertex
100
AcDb2dVertex
 10
202.605960911802
 20
251.1359370657156
 30
0.0
  0
VERTEX
  5
1D2
330
1D0
100
AcDbEntity
  8
Linee visibili 2D
 62
     7
420
 16777215
370
     9
100
AcDbVertex
100
AcDb2dVertex
 10
203.313460893929
 20
251.1359370657156
 30
0.0
  0
SEQEND
  5
1D3
330
1D0
100
AcDbEntity
  8
Linee visibili 2D
 62
     7
420
 16777215
370
     9
  0
POLYLINE
  5
1D4
330
1F
100
AcDbEntity
  8
Linee visibili 2D
 62
     7
420
 16777215
370
     9
100
AcDb2dPolyline
 66
     1
 10
0.0
 20
0.0
 30
0.0
  0
VERTEX
  5
1D5
330
1D4
100
AcDbEntity
  8
Linee visibili 2D
 62
     7
420
 16777215
370
     9
100
AcDbVertex
100
AcDb2dVertex
 10
199.7431609841223
 20
372.0714340106279
 30
0.0
  0
VERTEX
  5
1D6
330
1D4
100
AcDbEntity
  8
Linee visibili 2D
 62
     7
420
 16777215
370
     9
100
AcDbVertex
100
AcDb2dVertex
 10
199.7431609841223
 20
371.8224340169181
 30
0.0
  0
SEQEND
  5
1D7
330
1D4
100
AcDbEntity
  8
Linee visibili 2D
 62
     7
420
 16777215
370
     9
  0
POLYLINE
  5
1D8
330
1F
100
AcDbEntity
  8
Linee visibili 2D
 62
     7
420
 16777215
370
     9
100
AcDb2dPolyline
 66
     1
 10
0.0
 20
0.0
 30
0.0
  0
VERTEX
  5
1D9
330
1D8
100
AcDbEntity
  8
Linee visibili 2D
 62
     7
420
 16777215
370
     9
100
AcDbVertex
100
AcDb2dVertex
 10
199.7431609841223
 20
373.0949339847721
 30
0.0
  0
VERTEX
  5
1DA
330
1D8
100
AcDbEntity
  8
Linee visibili 2D
 62
     7
420
 16777215
370
     9
100
AcDbVertex
100
AcDb2dVertex
 10
199.7431609841223
 20
372.951343353272
 30
0.0
  0
SEQEND
  5
1DB
330
1D8
100
AcDbEntity
  8
Linee visibili 2D
 62
     7
420
 16777215
370
     9
  0
POLYLINE
  5
1DC
330
1F
100
AcDbEntity
  8
Linee visibili 2D
 62
     7
420
 16777215
370
     9
100
AcDb2dPolyline
 66
     1
 10
0.0
 20
0.0
 30
0.0
  0
VERTEX
  5
1DD
330
1DC
100
AcDbEntity
  8
Linee visibili 2D
 62
     7
420
 16777215
370
     9
100
AcDbVertex
100
AcDb2dVertex
 10
199.0351610020079
 20
374.4425339507288
 30
0.0
  0
VERTEX
  5
1DE
330
1DC
100
AcDbEntity
  8
Linee visibili 2D
 62
     7
420
 16777215
370
     9
100
AcDbVertex
100
AcDb2dVertex
 10
199.7431609841223
 20
374.4425339507288
 30
0.0
  0
SEQEND
  5
1DF
330
1DC
100
AcDbEntity
  8
Linee visibili 2D
 62
     7
420
 16777215
370
     9
  0
POLYLINE
  5
1E0
330
1F
100
AcDbEntity
  8
Linee visibili 2D
 62
     7
420
 16777215
370
     9
100
AcDb2dPolyline
 66
     1
 10
0.0
 20
0.0
 30
0.0
  0
VERTEX
  5
1E1
330
1E0
100
AcDbEntity
  8
Linee visibili 2D
 62
     7
420
 16777215
370
     9
100
AcDbVertex
100
AcDb2dVertex
 10
199.0351610020079
 20
374.4425339507288
 30
0.0
  0
VERTEX
  5
1E2
330
1E0
100
AcDbEntity
  8
Linee visibili 2D
 62
     7
420
 16777215
370
     9
100
AcDbVertex
100
AcDb2dVertex
 10
199.0351610020079
 20
370.485534050691
 30
0.0
  0
SEQEND
  5
1E3
330
1E0
100
AcDbEntity
  8
Linee visibili 2D
 62
     7
420
 16777215
370
     9
  0
POLYLINE
  5
1E4
330
1F
100
AcDbEntity
  8
Linee visibili 2D
 62
     7
420
 16777215
370
     9
100
AcDb2dPolyline
 66
     1
 10
0.0
 20
0.0
 30
0.0
  0
VERTEX
  5
1E5
330
1E4
100
AcDbEntity
  8
Linee visibili 2D
 62
     7
420
 16777215
370
     9
100
AcDbVertex
100
AcDb2dVertex
 10
203.3149608938911
 20
374.4425339507288
 30
0.0
  0
VERTEX
  5
1E6
330
1E4
100
AcDbEntity
  8
Linee visibili 2D
 62
     7
420
 16777215
370
     9
100
AcDbVertex
100
AcDb2dVertex
 10
203.3149608938911
 20
370.485534050691
 30
0.0
  0
SEQEND
  5
1E7
330
1E4
100
AcDbEntity
  8
Linee visibili 2D
 62
     7
420
 16777215
370
     9
  0
POLYLINE
  5
1E8
330
1F
100
AcDbEntity
  8
Linee visibili 2D
 62
     7
420
 16777215
370
     9
100
AcDb2dPolyline
 66
     1
 10
0.0
 20
0.0
 30
0.0
  0
VERTEX
  5
1E9
330
1E8
100
AcDbEntity
  8
Linee visibili 2D
 62
     7
420
 16777215
370
     9
100
AcDbVertex
100
AcDb2dVertex
 10
202.6069609117767
 20
374.4425339507288
 30
0.0
  0
VERTEX
  5
1EA
330
1E8
100
AcDbEntity
  8
Linee visibili 2D
 62
     7
420
 16777215
370
     9
100
AcDbVertex
100
AcDb2dVertex
 10
203.3149608938911
 20
374.4425339507288
 30
0.0
  0
SEQEND
  5
1EB
330
1E8
100
AcDbEntity
  8
Linee visibili 2D
 62
     7
420
 16777215
370
     9
  0
POLYLINE
  5
1EC
330
1F
100
AcDbEntity
  8
Linee visibili 2D
 62
     7
420
 16777215
370
     9
100
AcDb2dPolyline
 66
     1
 10
0.0
 20
0.0
 30
0.0
  0
VERTEX
  5
1ED
330
1EC
100
AcDbEntity
  8
Linee visibili 2D
 62
     7
420
 16777215
370
     9
100
AcDbVertex
100
AcDb2dVertex
 10
202.6069609117767
 20
372.0714340106279
 30
0.0
  0
VERTEX
  5
1EE
330
1EC
100
AcDbEntity
  8
Linee visibili 2D
 62
     7
420
 16777215
370
     9
100
AcDbVertex
100
AcDb2dVertex
 10
202.6069609117767
 20
371.8224340169181
 30
0.0
  0
SEQEND
  5
1EF
330
1EC
100
AcDbEntity
  8
Linee visibili 2D
 62
     7
420
 16777215
370
     9
  0
SPLINE
  5
1F0
330
1F
100
AcDbEntity
  8
Linee visibili 2D
 62
     7
420
 16777215
370
     9
100
AcDbSpline
210
0.0
220
0.0
230
1.0
 70
     8
 71
     3
 72
     8
 73
     4
 74
     0
 42
0.0000000001
 43
0.0000000001
 40
0.0
 40
0.0
 40
0.0
 40
0.0
 40
1.0
 40
1.0
 40
1.0
 40
1.0
 10
204.1513608727619
 20
393.3786334723627
 30
0.0
 10
204.1513608727619
 20
393.4186334713522
 30
0.0
 10
204.1347608731812
 20
393.4352334709329
 30
0.0
 10
204.0947608741917
 20
393.4352334709329
 30
0.0
  0
SPLINE
  5
1F1
330
1F
100
AcDbEntity
  8
Linee visibili 2D
 62
     7
420
 16777215
370
     9
100
AcDbSpline
210
0.0
220
0.0
230
1.0
 70
     8
 71
     3
 72
     8
 73
     4
 74
     0
 42
0.0000000001
 43
0.0000000001
 40
0.0
 40
0.0
 40
0.0
 40
0.0
 40
1.0
 40
1.0
 40
1.0
 40
1.0
 10
198.2544610217301
 20
393.4352334709329
 30
0.0
 10
198.2143610227431
 20
393.4352334709329
 30
0.0
 10
198.1977610231624
 20
393.4186334713522
 30
0.0
 10
198.1977610231624
 20
393.3786334723627
 30
0.0
  0
SPLINE
  5
1F2
330
1F
100
AcDbEntity
  8
Linee visibili 2D
 62
     7
420
 16777215
370
     9
100
AcDbSpline
210
0.0
220
0.0
230
1.0
 70
     8
 71
     3
 72
     8
 73
     4
 74
     0
 42
0.0000000001
 43
0.0000000001
 40
0.0
 40
0.0
 40
0.0
 40
0.0
 40
1.0
 40
1.0
 40
1.0
 40
1.0
 10
199.7568662719723
 20
369.8410340669725
 30
0.0
 10
198.796461008038
 20
370.3615340538235
 30
0.0
 10
198.1977610231624
 20
371.3663433532711
 30
0.0
 10
198.1977610231624
 20
372.458134000859
 30
0.0
  0
SPLINE
  5
1F3
330
1F
100
AcDbEntity
  8
Linee visibili 2D
 62
     7
420
 16777215
370
     9
100
AcDbSpline
210
0.0
220
0.0
230
1.0
 70
     8
 71
     3
 72
     8
 73
     4
 74
     0
 42
0.0000000001
 43
0.0000000001
 40
0.0
 40
0.0
 40
0.0
 40
0.0
 40
1.0
 40
1.0
 40
1.0
 40
1.0
 10
204.1513608727619
 20
372.458134000859
 30
0.0
 10
204.1513608727619
 20
371.3663433532711
 30
0.0
 10
203.5527608878838
 20
370.3605340538488
 30
0.0
 10
202.5918662719723
 20
369.8410340669725
 30
0.0
  0
POLYLINE
  5
1F4
330
1F
100
AcDbEntity
  8
Linee visibili 2D
 62
     7
420
 16777215
370
     9
100
AcDb2dPolyline
 66
     1
 10
0.0
 20
0.0
 30
0.0
  0
VERTEX
  5
1F5
330
1F4
100
AcDbEntity
  8
Linee visibili 2D
 62
     7
420
 16777215
370
     9
100
AcDbVertex
100
AcDb2dVertex
 10
203.7588662719727
 20
393.5768334673558
 30
0.0
  0
VERTEX
  5
1F6
330
1F4
100
AcDbEntity
  8
Linee visibili 2D
 62
     7
420
 16777215
370
     9
100
AcDbVertex
100
AcDb2dVertex
 10
203.7588662719727
 20
393.4352334709329
 30
0.0
  0
SEQEND
  5
1F7
330
1F4
100
AcDbEntity
  8
Linee visibili 2D
 62
     7
420
 16777215
370
     9
  0
POLYLINE
  5
1F8
330
1F
100
AcDbEntity
  8
Linee visibili 2D
 62
     7
420
 16777215
370
     9
100
AcDb2dPolyline
 66
     1
 10
0.0
 20
0.0
 30
0.0
  0
VERTEX
  5
1F9
330
1F8
100
AcDbEntity
  8
Linee visibili 2D
 62
     7
420
 16777215
370
     9
100
AcDbVertex
100
AcDb2dVertex
 10
203.8047608815177
 20
393.4352334709329
 30
0.0
  0
VERTEX
  5
1FA
330
1F8
100
AcDbEntity
  8
Linee visibili 2D
 62
     7
420
 16777215
370
     9
100
AcDbVertex
100
AcDb2dVertex
 10
203.8047608815177
 20
393.5768334673558
 30
0.0
  0
SEQEND
  5
1FB
330
1F8
100
AcDbEntity
  8
Linee visibili 2D
 62
     7
420
 16777215
370
     9
  0
POLYLINE
  5
1FC
330
1F
100
AcDbEntity
  8
Linee visibili 2D
 62
     7
420
 16777215
370
     9
100
AcDb2dPolyline
 66
     1
 10
0.0
 20
0.0
 30
0.0
  0
VERTEX
  5
1FD
330
1FC
100
AcDbEntity
  8
Linee visibili 2D
 62
     7
420
 16777215
370
     9
100
AcDbVertex
100
AcDb2dVertex
 10
198.5444610144041
 20
393.5768334673558
 30
0.0
  0
VERTEX
  5
1FE
330
1FC
100
AcDbEntity
  8
Linee visibili 2D
 62
     7
420
 16777215
370
     9
100
AcDbVertex
100
AcDb2dVertex
 10
198.5444610144041
 20
393.4352334709329
 30
0.0
  0
SEQEND
  5
1FF
330
1FC
100
AcDbEntity
  8
Linee visibili 2D
 62
     7
420
 16777215
370
     9
  0
POLYLINE
  5
200
330
1F
100
AcDbEntity
  8
Linee visibili 2D
 62
     7
420
 16777215
370
     9
100
AcDb2dPolyline
 66
     1
 10
0.0
 20
0.0
 30
0.0
  0
VERTEX
  5
201
330
200
100
AcDbEntity
  8
Linee visibili 2D
 62
     7
420
 16777215
370
     9
100
AcDbVertex
100
AcDb2dVertex
 10
198.5903610132445
 20
393.4352334709329
 30
0.0
  0
VERTEX
  5
202
330
200
100
AcDbEntity
  8
Linee visibili 2D
 62
     7
420
 16777215
370
     9
100
AcDbVertex
100
AcDb2dVertex
 10
198.5903610132445
 20
393.5768334673558
 30
0.0
  0
SEQEND
  5
203
330
200
100
AcDbEntity
  8
Linee visibili 2D
 62
     7
420
 16777215
370
     9
  0
POLYLINE
  5
204
330
1F
100
AcDbEntity
  8
Linee visibili 2D
 62
     7
420
 16777215
370
     9
100
AcDb2dPolyline
 66
     1
 10
0.0
 20
0.0
 30
0.0
  0
VERTEX
  5
205
330
204
100
AcDbEntity
  8
Linee visibili 2D
 62
     7
420
 16777215
370
     9
100
AcDbVertex
100
AcDb2dVertex
 10
198.2544610217301
 20
393.4352334709329
 30
0.0
  0
VERTEX
  5
206
330
204
100
AcDbEntity
  8
Linee visibili 2D
 62
     7
420
 16777215
370
     9
100
AcDbVertex
100
AcDb2dVertex
 10
204.0947608741917
 20
393.4352334709329
 30
0.0
  0
SEQEND
  5
207
330
204
100
AcDbEntity
  8
Linee visibili 2D
 62
     7
420
 16777215
370
     9
  0
POLYLINE
  5
208
330
1F
100
AcDbEntity
  8
Linee visibili 2D
 62
     7
420
 16777215
370
     9
100
AcDb2dPolyline
 66
     1
 10
0.0
 20
0.0
 30
0.0
  0
VERTEX
  5
209
330
208
100
AcDbEntity
  8
Linee visibili 2D
 62
     7
420
 16777215
370
     9
100
AcDbVertex
100
AcDb2dVertex
 10
204.1513608727619
 20
372.458134000859
 30
0.0
  0
VERTEX
  5
20A
330
208
100
AcDbEntity
  8
Linee visibili 2D
 62
     7
420
 16777215
370
     9
100
AcDbVertex
100
AcDb2dVertex
 10
204.2031608714533
 20
372.458134000859
 30
0.0
  0
SEQEND
  5
20B
330
208
100
AcDbEntity
  8
Linee visibili 2D
 62
     7
420
 16777215
370
     9
  0
POLYLINE
  5
20C
330
1F
100
AcDbEntity
  8
Linee visibili 2D
 62
     7
420
 16777215
370
     9
100
AcDb2dPolyline
 66
     1
 10
0.0
 20
0.0
 30
0.0
  0
VERTEX
  5
20D
330
20C
100
AcDbEntity
  8
Linee visibili 2D
 62
     7
420
 16777215
370
     9
100
AcDbVertex
100
AcDb2dVertex
 10
204.1513608727619
 20
393.3786334723627
 30
0.0
  0
VERTEX
  5
20E
330
20C
100
AcDbEntity
  8
Linee visibili 2D
 62
     7
420
 16777215
370
     9
100
AcDbVertex
100
AcDb2dVertex
 10
204.1513608727619
 20
372.458134000859
 30
0.0
  0
SEQEND
  5
20F
330
20C
100
AcDbEntity
  8
Linee visibili 2D
 62
     7
420
 16777215
370
     9
  0
POLYLINE
  5
210
330
1F
100
AcDbEntity
  8
Linee visibili 2D
 62
     7
420
 16777215
370
     9
100
AcDb2dPolyline
 66
     1
 10
0.0
 20
0.0
 30
0.0
  0
VERTEX
  5
211
330
210
100
AcDbEntity
  8
Linee visibili 2D
 62
     7
420
 16777215
370
     9
100
AcDbVertex
100
AcDb2dVertex
 10
204.2031608714533
 20
393.3786334723627
 30
0.0
  0
VERTEX
  5
212
330
210
100
AcDbEntity
  8
Linee visibili 2D
 62
     7
420
 16777215
370
     9
100
AcDbVertex
100
AcDb2dVertex
 10
204.1513608727619
 20
393.3786334723627
 30
0.0
  0
SEQEND
  5
213
330
210
100
AcDbEntity
  8
Linee visibili 2D
 62
     7
420
 16777215
370
     9
  0
POLYLINE
  5
214
330
1F
100
AcDbEntity
  8
Linee visibili 2D
 62
     7
420
 16777215
370
     9
100
AcDb2dPolyline
 66
     1
 10
0.0
 20
0.0
 30
0.0
  0
VERTEX
  5
215
330
214
100
AcDbEntity
  8
Linee visibili 2D
 62
     7
420
 16777215
370
     9
100
AcDbVertex
100
AcDb2dVertex
 10
198.1465610244559
 20
372.458134000859
 30
0.0
  0
VERTEX
  5
216
330
214
100
AcDbEntity
  8
Linee visibili 2D
 62
     7
420
 16777215
370
     9
100
AcDbVertex
100
AcDb2dVertex
 10
198.1977610231624
 20
372.458134000859
 30
0.0
  0
SEQEND
  5
217
330
214
100
AcDbEntity
  8
Linee visibili 2D
 62
     7
420
 16777215
370
     9
  0
POLYLINE
  5
218
330
1F
100
AcDbEntity
  8
Linee visibili 2D
 62
     7
420
 16777215
370
     9
100
AcDb2dPolyline
 66
     1
 10
0.0
 20
0.0
 30
0.0
  0
VERTEX
  5
219
330
218
100
AcDbEntity
  8
Linee visibili 2D
 62
     7
420
 16777215
370
     9
100
AcDbVertex
100
AcDb2dVertex
 10
198.1977610231624
 20
393.3786334723627
 30
0.0
  0
VERTEX
  5
21A
330
218
100
AcDbEntity
  8
Linee visibili 2D
 62
     7
420
 16777215
370
     9
100
AcDbVertex
100
AcDb2dVertex
 10
198.1465610244559
 20
393.3786334723627
 30
0.0
  0
SEQEND
  5
21B
330
218
100
AcDbEntity
  8
Linee visibili 2D
 62
     7
420
 16777215
370
     9
  0
POLYLINE
  5
21C
330
1F
100
AcDbEntity
  8
Linee visibili 2D
 62
     7
420
 16777215
370
     9
100
AcDb2dPolyline
 66
     1
 10
0.0
 20
0.0
 30
0.0
  0
VERTEX
  5
21D
330
21C
100
AcDbEntity
  8
Linee visibili 2D
 62
     7
420
 16777215
370
     9
100
AcDbVertex
100
AcDb2dVertex
 10
198.1977610231624
 20
372.458134000859
 30
0.0
  0
VERTEX
  5
21E
330
21C
100
AcDbEntity
  8
Linee visibili 2D
 62
     7
420
 16777215
370
     9
100
AcDbVertex
100
AcDb2dVertex
 10
198.1977610231624
 20
393.3786334723627
 30
0.0
  0
SEQEND
  5
21F
330
21C
100
AcDbEntity
  8
Linee visibili 2D
 62
     7
420
 16777215
370
     9
  0
SPLINE
  5
220
330
1F
100
AcDbEntity
  8
Linee visibili 2D
 62
     7
420
 16777215
370
     9
100
AcDbSpline
210
0.0
220
0.0
230
1.0
 70
     8
 71
     3
 72
     8
 73
     4
 74
     0
 42
0.0000000001
 43
0.0000000001
 40
0.0
 40
0.0
 40
0.0
 40
0.0
 40
1.0
 40
1.0
 40
1.0
 40
1.0
 10
198.1465610244559
 20
393.3786334723627
 30
0.0
 10
198.1465610244559
 20
393.4186334713522
 30
0.0
 10
198.1631610240365
 20
393.4352334709329
 30
0.0
 10
198.203161023026
 20
393.4352334709329
 30
0.0
  0
POLYLINE
  5
221
330
1F
100
AcDbEntity
  8
Linee visibili 2D
 62
     7
420
 16777215
370
     9
100
AcDb2dPolyline
 66
     1
 10
0.0
 20
0.0
 30
0.0
  0
VERTEX
  5
222
330
221
100
AcDbEntity
  8
Linee visibili 2D
 62
     7
420
 16777215
370
     9
100
AcDbVertex
100
AcDb2dVertex
 10
198.1465610244559
 20
372.458134000859
 30
0.0
  0
VERTEX
  5
223
330
221
100
AcDbEntity
  8
Linee visibili 2D
 62
     7
420
 16777215
370
     9
100
AcDbVertex
100
AcDb2dVertex
 10
198.1465610244559
 20
393.3786334723627
 30
0.0
  0
SEQEND
  5
224
330
221
100
AcDbEntity
  8
Linee visibili 2D
 62
     7
420
 16777215
370
     9
  0
SPLINE
  5
225
330
1F
100
AcDbEntity
  8
Linee visibili 2D
 62
     7
420
 16777215
370
     9
100
AcDbSpline
210
0.0
220
0.0
230
1.0
 70
     8
 71
     3
 72
     8
 73
     4
 74
     0
 42
0.0000000001
 43
0.0000000001
 40
0.0
 40
0.0
 40
0.0
 40
0.0
 40
1.0
 40
1.0
 40
1.0
 40
1.0
 10
199.7568662719723
 20
369.7824340684529
 30
0.0
 10
198.7661610088034
 20
370.3078340551801
 30
0.0
 10
198.1465610244559
 20
371.3371340291778
 30
0.0
 10
198.1465610244559
 20
372.458134000859
 30
0.0
  0
SPLINE
  5
226
330
1F
100
AcDbEntity
  8
Linee visibili 2D
 62
     7
420
 16777215
370
     9
100
AcDbSpline
210
0.0
220
0.0
230
1.0
 70
     8
 71
     3
 72
     8
 73
     4
 74
     0
 42
0.0000000001
 43
0.0000000001
 40
0.0
 40
0.0
 40
0.0
 40
0.0
 40
1.0
 40
1.0
 40
1.0
 40
1.0
 10
204.2031608714533
 20
372.458134000859
 30
0.0
 10
204.2031608714533
 20
371.3371340291778
 30
0.0
 10
203.5830608871183
 20
370.3078340551801
 30
0.0
 10
202.5918662719723
 20
369.7824340684529
 30
0.0
  0
POLYLINE
  5
227
330
1F
100
AcDbEntity
  8
Linee visibili 2D
 62
     7
420
 16777215
370
     9
100
AcDb2dPolyline
 66
     1
 10
0.0
 20
0.0
 30
0.0
  0
VERTEX
  5
228
330
227
100
AcDbEntity
  8
Linee visibili 2D
 62
     7
420
 16777215
370
     9
100
AcDbVertex
100
AcDb2dVertex
 10
204.2031608714533
 20
393.3786334723627
 30
0.0
  0
VERTEX
  5
229
330
227
100
AcDbEntity
  8
Linee visibili 2D
 62
     7
420
 16777215
370
     9
100
AcDbVertex
100
AcDb2dVertex
 10
204.2031608714533
 20
372.458134000859
 30
0.0
  0
SEQEND
  5
22A
330
227
100
AcDbEntity
  8
Linee visibili 2D
 62
     7
420
 16777215
370
     9
  0
SPLINE
  5
22B
330
1F
100
AcDbEntity
  8
Linee visibili 2D
 62
     7
420
 16777215
370
     9
100
AcDbSpline
210
0.0
220
0.0
230
1.0
 70
     8
 71
     3
 72
     8
 73
     4
 74
     0
 42
0.0000000001
 43
0.0000000001
 40
0.0
 40
0.0
 40
0.0
 40
0.0
 40
1.0
 40
1.0
 40
1.0
 40
1.0
 10
204.1460608728958
 20
393.4352334709329
 30
0.0
 10
204.1865608718727
 20
393.4352334709329
 30
0.0
 10
204.2031608714533
 20
393.4186334713522
 30
0.0
 10
204.2031608714533
 20
393.3786334723627
 30
0.0
  0
POLYLINE
  5
22C
330
1F
100
AcDbEntity
  8
Linee visibili 2D
 62
     7
420
 16777215
370
     9
100
AcDb2dPolyline
 66
     1
 10
0.0
 20
0.0
 30
0.0
  0
VERTEX
  5
22D
330
22C
100
AcDbEntity
  8
Linee visibili 2D
 62
     7
420
 16777215
370
     9
100
AcDbVertex
100
AcDb2dVertex
 10
184.2290613760415
 20
393.6329334659386
 30
0.0
  0
VERTEX
  5
22E
330
22C
100
AcDbEntity
  8
Linee visibili 2D
 62
     7
420
 16777215
370
     9
100
AcDbVertex
100
AcDb2dVertex
 10
184.1924613769661
 20
397.8283433532715
 30
0.0
  0
SEQEND
  5
22F
330
22C
100
AcDbEntity
  8
Linee visibili 2D
 62
     7
420
 16777215
370
     9
  0
POLYLINE
  5
230
330
1F
100
AcDbEntity
  8
Linee visibili 2D
 62
     7
420
 16777215
370
     9
100
AcDb2dPolyline
 66
     1
 10
0.0
 20
0.0
 30
0.0
  0
VERTEX
  5
231
330
230
100
AcDbEntity
  8
Linee visibili 2D
 62
     7
420
 16777215
370
     9
100
AcDbVertex
100
AcDb2dVertex
 10
218.2822605157853
 20
397.8287333599437
 30
0.0
  0
VERTEX
  5
232
330
230
100
AcDbEntity
  8
Linee visibili 2D
 62
     7
420
 16777215
370
     9
100
AcDbVertex
100
AcDb2dVertex
 10
184.2090613765467
 20
397.8287333599437
 30
0.0
  0
SEQEND
  5
233
330
230
100
AcDbEntity
  8
Linee visibili 2D
 62
     7
420
 16777215
370
     9
  0
POLYLINE
  5
234
330
1F
100
AcDbEntity
  8
Linee visibili 2D
 62
     7
420
 16777215
370
     9
100
AcDb2dPolyline
 66
     1
 10
0.0
 20
0.0
 30
0.0
  0
VERTEX
  5
235
330
234
100
AcDbEntity
  8
Linee visibili 2D
 62
     7
420
 16777215
370
     9
100
AcDbVertex
100
AcDb2dVertex
 10
215.3520605898084
 20
400.9469332811713
 30
0.0
  0
VERTEX
  5
236
330
234
100
AcDbEntity
  8
Linee visibili 2D
 62
     7
420
 16777215
370
     9
100
AcDbVertex
100
AcDb2dVertex
 10
215.3794605891162
 20
397.8287333599437
 30
0.0
  0
SEQEND
  5
237
330
234
100
AcDbEntity
  8
Linee visibili 2D
 62
     7
420
 16777215
370
     9
  0
SPLINE
  5
238
330
1F
100
AcDbEntity
  8
Linee visibili 2D
 62
     7
420
 16777215
370
     9
100
AcDbSpline
210
0.0
220
0.0
230
1.0
 70
     8
 71
     3
 72
     8
 73
     4
 74
     0
 42
0.0000000001
 43
0.0000000001
 40
0.0
 40
0.0
 40
0.0
 40
0.0
 40
1.0
 40
1.0
 40
1.0
 40
1.0
 10
218.1889605181423
 20
393.5768334673558
 30
0.0
 10
218.2290605171293
 20
393.5768334673558
 30
0.0
 10
218.2456605167099
 20
393.5929334669491
 30
0.0
 10
218.2456605167099
 20
393.6329334659386
 30
0.0
  0
POLYLINE
  5
239
330
1F
100
AcDbEntity
  8
Linee visibili 2D
 62
     7
420
 16777215
370
     9
100
AcDb2dPolyline
 66
     1
 10
0.0
 20
0.0
 30
0.0
  0
VERTEX
  5
23A
330
239
100
AcDbEntity
  8
Linee visibili 2D
 62
     7
420
 16777215
370
     9
100
AcDbVertex
100
AcDb2dVertex
 10
184.3022613741923
 20
393.5768334673558
 30
0.0
  0
VERTEX
  5
23B
330
239
100
AcDbEntity
  8
Linee visibili 2D
 62
     7
420
 16777215
370
     9
100
AcDbVertex
100
AcDb2dVertex
 10
218.1889605181423
 20
393.5768334673558
 30
0.0
  0
SEQEND
  5
23C
330
239
100
AcDbEntity
  8
Linee visibili 2D
 62
     7
420
 16777215
370
     9
  0
POLYLINE
  5
23D
330
1F
100
AcDbEntity
  8
Linee visibili 2D
 62
     7
420
 16777215
370
     9
100
AcDb2dPolyline
 66
     1
 10
0.0
 20
0.0
 30
0.0
  0
VERTEX
  5
23E
330
23D
100
AcDbEntity
  8
Linee visibili 2D
 62
     7
420
 16777215
370
     9
100
AcDbVertex
100
AcDb2dVertex
 10
215.3520605898084
 20
400.9469332811713
 30
0.0
  0
VERTEX
  5
23F
330
23D
100
AcDbEntity
  8
Linee visibili 2D
 62
     7
420
 16777215
370
     9
100
AcDbVertex
100
AcDb2dVertex
 10
187.1362613025994
 20
400.9469332811713
 30
0.0
  0
SEQEND
  5
240
330
23D
100
AcDbEntity
  8
Linee visibili 2D
 62
     7
420
 16777215
370
     9
  0
POLYLINE
  5
241
330
1F
100
AcDbEntity
  8
Linee visibili 2D
 62
     7
420
 16777215
370
     9
100
AcDb2dPolyline
 66
     1
 10
0.0
 20
0.0
 30
0.0
  0
VERTEX
  5
242
330
241
100
AcDbEntity
  8
Linee visibili 2D
 62
     7
420
 16777215
370
     9
100
AcDbVertex
100
AcDb2dVertex
 10
202.5913609121708
 20
254.9406369696007
 30
0.0
  0
VERTEX
  5
243
330
241
100
AcDbEntity
  8
Linee visibili 2D
 62
     7
420
 16777215
370
     9
100
AcDbVertex
100
AcDb2dVertex
 10
202.5918662719723
 20
363.8126342192627
 30
0.0
  0
SEQEND
  5
244
330
241
100
AcDbEntity
  8
Linee visibili 2D
 62
     7
420
 16777215
370
     9
  0
POLYLINE
  5
245
330
1F
100
AcDbEntity
  8
Linee visibili 2D
 62
     7
420
 16777215
370
     9
100
AcDb2dPolyline
 66
     1
 10
0.0
 20
0.0
 30
0.0
  0
VERTEX
  5
246
330
245
100
AcDbEntity
  8
Linee visibili 2D
 62
     7
420
 16777215
370
     9
100
AcDbVertex
100
AcDb2dVertex
 10
199.7568662719723
 20
363.8126342192627
 30
0.0
  0
VERTEX
  5
247
330
245
100
AcDbEntity
  8
Linee visibili 2D
 62
     7
420
 16777215
370
     9
100
AcDbVertex
100
AcDb2dVertex
 10
199.7568662719723
 20
254.941536969578
 30
0.0
  0
SEQEND
  5
248
330
245
100
AcDbEntity
  8
Linee visibili 2D
 62
     7
420
 16777215
370
     9
  0
POLYLINE
  5
249
330
1F
100
AcDbEntity
  8
Linee visibili 2D
 62
     7
420
 16777215
370
     9
100
AcDb2dPolyline
 66
     1
 10
0.0
 20
0.0
 30
0.0
  0
VERTEX
  5
24A
330
249
100
AcDbEntity
  8
Linee visibili 2D
 62
     7
420
 16777215
370
     9
100
AcDbVertex
100
AcDb2dVertex
 10
199.7573609837636
 20
247.3185371621512
 30
0.0
  0
VERTEX
  5
24B
330
249
100
AcDbEntity
  8
Linee visibili 2D
 62
     7
420
 16777215
370
     9
100
AcDbVertex
100
AcDb2dVertex
 10
199.7573609837636
 20
246.9787371707353
 30
0.0
  0
SEQEND
  5
24C
330
249
100
AcDbEntity
  8
Linee visibili 2D
 62
     7
420
 16777215
370
     9
  0
POLYLINE
  5
24D
330
1F
100
AcDbEntity
  8
Linee visibili 2D
 62
     7
420
 16777215
370
     9
100
AcDb2dPolyline
 66
     1
 10
0.0
 20
0.0
 30
0.0
  0
VERTEX
  5
24E
330
24D
100
AcDbEntity
  8
Linee visibili 2D
 62
     7
420
 16777215
370
     9
100
AcDbVertex
100
AcDb2dVertex
 10
199.7573609837636
 20
247.8126371496692
 30
0.0
  0
VERTEX
  5
24F
330
24D
100
AcDbEntity
  8
Linee visibili 2D
 62
     7
420
 16777215
370
     9
100
AcDbVertex
100
AcDb2dVertex
 10
199.7573609837636
 20
247.4630371585008
 30
0.0
  0
SEQEND
  5
250
330
24D
100
AcDbEntity
  8
Linee visibili 2D
 62
     7
420
 16777215
370
     9
  0
POLYLINE
  5
251
330
1F
100
AcDbEntity
  8
Linee visibili 2D
 62
     7
420
 16777215
370
     9
100
AcDb2dPolyline
 66
     1
 10
0.0
 20
0.0
 30
0.0
  0
VERTEX
  5
252
330
251
100
AcDbEntity
  8
Linee visibili 2D
 62
     7
420
 16777215
370
     9
100
AcDbVertex
100
AcDb2dVertex
 10
199.7573609837636
 20
248.8712371229267
 30
0.0
  0
VERTEX
  5
253
330
251
100
AcDbEntity
  8
Linee visibili 2D
 62
     7
420
 16777215
370
     9
100
AcDbVertex
100
AcDb2dVertex
 10
199.7573609837636
 20
248.0363433532712
 30
0.0
  0
SEQEND
  5
254
330
251
100
AcDbEntity
  8
Linee visibili 2D
 62
     7
420
 16777215
370
     9
  0
POLYLINE
  5
255
330
1F
100
AcDbEntity
  8
Linee visibili 2D
 62
     7
420
 16777215
370
     9
100
AcDb2dPolyline
 66
     1
 10
0.0
 20
0.0
 30
0.0
  0
VERTEX
  5
256
330
255
100
AcDbEntity
  8
Linee visibili 2D
 62
     7
420
 16777215
370
     9
100
AcDbVertex
100
AcDb2dVertex
 10
199.7573609837636
 20
250.3156370864381
 30
0.0
  0
VERTEX
  5
257
330
255
100
AcDbEntity
  8
Linee visibili 2D
 62
     7
420
 16777215
370
     9
100
AcDbVertex
100
AcDb2dVertex
 10
199.7573609837636
 20
249.1261371164874
 30
0.0
  0
SEQEND
  5
258
330
255
100
AcDbEntity
  8
Linee visibili 2D
 62
     7
420
 16777215
370
     9
  0
SPLINE
  5
259
330
1F
100
AcDbEntity
  8
Linee visibili 2D
 62
     7
420
 16777215
370
     9
100
AcDbSpline
210
0.0
220
0.0
230
1.0
 70
     8
 71
     3
 72
     8
 73
     4
 74
     0
 42
0.0000000001
 43
0.0000000001
 40
0.0
 40
0.0
 40
0.0
 40
0.0
 40
1.0
 40
1.0
 40
1.0
 40
1.0
 10
202.5879609122567
 20
249.1515371158457
 30
0.0
 10
202.5879609122567
 20
251.0812370670974
 30
0.0
 10
202.5859609123072
 20
253.0109370183491
 30
0.0
 10
202.5913609121708
 20
254.9406369696007
 30
0.0
  0
POLYLINE
  5
25A
330
1F
100
AcDbEntity
  8
Linee visibili 2D
 62
     7
420
 16777215
370
     9
100
AcDb2dPolyline
 66
     1
 10
0.0
 20
0.0
 30
0.0
  0
VERTEX
  5
25B
330
25A
100
AcDbEntity
  8
Linee visibili 2D
 62
     7
420
 16777215
370
     9
100
AcDbVertex
100
AcDb2dVertex
 10
202.5879609122567
 20
247.9884371452281
 30
0.0
  0
VERTEX
  5
25C
330
25A
100
AcDbEntity
  8
Linee visibili 2D
 62
     7
420
 16777215
370
     9
100
AcDbVertex
100
AcDb2dVertex
 10
202.5879609122567
 20
248.8712371229267
 30
0.0
  0
SEQEND
  5
25D
330
25A
100
AcDbEntity
  8
Linee visibili 2D
 62
     7
420
 16777215
370
     9
  0
POLYLINE
  5
25E
330
1F
100
AcDbEntity
  8
Linee visibili 2D
 62
     7
420
 16777215
370
     9
100
AcDb2dPolyline
 66
     1
 10
0.0
 20
0.0
 30
0.0
  0
VERTEX
  5
25F
330
25E
100
AcDbEntity
  8
Linee visibili 2D
 62
     7
420
 16777215
370
     9
100
AcDbVertex
100
AcDb2dVertex
 10
202.5879609122567
 20
247.025537169553
 30
0.0
  0
VERTEX
  5
260
330
25E
100
AcDbEntity
  8
Linee visibili 2D
 62
     7
420
 16777215
370
     9
100
AcDbVertex
100
AcDb2dVertex
 10
202.5879609122567
 20
247.8126371496692
 30
0.0
  0
SEQEND
  5
261
330
25E
100
AcDbEntity
  8
Linee visibili 2D
 62
     7
420
 16777215
370
     9
  0
POLYLINE
  5
262
330
1F
100
AcDbEntity
  8
Linee visibili 2D
 62
     7
420
 16777215
370
     9
100
AcDb2dPolyline
 66
     1
 10
0.0
 20
0.0
 30
0.0
  0
VERTEX
  5
263
330
262
100
AcDbEntity
  8
Linee visibili 2D
 62
     7
420
 16777215
370
     9
100
AcDbVertex
100
AcDb2dVertex
 10
199.7568662719723
 20
372.458134000859
 30
0.0
  0
VERTEX
  5
264
330
262
100
AcDbEntity
  8
Linee visibili 2D
 62
     7
420
 16777215
370
     9
100
AcDbVertex
100
AcDb2dVertex
 10
199.7568662719723
 20
363.8126342192627
 30
0.0
  0
SEQEND
  5
265
330
262
100
AcDbEntity
  8
Linee visibili 2D
 62
     7
420
 16777215
370
     9
  0
POLYLINE
  5
266
330
1F
100
AcDbEntity
  8
Linee visibili 2D
 62
     7
420
 16777215
370
     9
100
AcDb2dPolyline
 66
     1
 10
0.0
 20
0.0
 30
0.0
  0
VERTEX
  5
267
330
266
100
AcDbEntity
  8
Linee visibili 2D
 62
     7
420
 16777215
370
     9
100
AcDbVertex
100
AcDb2dVertex
 10
199.7568662719723
 20
372.5675339980953
 30
0.0
  0
VERTEX
  5
268
330
266
100
AcDbEntity
  8
Linee visibili 2D
 62
     7
420
 16777215
370
     9
100
AcDbVertex
100
AcDb2dVertex
 10
199.7568662719723
 20
372.458134000859
 30
0.0
  0
SEQEND
  5
269
330
266
100
AcDbEntity
  8
Linee visibili 2D
 62
     7
420
 16777215
370
     9
  0
POLYLINE
  5
26A
330
1F
100
AcDbEntity
  8
Linee visibili 2D
 62
     7
420
 16777215
370
     9
100
AcDb2dPolyline
 66
     1
 10
0.0
 20
0.0
 30
0.0
  0
VERTEX
  5
26B
330
26A
100
AcDbEntity
  8
Linee visibili 2D
 62
     7
420
 16777215
370
     9
100
AcDbVertex
100
AcDb2dVertex
 10
199.7568662719723
 20
373.0949339847721
 30
0.0
  0
VERTEX
  5
26C
330
26A
100
AcDbEntity
  8
Linee visibili 2D
 62
     7
420
 16777215
370
     9
100
AcDbVertex
100
AcDb2dVertex
 10
199.7568662719723
 20
372.8458339910649
 30
0.0
  0
SEQEND
  5
26D
330
26A
100
AcDbEntity
  8
Linee visibili 2D
 62
     7
420
 16777215
370
     9
  0
POLYLINE
  5
26E
330
1F
100
AcDbEntity
  8
Linee visibili 2D
 62
     7
420
 16777215
370
     9
100
AcDb2dPolyline
 66
     1
 10
0.0
 20
0.0
 30
0.0
  0
VERTEX
  5
26F
330
26E
100
AcDbEntity
  8
Linee visibili 2D
 62
     7
420
 16777215
370
     9
100
AcDbVertex
100
AcDb2dVertex
 10
202.5918662719723
 20
387.3405336248979
 30
0.0
  0
VERTEX
  5
270
330
26E
100
AcDbEntity
  8
Linee visibili 2D
 62
     7
420
 16777215
370
     9
100
AcDbVertex
100
AcDb2dVertex
 10
202.5918662719723
 20
383.6046337192747
 30
0.0
  0
SEQEND
  5
271
330
26E
100
AcDbEntity
  8
Linee visibili 2D
 62
     7
420
 16777215
370
     9
  0
POLYLINE
  5
272
330
1F
100
AcDbEntity
  8
Linee visibili 2D
 62
     7
420
 16777215
370
     9
100
AcDb2dPolyline
 66
     1
 10
0.0
 20
0.0
 30
0.0
  0
VERTEX
  5
273
330
272
100
AcDbEntity
  8
Linee visibili 2D
 62
     7
420
 16777215
370
     9
100
AcDbVertex
100
AcDb2dVertex
 10
202.5918662719723
 20
387.3405336248979
 30
0.0
  0
VERTEX
  5
274
330
272
100
AcDbEntity
  8
Linee visibili 2D
 62
     7
420
 16777215
370
     9
100
AcDbVertex
100
AcDb2dVertex
 10
202.5918662719723
 20
387.4826336213082
 30
0.0
  0
SEQEND
  5
275
330
272
100
AcDbEntity
  8
Linee visibili 2D
 62
     7
420
 16777215
370
     9
  0
POLYLINE
  5
276
330
1F
100
AcDbEntity
  8
Linee visibili 2D
 62
     7
420
 16777215
370
     9
100
AcDb2dPolyline
 66
     1
 10
0.0
 20
0.0
 30
0.0
  0
VERTEX
  5
277
330
276
100
AcDbEntity
  8
Linee visibili 2D
 62
     7
420
 16777215
370
     9
100
AcDbVertex
100
AcDb2dVertex
 10
202.5918662719723
 20
373.5451339733991
 30
0.0
  0
VERTEX
  5
278
330
276
100
AcDbEntity
  8
Linee visibili 2D
 62
     7
420
 16777215
370
     9
100
AcDbVertex
100
AcDb2dVertex
 10
202.5918662719723
 20
374.2111339565745
 30
0.0
  0
SEQEND
  5
279
330
276
100
AcDbEntity
  8
Linee visibili 2D
 62
     7
420
 16777215
370
     9
  0
POLYLINE
  5
27A
330
1F
100
AcDbEntity
  8
Linee visibili 2D
 62
     7
420
 16777215
370
     9
100
AcDb2dPolyline
 66
     1
 10
0.0
 20
0.0
 30
0.0
  0
VERTEX
  5
27B
330
27A
100
AcDbEntity
  8
Linee visibili 2D
 62
     7
420
 16777215
370
     9
100
AcDbVertex
100
AcDb2dVertex
 10
219.5254604843794
 20
579.890644924475
 30
0.0
  0
VERTEX
  5
27C
330
27A
100
AcDbEntity
  8
Linee visibili 2D
 62
     7
420
 16777215
370
     9
100
AcDbVertex
100
AcDb2dVertex
 10
219.599660482505
 20
575.6387450318871
 30
0.0
  0
SEQEND
  5
27D
330
27A
100
AcDbEntity
  8
Linee visibili 2D
 62
     7
420
 16777215
370
     9
  0
POLYLINE
  5
27E
330
1F
100
AcDbEntity
  8
Linee visibili 2D
 62
     7
420
 16777215
370
     9
100
AcDb2dPolyline
 66
     1
 10
0.0
 20
0.0
 30
0.0
  0
VERTEX
  5
27F
330
27E
100
AcDbEntity
  8
Linee visibili 2D
 62
     7
420
 16777215
370
     9
100
AcDbVertex
100
AcDb2dVertex
 10
201.3164609443775
 20
588.9385606689456
 30
0.0
  0
VERTEX
  5
280
330
27E
100
AcDbEntity
  8
Linee visibili 2D
 62
     7
420
 16777215
370
     9
100
AcDbVertex
100
AcDb2dVertex
 10
202.5913609121708
 20
588.9385606689456
 30
0.0
  0
SEQEND
  5
281
330
27E
100
AcDbEntity
  8
Linee visibili 2D
 62
     7
420
 16777215
370
     9
  0
POLYLINE
  5
282
330
1F
100
AcDbEntity
  8
Linee visibili 2D
 62
     7
420
 16777215
370
     9
100
AcDb2dPolyline
 66
     1
 10
0.0
 20
0.0
 30
0.0
  0
VERTEX
  5
283
330
282
100
AcDbEntity
  8
Linee visibili 2D
 62
     7
420
 16777215
370
     9
100
AcDbVertex
100
AcDb2dVertex
 10
199.7573609837636
 20
588.9385606689456
 30
0.0
  0
VERTEX
  5
284
330
282
100
AcDbEntity
  8
Linee visibili 2D
 62
     7
420
 16777215
370
     9
100
AcDbVertex
100
AcDb2dVertex
 10
201.0327609515443
 20
588.9385606689456
 30
0.0
  0
SEQEND
  5
285
330
282
100
AcDbEntity
  8
Linee visibili 2D
 62
     7
420
 16777215
370
     9
  0
POLYLINE
  5
286
330
1F
100
AcDbEntity
  8
Linee visibili 2D
 62
     7
420
 16777215
370
     9
100
AcDb2dPolyline
 66
     1
 10
0.0
 20
0.0
 30
0.0
  0
VERTEX
  5
287
330
286
100
AcDbEntity
  8
Linee visibili 2D
 62
     7
420
 16777215
370
     9
100
AcDbVertex
100
AcDb2dVertex
 10
199.7573609837636
 20
579.9190449237576
 30
0.0
  0
VERTEX
  5
288
330
286
100
AcDbEntity
  8
Linee visibili 2D
 62
     7
420
 16777215
370
     9
100
AcDbVertex
100
AcDb2dVertex
 10
201.0610609508294
 20
579.9190449237576
 30
0.0
  0
SEQEND
  5
289
330
286
100
AcDbEntity
  8
Linee visibili 2D
 62
     7
420
 16777215
370
     9
  0
POLYLINE
  5
28A
330
1F
100
AcDbEntity
  8
Linee visibili 2D
 62
     7
420
 16777215
370
     9
100
AcDb2dPolyline
 66
     1
 10
0.0
 20
0.0
 30
0.0
  0
VERTEX
  5
28B
330
28A
100
AcDbEntity
  8
Linee visibili 2D
 62
     7
420
 16777215
370
     9
100
AcDbVertex
100
AcDb2dVertex
 10
199.7431609841223
 20
452.5020481425817
 30
0.0
  0
VERTEX
  5
28C
330
28A
100
AcDbEntity
  8
Linee visibili 2D
 62
     7
420
 16777215
370
     9
100
AcDbVertex
100
AcDb2dVertex
 10
199.0351610020079
 20
452.5020481425817
 30
0.0
  0
SEQEND
  5
28D
330
28A
100
AcDbEntity
  8
Linee visibili 2D
 62
     7
420
 16777215
370
     9
  0
POLYLINE
  5
28E
330
1F
100
AcDbEntity
  8
Linee visibili 2D
 62
     7
420
 16777215
370
     9
100
AcDb2dPolyline
 66
     1
 10
0.0
 20
0.0
 30
0.0
  0
VERTEX
  5
28F
330
28E
100
AcDbEntity
  8
Linee visibili 2D
 62
     7
420
 16777215
370
     9
100
AcDbVertex
100
AcDb2dVertex
 10
199.0351610020079
 20
456.4702480423366
 30
0.0
  0
VERTEX
  5
290
330
28E
100
AcDbEntity
  8
Linee visibili 2D
 62
     7
420
 16777215
370
     9
100
AcDbVertex
100
AcDb2dVertex
 10
199.7431609841223
 20
456.4702480423366
 30
0.0
  0
SEQEND
  5
291
330
28E
100
AcDbEntity
  8
Linee visibili 2D
 62
     7
420
 16777215
370
     9
  0
POLYLINE
  5
292
330
1F
100
AcDbEntity
  8
Linee visibili 2D
 62
     7
420
 16777215
370
     9
100
AcDb2dPolyline
 66
     1
 10
0.0
 20
0.0
 30
0.0
  0
VERTEX
  5
293
330
292
100
AcDbEntity
  8
Linee visibili 2D
 62
     7
420
 16777215
370
     9
100
AcDbVertex
100
AcDb2dVertex
 10
203.3149608938911
 20
452.5020481425817
 30
0.0
  0
VERTEX
  5
294
330
292
100
AcDbEntity
  8
Linee visibili 2D
 62
     7
420
 16777215
370
     9
100
AcDbVertex
100
AcDb2dVertex
 10
202.6069609117767
 20
452.5020481425817
 30
0.0
  0
SEQEND
  5
295
330
292
100
AcDbEntity
  8
Linee visibili 2D
 62
     7
420
 16777215
370
     9
  0
POLYLINE
  5
296
330
1F
100
AcDbEntity
  8
Linee visibili 2D
 62
     7
420
 16777215
370
     9
100
AcDb2dPolyline
 66
     1
 10
0.0
 20
0.0
 30
0.0
  0
VERTEX
  5
297
330
296
100
AcDbEntity
  8
Linee visibili 2D
 62
     7
420
 16777215
370
     9
100
AcDbVertex
100
AcDb2dVertex
 10
202.6147609115796
 20
456.4702480423366
 30
0.0
  0
VERTEX
  5
298
330
296
100
AcDbEntity
  8
Linee visibili 2D
 62
     7
420
 16777215
370
     9
100
AcDbVertex
100
AcDb2dVertex
 10
203.3149608938911
 20
456.4702480423366
 30
0.0
  0
SEQEND
  5
299
330
296
100
AcDbEntity
  8
Linee visibili 2D
 62
     7
420
 16777215
370
     9
  0
POLYLINE
  5
29A
330
1F
100
AcDbEntity
  8
Linee visibili 2D
 62
     7
420
 16777215
370
     9
100
AcDb2dPolyline
 66
     1
 10
0.0
 20
0.0
 30
0.0
  0
VERTEX
  5
29B
330
29A
100
AcDbEntity
  8
Linee visibili 2D
 62
     7
420
 16777215
370
     9
100
AcDbVertex
100
AcDb2dVertex
 10
202.0532609257643
 20
432.5176486474301
 30
0.0
  0
VERTEX
  5
29C
330
29A
100
AcDbEntity
  8
Linee visibili 2D
 62
     7
420
 16777215
370
     9
100
AcDbVertex
100
AcDb2dVertex
 10
202.0532609257643
 20
432.4824486483193
 30
0.0
  0
SEQEND
  5
29D
330
29A
100
AcDbEntity
  8
Linee visibili 2D
 62
     7
420
 16777215
370
     9
  0
POLYLINE
  5
29E
330
1F
100
AcDbEntity
  8
Linee visibili 2D
 62
     7
420
 16777215
370
     9
100
AcDb2dPolyline
 66
     1
 10
0.0
 20
0.0
 30
0.0
  0
VERTEX
  5
29F
330
29E
100
AcDbEntity
  8
Linee visibili 2D
 62
     7
420
 16777215
370
     9
100
AcDbVertex
100
AcDb2dVertex
 10
200.2959609701575
 20
432.4824486483193
 30
0.0
  0
VERTEX
  5
2A0
330
29E
100
AcDbEntity
  8
Linee visibili 2D
 62
     7
420
 16777215
370
     9
100
AcDbVertex
100
AcDb2dVertex
 10
200.2959609701575
 20
432.5176486474301
 30
0.0
  0
SEQEND
  5
2A1
330
29E
100
AcDbEntity
  8
Linee visibili 2D
 62
     7
420
 16777215
370
     9
  0
POLYLINE
  5
2A2
330
1F
100
AcDbEntity
  8
Linee visibili 2D
 62
     7
420
 16777215
370
     9
100
AcDb2dPolyline
 66
     1
 10
0.0
 20
0.0
 30
0.0
  0
VERTEX
  5
2A3
330
2A2
100
AcDbEntity
  8
Linee visibili 2D
 62
     7
420
 16777215
370
     9
100
AcDbVertex
100
AcDb2dVertex
 10
182.8237614115423
 20
579.890644924475
 30
0.0
  0
VERTEX
  5
2A4
330
2A2
100
AcDbEntity
  8
Linee visibili 2D
 62
     7
420
 16777215
370
     9
100
AcDbVertex
100
AcDb2dVertex
 10
182.7495614134168
 20
575.6387450318871
 30
0.0
  0
SEQEND
  5
2A5
330
2A2
100
AcDbEntity
  8
Linee visibili 2D
 62
     7
420
 16777215
370
     9
  0
POLYLINE
  5
2A6
330
1F
100
AcDbEntity
  8
Linee visibili 2D
 62
     7
420
 16777215
370
     9
100
AcDb2dPolyline
 66
     1
 10
0.0
 20
0.0
 30
0.0
  0
VERTEX
  5
2A7
330
2A6
100
AcDbEntity
  8
Linee visibili 2D
 62
     7
420
 16777215
370
     9
100
AcDbVertex
100
AcDb2dVertex
 10
219.5073604848367
 20
579.890644924475
 30
0.0
  0
VERTEX
  5
2A8
330
2A6
100
AcDbEntity
  8
Linee visibili 2D
 62
     7
420
 16777215
370
     9
100
AcDbVertex
100
AcDb2dVertex
 10
182.8237614115423
 20
579.890644924475
 30
0.0
  0
SEQEND
  5
2A9
330
2A6
100
AcDbEntity
  8
Linee visibili 2D
 62
     7
420
 16777215
370
     9
  0
POLYLINE
  5
2AA
330
1F
100
AcDbEntity
  8
Linee visibili 2D
 62
     7
420
 16777215
370
     9
100
AcDb2dPolyline
 66
     1
 10
0.0
 20
0.0
 30
0.0
  0
VERTEX
  5
2AB
330
2AA
100
AcDbEntity
  8
Linee visibili 2D
 62
     7
420
 16777215
370
     9
100
AcDbVertex
100
AcDb2dVertex
 10
182.7676614129595
 20
575.6387450318871
 30
0.0
  0
VERTEX
  5
2AC
330
2AA
100
AcDbEntity
  8
Linee visibili 2D
 62
     7
420
 16777215
370
     9
100
AcDbVertex
100
AcDb2dVertex
 10
219.599660482505
 20
575.6387450318871
 30
0.0
  0
SEQEND
  5
2AD
330
2AA
100
AcDbEntity
  8
Linee visibili 2D
 62
     7
420
 16777215
370
     9
  0
POLYLINE
  5
2AE
330
1F
100
AcDbEntity
  8
Linee visibili 2D
 62
     7
420
 16777215
370
     9
100
AcDb2dPolyline
 66
     1
 10
0.0
 20
0.0
 30
0.0
  0
VERTEX
  5
2AF
330
2AE
100
AcDbEntity
  8
Linee visibili 2D
 62
     7
420
 16777215
370
     9
100
AcDbVertex
100
AcDb2dVertex
 10
202.5913609121708
 20
460.2403479470958
 30
0.0
  0
VERTEX
  5
2B0
330
2AE
100
AcDbEntity
  8
Linee visibili 2D
 62
     7
420
 16777215
370
     9
100
AcDbVertex
100
AcDb2dVertex
 10
202.5913609121708
 20
569.1475606689455
 30
0.0
  0
SEQEND
  5
2B1
330
2AE
100
AcDbEntity
  8
Linee visibili 2D
 62
     7
420
 16777215
370
     9
  0
POLYLINE
  5
2B2
330
1F
100
AcDbEntity
  8
Linee visibili 2D
 62
     7
420
 16777215
370
     9
100
AcDb2dPolyline
 66
     1
 10
0.0
 20
0.0
 30
0.0
  0
VERTEX
  5
2B3
330
2B2
100
AcDbEntity
  8
Linee visibili 2D
 62
     7
420
 16777215
370
     9
100
AcDbVertex
100
AcDb2dVertex
 10
199.7573609837636
 20
569.1475606689455
 30
0.0
  0
VERTEX
  5
2B4
330
2B2
100
AcDbEntity
  8
Linee visibili 2D
 62
     7
420
 16777215
370
     9
100
AcDbVertex
100
AcDb2dVertex
 10
199.7573609837636
 20
460.2403479470958
 30
0.0
  0
SEQEND
  5
2B5
330
2B2
100
AcDbEntity
  8
Linee visibili 2D
 62
     7
420
 16777215
370
     9
  0
POLYLINE
  5
2B6
330
1F
100
AcDbEntity
  8
Linee visibili 2D
 62
     7
420
 16777215
370
     9
100
AcDb2dPolyline
 66
     1
 10
0.0
 20
0.0
 30
0.0
  0
VERTEX
  5
2B7
330
2B6
100
AcDbEntity
  8
Linee visibili 2D
 62
     7
420
 16777215
370
     9
100
AcDbVertex
100
AcDb2dVertex
 10
202.5918662719723
 20
432.5176486474301
 30
0.0
  0
VERTEX
  5
2B8
330
2B6
100
AcDbEntity
  8
Linee visibili 2D
 62
     7
420
 16777215
370
     9
100
AcDbVertex
100
AcDb2dVertex
 10
199.7573609837636
 20
432.5176486474301
 30
0.0
  0
SEQEND
  5
2B9
330
2B6
100
AcDbEntity
  8
Linee visibili 2D
 62
     7
420
 16777215
370
     9
  0
POLYLINE
  5
2BA
330
1F
100
AcDbEntity
  8
Linee visibili 2D
 62
     7
420
 16777215
370
     9
100
AcDb2dPolyline
 66
     1
 10
0.0
 20
0.0
 30
0.0
  0
VERTEX
  5
2BB
330
2BA
100
AcDbEntity
  8
Linee visibili 2D
 62
     7
420
 16777215
370
     9
100
AcDbVertex
100
AcDb2dVertex
 10
199.7573609837636
 20
453.2134481246102
 30
0.0
  0
VERTEX
  5
2BC
330
2BA
100
AcDbEntity
  8
Linee visibili 2D
 62
     7
420
 16777215
370
     9
100
AcDbVertex
100
AcDb2dVertex
 10
199.7573609837636
 20
432.5176486474301
 30
0.0
  0
SEQEND
  5
2BD
330
2BA
100
AcDbEntity
  8
Linee visibili 2D
 62
     7
420
 16777215
370
     9
  0
POLYLINE
  5
2BE
330
1F
100
AcDbEntity
  8
Linee visibili 2D
 62
     7
420
 16777215
370
     9
100
AcDb2dPolyline
 66
     1
 10
0.0
 20
0.0
 30
0.0
  0
VERTEX
  5
2BF
330
2BE
100
AcDbEntity
  8
Linee visibili 2D
 62
     7
420
 16777215
370
     9
100
AcDbVertex
100
AcDb2dVertex
 10
199.7573609837636
 20
453.2139481245976
 30
0.0
  0
VERTEX
  5
2C0
330
2BE
100
AcDbEntity
  8
Linee visibili 2D
 62
     7
420
 16777215
370
     9
100
AcDbVertex
100
AcDb2dVertex
 10
199.7573609837636
 20
453.3223481218592
 30
0.0
  0
SEQEND
  5
2C1
330
2BE
100
AcDbEntity
  8
Linee visibili 2D
 62
     7
420
 16777215
370
     9
  0
POLYLINE
  5
2C2
330
1F
100
AcDbEntity
  8
Linee visibili 2D
 62
     7
420
 16777215
370
     9
100
AcDb2dPolyline
 66
     1
 10
0.0
 20
0.0
 30
0.0
  0
VERTEX
  5
2C3
330
2C2
100
AcDbEntity
  8
Linee visibili 2D
 62
     7
420
 16777215
370
     9
100
AcDbVertex
100
AcDb2dVertex
 10
202.5918662719723
 20
432.5176486474301
 30
0.0
  0
VERTEX
  5
2C4
330
2C2
100
AcDbEntity
  8
Linee visibili 2D
 62
     7
420
 16777215
370
     9
100
AcDbVertex
100
AcDb2dVertex
 10
202.8676609051909
 20
432.5176486474301
 30
0.0
  0
SEQEND
  5
2C5
330
2C2
100
AcDbEntity
  8
Linee visibili 2D
 62
     7
420
 16777215
370
     9
  0
POLYLINE
  5
2C6
330
1F
100
AcDbEntity
  8
Linee visibili 2D
 62
     7
420
 16777215
370
     9
100
AcDb2dPolyline
 66
     1
 10
0.0
 20
0.0
 30
0.0
  0
VERTEX
  5
2C7
330
2C6
100
AcDbEntity
  8
Linee visibili 2D
 62
     7
420
 16777215
370
     9
100
AcDbVertex
100
AcDb2dVertex
 10
199.7573609837636
 20
432.5176486474301
 30
0.0
  0
VERTEX
  5
2C8
330
2C6
100
AcDbEntity
  8
Linee visibili 2D
 62
     7
420
 16777215
370
     9
100
AcDbVertex
100
AcDb2dVertex
 10
199.4814609907334
 20
432.5176486474301
 30
0.0
  0
SEQEND
  5
2C9
330
2C6
100
AcDbEntity
  8
Linee visibili 2D
 62
     7
420
 16777215
370
     9
  0
POLYLINE
  5
2CA
330
1F
100
AcDbEntity
  8
Linee visibili 2D
 62
     7
420
 16777215
370
     9
100
AcDb2dPolyline
 66
     1
 10
0.0
 20
0.0
 30
0.0
  0
VERTEX
  5
2CB
330
2CA
100
AcDbEntity
  8
Linee visibili 2D
 62
     7
420
 16777215
370
     9
100
AcDbVertex
100
AcDb2dVertex
 10
202.5918662719723
 20
454.8467480833497
 30
0.0
  0
VERTEX
  5
2CC
330
2CA
100
AcDbEntity
  8
Linee visibili 2D
 62
     7
420
 16777215
370
     9
100
AcDbVertex
100
AcDb2dVertex
 10
202.5918662719723
 20
454.4859480924642
 30
0.0
  0
SEQEND
  5
2CD
330
2CA
100
AcDbEntity
  8
Linee visibili 2D
 62
     7
420
 16777215
370
     9
  0
POLYLINE
  5
2CE
330
1F
100
AcDbEntity
  8
Linee visibili 2D
 62
     7
420
 16777215
370
     9
100
AcDb2dPolyline
 66
     1
 10
0.0
 20
0.0
 30
0.0
  0
VERTEX
  5
2CF
330
2CE
100
AcDbEntity
  8
Linee visibili 2D
 62
     7
420
 16777215
370
     9
100
AcDbVertex
100
AcDb2dVertex
 10
202.5918662719723
 20
455.2163480740127
 30
0.0
  0
VERTEX
  5
2D0
330
2CE
100
AcDbEntity
  8
Linee visibili 2D
 62
     7
420
 16777215
370
     9
100
AcDbVertex
100
AcDb2dVertex
 10
202.5918662719723
 20
454.8731480826827
 30
0.0
  0
SEQEND
  5
2D1
330
2CE
100
AcDbEntity
  8
Linee visibili 2D
 62
     7
420
 16777215
370
     9
  0
POLYLINE
  5
2D2
330
1F
100
AcDbEntity
  8
Linee visibili 2D
 62
     7
420
 16777215
370
     9
100
AcDb2dPolyline
 66
     1
 10
0.0
 20
0.0
 30
0.0
  0
VERTEX
  5
2D3
330
2D2
100
AcDbEntity
  8
Linee visibili 2D
 62
     7
420
 16777215
370
     9
100
AcDbVertex
100
AcDb2dVertex
 10
202.5918662719723
 20
455.5718480650321
 30
0.0
  0
VERTEX
  5
2D4
330
2D2
100
AcDbEntity
  8
Linee visibili 2D
 62
     7
420
 16777215
370
     9
100
AcDbVertex
100
AcDb2dVertex
 10
202.5918662719723
 20
455.2686480726915
 30
0.0
  0
SEQEND
  5
2D5
330
2D2
100
AcDbEntity
  8
Linee visibili 2D
 62
     7
420
 16777215
370
     9
  0
POLYLINE
  5
2D6
330
1F
100
AcDbEntity
  8
Linee visibili 2D
 62
     7
420
 16777215
370
     9
100
AcDb2dPolyline
 66
     1
 10
0.0
 20
0.0
 30
0.0
  0
VERTEX
  5
2D7
330
2D6
100
AcDbEntity
  8
Linee visibili 2D
 62
     7
420
 16777215
370
     9
100
AcDbVertex
100
AcDb2dVertex
 10
202.5913609121708
 20
575.6387450318871
 30
0.0
  0
VERTEX
  5
2D8
330
2D6
100
AcDbEntity
  8
Linee visibili 2D
 62
     7
420
 16777215
370
     9
100
AcDbVertex
100
AcDb2dVertex
 10
202.5913609121708
 20
569.1475606689455
 30
0.0
  0
SEQEND
  5
2D9
330
2D6
100
AcDbEntity
  8
Linee visibili 2D
 62
     7
420
 16777215
370
     9
  0
POLYLINE
  5
2DA
330
1F
100
AcDbEntity
  8
Linee visibili 2D
 62
     7
420
 16777215
370
     9
100
AcDb2dPolyline
 66
     1
 10
0.0
 20
0.0
 30
0.0
  0
VERTEX
  5
2DB
330
2DA
100
AcDbEntity
  8
Linee visibili 2D
 62
     7
420
 16777215
370
     9
100
AcDbVertex
100
AcDb2dVertex
 10
202.5913609121708
 20
588.9385606689456
 30
0.0
  0
VERTEX
  5
2DC
330
2DA
100
AcDbEntity
  8
Linee visibili 2D
 62
     7
420
 16777215
370
     9
100
AcDbVertex
100
AcDb2dVertex
 10
202.5913609121708
 20
579.9185606689452
 30
0.0
  0
SEQEND
  5
2DD
330
2DA
100
AcDbEntity
  8
Linee visibili 2D
 62
     7
420
 16777215
370
     9
  0
POLYLINE
  5
2DE
330
1F
100
AcDbEntity
  8
Linee visibili 2D
 62
     7
420
 16777215
370
     9
100
AcDb2dPolyline
 66
     1
 10
0.0
 20
0.0
 30
0.0
  0
VERTEX
  5
2DF
330
2DE
100
AcDbEntity
  8
Linee visibili 2D
 62
     7
420
 16777215
370
     9
100
AcDbVertex
100
AcDb2dVertex
 10
199.7573609837636
 20
588.3164447116214
 30
0.0
  0
VERTEX
  5
2E0
330
2DE
100
AcDbEntity
  8
Linee visibili 2D
 62
     7
420
 16777215
370
     9
100
AcDbVertex
100
AcDb2dVertex
 10
199.7573609837636
 20
579.9190449237576
 30
0.0
  0
SEQEND
  5
2E1
330
2DE
100
AcDbEntity
  8
Linee visibili 2D
 62
     7
420
 16777215
370
     9
  0
POLYLINE
  5
2E2
330
1F
100
AcDbEntity
  8
Linee visibili 2D
 62
     7
420
 16777215
370
     9
100
AcDb2dPolyline
 66
     1
 10
0.0
 20
0.0
 30
0.0
  0
VERTEX
  5
2E3
330
2E2
100
AcDbEntity
  8
Linee visibili 2D
 62
     7
420
 16777215
370
     9
100
AcDbVertex
100
AcDb2dVertex
 10
199.7573609837636
 20
588.9385606689456
 30
0.0
  0
VERTEX
  5
2E4
330
2E2
100
AcDbEntity
  8
Linee visibili 2D
 62
     7
420
 16777215
370
     9
100
AcDbVertex
100
AcDb2dVertex
 10
199.7573609837636
 20
588.3164447116214
 30
0.0
  0
SEQEND
  5
2E5
330
2E2
100
AcDbEntity
  8
Linee visibili 2D
 62
     7
420
 16777215
370
     9
  0
POLYLINE
  5
2E6
330
1F
100
AcDbEntity
  8
Linee visibili 2D
 62
     7
420
 16777215
370
     9
100
AcDb2dPolyline
 66
     1
 10
0.0
 20
0.0
 30
0.0
  0
VERTEX
  5
2E7
330
2E6
100
AcDbEntity
  8
Linee visibili 2D
 62
     7
420
 16777215
370
     9
100
AcDbVertex
100
AcDb2dVertex
 10
199.7573609837636
 20
573.0322450977328
 30
0.0
  0
VERTEX
  5
2E8
330
2E6
100
AcDbEntity
  8
Linee visibili 2D
 62
     7
420
 16777215
370
     9
100
AcDbVertex
100
AcDb2dVertex
 10
199.7573609837636
 20
569.1475606689455
 30
0.0
  0
SEQEND
  5
2E9
330
2E6
100
AcDbEntity
  8
Linee visibili 2D
 62
     7
420
 16777215
370
     9
  0
POLYLINE
  5
2EA
330
1F
100
AcDbEntity
  8
Linee visibili 2D
 62
     7
420
 16777215
370
     9
100
AcDb2dPolyline
 66
     1
 10
0.0
 20
0.0
 30
0.0
  0
VERTEX
  5
2EB
330
2EA
100
AcDbEntity
  8
Linee visibili 2D
 62
     7
420
 16777215
370
     9
100
AcDbVertex
100
AcDb2dVertex
 10
199.7573609837636
 20
575.6387450318871
 30
0.0
  0
VERTEX
  5
2EC
330
2EA
100
AcDbEntity
  8
Linee visibili 2D
 62
     7
420
 16777215
370
     9
100
AcDbVertex
100
AcDb2dVertex
 10
199.7573609837636
 20
573.0322450977328
 30
0.0
  0
SEQEND
  5
2ED
330
2EA
100
AcDbEntity
  8
Linee visibili 2D
 62
     7
420
 16777215
370
     9
  0
POLYLINE
  5
2EE
330
1F
100
AcDbEntity
  8
Linee visibili 2D
 62
     7
420
 16777215
370
     9
100
AcDb2dPolyline
 66
     1
 10
0.0
 20
0.0
 30
0.0
  0
VERTEX
  5
2EF
330
2EE
100
AcDbEntity
  8
Linee visibili 2D
 62
     7
420
 16777215
370
     9
100
AcDbVertex
100
AcDb2dVertex
 10
202.5351609135905
 20
569.1475606689455
 30
0.0
  0
VERTEX
  5
2F0
330
2EE
100
AcDbEntity
  8
Linee visibili 2D
 62
     7
420
 16777215
370
     9
100
AcDbVertex
100
AcDb2dVertex
 10
202.5913609121708
 20
569.1475606689455
 30
0.0
  0
SEQEND
  5
2F1
330
2EE
100
AcDbEntity
  8
Linee visibili 2D
 62
     7
420
 16777215
370
     9
  0
POLYLINE
  5
2F2
330
1F
100
AcDbEntity
  8
Linee visibili 2D
 62
     7
420
 16777215
370
     9
100
AcDb2dPolyline
 66
     1
 10
0.0
 20
0.0
 30
0.0
  0
VERTEX
  5
2F3
330
2F2
100
AcDbEntity
  8
Linee visibili 2D
 62
     7
420
 16777215
370
     9
100
AcDbVertex
100
AcDb2dVertex
 10
199.7573609837636
 20
569.1475606689455
 30
0.0
  0
VERTEX
  5
2F4
330
2F2
100
AcDbEntity
  8
Linee visibili 2D
 62
     7
420
 16777215
370
     9
100
AcDbVertex
100
AcDb2dVertex
 10
199.8139609823338
 20
569.1475606689455
 30
0.0
  0
SEQEND
  5
2F5
330
2F2
100
AcDbEntity
  8
Linee visibili 2D
 62
     7
420
 16777215
370
     9
  0
POLYLINE
  5
2F6
330
1F
100
AcDbEntity
  8
Linee visibili 2D
 62
     7
420
 16777215
370
     9
100
AcDb2dPolyline
 66
     1
 10
0.0
 20
0.0
 30
0.0
  0
VERTEX
  5
2F7
330
2F6
100
AcDbEntity
  8
Linee visibili 2D
 62
     7
420
 16777215
370
     9
100
AcDbVertex
100
AcDb2dVertex
 10
202.5918662719723
 20
455.6494480630717
 30
0.0
  0
VERTEX
  5
2F8
330
2F6
100
AcDbEntity
  8
Linee visibili 2D
 62
     7
420
 16777215
370
     9
100
AcDbVertex
100
AcDb2dVertex
 10
202.5918662719723
 20
455.7349480609118
 30
0.0
  0
SEQEND
  5
2F9
330
2F6
100
AcDbEntity
  8
Linee visibili 2D
 62
     7
420
 16777215
370
     9
  0
POLYLINE
  5
2FA
330
1F
100
AcDbEntity
  8
Linee visibili 2D
 62
     7
420
 16777215
370
     9
100
AcDb2dPolyline
 66
     1
 10
0.0
 20
0.0
 30
0.0
  0
VERTEX
  5
2FB
330
2FA
100
AcDbEntity
  8
Linee visibili 2D
 62
     7
420
 16777215
370
     9
100
AcDbVertex
100
AcDb2dVertex
 10
202.5918662719723
 20
460.2403479470958
 30
0.0
  0
VERTEX
  5
2FC
330
2FA
100
AcDbEntity
  8
Linee visibili 2D
 62
     7
420
 16777215
370
     9
100
AcDbVertex
100
AcDb2dVertex
 10
202.5918662719723
 20
455.7583480603207
 30
0.0
  0
SEQEND
  5
2FD
330
2FA
100
AcDbEntity
  8
Linee visibili 2D
 62
     7
420
 16777215
370
     9
  0
POLYLINE
  5
2FE
330
1F
100
AcDbEntity
  8
Linee visibili 2D
 62
     7
420
 16777215
370
     9
100
AcDb2dPolyline
 66
     1
 10
0.0
 20
0.0
 30
0.0
  0
VERTEX
  5
2FF
330
2FE
100
AcDbEntity
  8
Linee visibili 2D
 62
     7
420
 16777215
370
     9
100
AcDbVertex
100
AcDb2dVertex
 10
199.8139609823338
 20
460.2403479470958
 30
0.0
  0
VERTEX
  5
300
330
2FE
100
AcDbEntity
  8
Linee visibili 2D
 62
     7
420
 16777215
370
     9
100
AcDbVertex
100
AcDb2dVertex
 10
199.7739609833443
 20
460.2403479470958
 30
0.0
  0
SEQEND
  5
301
330
2FE
100
AcDbEntity
  8
Linee visibili 2D
 62
     7
420
 16777215
370
     9
  0
POLYLINE
  5
302
330
1F
100
AcDbEntity
  8
Linee visibili 2D
 62
     7
420
 16777215
370
     9
100
AcDb2dPolyline
 66
     1
 10
0.0
 20
0.0
 30
0.0
  0
VERTEX
  5
303
330
302
100
AcDbEntity
  8
Linee visibili 2D
 62
     7
420
 16777215
370
     9
100
AcDbVertex
100
AcDb2dVertex
 10
202.5752609125775
 20
460.2403479470958
 30
0.0
  0
VERTEX
  5
304
330
302
100
AcDbEntity
  8
Linee visibili 2D
 62
     7
420
 16777215
370
     9
100
AcDbVertex
100
AcDb2dVertex
 10
202.5351609135905
 20
460.2403479470958
 30
0.0
  0
SEQEND
  5
305
330
302
100
AcDbEntity
  8
Linee visibili 2D
 62
     7
420
 16777215
370
     9
  0
POLYLINE
  5
306
330
1F
100
AcDbEntity
  8
Linee visibili 2D
 62
     7
420
 16777215
370
     9
100
AcDb2dPolyline
 66
     1
 10
0.0
 20
0.0
 30
0.0
  0
VERTEX
  5
307
330
306
100
AcDbEntity
  8
Linee visibili 2D
 62
     7
420
 16777215
370
     9
100
AcDbVertex
100
AcDb2dVertex
 10
199.7568662719723
 20
453.7031481122394
 30
0.0
  0
VERTEX
  5
308
330
306
100
AcDbEntity
  8
Linee visibili 2D
 62
     7
420
 16777215
370
     9
100
AcDbVertex
100
AcDb2dVertex
 10
199.7568662719723
 20
453.5391481163824
 30
0.0
  0
SEQEND
  5
309
330
306
100
AcDbEntity
  8
Linee visibili 2D
 62
     7
420
 16777215
370
     9
  0
POLYLINE
  5
30A
330
1F
100
AcDbEntity
  8
Linee visibili 2D
 62
     7
420
 16777215
370
     9
100
AcDb2dPolyline
 66
     1
 10
0.0
 20
0.0
 30
0.0
  0
VERTEX
  5
30B
330
30A
100
AcDbEntity
  8
Linee visibili 2D
 62
     7
420
 16777215
370
     9
100
AcDbVertex
100
AcDb2dVertex
 10
199.7568662719723
 20
454.0991481022356
 30
0.0
  0
VERTEX
  5
30C
330
30A
100
AcDbEntity
  8
Linee visibili 2D
 62
     7
420
 16777215
370
     9
100
AcDbVertex
100
AcDb2dVertex
 10
199.7568662719723
 20
453.809648109549
 30
0.0
  0
SEQEND
  5
30D
330
30A
100
AcDbEntity
  8
Linee visibili 2D
 62
     7
420
 16777215
370
     9
  0
POLYLINE
  5
30E
330
1F
100
AcDbEntity
  8
Linee visibili 2D
 62
     7
420
 16777215
370
     9
100
AcDb2dPolyline
 66
     1
 10
0.0
 20
0.0
 30
0.0
  0
VERTEX
  5
30F
330
30E
100
AcDbEntity
  8
Linee visibili 2D
 62
     7
420
 16777215
370
     9
100
AcDbVertex
100
AcDb2dVertex
 10
199.0351610020079
 20
456.4702480423366
 30
0.0
  0
VERTEX
  5
310
330
30E
100
AcDbEntity
  8
Linee visibili 2D
 62
     7
420
 16777215
370
     9
100
AcDbVertex
100
AcDb2dVertex
 10
199.0351610020079
 20
452.5039481425337
 30
0.0
  0
SEQEND
  5
311
330
30E
100
AcDbEntity
  8
Linee visibili 2D
 62
     7
420
 16777215
370
     9
  0
POLYLINE
  5
312
330
1F
100
AcDbEntity
  8
Linee visibili 2D
 62
     7
420
 16777215
370
     9
100
AcDb2dPolyline
 66
     1
 10
0.0
 20
0.0
 30
0.0
  0
VERTEX
  5
313
330
312
100
AcDbEntity
  8
Linee visibili 2D
 62
     7
420
 16777215
370
     9
100
AcDbVertex
100
AcDb2dVertex
 10
203.3149608938911
 20
456.4702480423366
 30
0.0
  0
VERTEX
  5
314
330
312
100
AcDbEntity
  8
Linee visibili 2D
 62
     7
420
 16777215
370
     9
100
AcDbVertex
100
AcDb2dVertex
 10
203.3149608938911
 20
452.5039481425337
 30
0.0
  0
SEQEND
  5
315
330
312
100
AcDbEntity
  8
Linee visibili 2D
 62
     7
420
 16777215
370
     9
  0
SPLINE
  5
316
330
1F
100
AcDbEntity
  8
Linee visibili 2D
 62
     7
420
 16777215
370
     9
100
AcDbSpline
210
0.0
220
0.0
230
1.0
 70
     8
 71
     3
 72
     8
 73
     4
 74
     0
 42
0.0000000001
 43
0.0000000001
 40
0.0
 40
0.0
 40
0.0
 40
0.0
 40
1.0
 40
1.0
 40
1.0
 40
1.0
 10
198.1977610231624
 20
432.4258486497492
 30
0.0
 10
198.1982610231498
 20
432.4658486487387
 30
0.0
 10
198.2148662719728
 20
432.4824486483193
 30
0.0
 10
198.2544610217301
 20
432.4824486483193
 30
0.0
  0
SPLINE
  5
317
330
1F
100
AcDbEntity
  8
Linee visibili 2D
 62
     7
420
 16777215
370
     9
100
AcDbSpline
210
0.0
220
0.0
230
1.0
 70
     8
 71
     3
 72
     8
 73
     4
 74
     0
 42
0.0000000001
 43
0.0000000001
 40
0.0
 40
0.0
 40
0.0
 40
0.0
 40
1.0
 40
1.0
 40
1.0
 40
1.0
 10
204.0947608741917
 20
432.4824486483193
 30
0.0
 10
204.1347608731812
 20
432.4824486483193
 30
0.0
 10
204.150960872772
 20
432.4658486487387
 30
0.0
 10
204.1513608727619
 20
432.4258486497492
 30
0.0
  0
POLYLINE
  5
318
330
1F
100
AcDbEntity
  8
Linee visibili 2D
 62
     7
420
 16777215
370
     9
100
AcDb2dPolyline
 66
     1
 10
0.0
 20
0.0
 30
0.0
  0
VERTEX
  5
319
330
318
100
AcDbEntity
  8
Linee visibili 2D
 62
     7
420
 16777215
370
     9
100
AcDbVertex
100
AcDb2dVertex
 10
204.1513608727619
 20
432.4258486497492
 30
0.0
  0
VERTEX
  5
31A
330
318
100
AcDbEntity
  8
Linee visibili 2D
 62
     7
420
 16777215
370
     9
100
AcDbVertex
100
AcDb2dVertex
 10
204.2031608714533
 20
426.5293487987073
 30
0.0
  0
SEQEND
  5
31B
330
318
100
AcDbEntity
  8
Linee visibili 2D
 62
     7
420
 16777215
370
     9
  0
POLYLINE
  5
31C
330
1F
100
AcDbEntity
  8
Linee visibili 2D
 62
     7
420
 16777215
370
     9
100
AcDb2dPolyline
 66
     1
 10
0.0
 20
0.0
 30
0.0
  0
VERTEX
  5
31D
330
31C
100
AcDbEntity
  8
Linee visibili 2D
 62
     7
420
 16777215
370
     9
100
AcDbVertex
100
AcDb2dVertex
 10
198.1465610244559
 20
426.5293487987073
 30
0.0
  0
VERTEX
  5
31E
330
31C
100
AcDbEntity
  8
Linee visibili 2D
 62
     7
420
 16777215
370
     9
100
AcDbVertex
100
AcDb2dVertex
 10
198.1977610231624
 20
432.4258486497492
 30
0.0
  0
SEQEND
  5
31F
330
31C
100
AcDbEntity
  8
Linee visibili 2D
 62
     7
420
 16777215
370
     9
  0
POLYLINE
  5
320
330
1F
100
AcDbEntity
  8
Linee visibili 2D
 62
     7
420
 16777215
370
     9
100
AcDb2dPolyline
 66
     1
 10
0.0
 20
0.0
 30
0.0
  0
VERTEX
  5
321
330
320
100
AcDbEntity
  8
Linee visibili 2D
 62
     7
420
 16777215
370
     9
100
AcDbVertex
100
AcDb2dVertex
 10
204.0947608741917
 20
432.4824486483193
 30
0.0
  0
VERTEX
  5
322
330
320
100
AcDbEntity
  8
Linee visibili 2D
 62
     7
420
 16777215
370
     9
100
AcDbVertex
100
AcDb2dVertex
 10
198.2544610217301
 20
432.4824486483193
 30
0.0
  0
SEQEND
  5
323
330
320
100
AcDbEntity
  8
Linee visibili 2D
 62
     7
420
 16777215
370
     9
  0
POLYLINE
  5
324
330
1F
100
AcDbEntity
  8
Linee visibili 2D
 62
     7
420
 16777215
370
     9
100
AcDb2dPolyline
 66
     1
 10
0.0
 20
0.0
 30
0.0
  0
VERTEX
  5
325
330
324
100
AcDbEntity
  8
Linee visibili 2D
 62
     7
420
 16777215
370
     9
100
AcDbVertex
100
AcDb2dVertex
 10
204.1865608718727
 20
426.5293487987073
 30
0.0
  0
VERTEX
  5
326
330
324
100
AcDbEntity
  8
Linee visibili 2D
 62
     7
420
 16777215
370
     9
100
AcDbVertex
100
AcDb2dVertex
 10
198.1465610244559
 20
426.5293487987073
 30
0.0
  0
SEQEND
  5
327
330
324
100
AcDbEntity
  8
Linee visibili 2D
 62
     7
420
 16777215
370
     9
  0
POLYLINE
  5
328
330
1F
100
AcDbEntity
  8
Linee visibili 2D
 62
     7
420
 16777215
370
     9
100
AcDb2dPolyline
 66
     1
 10
0.0
 20
0.0
 30
0.0
  0
VERTEX
  5
329
330
328
100
AcDbEntity
  8
Linee visibili 2D
 62
     7
420
 16777215
370
     9
100
AcDbVertex
100
AcDb2dVertex
 10
184.2285613760541
 20
432.4824486483193
 30
0.0
  0
VERTEX
  5
32A
330
328
100
AcDbEntity
  8
Linee visibili 2D
 62
     7
420
 16777215
370
     9
100
AcDbVertex
100
AcDb2dVertex
 10
184.1924613769661
 20
432.4824486483193
 30
0.0
  0
SEQEND
  5
32B
330
328
100
AcDbEntity
  8
Linee visibili 2D
 62
     7
420
 16777215
370
     9
  0
SPLINE
  5
32C
330
1F
100
AcDbEntity
  8
Linee visibili 2D
 62
     7
420
 16777215
370
     9
100
AcDbSpline
210
0.0
220
0.0
230
1.0
 70
     8
 71
     3
 72
    11
 73
     7
 74
     0
 42
0.0000000001
 43
0.0000000001
 40
0.0
 40
0.0
 40
0.0
 40
0.0
 40
1.0
 40
1.0
 40
1.0
 40
2.0
 40
2.0
 40
2.0
 40
2.0
 10
184.1924613769661
 20
432.4824486483193
 30
0.0
 10
184.1924613769661
 20
423.068448886137
 30
0.0
 10
191.8232611841959
 20
415.4375606689455
 30
0.0
 10
201.2373609463757
 20
415.4375606689455
 30
0.0
 10
210.6509607085682
 20
415.4375606689455
 30
0.0
 10
218.2822605157853
 20
423.068448886137
 30
0.0
 10
218.2822605157853
 20
432.4824486483193
 30
0.0
  0
SPLINE
  5
32D
330
1F
100
AcDbEntity
  8
Linee visibili 2D
 62
     7
420
 16777215
370
     9
100
AcDbSpline
210
0.0
220
0.0
230
1.0
 70
     8
 71
     3
 72
     8
 73
     4
 74
     0
 42
0.0000000001
 43
0.0000000001
 40
0.0
 40
0.0
 40
0.0
 40
0.0
 40
1.0
 40
1.0
 40
1.0
 40
1.0
 10
199.7573609837636
 20
449.4629482193558
 30
0.0
 10
190.9507612062371
 20
448.6953482387471
 30
0.0
 10
184.1924613769661
 20
441.3223484250047
 30
0.0
 10
184.1924613769661
 20
432.4824486483193
 30
0.0
  0
SPLINE
  5
32E
330
1F
100
AcDbEntity
  8
Linee visibili 2D
 62
     7
420
 16777215
370
     9
100
AcDbSpline
210
0.0
220
0.0
230
1.0
 70
     8
 71
     3
 72
     8
 73
     4
 74
     0
 42
0.0000000001
 43
0.0000000001
 40
0.0
 40
0.0
 40
0.0
 40
0.0
 40
1.0
 40
1.0
 40
1.0
 40
1.0
 10
218.2822605157853
 20
432.4824486483193
 30
0.0
 10
218.2822605157853
 20
441.3706484237845
 30
0.0
 10
211.4521606883282
 20
448.7666482369458
 30
0.0
 10
202.5918662719723
 20
449.4736482190855
 30
0.0
  0
SPLINE
  5
32F
330
1F
100
AcDbEntity
  8
Linee visibili 2D
 62
     7
420
 16777215
370
     9
100
AcDbSpline
210
0.0
220
0.0
230
1.0
 70
     8
 71
     3
 72
    11
 73
     7
 74
     0
 42
0.0000000001
 43
0.0000000001
 40
0.0
 40
0.0
 40
0.0
 40
0.0
 40
1.0
 40
1.0
 40
1.0
 40
2.0
 40
2.0
 40
2.0
 40
2.0
 10
218.2456605167099
 20
432.4824486483193
 30
0.0
 10
218.2456605167099
 20
423.0889488856191
 30
0.0
 10
210.630866271973
 20
415.4736490779978
 30
0.0
 10
201.2373609463757
 20
415.4736490779978
 30
0.0
 10
191.843761183678
 20
415.4736490779978
 30
0.0
 10
184.2285613760541
 20
423.0889488856191
 30
0.0
 10
184.2285613760541
 20
432.4824486483193
 30
0.0
  0
SPLINE
  5
330
330
1F
100
AcDbEntity
  8
Linee visibili 2D
 62
     7
420
 16777215
370
     9
100
AcDbSpline
210
0.0
220
0.0
230
1.0
 70
     8
 71
     3
 72
     8
 73
     4
 74
     0
 42
0.0000000001
 43
0.0000000001
 40
0.0
 40
0.0
 40
0.0
 40
0.0
 40
1.0
 40
1.0
 40
1.0
 40
1.0
 10
202.5918662719723
 20
449.4365606689452
 30
0.0
 10
211.431660688846
 20
448.7305606689451
 30
0.0
 10
218.2456605167099
 20
441.3506484242898
 30
0.0
 10
218.2456605167099
 20
432.4824486483193
 30
0.0
  0
SPLINE
  5
331
330
1F
100
AcDbEntity
  8
Linee visibili 2D
 62
     7
420
 16777215
370
     9
100
AcDbSpline
210
0.0
220
0.0
230
1.0
 70
     8
 71
     3
 72
     8
 73
     4
 74
     0
 42
0.0000000001
 43
0.0000000001
 40
0.0
 40
0.0
 40
0.0
 40
0.0
 40
1.0
 40
1.0
 40
1.0
 40
1.0
 10
184.2285613760541
 20
432.4824486483193
 30
0.0
 10
184.2285613760541
 20
441.3018484255226
 30
0.0
 10
190.9707612057318
 20
448.6587482396717
 30
0.0
 10
199.7573609837636
 20
449.4258482202931
 30
0.0
  0
POLYLINE
  5
332
330
1F
100
AcDbEntity
  8
Linee visibili 2D
 62
     7
420
 16777215
370
     9
100
AcDb2dPolyline
 66
     1
 10
0.0
 20
0.0
 30
0.0
  0
VERTEX
  5
333
330
332
100
AcDbEntity
  8
Linee visibili 2D
 62
     7
420
 16777215
370
     9
100
AcDbVertex
100
AcDb2dVertex
 10
199.7573609837636
 20
579.9190449237576
 30
0.0
  0
VERTEX
  5
334
330
332
100
AcDbEntity
  8
Linee visibili 2D
 62
     7
420
 16777215
370
     9
100
AcDbVertex
100
AcDb2dVertex
 10
199.7573609837636
 20
579.890644924475
 30
0.0
  0
SEQEND
  5
335
330
332
100
AcDbEntity
  8
Linee visibili 2D
 62
     7
420
 16777215
370
     9
  0
POLYLINE
  5
336
330
1F
100
AcDbEntity
  8
Linee visibili 2D
 62
     7
420
 16777215
370
     9
100
AcDb2dPolyline
 66
     1
 10
0.0
 20
0.0
 30
0.0
  0
VERTEX
  5
337
330
336
100
AcDbEntity
  8
Linee visibili 2D
 62
     7
420
 16777215
370
     9
100
AcDbVertex
100
AcDb2dVertex
 10
199.7568662719723
 20
453.809648109549
 30
0.0
  0
VERTEX
  5
338
330
336
100
AcDbEntity
  8
Linee visibili 2D
 62
     7
420
 16777215
370
     9
100
AcDbVertex
100
AcDb2dVertex
 10
199.7568662719723
 20
453.7031481122394
 30
0.0
  0
SEQEND
  5
339
330
336
100
AcDbEntity
  8
Linee visibili 2D
 62
     7
420
 16777215
370
     9
  0
POLYLINE
  5
33A
330
1F
100
AcDbEntity
  8
Linee visibili 2D
 62
     7
420
 16777215
370
     9
100
AcDb2dPolyline
 66
     1
 10
0.0
 20
0.0
 30
0.0
  0
VERTEX
  5
33B
330
33A
100
AcDbEntity
  8
Linee visibili 2D
 62
     7
420
 16777215
370
     9
100
AcDbVertex
100
AcDb2dVertex
 10
199.7568662719723
 20
460.2403479470958
 30
0.0
  0
VERTEX
  5
33C
330
33A
100
AcDbEntity
  8
Linee visibili 2D
 62
     7
420
 16777215
370
     9
100
AcDbVertex
100
AcDb2dVertex
 10
199.7568662719723
 20
454.0991481022356
 30
0.0
  0
SEQEND
  5
33D
330
33A
100
AcDbEntity
  8
Linee visibili 2D
 62
     7
420
 16777215
370
     9
  0
POLYLINE
  5
33E
330
1F
100
AcDbEntity
  8
Linee visibili 2D
 62
     7
420
 16777215
370
     9
100
AcDb2dPolyline
 66
     1
 10
0.0
 20
0.0
 30
0.0
  0
VERTEX
  5
33F
330
33E
100
AcDbEntity
  8
Linee visibili 2D
 62
     7
420
 16777215
370
     9
100
AcDbVertex
100
AcDb2dVertex
 10
202.5918662719723
 20
454.4859480924642
 30
0.0
  0
VERTEX
  5
340
330
33E
100
AcDbEntity
  8
Linee visibili 2D
 62
     7
420
 16777215
370
     9
100
AcDbVertex
100
AcDb2dVertex
 10
202.5918662719723
 20
432.5176486474301
 30
0.0
  0
SEQEND
  5
341
330
33E
100
AcDbEntity
  8
Linee visibili 2D
 62
     7
420
 16777215
370
     9
  0
POLYLINE
  5
342
330
1F
100
AcDbEntity
  8
Linee visibili 2D
 62
     7
420
 16777215
370
     9
100
AcDb2dPolyline
 66
     1
 10
0.0
 20
0.0
 30
0.0
  0
VERTEX
  5
343
330
342
100
AcDbEntity
  8
Linee visibili 2D
 62
     7
420
 16777215
370
     9
100
AcDbVertex
100
AcDb2dVertex
 10
202.5918662719723
 20
454.8731480826827
 30
0.0
  0
VERTEX
  5
344
330
342
100
AcDbEntity
  8
Linee visibili 2D
 62
     7
420
 16777215
370
     9
100
AcDbVertex
100
AcDb2dVertex
 10
202.5918662719723
 20
454.8467480833497
 30
0.0
  0
SEQEND
  5
345
330
342
100
AcDbEntity
  8
Linee visibili 2D
 62
     7
420
 16777215
370
     9
  0
POLYLINE
  5
346
330
1F
100
AcDbEntity
  8
Linee visibili 2D
 62
     7
420
 16777215
370
     9
100
AcDb2dPolyline
 66
     1
 10
0.0
 20
0.0
 30
0.0
  0
VERTEX
  5
347
330
346
100
AcDbEntity
  8
Linee visibili 2D
 62
     7
420
 16777215
370
     9
100
AcDbVertex
100
AcDb2dVertex
 10
202.5918662719723
 20
455.2686480726915
 30
0.0
  0
VERTEX
  5
348
330
346
100
AcDbEntity
  8
Linee visibili 2D
 62
     7
420
 16777215
370
     9
100
AcDbVertex
100
AcDb2dVertex
 10
202.5918662719723
 20
455.2163480740127
 30
0.0
  0
SEQEND
  5
349
330
346
100
AcDbEntity
  8
Linee visibili 2D
 62
     7
420
 16777215
370
     9
  0
POLYLINE
  5
34A
330
1F
100
AcDbEntity
  8
Linee visibili 2D
 62
     7
420
 16777215
370
     9
100
AcDb2dPolyline
 66
     1
 10
0.0
 20
0.0
 30
0.0
  0
VERTEX
  5
34B
330
34A
100
AcDbEntity
  8
Linee visibili 2D
 62
     7
420
 16777215
370
     9
100
AcDbVertex
100
AcDb2dVertex
 10
202.5918662719723
 20
455.6494480630717
 30
0.0
  0
VERTEX
  5
34C
330
34A
100
AcDbEntity
  8
Linee visibili 2D
 62
     7
420
 16777215
370
     9
100
AcDbVertex
100
AcDb2dVertex
 10
202.5918662719723
 20
455.5718480650321
 30
0.0
  0
SEQEND
  5
34D
330
34A
100
AcDbEntity
  8
Linee visibili 2D
 62
     7
420
 16777215
370
     9
  0
POLYLINE
  5
34E
330
1F
100
AcDbEntity
  8
Linee visibili 2D
 62
     7
420
 16777215
370
     9
100
AcDb2dPolyline
 66
     1
 10
0.0
 20
0.0
 30
0.0
  0
VERTEX
  5
34F
330
34E
100
AcDbEntity
  8
Linee visibili 2D
 62
     7
420
 16777215
370
     9
100
AcDbVertex
100
AcDb2dVertex
 10
199.8139609823338
 20
569.1475606689455
 30
0.0
  0
VERTEX
  5
350
330
34E
100
AcDbEntity
  8
Linee visibili 2D
 62
     7
420
 16777215
370
     9
100
AcDbVertex
100
AcDb2dVertex
 10
202.5351609135905
 20
569.1475606689455
 30
0.0
  0
SEQEND
  5
351
330
34E
100
AcDbEntity
  8
Linee visibili 2D
 62
     7
420
 16777215
370
     9
  0
POLYLINE
  5
352
330
1F
100
AcDbEntity
  8
Linee visibili 2D
 62
     7
420
 16777215
370
     9
100
AcDb2dPolyline
 66
     1
 10
0.0
 20
0.0
 30
0.0
  0
VERTEX
  5
353
330
352
100
AcDbEntity
  8
Linee visibili 2D
 62
     7
420
 16777215
370
     9
100
AcDbVertex
100
AcDb2dVertex
 10
200.5224609644356
 20
460.2403479470958
 30
0.0
  0
VERTEX
  5
354
330
352
100
AcDbEntity
  8
Linee visibili 2D
 62
     7
420
 16777215
370
     9
100
AcDbVertex
100
AcDb2dVertex
 10
201.8266609314887
 20
460.2403479470958
 30
0.0
  0
SEQEND
  5
355
330
352
100
AcDbEntity
  8
Linee visibili 2D
 62
     7
420
 16777215
370
     9
  0
POLYLINE
  5
356
330
1F
100
AcDbEntity
  8
Linee visibili 2D
 62
     7
420
 16777215
370
     9
100
AcDb2dPolyline
 66
     1
 10
0.0
 20
0.0
 30
0.0
  0
VERTEX
  5
357
330
356
100
AcDbEntity
  8
Linee visibili 2D
 62
     7
420
 16777215
370
     9
100
AcDbVertex
100
AcDb2dVertex
 10
201.8266609314887
 20
460.2403479470958
 30
0.0
  0
VERTEX
  5
358
330
356
100
AcDbEntity
  8
Linee visibili 2D
 62
     7
420
 16777215
370
     9
100
AcDbVertex
100
AcDb2dVertex
 10
202.5351609135905
 20
460.2403479470958
 30
0.0
  0
SEQEND
  5
359
330
356
100
AcDbEntity
  8
Linee visibili 2D
 62
     7
420
 16777215
370
     9
  0
POLYLINE
  5
35A
330
1F
100
AcDbEntity
  8
Linee visibili 2D
 62
     7
420
 16777215
370
     9
100
AcDb2dPolyline
 66
     1
 10
0.0
 20
0.0
 30
0.0
  0
VERTEX
  5
35B
330
35A
100
AcDbEntity
  8
Linee visibili 2D
 62
     7
420
 16777215
370
     9
100
AcDbVertex
100
AcDb2dVertex
 10
199.8139609823338
 20
460.2403479470958
 30
0.0
  0
VERTEX
  5
35C
330
35A
100
AcDbEntity
  8
Linee visibili 2D
 62
     7
420
 16777215
370
     9
100
AcDbVertex
100
AcDb2dVertex
 10
200.5224609644356
 20
460.2403479470958
 30
0.0
  0
SEQEND
  5
35D
330
35A
100
AcDbEntity
  8
Linee visibili 2D
 62
     7
420
 16777215
370
     9
  0
MTEXT
  5
35E
330
1F
100
AcDbEntity
  8
Linee visibili 2D
 62
   250
420
  2301728
100
AcDbMText
 10
232.7523803710938
 20
314.62109375
 30
0.0
 40
3.893999999999999
 41
0.0
 46
0.0
 71
     7
 72
     1
  1
\fFrutigerLT Light|b0|i0|c0|p34;\W1;468
 11
0.0000000000000001
 21
1.0
 31
0.0
 73
     1
 44
1.0
  0
POLYLINE
  5
35F
330
1F
100
AcDbEntity
  8
Linee visibili 2D
 62
   250
420
  2301728
370
     9
100
AcDb2dPolyline
 66
     1
 10
0.0
 20
0.0
 30
0.0
  0
VERTEX
  5
360
330
35F
100
AcDbEntity
  8
Linee visibili 2D
 62
   250
420
  2301728
370
     9
100
AcDbVertex
100
AcDb2dVertex
 10
427.6377487707068
 20
409.8781580737996
 30
0.0
  0
VERTEX
  5
361
330
35F
100
AcDbEntity
  8
Linee visibili 2D
 62
   250
420
  2301728
370
     9
100
AcDbVertex
100
AcDb2dVertex
 10
233.8877536652435
 20
409.8781580737996
 30
0.0
  0
SEQEND
  5
362
330
35F
100
AcDbEntity
  8
Linee visibili 2D
 62
   250
420
  2301728
370
     9
  0
MTEXT
  5
363
330
1F
100
AcDbEntity
  8
Linee visibili 2D
 62
   250
420
  2301728
100
AcDbMText
 10
323.3897247314453
 20
402.8225860595703
 30
0.0
 40
3.893999999999999
 41
0.0
 46
0.0
 71
     7
 72
     1
  1
\fFrutigerLT Light|b0|i0|c0|p34;\W1;635
 73
     1
 44
1.0
  0
POLYLINE
  5
364
330
1F
100
AcDbEntity
  8
Linee visibili 2D
 62
   250
420
  2301728
370
     9
100
AcDb2dPolyline
 66
     1
 10
0.0
 20
0.0
 30
0.0
  0
VERTEX
  5
365
330
364
100
AcDbEntity
  8
Linee visibili 2D
 62
   250
420
  2301728
370
     9
100
AcDbVertex
100
AcDb2dVertex
 10
433.3070383071899
 20
589.1026446917603
 30
0.0
  0
VERTEX
  5
366
330
364
100
AcDbEntity
  8
Linee visibili 2D
 62
   250
420
  2301728
370
     9
100
AcDbVertex
100
AcDb2dVertex
 10
433.3070383071899
 20
415.5474490761334
 30
0.0
  0
SEQEND
  5
367
330
364
100
AcDbEntity
  8
Linee visibili 2D
 62
   250
420
  2301728
370
     9
  0
MTEXT
  5
368
330
1F
100
AcDbEntity
  8
Linee visibili 2D
 62
   250
420
  2301728
100
AcDbMText
 10
440.4478683471679
 20
497.5166015624999
 30
0.0
 40
3.893999999999999
 41
0.0
 46
0.0
 71
     7
 72
     1
  1
\fFrutigerLT Light|b0|i0|c0|p34;\W1;637
 11
0.0000000000000001
 21
1.0
 31
0.0
 73
     1
 44
1.0
  0
POLYLINE
  5
369
330
1F
100
AcDbEntity
  8
Linee visibili 2D
 62
   250
420
  2301728
370
     9
100
AcDb2dPolyline
 66
     1
 10
0.0
 20
0.0
 30
0.0
  0
VERTEX
  5
36A
330
369
100
AcDbEntity
  8
Linee visibili 2D
 62
   250
420
  2301728
370
     9
100
AcDbVertex
100
AcDb2dVertex
 10
219.6045102228018
 20
201.5922939635784
 30
0.0
  0
VERTEX
  5
36B
330
369
100
AcDbEntity
  8
Linee visibili 2D
 62
   250
420
  2301728
370
     9
100
AcDbVertex
100
AcDb2dVertex
 10
182.5176111596956
 20
201.5922939635784
 30
0.0
  0
SEQEND
  5
36C
330
369
100
AcDbEntity
  8
Linee visibili 2D
 62
   250
420
  2301728
370
     9
  0
MTEXT
  5
36D
330
1F
100
AcDbEntity
  8
Linee visibili 2D
 62
   250
420
  2301728
100
AcDbMText
 10
194.9040756225586
 20
194.9663391113281
 30
0.0
 40
3.893999999999999
 41
0.0
 46
0.0
 71
     7
 72
     1
  1
\fFrutigerLT Light|b0|i0|c0|p34;\W1;ø130
 73
     1
 44
1.0
  0
POLYLINE
  5
36E
330
1F
100
AcDbEntity
  8
Linee visibili 2D
 62
   250
420
  2301728
370
     9
100
AcDb2dPolyline
 66
     1
 10
0.0
 20
0.0
 30
0.0
  0
VERTEX
  5
36F
330
36E
100
AcDbEntity
  8
Linee visibili 2D
 62
   250
420
  2301728
370
     9
100
AcDbVertex
100
AcDb2dVertex
 10
225.92851007843
 20
387.4826336213082
 30
0.0
  0
VERTEX
  5
370
330
36E
100
AcDbEntity
  8
Linee visibili 2D
 62
   250
420
  2301728
370
     9
100
AcDbVertex
100
AcDb2dVertex
 10
225.92851007843
 20
247.7023433532722
 30
0.0
  0
SEQEND
  5
371
330
36E
100
AcDbEntity
  8
Linee visibili 2D
 62
   250
420
  2301728
370
     9
  0
ENDSEC
  0
SECTION
  2
OBJECTS
  0
DICTIONARY
  5
C
330
0
100
AcDbDictionary
281
     1
  3
ACAD_CIP_PREVIOUS_PRODUCT_INFO
350
39C
  3
ACAD_COLOR
350
37F
  3
ACAD_DETAILVIEWSTYLE
350
397
  3
ACAD_GROUP
350
D
  3
ACAD_LAYOUT
350
1A
  3
ACAD_MATERIAL
350
3B
  3
ACAD_MLEADERSTYLE
350
373
  3
ACAD_MLINESTYLE
350
17
  3
ACAD_PLOTSETTINGS
350
19
  3
ACAD_PLOTSTYLENAME
350
E
  3
ACAD_SCALELIST
350
381
  3
ACAD_SECTIONVIEWSTYLE
350
394
  3
ACAD_TABLESTYLE
350
372
  3
ACAD_VISUALSTYLE
350
2A
  3
ACDB_RECOMPOSE_DATA
350
3AF
  3
AcDbVariableDictionary
350
3A6
  3
AcDsDecomposeData
350
3B5
  0
SUN
  5
3F
330
29
100
AcDbSun
 90
        1
290
     0
 63
     7
421
 16777215
 40
1.0
291
     1
 91
  2455826
 92
 54000000
292
     0
 70
     0
 71
   256
280
     1
1001
ACAD
1000
AcDbSavedByObjectVersion
1070
     0
  0
DICTIONARY
  5
3A0
330
2
100
AcDbDictionary
280
     1
281
     1
  3
ACAD_LAYERSTATES
360
3A1
  0
XRECORD
  5
39C
102
{ACAD_REACTORS
330
C
102
}
330
C
100
AcDbXrecord
280
     1
300
ACDMAC
300
2013
300

  0
DICTIONARY
  5
37F
102
{ACAD_REACTORS
330
C
102
}
330
C
100
AcDbDictionary
281
     1
  0
DICTIONARY
  5
397
102
{ACAD_REACTORS
330
C
102
}
330
C
100
AcDbDictionary
281
     1
  3
Imperial24
350
398
  0
DICTIONARY
  5
D
102
{ACAD_REACTORS
330
C
102
}
330
C
100
AcDbDictionary
281
     1
  0
DICTIONARY
  5
1A
102
{ACAD_REACTORS
330
C
102
}
330
C
100
AcDbDictionary
281
     1
  3
Layout1
350
1E
  3
Layout2
350
26
  3
Model
350
22
  0
DICTIONARY
  5
3B
102
{ACAD_REACTORS
330
C
102
}
330
C
100
AcDbDictionary
281
     1
  3
ByBlock
350
3D
  3
ByLayer
350
3C
  3
Global
350
3E
  0
DICTIONARY
  5
373
102
{ACAD_REACTORS
330
C
102
}
330
C
100
AcDbDictionary
281
     1
  3
Standard
350
393
  0
DICTIONARY
  5
17
102
{ACAD_REACTORS
330
C
102
}
330
C
100
AcDbDictionary
281
     1
  3
Standard
350
18
  0
DICTIONARY
  5
19
102
{ACAD_REACTORS
330
C
102
}
330
C
100
AcDbDictionary
281
     1
  0
ACDBDICTIONARYWDFLT
  5
E
102
{ACAD_REACTORS
330
C
102
}
330
C
100
AcDbDictionary
281
     1
  3
Normal
350
F
100
AcDbDictionaryWithDefault
340
F
  0
DICTIONARY
  5
381
102
{ACAD_REACTORS
330
C
102
}
330
C
100
AcDbDictionary
281
     1
  3
A0
350
382
  3
A1
350
383
  3
A2
350
384
  3
A3
350
385
  3
A4
350
386
  3
A5
350
387
  3
A6
350
388
  3
A7
350
389
  3
A8
350
38A
  3
A9
350
38B
  3
B0
350
38C
  3
B1
350
38D
  3
B2
350
38E
  3
B3
350
38F
  3
B4
350
390
  3
B5
350
391
  3
B6
350
392
  0
DICTIONARY
  5
394
102
{ACAD_REACTORS
330
C
102
}
330
C
100
AcDbDictionary
281
     1
  3
Imperial24
350
396
  0
DICTIONARY
  5
372
102
{ACAD_REACTORS
330
C
102
}
330
C
100
AcDbDictionary
281
     1
  3
Standard
350
380
  0
DICTIONARY
  5
2A
102
{ACAD_REACTORS
330
C
102
}
330
C
100
AcDbDictionary
281
     1
  3
2dWireframe
350
2F
  3
3D Hidden
350
31
  3
3dWireframe
350
30
  3
Basic
350
32
  3
Brighten
350
36
  3
ColorChange
350
3A
  3
Conceptual
350
34
  3
Dim
350
35
  3
EdgeColorOff
350
37E
  3
Facepattern
350
39
  3
Flat
350
2B
  3
FlatWithEdges
350
2C
  3
Gouraud
350
2D
  3
GouraudWithEdges
350
2E
  3
Hidden
350
376
  3
JitterOff
350
37C
  3
Linepattern
350
38
  3
OverhangOff
350
37D
  3
Realistic
350
33
  3
Shaded
350
37B
  3
Shaded with edges
350
37A
  3
Shades of Gray
350
377
  3
Sketchy
350
378
  3
Thicken
350
37
  3
Wireframe
350
375
  3
X-Ray
350
379
  0
XRECORD
  5
3AF
102
{ACAD_REACTORS
330
C
102
}
330
C
100
AcDbXrecord
280
     1
 90
        1
330
380
  0
DICTIONARY
  5
3A6
102
{ACAD_REACTORS
330
C
102
}
330
C
100
AcDbDictionary
281
     1
  3
CANNOSCALE
350
3AB
  3
CMLEADERSTYLE
350
3A8
  3
CTABLESTYLE
350
3A7
  3
CVIEWDETAILSTYLE
350
3A9
  3
CVIEWSECTIONSTYLE
350
3AA
  0
DICTIONARY
  5
3B5
102
{ACAD_REACTORS
330
C
102
}
330
C
100
AcDbDictionary
281
     1
  3
AcDsRecords
350
3B7
  3
AcDsSchemas
350
3B6
1001
ACAD
1070
     2
  0
DICTIONARY
  5
3A1
102
{ACAD_REACTORS
330
3A0
102
}
330
3A0
100
AcDbDictionary
281
     1
  0
ACDBDETAILVIEWSTYLE
  5
398
102
{ACAD_REACTORS
330
397
102
}
330
397
100
AcDbModelDocViewStyle
 70
     0
  3
Imperial24
290
     0
100
AcDbDetailViewStyle
 70
     0
 71
     0
 90
        3
 71
     1
340
11
 62
   256
 40
0.24
340
0
 62
   256
 40
0.24
300

 40
0.36
280
     3
 71
     2
340
16
 90
       25
 62
   256
 71
     3
340
11
 62
   256
 40
0.24
 90
        1
 40
0.75
 90
        1
300
%<\AcVar ViewType \f "%tc1">% %<\AcVar ViewDetailId>%\PSCALE %<\AcVar ViewScale \f "%sn">%
 71
     4
340
16
 90
       25
 62
   256
340
16
 90
       25
 62
   256
280
     0
  0
LAYOUT
  5
1E
102
{ACAD_REACTORS
330
1A
102
}
330
1A
100
AcDbPlotSettings
  1

  2
none_device
  4

  6

 40
0.0
 41
0.0
 42
0.0
 43
0.0
 44
0.0
 45
0.0
 46
0.0
 47
0.0
 48
0.0
 49
0.0
140
0.0
141
0.0
142
1.0
143
1.0
 70
   688
 72
     0
 73
     0
 74
     5
  7

 75
    16
147
1.0
 76
     0
 77
     2
 78
   300
148
0.0
149
0.0
100
AcDbLayout
  1
Layout1
 70
     1
 71
     1
 10
0.0
 20
0.0
 11
12.0
 21
9.0
 12
0.0
 22
0.0
 32
0.0
 14
1.000000000000000E+20
 24
1.000000000000000E+20
 34
1.000000000000000E+20
 15
-1.000000000000000E+20
 25
-1.000000000000000E+20
 35
-1.000000000000000E+20
146
0.0
 13
0.0
 23
0.0
 33
0.0
 16
1.0
 26
0.0
 36
0.0
 17
0.0
 27
1.0
 37
0.0
 76
     0
330
1B
  0
LAYOUT
  5
26
102
{ACAD_REACTORS
330
1A
102
}
330
1A
100
AcDbPlotSettings
  1

  2
none_device
  4

  6

 40
0.0
 41
0.0
 42
0.0
 43
0.0
 44
0.0
 45
0.0
 46
0.0
 47
0.0
 48
0.0
 49
0.0
140
0.0
141
0.0
142
1.0
143
1.0
 70
   688
 72
     0
 73
     0
 74
     5
  7

 75
    16
147
1.0
 76
     0
 77
     2
 78
   300
148
0.0
149
0.0
100
AcDbLayout
  1
Layout2
 70
     1
 71
     2
 10
0.0
 20
0.0
 11
0.0
 21
0.0
 12
0.0
 22
0.0
 32
0.0
 14
0.0
 24
0.0
 34
0.0
 15
0.0
 25
0.0
 35
0.0
146
0.0
 13
0.0
 23
0.0
 33
0.0
 16
1.0
 26
0.0
 36
0.0
 17
0.0
 27
1.0
 37
0.0
 76
     0
330
23
  0
LAYOUT
  5
22
102
{ACAD_REACTORS
330
1A
102
}
330
1A
100
AcDbPlotSettings
  1

  2
none_device
  4

  6

 40
0.0
 41
0.0
 42
0.0
 43
0.0
 44
0.0
 45
0.0
 46
0.0
 47
0.0
 48
0.0
 49
0.0
140
0.0
141
0.0
142
1.0
143
1.0
 70
  1712
 72
     0
 73
     0
 74
     0
  7

 75
     0
147
1.0
 76
     0
 77
     2
 78
   300
148
0.0
149
0.0
100
AcDbLayout
  1
Model
 70
     1
 71
     0
 10
0.0
 20
0.0
 11
12.0
 21
9.0
 12
0.0
 22
0.0
 32
0.0
 14
1.000000000000000E+20
 24
1.000000000000000E+20
 34
1.000000000000000E+20
 15
-1.000000000000000E+20
 25
-1.000000000000000E+20
 35
-1.000000000000000E+20
146
0.0
 13
0.0
 23
0.0
 33
0.0
 16
1.0
 26
0.0
 36
0.0
 17
0.0
 27
1.0
 37
0.0
 76
     0
330
1F
331
29
  0
MATERIAL
  5
3D
102
{ACAD_REACTORS
330
3B
102
}
330
3B
100
AcDbMaterial
  1
ByBlock
 73
     1
 78
     1
172
     1
176
     1
270
     1
274
     1
  0
MATERIAL
  5
3C
102
{ACAD_REACTORS
330
3B
102
}
330
3B
100
AcDbMaterial
  1
ByLayer
 73
     1
 78
     1
172
     1
176
     1
270
     1
274
     1
  0
MATERIAL
  5
3E
102
{ACAD_REACTORS
330
3B
102
}
330
3B
100
AcDbMaterial
  1
Global
 73
     1
 78
     1
172
     1
176
     1
270
     1
274
     1
  0
MLEADERSTYLE
  5
393
102
{ACAD_XDICTIONARY
360
3EC
102
}
102
{ACAD_REACTORS
330
373
102
}
330
373
100
AcDbMLeaderStyle
179
     2
170
     2
171
     1
172
     0
 90
        2
 40
0.0
 41
0.0
173
     1
 91
-1056964608
340
14
 92
       -2
290
     1
 42
0.09
291
     1
 43
0.36
  3
Standard
 44
0.18
300

342
11
174
     1
178
     6
175
     1
176
     0
 93
-1056964608
 45
0.18
292
     0
297
     0
 46
0.18
 94
-1056964608
 47
1.0
 49
1.0
140
1.0
293
     1
141
0.0
294
     1
177
     0
142
1.0
295
     0
296
     0
143
0.125
271
     0
272
     9
273
     9
  0
MLINESTYLE
  5
18
102
{ACAD_REACTORS
330
17
102
}
330
17
100
AcDbMlineStyle
  2
STANDARD
 70
     0
  3

 62
   256
 51
90.0
 52
90.0
 71
     2
 49
0.5
 62
   256
  6
BYLAYER
 49
-0.5
 62
   256
  6
BYLAYER
  0
ACDBPLACEHOLDER
  5
F
102
{ACAD_REACTORS
330
E
102
}
330
E
  0
SCALE
  5
382
102
{ACAD_REACTORS
330
381
102
}
330
381
100
AcDbScale
 70
     0
300
1:1
140
1.0
141
1.0
290
     1
  0
SCALE
  5
383
102
{ACAD_REACTORS
330
381
102
}
330
381
100
AcDbScale
 70
     0
300
1/128" = 1'-0"
140
0.0078125
141
12.0
290
     0
  0
SCALE
  5
384
102
{ACAD_REACTORS
330
381
102
}
330
381
100
AcDbScale
 70
     0
300
1/64" = 1'-0"
140
0.015625
141
12.0
290
     0
  0
SCALE
  5
385
102
{ACAD_REACTORS
330
381
102
}
330
381
100
AcDbScale
 70
     0
300
1/32" = 1'-0"
140
0.03125
141
12.0
290
     0
  0
SCALE
  5
386
102
{ACAD_REACTORS
330
381
102
}
330
381
100
AcDbScale
 70
     0
300
1/16" = 1'-0"
140
0.0625
141
12.0
290
     0
  0
SCALE
  5
387
102
{ACAD_REACTORS
330
381
102
}
330
381
100
AcDbScale
 70
     0
300
3/32" = 1'-0"
140
0.09375
141
12.0
290
     0
  0
SCALE
  5
388
102
{ACAD_REACTORS
330
381
102
}
330
381
100
AcDbScale
 70
     0
300
1/8" = 1'-0"
140
0.125
141
12.0
290
     0
  0
SCALE
  5
389
102
{ACAD_REACTORS
330
381
102
}
330
381
100
AcDbScale
 70
     0
300
3/16" = 1'-0"
140
0.1875
141
12.0
290
     0
  0
SCALE
  5
38A
102
{ACAD_REACTORS
330
381
102
}
330
381
100
AcDbScale
 70
     0
300
1/4" = 1'-0"
140
0.25
141
12.0
290
     0
  0
SCALE
  5
38B
102
{ACAD_REACTORS
330
381
102
}
330
381
100
AcDbScale
 70
     0
300
3/8" = 1'-0"
140
0.375
141
12.0
290
     0
  0
SCALE
  5
38C
102
{ACAD_REACTORS
330
381
102
}
330
381
100
AcDbScale
 70
     0
300
1/2" = 1'-0"
140
0.5
141
12.0
290
     0
  0
SCALE
  5
38D
102
{ACAD_REACTORS
330
381
102
}
330
381
100
AcDbScale
 70
     0
300
3/4" = 1'-0"
140
0.75
141
12.0
290
     0
  0
SCALE
  5
38E
102
{ACAD_REACTORS
330
381
102
}
330
381
100
AcDbScale
 70
     0
300
1" = 1'-0"
140
1.0
141
12.0
290
     0
  0
SCALE
  5
38F
102
{ACAD_REACTORS
330
381
102
}
330
381
100
AcDbScale
 70
     0
300
1-1/2" = 1'-0"
140
1.5
141
12.0
290
     0
  0
SCALE
  5
390
102
{ACAD_REACTORS
330
381
102
}
330
381
100
AcDbScale
 70
     0
300
3" = 1'-0"
140
3.0
141
12.0
290
     0
  0
SCALE
  5
391
102
{ACAD_REACTORS
330
381
102
}
330
381
100
AcDbScale
 70
     0
300
6" = 1'-0"
140
6.0
141
12.0
290
     0
  0
SCALE
  5
392
102
{ACAD_REACTORS
330
381
102
}
330
381
100
AcDbScale
 70
     0
300
1'-0" = 1'-0"
140
12.0
141
12.0
290
     0
  0
ACDBSECTIONVIEWSTYLE
  5
396
102
{ACAD_REACTORS
330
394
102
}
330
394
100
AcDbModelDocViewStyle
 70
     0
  3
Imperial24
290
     0
100
AcDbSectionViewStyle
 70
     0
 71
     0
 90
       78
 71
     1
340
11
 62
   256
 40
0.24
340
0
340
0
 62
   256
 40
0.24
300
I, O, Q, S, X, Z
 40
0.48
 90
        3
 40
0.18
 90
        1
 71
     2
340
395
 90
       25
 62
   256
340
16
 90
       50
 62
   256
 40
0.24
 40
0.0
 40
0.24
 71
     3
340
11
 62
   256
 40
0.24
 90
        1
 40
0.75
 90
        1
300
%<\AcVar ViewType \f "%tc1">% %<\AcVar ViewSectionStartId>%-%<\AcVar ViewSectionEndId>%\PSCALE %<\AcVar ViewScale \f "%sn">%
 71
     4
 62
   256
 62
   257
300
ANSI31
 40
1.0
 90
        0
290
     0
290
     0
 90
        6
 40
0.0
 40
1.570796326794896
 40
0.2617993877991494
 40
1.308996938995747
 40
-0.2617993877991494
 40
1.832595714594046
  0
TABLESTYLE
  5
380
102
{ACAD_XDICTIONARY
360
3AD
102
}
102
{ACAD_REACTORS
330
372
102
}
330
372
100
AcDbTableStyle
280
     0
  3
Standard
 70
     0
 71
     0
 40
0.06
 41
0.06
280
     0
281
     0
  7
Standard
140
0.18
170
     2
 62
     0
 63
     7
283
     0
 90
      512
 91
        0
  1

274
    -2
284
     1
 64
     0
275
    -2
285
     1
 65
     0
276
    -2
286
     1
 66
     0
277
    -2
287
     1
 67
     0
278
    -2
288
     1
 68
     0
279
    -2
289
     1
 69
     0
  7
Standard
140
0.25
170
     5
 62
     0
 63
     7
283
     0
 90
      512
 91
        0
  1

274
    -2
284
     1
 64
     0
275
    -2
285
     1
 65
     0
276
    -2
286
     1
 66
     0
277
    -2
287
     1
 67
     0
278
    -2
288
     1
 68
     0
279
    -2
289
     1
 69
     0
  7
Standard
140
0.18
170
     5
 62
     0
 63
     7
283
     0
 90
      512
 91
        0
  1

274
    -2
284
     1
 64
     0
275
    -2
285
     1
 65
     0
276
    -2
286
     1
 66
     0
277
    -2
287
     1
 67
     0
278
    -2
288
     1
 68
     0
279
    -2
289
     1
 69
     0
  0
VISUALSTYLE
  5
2F
102
{ACAD_XDICTIONARY
360
3C0
102
}
102
{ACAD_REACTORS
330
2A
102
}
330
2A
100
AcDbVisualStyle
  2
2dWireframe
 70
     4
177
     2
291
     0
 71
     0
176
     1
 72
     2
176
     1
 73
     0
176
     1
 90
        0
176
     1
 40
0.6
176
     1
 41
30.0
176
     1
 63
     7
421
 16777215
176
     1
 74
     1
176
     1
 91
        4
176
     1
 64
     7
176
     1
 65
   257
176
     1
 75
     1
176
     1
175
     1
176
     1
 42
1.0
176
     1
 92
        0
176
     1
 66
   257
176
     1
 43
1.0
176
     1
 76
     1
176
     1
 77
     6
176
     1
 78
     2
176
     1
 67
     7
176
     1
 79
     5
176
     1
170
     0
176
     1
171
     0
176
     1
290
     0
176
     1
 93
        1
176
     1
 44
0.0
176
     1
173
     0
176
     1
1001
ACAD
1000
AcDbSavedByObjectVersion
1070
     0
  0
VISUALSTYLE
  5
31
102
{ACAD_XDICTIONARY
360
3C4
102
}
102
{ACAD_REACTORS
330
2A
102
}
330
2A
100
AcDbVisualStyle
  2
3D Hidden
 70
     6
177
     2
291
     0
 71
     1
176
     1
 72
     2
176
     1
 73
     2
176
     1
 90
        0
176
     1
 40
0.6
176
     1
 41
30.0
176
     1
 63
     7
421
 16777215
176
     1
 74
     2
176
     1
 91
        2
176
     1
 64
     7
176
     1
 65
   257
176
     1
 75
     2
176
     1
175
     1
176
     1
 42
40.0
176
     1
 92
        0
176
     1
 66
   257
176
     1
 43
1.0
176
     1
 76
     1
176
     1
 77
     6
176
     1
 78
     2
176
     1
 67
     7
176
     1
 79
     3
176
     1
170
     0
176
     1
171
     0
176
     1
290
     0
176
     1
 93
        1
176
     1
 44
0.0
176
     1
173
     0
176
     1
1001
ACAD
1000
AcDbSavedByObjectVersion
1070
     0
  0
VISUALSTYLE
  5
30
102
{ACAD_XDICTIONARY
360
3C2
102
}
102
{ACAD_REACTORS
330
2A
102
}
330
2A
100
AcDbVisualStyle
  2
3dWireframe
 70
     5
177
     2
291
     0
 71
     0
176
     1
 72
     2
176
     1
 73
     0
176
     1
 90
        0
176
     1
 40
0.6
176
     1
 41
30.0
176
     1
 63
     7
421
 16777215
176
     1
 74
     1
176
     1
 91
        4
176
     1
 64
     7
176
     1
 65
   257
176
     1
 75
     1
176
     1
175
     1
176
     1
 42
1.0
176
     1
 92
        0
176
     1
 66
   257
176
     1
 43
1.0
176
     1
 76
     1
176
     1
 77
     6
176
     1
 78
     2
176
     1
 67
     7
176
     1
 79
     5
176
     1
170
     0
176
     1
171
     0
176
     1
290
     0
176
     1
 93
        1
176
     1
 44
0.0
176
     1
173
     0
176
     1
1001
ACAD
1000
AcDbSavedByObjectVersion
1070
     0
  0
VISUALSTYLE
  5
32
102
{ACAD_XDICTIONARY
360
3C6
102
}
102
{ACAD_REACTORS
330
2A
102
}
330
2A
100
AcDbVisualStyle
  2
Basic
 70
     7
177
     2
291
     1
 71
     1
176
     1
 72
     0
176
     1
 73
     1
176
     1
 90
        0
176
     1
 40
0.6
176
     1
 41
30.0
176
     1
 63
     7
421
 16777215
176
     1
 74
     0
176
     1
 91
        4
176
     1
 64
     7
176
     1
 65
   257
176
     1
 75
     1
176
     1
175
     1
176
     1
 42
1.0
176
     1
 92
        8
176
     1
 66
     7
176
     1
 43
1.0
176
     1
 76
     1
176
     1
 77
     6
176
     1
 78
     2
176
     1
 67
     7
176
     1
 79
     5
176
     1
170
     0
176
     1
171
     0
176
     1
290
     0
176
     1
 93
        1
176
     1
 44
0.0
176
     1
173
     0
176
     1
1001
ACAD
1000
AcDbSavedByObjectVersion
1070
     0
  0
VISUALSTYLE
  5
36
102
{ACAD_XDICTIONARY
360
3CE
102
}
102
{ACAD_REACTORS
330
2A
102
}
330
2A
100
AcDbVisualStyle
  2
Brighten
 70
    12
177
     2
291
     1
 71
     2
176
     1
 72
     2
176
     1
 73
     0
176
     1
 90
        0
176
     1
 40
0.6
176
     1
 41
30.0
176
     1
 63
     7
421
 16777215
176
     1
 74
     1
176
     1
 91
        4
176
     1
 64
     7
176
     1
 65
   257
176
     1
 75
     1
176
     1
175
     1
176
     1
 42
1.0
176
     1
 92
        8
176
     1
 66
     7
176
     1
 43
1.0
176
     1
 76
     1
176
     1
 77
     6
176
     1
 78
     2
176
     1
 67
     7
176
     1
 79
     5
176
     1
170
     0
176
     1
171
     0
176
     1
290
     0
176
     1
 93
        1
176
     1
 44
50.0
176
     1
173
     0
176
     1
1001
ACAD
1000
AcDbSavedByObjectVersion
1070
     0
  0
VISUALSTYLE
  5
3A
102
{ACAD_XDICTIONARY
360
3D6
102
}
102
{ACAD_REACTORS
330
2A
102
}
330
2A
100
AcDbVisualStyle
  2
ColorChange
 70
    16
177
     2
291
     1
 71
     2
176
     1
 72
     2
176
     1
 73
     3
176
     1
 90
        0
176
     1
 40
0.6
176
     1
 41
30.0
176
     1
 63
     8
421
  8421504
176
     1
 74
     1
176
     1
 91
        4
176
     1
 64
     7
176
     1
 65
   257
176
     1
 75
     1
176
     1
175
     1
176
     1
 42
1.0
176
     1
 92
        8
176
     1
 66
     8
424
  8421504
176
     1
 43
1.0
176
     1
 76
     1
176
     1
 77
     6
176
     1
 78
     2
176
     1
 67
     7
176
     1
 79
     5
176
     1
170
     0
176
     1
171
     0
176
     1
290
     0
176
     1
 93
        1
176
     1
 44
0.0
176
     1
173
     0
176
     1
1001
ACAD
1000
AcDbSavedByObjectVersion
1070
     0
  0
VISUALSTYLE
  5
34
102
{ACAD_XDICTIONARY
360
3CA
102
}
102
{ACAD_REACTORS
330
2A
102
}
330
2A
100
AcDbVisualStyle
  2
Conceptual
 70
     9
177
     2
291
     0
 71
     3
176
     1
 72
     2
176
     1
 73
     0
176
     1
 90
        0
176
     1
 40
0.6
176
     1
 41
30.0
176
     1
 63
     7
421
 16777215
176
     1
 74
     2
176
     1
 91
        2
176
     1
 64
     7
176
     1
 65
   257
176
     1
 75
     1
176
     1
175
     1
176
     1
 42
40.0
176
     1
 92
        8
176
     1
 66
     7
176
     1
 43
1.0
176
     1
 76
     1
176
     1
 77
     6
176
     1
 78
     2
176
     1
 67
     7
176
     1
 79
     3
176
     1
170
     0
176
     1
171
     0
176
     1
290
     0
176
     1
 93
        1
176
     1
 44
0.0
176
     1
173
     0
176
     1
1001
ACAD
1000
AcDbSavedByObjectVersion
1070
     0
  0
VISUALSTYLE
  5
35
102
{ACAD_XDICTIONARY
360
3CC
102
}
102
{ACAD_REACTORS
330
2A
102
}
330
2A
100
AcDbVisualStyle
  2
Dim
 70
    11
177
     2
291
     1
 71
     2
176
     1
 72
     2
176
     1
 73
     0
176
     1
 90
        0
176
     1
 40
0.6
176
     1
 41
30.0
176
     1
 63
     7
421
 16777215
176
     1
 74
     1
176
     1
 91
        4
176
     1
 64
     7
176
     1
 65
   257
176
     1
 75
     1
176
     1
175
     1
176
     1
 42
1.0
176
     1
 92
        8
176
     1
 66
     7
176
     1
 43
1.0
176
     1
 76
     1
176
     1
 77
     6
176
     1
 78
     2
176
     1
 67
     7
176
     1
 79
     5
176
     1
170
     0
176
     1
171
     0
176
     1
290
     0
176
     1
 93
        1
176
     1
 44
-50.0
176
     1
173
     0
176
     1
1001
ACAD
1000
AcDbSavedByObjectVersion
1070
     0
  0
VISUALSTYLE
  5
37E
102
{ACAD_XDICTIONARY
360
3EA
102
}
102
{ACAD_REACTORS
330
2A
102
}
330
2A
100
AcDbVisualStyle
  2
EdgeColorOff
 70
    22
177
     2
291
     1
 71
     2
176
     0
 72
     2
176
     0
 73
     0
176
     0
 90
        0
176
     0
 40
0.6
176
     0
 41
30.0
176
     0
 63
     7
421
 16777215
176
     0
 74
     1
176
     0
 91
        4
176
     0
 64
     7
176
     0
 65
   257
176
     0
 75
     1
176
     0
175
     1
176
     0
 42
1.0
176
     0
 92
        8
176
     2
 66
     7
176
     0
 43
1.0
176
     0
 76
     1
176
     0
 77
     6
176
     0
 78
     2
176
     0
 67
     7
176
     0
 79
     5
176
     0
170
     0
176
     0
171
     0
176
     0
290
     0
176
     0
 93
        1
176
     0
 44
0.0
176
     0
173
     0
176
     0
1001
ACAD
1000
AcDbSavedByObjectVersion
1070
     0
  0
VISUALSTYLE
  5
39
102
{ACAD_XDICTIONARY
360
3D4
102
}
102
{ACAD_REACTORS
330
2A
102
}
330
2A
100
AcDbVisualStyle
  2
Facepattern
 70
    15
177
     2
291
     1
 71
     2
176
     1
 72
     2
176
     1
 73
     0
176
     1
 90
        0
176
     1
 40
0.6
176
     1
 41
30.0
176
     1
 63
     7
421
 16777215
176
     1
 74
     1
176
     1
 91
        4
176
     1
 64
     7
176
     1
 65
   257
176
     1
 75
     1
176
     1
175
     1
176
     1
 42
1.0
176
     1
 92
        8
176
     1
 66
     7
176
     1
 43
1.0
176
     1
 76
     1
176
     1
 77
     6
176
     1
 78
     2
176
     1
 67
     7
176
     1
 79
     5
176
     1
170
     0
176
     1
171
     0
176
     1
290
     0
176
     1
 93
        1
176
     1
 44
0.0
176
     1
173
     0
176
     1
1001
ACAD
1000
AcDbSavedByObjectVersion
1070
     0
  0
VISUALSTYLE
  5
2B
102
{ACAD_XDICTIONARY
360
3B8
102
}
102
{ACAD_REACTORS
330
2A
102
}
330
2A
100
AcDbVisualStyle
  2
Flat
 70
     0
177
     2
291
     1
 71
     2
176
     1
 72
     1
176
     1
 73
     1
176
     1
 90
        2
176
     1
 40
0.6
176
     1
 41
30.0
176
     1
 63
     7
421
 16777215
176
     1
 74
     0
176
     1
 91
        4
176
     1
 64
     7
176
     1
 65
   257
176
     1
 75
     1
176
     1
175
     1
176
     1
 42
1.0
176
     1
 92
        8
176
     1
 66
     7
176
     1
 43
1.0
176
     1
 76
     1
176
     1
 77
     6
176
     1
 78
     2
176
     1
 67
     7
176
     1
 79
     5
176
     1
170
     0
176
     1
171
     0
176
     1
290
     0
176
     1
 93
       13
176
     1
 44
0.0
176
     1
173
     0
176
     1
1001
ACAD
1000
AcDbSavedByObjectVersion
1070
     0
  0
VISUALSTYLE
  5
2C
102
{ACAD_XDICTIONARY
360
3BA
102
}
102
{ACAD_REACTORS
330
2A
102
}
330
2A
100
AcDbVisualStyle
  2
FlatWithEdges
 70
     1
177
     2
291
     1
 71
     2
176
     1
 72
     1
176
     1
 73
     1
176
     1
 90
        2
176
     1
 40
0.6
176
     1
 41
30.0
176
     1
 63
     7
421
 16777215
176
     1
 74
     1
176
     1
 91
        4
176
     1
 64
     7
176
     1
 65
   257
176
     1
 75
     1
176
     1
175
     1
176
     1
 42
1.0
176
     1
 92
        0
176
     1
 66
   257
176
     1
 43
1.0
176
     1
 76
     1
176
     1
 77
     6
176
     1
 78
     2
176
     1
 67
     7
176
     1
 79
     5
176
     1
170
     0
176
     1
171
     0
176
     1
290
     0
176
     1
 93
       13
176
     1
 44
0.0
176
     1
173
     0
176
     1
1001
ACAD
1000
AcDbSavedByObjectVersion
1070
     0
  0
VISUALSTYLE
  5
2D
102
{ACAD_XDICTIONARY
360
3BC
102
}
102
{ACAD_REACTORS
330
2A
102
}
330
2A
100
AcDbVisualStyle
  2
Gouraud
 70
     2
177
     2
291
     1
 71
     2
176
     1
 72
     2
176
     1
 73
     1
176
     1
 90
        2
176
     1
 40
0.6
176
     1
 41
30.0
176
     1
 63
     7
421
 16777215
176
     1
 74
     0
176
     1
 91
        4
176
     1
 64
     7
176
     1
 65
   257
176
     1
 75
     1
176
     1
175
     1
176
     1
 42
1.0
176
     1
 92
        0
176
     1
 66
     7
176
     1
 43
1.0
176
     1
 76
     1
176
     1
 77
     6
176
     1
 78
     2
176
     1
 67
     7
176
     1
 79
     5
176
     1
170
     0
176
     1
171
     0
176
     1
290
     0
176
     1
 93
       13
176
     1
 44
0.0
176
     1
173
     0
176
     1
1001
ACAD
1000
AcDbSavedByObjectVersion
1070
     0
  0
VISUALSTYLE
  5
2E
102
{ACAD_XDICTIONARY
360
3BE
102
}
102
{ACAD_REACTORS
330
2A
102
}
330
2A
100
AcDbVisualStyle
  2
GouraudWithEdges
 70
     3
177
     2
291
     1
 71
     2
176
     1
 72
     2
176
     1
 73
     1
176
     1
 90
        2
176
     1
 40
0.6
176
     1
 41
30.0
176
     1
 63
     7
421
 16777215
176
     1
 74
     1
176
     1
 91
        4
176
     1
 64
     7
176
     1
 65
   257
176
     1
 75
     1
176
     1
175
     1
176
     1
 42
1.0
176
     1
 92
        0
176
     1
 66
   257
176
     1
 43
1.0
176
     1
 76
     1
176
     1
 77
     6
176
     1
 78
     2
176
     1
 67
     7
176
     1
 79
     5
176
     1
170
     0
176
     1
171
     0
176
     1
290
     0
176
     1
 93
       13
176
     1
 44
0.0
176
     1
173
     0
176
     1
1001
ACAD
1000
AcDbSavedByObjectVersion
1070
     0
  0
VISUALSTYLE
  5
376
102
{ACAD_XDICTIONARY
360
3DA
102
}
102
{ACAD_REACTORS
330
2A
102
}
330
2A
100
AcDbVisualStyle
  2
Hidden
 70
     6
177
     2
291
     0
 71
     1
176
     1
 72
     2
176
     1
 73
     2
176
     1
 90
        0
176
     1
 40
0.6
176
     1
 41
30.0
176
     1
 63
     7
421
 16777215
176
     1
 74
     2
176
     1
 91
        2
176
     1
 64
     7
176
     1
 65
   257
176
     1
 75
     2
176
     1
175
     1
176
     1
 42
40.0
176
     1
 92
        0
176
     1
 66
   257
176
     1
 43
1.0
176
     1
 76
     1
176
     1
 77
     6
176
     1
 78
     2
176
     1
 67
     7
176
     1
 79
     3
176
     1
170
     0
176
     1
171
     0
176
     1
290
     0
176
     1
 93
        1
176
     1
 44
0.0
176
     1
173
     0
176
     1
1001
ACAD
1000
AcDbSavedByObjectVersion
1070
     0
  0
VISUALSTYLE
  5
37C
102
{ACAD_XDICTIONARY
360
3E6
102
}
102
{ACAD_REACTORS
330
2A
102
}
330
2A
100
AcDbVisualStyle
  2
JitterOff
 70
    20
177
     2
291
     1
 71
     2
176
     0
 72
     2
176
     0
 73
     0
176
     0
 90
        0
176
     0
 40
0.6
176
     0
 41
30.0
176
     0
 63
     7
421
 16777215
176
     0
 74
     1
176
     0
 91
        4
176
     0
 64
     7
176
     0
 65
   257
176
     0
 75
     1
176
     0
175
     1
176
     0
 42
1.0
176
     0
 92
       10
176
     2
 66
     7
176
     0
 43
1.0
176
     0
 76
     1
176
     0
 77
     6
176
     0
 78
     2
176
     0
 67
     7
176
     0
 79
     5
176
     0
170
     0
176
     0
171
     0
176
     0
290
     0
176
     0
 93
        1
176
     0
 44
0.0
176
     0
173
     0
176
     0
1001
ACAD
1000
AcDbSavedByObjectVersion
1070
     0
  0
VISUALSTYLE
  5
38
102
{ACAD_XDICTIONARY
360
3D2
102
}
102
{ACAD_REACTORS
330
2A
102
}
330
2A
100
AcDbVisualStyle
  2
Linepattern
 70
    14
177
     2
291
     1
 71
     2
176
     1
 72
     2
176
     1
 73
     0
176
     1
 90
        0
176
     1
 40
0.6
176
     1
 41
30.0
176
     1
 63
     7
421
 16777215
176
     1
 74
     1
176
     1
 91
        4
176
     1
 64
     7
176
     1
 65
   257
176
     1
 75
     7
176
     1
175
     7
176
     1
 42
1.0
176
     1
 92
        8
176
     1
 66
     7
176
     1
 43
1.0
176
     1
 76
     1
176
     1
 77
     6
176
     1
 78
     2
176
     1
 67
     7
176
     1
 79
     5
176
     1
170
     0
176
     1
171
     0
176
     1
290
     0
176
     1
 93
        1
176
     1
 44
0.0
176
     1
173
     0
176
     1
1001
ACAD
1000
AcDbSavedByObjectVersion
1070
     0
  0
VISUALSTYLE
  5
37D
102
{ACAD_XDICTIONARY
360
3E8
102
}
102
{ACAD_REACTORS
330
2A
102
}
330
2A
100
AcDbVisualStyle
  2
OverhangOff
 70
    21
177
     2
291
     1
 71
     2
176
     0
 72
     2
176
     0
 73
     0
176
     0
 90
        0
176
     0
 40
0.6
176
     0
 41
30.0
176
     0
 63
     7
421
 16777215
176
     0
 74
     1
176
     0
 91
        4
176
     0
 64
     7
176
     0
 65
   257
176
     0
 75
     1
176
     0
175
     1
176
     0
 42
1.0
176
     0
 92
        9
176
     2
 66
     7
176
     0
 43
1.0
176
     0
 76
     1
176
     0
 77
     6
176
     0
 78
     2
176
     0
 67
     7
176
     0
 79
     5
176
     0
170
     0
176
     0
171
     0
176
     0
290
     0
176
     0
 93
        1
176
     0
 44
0.0
176
     0
173
     0
176
     0
1001
ACAD
1000
AcDbSavedByObjectVersion
1070
     0
  0
VISUALSTYLE
  5
33
102
{ACAD_XDICTIONARY
360
3C8
102
}
102
{ACAD_REACTORS
330
2A
102
}
330
2A
100
AcDbVisualStyle
  2
Realistic
 70
     8
177
     2
291
     0
 71
     2
176
     1
 72
     2
176
     1
 73
     0
176
     1
 90
        0
176
     1
 40
0.6
176
     1
 41
30.0
176
     1
 63
     7
421
 16777215
176
     1
 74
     1
176
     1
 91
        0
176
     1
 64
     7
176
     1
 65
   257
176
     1
 75
     1
176
     1
175
     1
176
     1
 42
1.0
176
     1
 92
        8
176
     1
 66
     8
424
  7895160
176
     1
 43
1.0
176
     1
 76
     1
176
     1
 77
     6
176
     1
 78
     2
176
     1
 67
     7
176
     1
 79
     5
176
     1
170
     0
176
     1
171
     0
176
     1
290
     0
176
     1
 93
       13
176
     1
 44
0.0
176
     1
173
     0
176
     1
1001
ACAD
1000
AcDbSavedByObjectVersion
1070
     0
  0
VISUALSTYLE
  5
37B
102
{ACAD_XDICTIONARY
360
3E4
102
}
102
{ACAD_REACTORS
330
2A
102
}
330
2A
100
AcDbVisualStyle
  2
Shaded
 70
    27
177
     2
291
     0
 71
     2
176
     1
 72
     2
176
     1
 73
     1
176
     1
 90
        2
176
     1
 40
0.6
176
     1
 41
30.0
176
     1
 63
     7
421
 16777215
176
     1
 74
     0
176
     1
 91
        4
176
     1
 64
     7
176
     1
 65
   257
176
     1
 75
     1
176
     1
175
     1
176
     1
 42
1.0
176
     1
 92
        8
176
     1
 66
   257
176
     1
 43
1.0
176
     1
 76
     1
176
     1
 77
     6
176
     1
 78
     2
176
     1
 67
     8
425
  7895160
176
     1
 79
     3
176
     1
170
     0
176
     1
171
     0
176
     1
290
     0
176
     1
 93
        5
176
     1
 44
0.0
176
     1
173
     0
176
     1
1001
ACAD
1000
AcDbSavedByObjectVersion
1070
     0
  0
VISUALSTYLE
  5
37A
102
{ACAD_XDICTIONARY
360
3E2
102
}
102
{ACAD_REACTORS
330
2A
102
}
330
2A
100
AcDbVisualStyle
  2
Shaded with edges
 70
    26
177
     2
291
     0
 71
     2
176
     1
 72
     2
176
     1
 73
     1
176
     1
 90
        2
176
     1
 40
0.6
176
     1
 41
30.0
176
     1
 63
     7
421
 16777215
176
     1
 74
     1
176
     1
 91
       10
176
     1
 64
     7
176
     1
 65
   257
176
     1
 75
     2
176
     1
175
     1
176
     1
 42
1.0
176
     1
 92
        8
176
     1
 66
   257
176
     1
 43
1.0
176
     1
 76
     1
176
     1
 77
     6
176
     1
 78
     2
176
     1
 67
     7
176
     1
 79
     3
176
     1
170
     0
176
     1
171
     0
176
     1
290
     0
176
     1
 93
        5
176
     1
 44
0.0
176
     1
173
     0
176
     1
1001
ACAD
1000
AcDbSavedByObjectVersion
1070
     0
  0
VISUALSTYLE
  5
377
102
{ACAD_XDICTIONARY
360
3DC
102
}
102
{ACAD_REACTORS
330
2A
102
}
330
2A
100
AcDbVisualStyle
  2
Shades of Gray
 70
    23
177
     2
291
     0
 71
     2
176
     1
 72
     2
176
     1
 73
     3
176
     1
 90
        0
176
     1
 40
0.6
176
     1
 41
30.0
176
     1
 63
     7
421
 16777215
176
     1
 74
     2
176
     1
 91
        2
176
     1
 64
     7
176
     1
 65
     7
176
     1
 75
     1
176
     1
175
     1
176
     1
 42
40.0
176
     1
 92
        8
176
     1
 66
     7
176
     1
 43
1.0
176
     1
 76
     1
176
     1
 77
     6
176
     1
 78
     2
176
     1
 67
     7
176
     1
 79
     3
176
     1
170
     0
176
     1
171
     0
176
     1
290
     0
176
     1
 93
        1
176
     1
 44
0.0
176
     1
173
     0
176
     1
1001
ACAD
1000
AcDbSavedByObjectVersion
1070
     0
  0
VISUALSTYLE
  5
378
102
{ACAD_XDICTIONARY
360
3DE
102
}
102
{ACAD_REACTORS
330
2A
102
}
330
2A
100
AcDbVisualStyle
  2
Sketchy
 70
    24
177
     2
291
     0
 71
     1
176
     1
 72
     2
176
     1
 73
     2
176
     1
 90
        0
176
     1
 40
0.6
176
     1
 41
30.0
176
     1
 63
     7
421
 16777215
176
     1
 74
     2
176
     1
 91
        2
176
     1
 64
     7
176
     1
 65
     7
176
     1
 75
     1
176
     1
175
     1
176
     1
 42
40.0
176
     1
 92
       11
176
     1
 66
     7
176
     1
 43
1.0
176
     1
 76
     1
176
     1
 77
     6
176
     1
 78
     2
176
     1
 67
     7
176
     1
 79
     6
176
     1
170
     0
176
     1
171
     0
176
     1
290
     0
176
     1
 93
        1
176
     1
 44
0.0
176
     1
173
     0
176
     1
1001
ACAD
1000
AcDbSavedByObjectVersion
1070
     0
  0
VISUALSTYLE
  5
37
102
{ACAD_XDICTIONARY
360
3D0
102
}
102
{ACAD_REACTORS
330
2A
102
}
330
2A
100
AcDbVisualStyle
  2
Thicken
 70
    13
177
     2
291
     1
 71
     2
176
     1
 72
     2
176
     1
 73
     0
176
     1
 90
        0
176
     1
 40
0.6
176
     1
 41
30.0
176
     1
 63
     7
421
 16777215
176
     1
 74
     1
176
     1
 91
        4
176
     1
 64
     7
176
     1
 65
   257
176
     1
 75
     1
176
     1
175
     1
176
     1
 42
1.0
176
     1
 92
       12
176
     1
 66
     7
176
     1
 43
1.0
176
     1
 76
     1
176
     1
 77
     6
176
     1
 78
     2
176
     1
 67
     7
176
     1
 79
     5
176
     1
170
     0
176
     1
171
     0
176
     1
290
     0
176
     1
 93
        1
176
     1
 44
0.0
176
     1
173
     0
176
     1
1001
ACAD
1000
AcDbSavedByObjectVersion
1070
     0
  0
VISUALSTYLE
  5
375
102
{ACAD_XDICTIONARY
360
3D8
102
}
102
{ACAD_REACTORS
330
2A
102
}
330
2A
100
AcDbVisualStyle
  2
Wireframe
 70
     5
177
     2
291
     0
 71
     0
176
     1
 72
     2
176
     1
 73
     0
176
     1
 90
        0
176
     1
 40
0.6
176
     1
 41
30.0
176
     1
 63
     7
421
 16777215
176
     1
 74
     1
176
     1
 91
        4
176
     1
 64
     7
176
     1
 65
   257
176
     1
 75
     1
176
     1
175
     1
176
     1
 42
1.0
176
     1
 92
        0
176
     1
 66
   257
176
     1
 43
1.0
176
     1
 76
     1
176
     1
 77
     6
176
     1
 78
     2
176
     1
 67
     7
176
     1
 79
     3
176
     1
170
     0
176
     1
171
     0
176
     1
290
     0
176
     1
 93
        1
176
     1
 44
0.0
176
     1
173
     0
176
     1
1001
ACAD
1000
AcDbSavedByObjectVersion
1070
     0
  0
VISUALSTYLE
  5
379
102
{ACAD_XDICTIONARY
360
3E0
102
}
102
{ACAD_REACTORS
330
2A
102
}
330
2A
100
AcDbVisualStyle
  2
X-Ray
 70
    25
177
     2
291
     0
 71
     2
176
     1
 72
     2
176
     1
 73
     1
176
     1
 90
        1
176
     1
 40
0.5
176
     1
 41
30.0
176
     1
 63
     7
421
 16777215
176
     1
 74
     1
176
     1
 91
        0
176
     1
 64
     7
176
     1
 65
   257
176
     1
 75
     1
176
     1
175
     1
176
     1
 42
1.0
176
     1
 92
        8
176
     1
 66
     7
176
     1
 43
1.0
176
     1
 76
     1
176
     1
 77
     6
176
     1
 78
     2
176
     1
 67
     7
176
     1
 79
     3
176
     1
170
     0
176
     1
171
     0
176
     1
290
     0
176
     1
 93
       13
176
     1
 44
0.0
176
     1
173
     0
176
     1
1001
ACAD
1000
AcDbSavedByObjectVersion
1070
     0
  0
DICTIONARYVAR
  5
3AB
102
{ACAD_REACTORS
330
3A6
102
}
330
3A6
100
DictionaryVariables
280
     0
  1
1:1
  0
DICTIONARYVAR
  5
3A8
102
{ACAD_REACTORS
330
3A6
102
}
330
3A6
100
DictionaryVariables
280
     0
  1
STANDARD
  0
DICTIONARYVAR
  5
3A7
102
{ACAD_REACTORS
330
3A6
102
}
330
3A6
100
DictionaryVariables
280
     0
  1
STANDARD
  0
DICTIONARYVAR
  5
3A9
102
{ACAD_REACTORS
330
3A6
102
}
330
3A6
100
DictionaryVariables
280
     0
  1
Imperial24
  0
DICTIONARYVAR
  5
3AA
102
{ACAD_REACTORS
330
3A6
102
}
330
3A6
100
DictionaryVariables
280
     0
  1
Imperial24
  0
DICTIONARY
  5
3B7
102
{ACAD_REACTORS
330
3B5
102
}
330
3B5
100
AcDbDictionary
281
     1
  0
DICTIONARY
  5
3B6
102
{ACAD_REACTORS
330
3B5
102
}
330
3B5
100
AcDbDictionary
281
     1
  3
4598175360
350
3B0
  3
4598175376
350
3B1
  3
4598175392
350
3B2
  3
4598175408
350
3B3
  3
4598175424
350
3B4
  0
DICTIONARY
  5
3EC
330
393
100
AcDbDictionary
280
     1
281
     1
  3
ACAD_XREC_ROUNDTRIP
360
3ED
  0
DICTIONARY
  5
3AD
330
380
100
AcDbDictionary
280
     1
281
     1
  3
ACAD_ROUNDTRIP_2008_TABLESTYLE_CELLSTYLEMAP
360
3AE
  0
DICTIONARY
  5
3C0
330
2F
100
AcDbDictionary
280
     1
281
     1
  3
ACAD_XREC_ROUNDTRIP
360
3C1
  0
DICTIONARY
  5
3C4
330
31
100
AcDbDictionary
280
     1
281
     1
  3
ACAD_XREC_ROUNDTRIP
360
3C5
  0
DICTIONARY
  5
3C2
330
30
100
AcDbDictionary
280
     1
281
     1
  3
ACAD_XREC_ROUNDTRIP
360
3C3
  0
DICTIONARY
  5
3C6
330
32
100
AcDbDictionary
280
     1
281
     1
  3
ACAD_XREC_ROUNDTRIP
360
3C7
  0
DICTIONARY
  5
3CE
330
36
100
AcDbDictionary
280
     1
281
     1
  3
ACAD_XREC_ROUNDTRIP
360
3CF
  0
DICTIONARY
  5
3D6
330
3A
100
AcDbDictionary
280
     1
281
     1
  3
ACAD_XREC_ROUNDTRIP
360
3D7
  0
DICTIONARY
  5
3CA
330
34
100
AcDbDictionary
280
     1
281
     1
  3
ACAD_XREC_ROUNDTRIP
360
3CB
  0
DICTIONARY
  5
3CC
330
35
100
AcDbDictionary
280
     1
281
     1
  3
ACAD_XREC_ROUNDTRIP
360
3CD
  0
DICTIONARY
  5
3EA
330
37E
100
AcDbDictionary
280
     1
281
     1
  3
ACAD_XREC_ROUNDTRIP
360
3EB
  0
DICTIONARY
  5
3D4
330
39
100
AcDbDictionary
280
     1
281
     1
  3
ACAD_XREC_ROUNDTRIP
360
3D5
  0
DICTIONARY
  5
3B8
330
2B
100
AcDbDictionary
280
     1
281
     1
  3
ACAD_XREC_ROUNDTRIP
360
3B9
  0
DICTIONARY
  5
3BA
330
2C
100
AcDbDictionary
280
     1
281
     1
  3
ACAD_XREC_ROUNDTRIP
360
3BB
  0
DICTIONARY
  5
3BC
330
2D
100
AcDbDictionary
280
     1
281
     1
  3
ACAD_XREC_ROUNDTRIP
360
3BD
  0
DICTIONARY
  5
3BE
330
2E
100
AcDbDictionary
280
     1
281
     1
  3
ACAD_XREC_ROUNDTRIP
360
3BF
  0
DICTIONARY
  5
3DA
330
376
100
AcDbDictionary
280
     1
281
     1
  3
ACAD_XREC_ROUNDTRIP
360
3DB
  0
DICTIONARY
  5
3E6
330
37C
100
AcDbDictionary
280
     1
281
     1
  3
ACAD_XREC_ROUNDTRIP
360
3E7
  0
DICTIONARY
  5
3D2
330
38
100
AcDbDictionary
280
     1
281
     1
  3
ACAD_XREC_ROUNDTRIP
360
3D3
  0
DICTIONARY
  5
3E8
330
37D
100
AcDbDictionary
280
     1
281
     1
  3
ACAD_XREC_ROUNDTRIP
360
3E9
  0
DICTIONARY
  5
3C8
330
33
100
AcDbDictionary
280
     1
281
     1
  3
ACAD_XREC_ROUNDTRIP
360
3C9
  0
DICTIONARY
  5
3E4
330
37B
100
AcDbDictionary
280
     1
281
     1
  3
ACAD_XREC_ROUNDTRIP
360
3E5
  0
DICTIONARY
  5
3E2
330
37A
100
AcDbDictionary
280
     1
281
     1
  3
ACAD_XREC_ROUNDTRIP
360
3E3
  0
DICTIONARY
  5
3DC
330
377
100
AcDbDictionary
280
     1
281
     1
  3
ACAD_XREC_ROUNDTRIP
360
3DD
  0
DICTIONARY
  5
3DE
330
378
100
AcDbDictionary
280
     1
281
     1
  3
ACAD_XREC_ROUNDTRIP
360
3DF
  0
DICTIONARY
  5
3D0
330
37
100
AcDbDictionary
280
     1
281
     1
  3
ACAD_XREC_ROUNDTRIP
360
3D1
  0
DICTIONARY
  5
3D8
330
375
100
AcDbDictionary
280
     1
281
     1
  3
ACAD_XREC_ROUNDTRIP
360
3D9
  0
DICTIONARY
  5
3E0
330
379
100
AcDbDictionary
280
     1
281
     1
  3
ACAD_XREC_ROUNDTRIP
360
3E1
  0
XRECORD
  5
3B0
102
{ACAD_REACTORS
330
3B6
102
}
330
3B6
100
AcDbXrecord
280
     1
  1
AcDb_Thumbnail_Schema
102
{ATTRRECORD
341
3B1
  2
AcDbDs::TreatedAsObjectData
280
     1
291
     1
102
ATTRRECORD}
102
{ATTRRECORD
341
3B2
  2
AcDbDs::Legacy
280
     1
291
     1
102
ATTRRECORD}
  2
AcDbDs::ID
280
    10
 91
        8
102
{ATTRRECORD
341
3B3
  2
AcDs:Indexable
280
     1
291
     1
102
ATTRRECORD}
102
{ATTRRECORD
341
3B4
  2
AcDbDs::HandleAttribute
280
     7
282
     1
102
ATTRRECORD}
  2
Thumbnail_Data
280
    15
 91
        0
  0
XRECORD
  5
3B1
102
{ACAD_REACTORS
330
3B6
102
}
330
3B6
100
AcDbXrecord
280
     1
  1
AcDbDs::TreatedAsObjectDataSchema
  2
AcDbDs::TreatedAsObjectData
280
     1
 91
        0
  0
XRECORD
  5
3B2
102
{ACAD_REACTORS
330
3B6
102
}
330
3B6
100
AcDbXrecord
280
     1
  1
AcDbDs::LegacySchema
  2
AcDbDs::Legacy
280
     1
 91
        0
  0
XRECORD
  5
3B3
102
{ACAD_REACTORS
330
3B6
102
}
330
3B6
100
AcDbXrecord
280
     1
  1
AcDbDs::IndexedPropertySchema
  2
AcDs:Indexable
280
     1
 91
        0
  0
XRECORD
  5
3B4
102
{ACAD_REACTORS
330
3B6
102
}
330
3B6
100
AcDbXrecord
280
     1
  1
AcDbDs::HandleAttributeSchema
  2
AcDbDs::HandleAttribute
280
     7
 91
        1
284
     1
  0
XRECORD
  5
3ED
102
{ACAD_REACTORS
330
3EC
102
}
330
3EC
100
AcDbXrecord
280
     1
102
ACAD_ROUNDTRIP_2012_MLEADER_STYLE
298
     1
  0
CELLSTYLEMAP
  5
3AE
102
{ACAD_REACTORS
330
3AD
102
}
330
3AD
100
AcDbCellStyleMap
 90
        3
300
CELLSTYLE
  1
TABLEFORMAT_BEGIN
 90
        5
170
     1
 91
        0
 92
    32768
 62
   257
 93
        1
300
CONTENTFORMAT
  1
CONTENTFORMAT_BEGIN
 90
        0
 91
        0
 92
      512
 93
        0
300

 40
0.0
140
1.0
 94
        5
 62
     0
340
11
144
0.25
309
CONTENTFORMAT_END
171
     0
 94
        0
309
TABLEFORMAT_END
  1
CELLSTYLE_BEGIN
 90
        1
 91
        1
300
_TITLE
309
CELLSTYLE_END
300
CELLSTYLE
  1
TABLEFORMAT_BEGIN
 90
        5
170
     1
 91
        0
 92
        0
 62
   257
 93
        1
300
CONTENTFORMAT
  1
CONTENTFORMAT_BEGIN
 90
        0
 91
        0
 92
      512
 93
        0
300

 40
0.0
140
1.0
 94
        5
 62
     0
340
11
144
0.18
309
CONTENTFORMAT_END
171
     0
 94
        0
309
TABLEFORMAT_END
  1
CELLSTYLE_BEGIN
 90
        2
 91
        1
300
_HEADER
309
CELLSTYLE_END
300
CELLSTYLE
  1
TABLEFORMAT_BEGIN
 90
        5
170
     1
 91
        0
 92
        0
 62
   257
 93
        1
300
CONTENTFORMAT
  1
CONTENTFORMAT_BEGIN
 90
        0
 91
        0
 92
      512
 93
        0
300

 40
0.0
140
1.0
 94
        2
 62
     0
340
11
144
0.18
309
CONTENTFORMAT_END
171
     0
 94
        0
309
TABLEFORMAT_END
  1
CELLSTYLE_BEGIN
 90
        3
 91
        2
300
_DATA
309
CELLSTYLE_END
  0
XRECORD
  5
3C1
102
{ACAD_REACTORS
330
3C0
102
}
330
3C0
100
AcDbXrecord
280
     1
102
RTVSPost2010Prop28
280
     1
102
RTVSPost2010PropOp28
 70
     1
102
RTVSPost2010Prop29
280
     1
102
RTVSPost2010PropOp29
 70
     1
102
RTVSPost2010Prop30
280
     0
102
RTVSPost2010PropOp30
 70
     1
102
RTVSPost2010Prop31
280
     0
102
RTVSPost2010PropOp31
 70
     1
102
RTVSPost2010Prop32
280
     0
102
RTVSPost2010PropOp32
 70
     1
102
RTVSPost2010Prop33
280
     0
102
RTVSPost2010PropOp33
 70
     1
102
RTVSPost2010Prop34
280
     0
102
RTVSPost2010PropOp34
 70
     1
102
RTVSPost2010Prop35
280
     0
102
RTVSPost2010PropOp35
 70
     1
102
RTVSPost2010Prop36
280
     0
102
RTVSPost2010PropOp36
 70
     1
102
RTVSPost2010Prop37
 90
       50
102
RTVSPost2010PropOp37
 70
     1
102
RTVSPost2010Prop38
140
0.0
102
RTVSPost2010PropOp38
 70
     1
102
RTVSPost2010Prop39
140
1.0
102
RTVSPost2010PropOp39
 70
     1
102
RTVSPost2010Prop40
 90
        0
102
RTVSPost2010PropOp40
 70
     1
102
RTVSPost2010Prop41ColorIndex
 90
       18
102
RTVSPost2010Prop41ColorRGB
 90
        0
102
RTVSPost2010PropOp41
 70
     1
102
RTVSPost2010Prop42
 90
       50
102
RTVSPost2010PropOp42
 70
     1
102
RTVSPost2010Prop43
 90
        3
102
RTVSPost2010PropOp43
 70
     1
102
RTVSPost2010Prop44ColorIndex
 90
        5
102
RTVSPost2010Prop44ColorRGB
 90
      255
102
RTVSPost2010PropOp44
 70
     1
102
RTVSPost2010Prop45
280
     0
102
RTVSPost2010PropOp45
 70
     1
102
RTVSPost2010Prop46
 90
       50
102
RTVSPost2010PropOp46
 70
     1
102
RTVSPost2010Prop47
 90
       50
102
RTVSPost2010PropOp47
 70
     1
102
RTVSPost2010Prop48
 90
       50
102
RTVSPost2010PropOp48
 70
     1
102
RTVSPost2010Prop49
280
     0
102
RTVSPost2010PropOp49
 70
     1
102
RTVSPost2010Prop50
 90
       50
102
RTVSPost2010PropOp50
 70
     1
102
RTVSPost2010Prop51ColorIndex
 90
      256
102
RTVSPost2010Prop51ColorRGB
 90
-16777216
102
RTVSPost2010PropOp51
 70
     0
102
RTVSPost2010Prop52
140
1.0
102
RTVSPost2010PropOp52
 70
     0
102
RTVSPost2010Prop53
 90
        2
102
RTVSPost2010PropOp53
 70
     1
102
RTVSPost2010Prop54
  1
strokes_ogs.tif
102
RTVSPost2010PropOp54
 70
     1
102
RTVSPost2010Prop55
280
     0
102
RTVSPost2010PropOp55
 70
     1
102
RTVSPost2010Prop56
140
1.0
102
RTVSPost2010PropOp56
 70
     1
102
RTVSPost2010Prop57
140
1.0
102
RTVSPost2010PropOp57
 70
     1
  0
XRECORD
  5
3C5
102
{ACAD_REACTORS
330
3C4
102
}
330
3C4
100
AcDbXrecord
280
     1
102
RTVSPost2010Prop28
280
     0
102
RTVSPost2010PropOp28
 70
     1
102
RTVSPost2010Prop29
280
     1
102
RTVSPost2010PropOp29
 70
     1
102
RTVSPost2010Prop30
280
     1
102
RTVSPost2010PropOp30
 70
     1
102
RTVSPost2010Prop31
280
     0
102
RTVSPost2010PropOp31
 70
     1
102
RTVSPost2010Prop32
280
     0
102
RTVSPost2010PropOp32
 70
     1
102
RTVSPost2010Prop33
280
     0
102
RTVSPost2010PropOp33
 70
     1
102
RTVSPost2010Prop34
280
     0
102
RTVSPost2010PropOp34
 70
     1
102
RTVSPost2010Prop35
280
     0
102
RTVSPost2010PropOp35
 70
     1
102
RTVSPost2010Prop36
280
     0
102
RTVSPost2010PropOp36
 70
     1
102
RTVSPost2010Prop37
 90
       50
102
RTVSPost2010PropOp37
 70
     1
102
RTVSPost2010Prop38
140
0.0
102
RTVSPost2010PropOp38
 70
     1
102
RTVSPost2010Prop39
140
1.0
102
RTVSPost2010PropOp39
 70
     1
102
RTVSPost2010Prop40
 90
        0
102
RTVSPost2010PropOp40
 70
     1
102
RTVSPost2010Prop41ColorIndex
 90
       18
102
RTVSPost2010Prop41ColorRGB
 90
        0
102
RTVSPost2010PropOp41
 70
     1
102
RTVSPost2010Prop42
 90
       50
102
RTVSPost2010PropOp42
 70
     1
102
RTVSPost2010Prop43
 90
        3
102
RTVSPost2010PropOp43
 70
     1
102
RTVSPost2010Prop44ColorIndex
 90
        5
102
RTVSPost2010Prop44ColorRGB
 90
      255
102
RTVSPost2010PropOp44
 70
     1
102
RTVSPost2010Prop45
280
     0
102
RTVSPost2010PropOp45
 70
     1
102
RTVSPost2010Prop46
 90
       50
102
RTVSPost2010PropOp46
 70
     1
102
RTVSPost2010Prop47
 90
       50
102
RTVSPost2010PropOp47
 70
     1
102
RTVSPost2010Prop48
 90
       50
102
RTVSPost2010PropOp48
 70
     1
102
RTVSPost2010Prop49
280
     0
102
RTVSPost2010PropOp49
 70
     1
102
RTVSPost2010Prop50
 90
       50
102
RTVSPost2010PropOp50
 70
     1
102
RTVSPost2010Prop51ColorIndex
 90
      256
102
RTVSPost2010Prop51ColorRGB
 90
-16777216
102
RTVSPost2010PropOp51
 70
     0
102
RTVSPost2010Prop52
140
1.0
102
RTVSPost2010PropOp52
 70
     0
102
RTVSPost2010Prop53
 90
        2
102
RTVSPost2010PropOp53
 70
     1
102
RTVSPost2010Prop54
  1
strokes_ogs.tif
102
RTVSPost2010PropOp54
 70
     1
102
RTVSPost2010Prop55
280
     0
102
RTVSPost2010PropOp55
 70
     1
102
RTVSPost2010Prop56
140
1.0
102
RTVSPost2010PropOp56
 70
     1
102
RTVSPost2010Prop57
140
1.0
102
RTVSPost2010PropOp57
 70
     1
  0
XRECORD
  5
3C3
102
{ACAD_REACTORS
330
3C2
102
}
330
3C2
100
AcDbXrecord
280
     1
102
RTVSPost2010Prop28
280
     0
102
RTVSPost2010PropOp28
 70
     1
102
RTVSPost2010Prop29
280
     1
102
RTVSPost2010PropOp29
 70
     1
102
RTVSPost2010Prop30
280
     1
102
RTVSPost2010PropOp30
 70
     1
102
RTVSPost2010Prop31
280
     0
102
RTVSPost2010PropOp31
 70
     1
102
RTVSPost2010Prop32
280
     0
102
RTVSPost2010PropOp32
 70
     1
102
RTVSPost2010Prop33
280
     0
102
RTVSPost2010PropOp33
 70
     1
102
RTVSPost2010Prop34
280
     0
102
RTVSPost2010PropOp34
 70
     1
102
RTVSPost2010Prop35
280
     0
102
RTVSPost2010PropOp35
 70
     1
102
RTVSPost2010Prop36
280
     0
102
RTVSPost2010PropOp36
 70
     1
102
RTVSPost2010Prop37
 90
       50
102
RTVSPost2010PropOp37
 70
     1
102
RTVSPost2010Prop38
140
0.0
102
RTVSPost2010PropOp38
 70
     1
102
RTVSPost2010Prop39
140
1.0
102
RTVSPost2010PropOp39
 70
     1
102
RTVSPost2010Prop40
 90
        0
102
RTVSPost2010PropOp40
 70
     1
102
RTVSPost2010Prop41ColorIndex
 90
       18
102
RTVSPost2010Prop41ColorRGB
 90
        0
102
RTVSPost2010PropOp41
 70
     1
102
RTVSPost2010Prop42
 90
       50
102
RTVSPost2010PropOp42
 70
     1
102
RTVSPost2010Prop43
 90
        3
102
RTVSPost2010PropOp43
 70
     1
102
RTVSPost2010Prop44ColorIndex
 90
        5
102
RTVSPost2010Prop44ColorRGB
 90
      255
102
RTVSPost2010PropOp44
 70
     1
102
RTVSPost2010Prop45
280
     0
102
RTVSPost2010PropOp45
 70
     1
102
RTVSPost2010Prop46
 90
       50
102
RTVSPost2010PropOp46
 70
     1
102
RTVSPost2010Prop47
 90
       50
102
RTVSPost2010PropOp47
 70
     1
102
RTVSPost2010Prop48
 90
       50
102
RTVSPost2010PropOp48
 70
     1
102
RTVSPost2010Prop49
280
     0
102
RTVSPost2010PropOp49
 70
     1
102
RTVSPost2010Prop50
 90
       50
102
RTVSPost2010PropOp50
 70
     1
102
RTVSPost2010Prop51ColorIndex
 90
      256
102
RTVSPost2010Prop51ColorRGB
 90
-16777216
102
RTVSPost2010PropOp51
 70
     0
102
RTVSPost2010Prop52
140
1.0
102
RTVSPost2010PropOp52
 70
     0
102
RTVSPost2010Prop53
 90
        2
102
RTVSPost2010PropOp53
 70
     1
102
RTVSPost2010Prop54
  1
strokes_ogs.tif
102
RTVSPost2010PropOp54
 70
     1
102
RTVSPost2010Prop55
280
     0
102
RTVSPost2010PropOp55
 70
     1
102
RTVSPost2010Prop56
140
1.0
102
RTVSPost2010PropOp56
 70
     1
102
RTVSPost2010Prop57
140
1.0
102
RTVSPost2010PropOp57
 70
     1
  0
XRECORD
  5
3C7
102
{ACAD_REACTORS
330
3C6
102
}
330
3C6
100
AcDbXrecord
280
     1
102
RTVSPost2010Prop28
280
     0
102
RTVSPost2010PropOp28
 70
     1
102
RTVSPost2010Prop29
280
     1
102
RTVSPost2010PropOp29
 70
     1
102
RTVSPost2010Prop30
280
     1
102
RTVSPost2010PropOp30
 70
     1
102
RTVSPost2010Prop31
280
     0
102
RTVSPost2010PropOp31
 70
     1
102
RTVSPost2010Prop32
280
     0
102
RTVSPost2010PropOp32
 70
     1
102
RTVSPost2010Prop33
280
     0
102
RTVSPost2010PropOp33
 70
     1
102
RTVSPost2010Prop34
280
     0
102
RTVSPost2010PropOp34
 70
     1
102
RTVSPost2010Prop35
280
     0
102
RTVSPost2010PropOp35
 70
     1
102
RTVSPost2010Prop36
280
     0
102
RTVSPost2010PropOp36
 70
     1
102
RTVSPost2010Prop37
 90
       50
102
RTVSPost2010PropOp37
 70
     1
102
RTVSPost2010Prop38
140
0.0
102
RTVSPost2010PropOp38
 70
     1
102
RTVSPost2010Prop39
140
1.0
102
RTVSPost2010PropOp39
 70
     1
102
RTVSPost2010Prop40
 90
        0
102
RTVSPost2010PropOp40
 70
     1
102
RTVSPost2010Prop41ColorIndex
 90
       18
102
RTVSPost2010Prop41ColorRGB
 90
        0
102
RTVSPost2010PropOp41
 70
     1
102
RTVSPost2010Prop42
 90
       50
102
RTVSPost2010PropOp42
 70
     1
102
RTVSPost2010Prop43
 90
        3
102
RTVSPost2010PropOp43
 70
     1
102
RTVSPost2010Prop44ColorIndex
 90
        5
102
RTVSPost2010Prop44ColorRGB
 90
      255
102
RTVSPost2010PropOp44
 70
     1
102
RTVSPost2010Prop45
280
     0
102
RTVSPost2010PropOp45
 70
     1
102
RTVSPost2010Prop46
 90
       50
102
RTVSPost2010PropOp46
 70
     1
102
RTVSPost2010Prop47
 90
       50
102
RTVSPost2010PropOp47
 70
     1
102
RTVSPost2010Prop48
 90
       50
102
RTVSPost2010PropOp48
 70
     1
102
RTVSPost2010Prop49
280
     0
102
RTVSPost2010PropOp49
 70
     1
102
RTVSPost2010Prop50
 90
       50
102
RTVSPost2010PropOp50
 70
     1
102
RTVSPost2010Prop51ColorIndex
 90
      256
102
RTVSPost2010Prop51ColorRGB
 90
-16777216
102
RTVSPost2010PropOp51
 70
     0
102
RTVSPost2010Prop52
140
1.0
102
RTVSPost2010PropOp52
 70
     0
102
RTVSPost2010Prop53
 90
        2
102
RTVSPost2010PropOp53
 70
     1
102
RTVSPost2010Prop54
  1
strokes_ogs.tif
102
RTVSPost2010PropOp54
 70
     1
102
RTVSPost2010Prop55
280
     0
102
RTVSPost2010PropOp55
 70
     1
102
RTVSPost2010Prop56
140
1.0
102
RTVSPost2010PropOp56
 70
     1
102
RTVSPost2010Prop57
140
1.0
102
RTVSPost2010PropOp57
 70
     1
  0
XRECORD
  5
3CF
102
{ACAD_REACTORS
330
3CE
102
}
330
3CE
100
AcDbXrecord
280
     1
102
RTVSPost2010Prop28
280
     0
102
RTVSPost2010PropOp28
 70
     1
102
RTVSPost2010Prop29
280
     1
102
RTVSPost2010PropOp29
 70
     1
102
RTVSPost2010Prop30
280
     1
102
RTVSPost2010PropOp30
 70
     1
102
RTVSPost2010Prop31
280
     0
102
RTVSPost2010PropOp31
 70
     1
102
RTVSPost2010Prop32
280
     0
102
RTVSPost2010PropOp32
 70
     1
102
RTVSPost2010Prop33
280
     0
102
RTVSPost2010PropOp33
 70
     1
102
RTVSPost2010Prop34
280
     0
102
RTVSPost2010PropOp34
 70
     1
102
RTVSPost2010Prop35
280
     0
102
RTVSPost2010PropOp35
 70
     1
102
RTVSPost2010Prop36
280
     0
102
RTVSPost2010PropOp36
 70
     1
102
RTVSPost2010Prop37
 90
       50
102
RTVSPost2010PropOp37
 70
     1
102
RTVSPost2010Prop38
140
0.0
102
RTVSPost2010PropOp38
 70
     1
102
RTVSPost2010Prop39
140
1.0
102
RTVSPost2010PropOp39
 70
     1
102
RTVSPost2010Prop40
 90
        0
102
RTVSPost2010PropOp40
 70
     1
102
RTVSPost2010Prop41ColorIndex
 90
       18
102
RTVSPost2010Prop41ColorRGB
 90
        0
102
RTVSPost2010PropOp41
 70
     1
102
RTVSPost2010Prop42
 90
       50
102
RTVSPost2010PropOp42
 70
     1
102
RTVSPost2010Prop43
 90
        3
102
RTVSPost2010PropOp43
 70
     1
102
RTVSPost2010Prop44ColorIndex
 90
        5
102
RTVSPost2010Prop44ColorRGB
 90
      255
102
RTVSPost2010PropOp44
 70
     1
102
RTVSPost2010Prop45
280
     0
102
RTVSPost2010PropOp45
 70
     1
102
RTVSPost2010Prop46
 90
       50
102
RTVSPost2010PropOp46
 70
     1
102
RTVSPost2010Prop47
 90
       50
102
RTVSPost2010PropOp47
 70
     1
102
RTVSPost2010Prop48
 90
       50
102
RTVSPost2010PropOp48
 70
     1
102
RTVSPost2010Prop49
280
     0
102
RTVSPost2010PropOp49
 70
     1
102
RTVSPost2010Prop50
 90
       50
102
RTVSPost2010PropOp50
 70
     1
102
RTVSPost2010Prop51ColorIndex
 90
      256
102
RTVSPost2010Prop51ColorRGB
 90
-16777216
102
RTVSPost2010PropOp51
 70
     0
102
RTVSPost2010Prop52
140
1.0
102
RTVSPost2010PropOp52
 70
     0
102
RTVSPost2010Prop53
 90
        2
102
RTVSPost2010PropOp53
 70
     1
102
RTVSPost2010Prop54
  1
strokes_ogs.tif
102
RTVSPost2010PropOp54
 70
     1
102
RTVSPost2010Prop55
280
     0
102
RTVSPost2010PropOp55
 70
     1
102
RTVSPost2010Prop56
140
1.0
102
RTVSPost2010PropOp56
 70
     1
102
RTVSPost2010Prop57
140
1.0
102
RTVSPost2010PropOp57
 70
     1
  0
XRECORD
  5
3D7
102
{ACAD_REACTORS
330
3D6
102
}
330
3D6
100
AcDbXrecord
280
     1
102
RTVSPost2010Prop28
280
     0
102
RTVSPost2010PropOp28
 70
     1
102
RTVSPost2010Prop29
280
     1
102
RTVSPost2010PropOp29
 70
     1
102
RTVSPost2010Prop30
280
     1
102
RTVSPost2010PropOp30
 70
     1
102
RTVSPost2010Prop31
280
     0
102
RTVSPost2010PropOp31
 70
     1
102
RTVSPost2010Prop32
280
     0
102
RTVSPost2010PropOp32
 70
     1
102
RTVSPost2010Prop33
280
     0
102
RTVSPost2010PropOp33
 70
     1
102
RTVSPost2010Prop34
280
     0
102
RTVSPost2010PropOp34
 70
     1
102
RTVSPost2010Prop35
280
     0
102
RTVSPost2010PropOp35
 70
     1
102
RTVSPost2010Prop36
280
     0
102
RTVSPost2010PropOp36
 70
     1
102
RTVSPost2010Prop37
 90
       50
102
RTVSPost2010PropOp37
 70
     1
102
RTVSPost2010Prop38
140
0.0
102
RTVSPost2010PropOp38
 70
     1
102
RTVSPost2010Prop39
140
1.0
102
RTVSPost2010PropOp39
 70
     1
102
RTVSPost2010Prop40
 90
        0
102
RTVSPost2010PropOp40
 70
     1
102
RTVSPost2010Prop41ColorIndex
 90
       18
102
RTVSPost2010Prop41ColorRGB
 90
        0
102
RTVSPost2010PropOp41
 70
     1
102
RTVSPost2010Prop42
 90
       50
102
RTVSPost2010PropOp42
 70
     1
102
RTVSPost2010Prop43
 90
        3
102
RTVSPost2010PropOp43
 70
     1
102
RTVSPost2010Prop44ColorIndex
 90
        5
102
RTVSPost2010Prop44ColorRGB
 90
      255
102
RTVSPost2010PropOp44
 70
     1
102
RTVSPost2010Prop45
280
     0
102
RTVSPost2010PropOp45
 70
     1
102
RTVSPost2010Prop46
 90
       50
102
RTVSPost2010PropOp46
 70
     1
102
RTVSPost2010Prop47
 90
       50
102
RTVSPost2010PropOp47
 70
     1
102
RTVSPost2010Prop48
 90
       50
102
RTVSPost2010PropOp48
 70
     1
102
RTVSPost2010Prop49
280
     0
102
RTVSPost2010PropOp49
 70
     1
102
RTVSPost2010Prop50
 90
       50
102
RTVSPost2010PropOp50
 70
     1
102
RTVSPost2010Prop51ColorIndex
 90
      256
102
RTVSPost2010Prop51ColorRGB
 90
-16777216
102
RTVSPost2010PropOp51
 70
     0
102
RTVSPost2010Prop52
140
1.0
102
RTVSPost2010PropOp52
 70
     0
102
RTVSPost2010Prop53
 90
        2
102
RTVSPost2010PropOp53
 70
     1
102
RTVSPost2010Prop54
  1
strokes_ogs.tif
102
RTVSPost2010PropOp54
 70
     1
102
RTVSPost2010Prop55
280
     0
102
RTVSPost2010PropOp55
 70
     1
102
RTVSPost2010Prop56
140
1.0
102
RTVSPost2010PropOp56
 70
     1
102
RTVSPost2010Prop57
140
1.0
102
RTVSPost2010PropOp57
 70
     1
  0
XRECORD
  5
3CB
102
{ACAD_REACTORS
330
3CA
102
}
330
3CA
100
AcDbXrecord
280
     1
102
RTVSPost2010Prop28
280
     0
102
RTVSPost2010PropOp28
 70
     1
102
RTVSPost2010Prop29
280
     1
102
RTVSPost2010PropOp29
 70
     1
102
RTVSPost2010Prop30
280
     1
102
RTVSPost2010PropOp30
 70
     1
102
RTVSPost2010Prop31
280
     0
102
RTVSPost2010PropOp31
 70
     1
102
RTVSPost2010Prop32
280
     0
102
RTVSPost2010PropOp32
 70
     1
102
RTVSPost2010Prop33
280
     0
102
RTVSPost2010PropOp33
 70
     1
102
RTVSPost2010Prop34
280
     0
102
RTVSPost2010PropOp34
 70
     1
102
RTVSPost2010Prop35
280
     0
102
RTVSPost2010PropOp35
 70
     1
102
RTVSPost2010Prop36
280
     0
102
RTVSPost2010PropOp36
 70
     1
102
RTVSPost2010Prop37
 90
       50
102
RTVSPost2010PropOp37
 70
     1
102
RTVSPost2010Prop38
140
0.0
102
RTVSPost2010PropOp38
 70
     1
102
RTVSPost2010Prop39
140
1.0
102
RTVSPost2010PropOp39
 70
     1
102
RTVSPost2010Prop40
 90
        0
102
RTVSPost2010PropOp40
 70
     1
102
RTVSPost2010Prop41ColorIndex
 90
       18
102
RTVSPost2010Prop41ColorRGB
 90
        0
102
RTVSPost2010PropOp41
 70
     1
102
RTVSPost2010Prop42
 90
       50
102
RTVSPost2010PropOp42
 70
     1
102
RTVSPost2010Prop43
 90
        3
102
RTVSPost2010PropOp43
 70
     1
102
RTVSPost2010Prop44ColorIndex
 90
        5
102
RTVSPost2010Prop44ColorRGB
 90
      255
102
RTVSPost2010PropOp44
 70
     1
102
RTVSPost2010Prop45
280
     0
102
RTVSPost2010PropOp45
 70
     1
102
RTVSPost2010Prop46
 90
       50
102
RTVSPost2010PropOp46
 70
     1
102
RTVSPost2010Prop47
 90
       50
102
RTVSPost2010PropOp47
 70
     1
102
RTVSPost2010Prop48
 90
       50
102
RTVSPost2010PropOp48
 70
     1
102
RTVSPost2010Prop49
280
     0
102
RTVSPost2010PropOp49
 70
     1
102
RTVSPost2010Prop50
 90
       50
102
RTVSPost2010PropOp50
 70
     1
102
RTVSPost2010Prop51ColorIndex
 90
      256
102
RTVSPost2010Prop51ColorRGB
 90
-16777216
102
RTVSPost2010PropOp51
 70
     0
102
RTVSPost2010Prop52
140
1.0
102
RTVSPost2010PropOp52
 70
     0
102
RTVSPost2010Prop53
 90
        2
102
RTVSPost2010PropOp53
 70
     1
102
RTVSPost2010Prop54
  1
strokes_ogs.tif
102
RTVSPost2010PropOp54
 70
     1
102
RTVSPost2010Prop55
280
     0
102
RTVSPost2010PropOp55
 70
     1
102
RTVSPost2010Prop56
140
1.0
102
RTVSPost2010PropOp56
 70
     1
102
RTVSPost2010Prop57
140
1.0
102
RTVSPost2010PropOp57
 70
     1
  0
XRECORD
  5
3CD
102
{ACAD_REACTORS
330
3CC
102
}
330
3CC
100
AcDbXrecord
280
     1
102
RTVSPost2010Prop28
280
     0
102
RTVSPost2010PropOp28
 70
     1
102
RTVSPost2010Prop29
280
     1
102
RTVSPost2010PropOp29
 70
     1
102
RTVSPost2010Prop30
280
     1
102
RTVSPost2010PropOp30
 70
     1
102
RTVSPost2010Prop31
280
     0
102
RTVSPost2010PropOp31
 70
     1
102
RTVSPost2010Prop32
280
     0
102
RTVSPost2010PropOp32
 70
     1
102
RTVSPost2010Prop33
280
     0
102
RTVSPost2010PropOp33
 70
     1
102
RTVSPost2010Prop34
280
     0
102
RTVSPost2010PropOp34
 70
     1
102
RTVSPost2010Prop35
280
     0
102
RTVSPost2010PropOp35
 70
     1
102
RTVSPost2010Prop36
280
     0
102
RTVSPost2010PropOp36
 70
     1
102
RTVSPost2010Prop37
 90
       50
102
RTVSPost2010PropOp37
 70
     1
102
RTVSPost2010Prop38
140
0.0
102
RTVSPost2010PropOp38
 70
     1
102
RTVSPost2010Prop39
140
1.0
102
RTVSPost2010PropOp39
 70
     1
102
RTVSPost2010Prop40
 90
        0
102
RTVSPost2010PropOp40
 70
     1
102
RTVSPost2010Prop41ColorIndex
 90
       18
102
RTVSPost2010Prop41ColorRGB
 90
        0
102
RTVSPost2010PropOp41
 70
     1
102
RTVSPost2010Prop42
 90
       50
102
RTVSPost2010PropOp42
 70
     1
102
RTVSPost2010Prop43
 90
        3
102
RTVSPost2010PropOp43
 70
     1
102
RTVSPost2010Prop44ColorIndex
 90
        5
102
RTVSPost2010Prop44ColorRGB
 90
      255
102
RTVSPost2010PropOp44
 70
     1
102
RTVSPost2010Prop45
280
     0
102
RTVSPost2010PropOp45
 70
     1
102
RTVSPost2010Prop46
 90
       50
102
RTVSPost2010PropOp46
 70
     1
102
RTVSPost2010Prop47
 90
       50
102
RTVSPost2010PropOp47
 70
     1
102
RTVSPost2010Prop48
 90
       50
102
RTVSPost2010PropOp48
 70
     1
102
RTVSPost2010Prop49
280
     0
102
RTVSPost2010PropOp49
 70
     1
102
RTVSPost2010Prop50
 90
       50
102
RTVSPost2010PropOp50
 70
     1
102
RTVSPost2010Prop51ColorIndex
 90
      256
102
RTVSPost2010Prop51ColorRGB
 90
-16777216
102
RTVSPost2010PropOp51
 70
     0
102
RTVSPost2010Prop52
140
1.0
102
RTVSPost2010PropOp52
 70
     0
102
RTVSPost2010Prop53
 90
        2
102
RTVSPost2010PropOp53
 70
     1
102
RTVSPost2010Prop54
  1
strokes_ogs.tif
102
RTVSPost2010PropOp54
 70
     1
102
RTVSPost2010Prop55
280
     0
102
RTVSPost2010PropOp55
 70
     1
102
RTVSPost2010Prop56
140
1.0
102
RTVSPost2010PropOp56
 70
     1
102
RTVSPost2010Prop57
140
1.0
102
RTVSPost2010PropOp57
 70
     1
  0
XRECORD
  5
3EB
102
{ACAD_REACTORS
330
3EA
102
}
330
3EA
100
AcDbXrecord
280
     1
102
RTVSPost2010Prop28
280
     0
102
RTVSPost2010PropOp28
 70
     0
102
RTVSPost2010Prop29
280
     1
102
RTVSPost2010PropOp29
 70
     0
102
RTVSPost2010Prop30
280
     1
102
RTVSPost2010PropOp30
 70
     0
102
RTVSPost2010Prop31
280
     0
102
RTVSPost2010PropOp31
 70
     0
102
RTVSPost2010Prop32
280
     0
102
RTVSPost2010PropOp32
 70
     0
102
RTVSPost2010Prop33
280
     0
102
RTVSPost2010PropOp33
 70
     0
102
RTVSPost2010Prop34
280
     0
102
RTVSPost2010PropOp34
 70
     0
102
RTVSPost2010Prop35
280
     0
102
RTVSPost2010PropOp35
 70
     0
102
RTVSPost2010Prop36
280
     0
102
RTVSPost2010PropOp36
 70
     0
102
RTVSPost2010Prop37
 90
       50
102
RTVSPost2010PropOp37
 70
     0
102
RTVSPost2010Prop38
140
0.0
102
RTVSPost2010PropOp38
 70
     0
102
RTVSPost2010Prop39
140
1.0
102
RTVSPost2010PropOp39
 70
     0
102
RTVSPost2010Prop40
 90
        0
102
RTVSPost2010PropOp40
 70
     0
102
RTVSPost2010Prop41ColorIndex
 90
       18
102
RTVSPost2010Prop41ColorRGB
 90
        0
102
RTVSPost2010PropOp41
 70
     0
102
RTVSPost2010Prop42
 90
       50
102
RTVSPost2010PropOp42
 70
     0
102
RTVSPost2010Prop43
 90
        3
102
RTVSPost2010PropOp43
 70
     0
102
RTVSPost2010Prop44ColorIndex
 90
        5
102
RTVSPost2010Prop44ColorRGB
 90
      255
102
RTVSPost2010PropOp44
 70
     0
102
RTVSPost2010Prop45
280
     0
102
RTVSPost2010PropOp45
 70
     0
102
RTVSPost2010Prop46
 90
       50
102
RTVSPost2010PropOp46
 70
     0
102
RTVSPost2010Prop47
 90
       50
102
RTVSPost2010PropOp47
 70
     0
102
RTVSPost2010Prop48
 90
       50
102
RTVSPost2010PropOp48
 70
     0
102
RTVSPost2010Prop49
280
     0
102
RTVSPost2010PropOp49
 70
     0
102
RTVSPost2010Prop50
 90
       50
102
RTVSPost2010PropOp50
 70
     0
102
RTVSPost2010Prop51ColorIndex
 90
      256
102
RTVSPost2010Prop51ColorRGB
 90
-16777216
102
RTVSPost2010PropOp51
 70
     0
102
RTVSPost2010Prop52
140
1.0
102
RTVSPost2010PropOp52
 70
     0
102
RTVSPost2010Prop53
 90
        2
102
RTVSPost2010PropOp53
 70
     0
102
RTVSPost2010Prop54
  1
strokes_ogs.tif
102
RTVSPost2010PropOp54
 70
     0
102
RTVSPost2010Prop55
280
     0
102
RTVSPost2010PropOp55
 70
     0
102
RTVSPost2010Prop56
140
1.0
102
RTVSPost2010PropOp56
 70
     0
102
RTVSPost2010Prop57
140
1.0
102
RTVSPost2010PropOp57
 70
     0
  0
XRECORD
  5
3D5
102
{ACAD_REACTORS
330
3D4
102
}
330
3D4
100
AcDbXrecord
280
     1
102
RTVSPost2010Prop28
280
     0
102
RTVSPost2010PropOp28
 70
     1
102
RTVSPost2010Prop29
280
     1
102
RTVSPost2010PropOp29
 70
     1
102
RTVSPost2010Prop30
280
     1
102
RTVSPost2010PropOp30
 70
     1
102
RTVSPost2010Prop31
280
     0
102
RTVSPost2010PropOp31
 70
     1
102
RTVSPost2010Prop32
280
     0
102
RTVSPost2010PropOp32
 70
     1
102
RTVSPost2010Prop33
280
     0
102
RTVSPost2010PropOp33
 70
     1
102
RTVSPost2010Prop34
280
     0
102
RTVSPost2010PropOp34
 70
     1
102
RTVSPost2010Prop35
280
     0
102
RTVSPost2010PropOp35
 70
     1
102
RTVSPost2010Prop36
280
     0
102
RTVSPost2010PropOp36
 70
     1
102
RTVSPost2010Prop37
 90
       50
102
RTVSPost2010PropOp37
 70
     1
102
RTVSPost2010Prop38
140
0.0
102
RTVSPost2010PropOp38
 70
     1
102
RTVSPost2010Prop39
140
1.0
102
RTVSPost2010PropOp39
 70
     1
102
RTVSPost2010Prop40
 90
        0
102
RTVSPost2010PropOp40
 70
     1
102
RTVSPost2010Prop41ColorIndex
 90
       18
102
RTVSPost2010Prop41ColorRGB
 90
        0
102
RTVSPost2010PropOp41
 70
     1
102
RTVSPost2010Prop42
 90
       50
102
RTVSPost2010PropOp42
 70
     1
102
RTVSPost2010Prop43
 90
        3
102
RTVSPost2010PropOp43
 70
     1
102
RTVSPost2010Prop44ColorIndex
 90
        5
102
RTVSPost2010Prop44ColorRGB
 90
      255
102
RTVSPost2010PropOp44
 70
     1
102
RTVSPost2010Prop45
280
     0
102
RTVSPost2010PropOp45
 70
     1
102
RTVSPost2010Prop46
 90
       50
102
RTVSPost2010PropOp46
 70
     1
102
RTVSPost2010Prop47
 90
       50
102
RTVSPost2010PropOp47
 70
     1
102
RTVSPost2010Prop48
 90
       50
102
RTVSPost2010PropOp48
 70
     1
102
RTVSPost2010Prop49
280
     0
102
RTVSPost2010PropOp49
 70
     1
102
RTVSPost2010Prop50
 90
       50
102
RTVSPost2010PropOp50
 70
     1
102
RTVSPost2010Prop51ColorIndex
 90
      256
102
RTVSPost2010Prop51ColorRGB
 90
-16777216
102
RTVSPost2010PropOp51
 70
     0
102
RTVSPost2010Prop52
140
1.0
102
RTVSPost2010PropOp52
 70
     0
102
RTVSPost2010Prop53
 90
        2
102
RTVSPost2010PropOp53
 70
     1
102
RTVSPost2010Prop54
  1
strokes_ogs.tif
102
RTVSPost2010PropOp54
 70
     1
102
RTVSPost2010Prop55
280
     0
102
RTVSPost2010PropOp55
 70
     1
102
RTVSPost2010Prop56
140
1.0
102
RTVSPost2010PropOp56
 70
     1
102
RTVSPost2010Prop57
140
1.0
102
RTVSPost2010PropOp57
 70
     1
  0
XRECORD
  5
3B9
102
{ACAD_REACTORS
330
3B8
102
}
330
3B8
100
AcDbXrecord
280
     1
102
RTVSPost2010Prop28
280
     0
102
RTVSPost2010PropOp28
 70
     1
102
RTVSPost2010Prop29
280
     1
102
RTVSPost2010PropOp29
 70
     1
102
RTVSPost2010Prop30
280
     1
102
RTVSPost2010PropOp30
 70
     1
102
RTVSPost2010Prop31
280
     0
102
RTVSPost2010PropOp31
 70
     1
102
RTVSPost2010Prop32
280
     0
102
RTVSPost2010PropOp32
 70
     1
102
RTVSPost2010Prop33
280
     0
102
RTVSPost2010PropOp33
 70
     1
102
RTVSPost2010Prop34
280
     0
102
RTVSPost2010PropOp34
 70
     1
102
RTVSPost2010Prop35
280
     0
102
RTVSPost2010PropOp35
 70
     1
102
RTVSPost2010Prop36
280
     0
102
RTVSPost2010PropOp36
 70
     1
102
RTVSPost2010Prop37
 90
       50
102
RTVSPost2010PropOp37
 70
     1
102
RTVSPost2010Prop38
140
0.0
102
RTVSPost2010PropOp38
 70
     1
102
RTVSPost2010Prop39
140
1.0
102
RTVSPost2010PropOp39
 70
     1
102
RTVSPost2010Prop40
 90
        0
102
RTVSPost2010PropOp40
 70
     1
102
RTVSPost2010Prop41ColorIndex
 90
       18
102
RTVSPost2010Prop41ColorRGB
 90
        0
102
RTVSPost2010PropOp41
 70
     1
102
RTVSPost2010Prop42
 90
       50
102
RTVSPost2010PropOp42
 70
     1
102
RTVSPost2010Prop43
 90
        3
102
RTVSPost2010PropOp43
 70
     1
102
RTVSPost2010Prop44ColorIndex
 90
        5
102
RTVSPost2010Prop44ColorRGB
 90
      255
102
RTVSPost2010PropOp44
 70
     1
102
RTVSPost2010Prop45
280
     0
102
RTVSPost2010PropOp45
 70
     1
102
RTVSPost2010Prop46
 90
       50
102
RTVSPost2010PropOp46
 70
     1
102
RTVSPost2010Prop47
 90
       50
102
RTVSPost2010PropOp47
 70
     1
102
RTVSPost2010Prop48
 90
       50
102
RTVSPost2010PropOp48
 70
     1
102
RTVSPost2010Prop49
280
     0
102
RTVSPost2010PropOp49
 70
     1
102
RTVSPost2010Prop50
 90
       50
102
RTVSPost2010PropOp50
 70
     1
102
RTVSPost2010Prop51ColorIndex
 90
      256
102
RTVSPost2010Prop51ColorRGB
 90
-16777216
102
RTVSPost2010PropOp51
 70
     0
102
RTVSPost2010Prop52
140
1.0
102
RTVSPost2010PropOp52
 70
     0
102
RTVSPost2010Prop53
 90
        2
102
RTVSPost2010PropOp53
 70
     1
102
RTVSPost2010Prop54
  1
strokes_ogs.tif
102
RTVSPost2010PropOp54
 70
     1
102
RTVSPost2010Prop55
280
     0
102
RTVSPost2010PropOp55
 70
     1
102
RTVSPost2010Prop56
140
1.0
102
RTVSPost2010PropOp56
 70
     1
102
RTVSPost2010Prop57
140
1.0
102
RTVSPost2010PropOp57
 70
     1
  0
XRECORD
  5
3BB
102
{ACAD_REACTORS
330
3BA
102
}
330
3BA
100
AcDbXrecord
280
     1
102
RTVSPost2010Prop28
280
     0
102
RTVSPost2010PropOp28
 70
     1
102
RTVSPost2010Prop29
280
     1
102
RTVSPost2010PropOp29
 70
     1
102
RTVSPost2010Prop30
280
     1
102
RTVSPost2010PropOp30
 70
     1
102
RTVSPost2010Prop31
280
     0
102
RTVSPost2010PropOp31
 70
     1
102
RTVSPost2010Prop32
280
     0
102
RTVSPost2010PropOp32
 70
     1
102
RTVSPost2010Prop33
280
     0
102
RTVSPost2010PropOp33
 70
     1
102
RTVSPost2010Prop34
280
     0
102
RTVSPost2010PropOp34
 70
     1
102
RTVSPost2010Prop35
280
     0
102
RTVSPost2010PropOp35
 70
     1
102
RTVSPost2010Prop36
280
     0
102
RTVSPost2010PropOp36
 70
     1
102
RTVSPost2010Prop37
 90
       50
102
RTVSPost2010PropOp37
 70
     1
102
RTVSPost2010Prop38
140
0.0
102
RTVSPost2010PropOp38
 70
     1
102
RTVSPost2010Prop39
140
1.0
102
RTVSPost2010PropOp39
 70
     1
102
RTVSPost2010Prop40
 90
        0
102
RTVSPost2010PropOp40
 70
     1
102
RTVSPost2010Prop41ColorIndex
 90
       18
102
RTVSPost2010Prop41ColorRGB
 90
        0
102
RTVSPost2010PropOp41
 70
     1
102
RTVSPost2010Prop42
 90
       50
102
RTVSPost2010PropOp42
 70
     1
102
RTVSPost2010Prop43
 90
        3
102
RTVSPost2010PropOp43
 70
     1
102
RTVSPost2010Prop44ColorIndex
 90
        5
102
RTVSPost2010Prop44ColorRGB
 90
      255
102
RTVSPost2010PropOp44
 70
     1
102
RTVSPost2010Prop45
280
     0
102
RTVSPost2010PropOp45
 70
     1
102
RTVSPost2010Prop46
 90
       50
102
RTVSPost2010PropOp46
 70
     1
102
RTVSPost2010Prop47
 90
       50
102
RTVSPost2010PropOp47
 70
     1
102
RTVSPost2010Prop48
 90
       50
102
RTVSPost2010PropOp48
 70
     1
102
RTVSPost2010Prop49
280
     0
102
RTVSPost2010PropOp49
 70
     1
102
RTVSPost2010Prop50
 90
       50
102
RTVSPost2010PropOp50
 70
     1
102
RTVSPost2010Prop51ColorIndex
 90
      256
102
RTVSPost2010Prop51ColorRGB
 90
-16777216
102
RTVSPost2010PropOp51
 70
     0
102
RTVSPost2010Prop52
140
1.0
102
RTVSPost2010PropOp52
 70
     0
102
RTVSPost2010Prop53
 90
        2
102
RTVSPost2010PropOp53
 70
     1
102
RTVSPost2010Prop54
  1
strokes_ogs.tif
102
RTVSPost2010PropOp54
 70
     1
102
RTVSPost2010Prop55
280
     0
102
RTVSPost2010PropOp55
 70
     1
102
RTVSPost2010Prop56
140
1.0
102
RTVSPost2010PropOp56
 70
     1
102
RTVSPost2010Prop57
140
1.0
102
RTVSPost2010PropOp57
 70
     1
  0
XRECORD
  5
3BD
102
{ACAD_REACTORS
330
3BC
102
}
330
3BC
100
AcDbXrecord
280
     1
102
RTVSPost2010Prop28
280
     0
102
RTVSPost2010PropOp28
 70
     1
102
RTVSPost2010Prop29
280
     1
102
RTVSPost2010PropOp29
 70
     1
102
RTVSPost2010Prop30
280
     1
102
RTVSPost2010PropOp30
 70
     1
102
RTVSPost2010Prop31
280
     0
102
RTVSPost2010PropOp31
 70
     1
102
RTVSPost2010Prop32
280
     0
102
RTVSPost2010PropOp32
 70
     1
102
RTVSPost2010Prop33
280
     0
102
RTVSPost2010PropOp33
 70
     1
102
RTVSPost2010Prop34
280
     0
102
RTVSPost2010PropOp34
 70
     1
102
RTVSPost2010Prop35
280
     0
102
RTVSPost2010PropOp35
 70
     1
102
RTVSPost2010Prop36
280
     0
102
RTVSPost2010PropOp36
 70
     1
102
RTVSPost2010Prop37
 90
       50
102
RTVSPost2010PropOp37
 70
     1
102
RTVSPost2010Prop38
140
0.0
102
RTVSPost2010PropOp38
 70
     1
102
RTVSPost2010Prop39
140
1.0
102
RTVSPost2010PropOp39
 70
     1
102
RTVSPost2010Prop40
 90
        0
102
RTVSPost2010PropOp40
 70
     1
102
RTVSPost2010Prop41ColorIndex
 90
       18
102
RTVSPost2010Prop41ColorRGB
 90
        0
102
RTVSPost2010PropOp41
 70
     1
102
RTVSPost2010Prop42
 90
       50
102
RTVSPost2010PropOp42
 70
     1
102
RTVSPost2010Prop43
 90
        3
102
RTVSPost2010PropOp43
 70
     1
102
RTVSPost2010Prop44ColorIndex
 90
        5
102
RTVSPost2010Prop44ColorRGB
 90
      255
102
RTVSPost2010PropOp44
 70
     1
102
RTVSPost2010Prop45
280
     0
102
RTVSPost2010PropOp45
 70
     1
102
RTVSPost2010Prop46
 90
       50
102
RTVSPost2010PropOp46
 70
     1
102
RTVSPost2010Prop47
 90
       50
102
RTVSPost2010PropOp47
 70
     1
102
RTVSPost2010Prop48
 90
       50
102
RTVSPost2010PropOp48
 70
     1
102
RTVSPost2010Prop49
280
     0
102
RTVSPost2010PropOp49
 70
     1
102
RTVSPost2010Prop50
 90
       50
102
RTVSPost2010PropOp50
 70
     1
102
RTVSPost2010Prop51ColorIndex
 90
      256
102
RTVSPost2010Prop51ColorRGB
 90
-16777216
102
RTVSPost2010PropOp51
 70
     0
102
RTVSPost2010Prop52
140
1.0
102
RTVSPost2010PropOp52
 70
     0
102
RTVSPost2010Prop53
 90
        2
102
RTVSPost2010PropOp53
 70
     1
102
RTVSPost2010Prop54
  1
strokes_ogs.tif
102
RTVSPost2010PropOp54
 70
     1
102
RTVSPost2010Prop55
280
     0
102
RTVSPost2010PropOp55
 70
     1
102
RTVSPost2010Prop56
140
1.0
102
RTVSPost2010PropOp56
 70
     1
102
RTVSPost2010Prop57
140
1.0
102
RTVSPost2010PropOp57
 70
     1
  0
XRECORD
  5
3BF
102
{ACAD_REACTORS
330
3BE
102
}
330
3BE
100
AcDbXrecord
280
     1
102
RTVSPost2010Prop28
280
     0
102
RTVSPost2010PropOp28
 70
     1
102
RTVSPost2010Prop29
280
     1
102
RTVSPost2010PropOp29
 70
     1
102
RTVSPost2010Prop30
280
     1
102
RTVSPost2010PropOp30
 70
     1
102
RTVSPost2010Prop31
280
     0
102
RTVSPost2010PropOp31
 70
     1
102
RTVSPost2010Prop32
280
     0
102
RTVSPost2010PropOp32
 70
     1
102
RTVSPost2010Prop33
280
     0
102
RTVSPost2010PropOp33
 70
     1
102
RTVSPost2010Prop34
280
     0
102
RTVSPost2010PropOp34
 70
     1
102
RTVSPost2010Prop35
280
     0
102
RTVSPost2010PropOp35
 70
     1
102
RTVSPost2010Prop36
280
     0
102
RTVSPost2010PropOp36
 70
     1
102
RTVSPost2010Prop37
 90
       50
102
RTVSPost2010PropOp37
 70
     1
102
RTVSPost2010Prop38
140
0.0
102
RTVSPost2010PropOp38
 70
     1
102
RTVSPost2010Prop39
140
1.0
102
RTVSPost2010PropOp39
 70
     1
102
RTVSPost2010Prop40
 90
        0
102
RTVSPost2010PropOp40
 70
     1
102
RTVSPost2010Prop41ColorIndex
 90
       18
102
RTVSPost2010Prop41ColorRGB
 90
        0
102
RTVSPost2010PropOp41
 70
     1
102
RTVSPost2010Prop42
 90
       50
102
RTVSPost2010PropOp42
 70
     1
102
RTVSPost2010Prop43
 90
        3
102
RTVSPost2010PropOp43
 70
     1
102
RTVSPost2010Prop44ColorIndex
 90
        5
102
RTVSPost2010Prop44ColorRGB
 90
      255
102
RTVSPost2010PropOp44
 70
     1
102
RTVSPost2010Prop45
280
     0
102
RTVSPost2010PropOp45
 70
     1
102
RTVSPost2010Prop46
 90
       50
102
RTVSPost2010PropOp46
 70
     1
102
RTVSPost2010Prop47
 90
       50
102
RTVSPost2010PropOp47
 70
     1
102
RTVSPost2010Prop48
 90
       50
102
RTVSPost2010PropOp48
 70
     1
102
RTVSPost2010Prop49
280
     0
102
RTVSPost2010PropOp49
 70
     1
102
RTVSPost2010Prop50
 90
       50
102
RTVSPost2010PropOp50
 70
     1
102
RTVSPost2010Prop51ColorIndex
 90
      256
102
RTVSPost2010Prop51ColorRGB
 90
-16777216
102
RTVSPost2010PropOp51
 70
     0
102
RTVSPost2010Prop52
140
1.0
102
RTVSPost2010PropOp52
 70
     0
102
RTVSPost2010Prop53
 90
        2
102
RTVSPost2010PropOp53
 70
     1
102
RTVSPost2010Prop54
  1
strokes_ogs.tif
102
RTVSPost2010PropOp54
 70
     1
102
RTVSPost2010Prop55
280
     0
102
RTVSPost2010PropOp55
 70
     1
102
RTVSPost2010Prop56
140
1.0
102
RTVSPost2010PropOp56
 70
     1
102
RTVSPost2010Prop57
140
1.0
102
RTVSPost2010PropOp57
 70
     1
  0
XRECORD
  5
3DB
102
{ACAD_REACTORS
330
3DA
102
}
330
3DA
100
AcDbXrecord
280
     1
102
RTVSPost2010Prop28
280
     0
102
RTVSPost2010PropOp28
 70
     1
102
RTVSPost2010Prop29
280
     1
102
RTVSPost2010PropOp29
 70
     1
102
RTVSPost2010Prop30
280
     1
102
RTVSPost2010PropOp30
 70
     1
102
RTVSPost2010Prop31
280
     0
102
RTVSPost2010PropOp31
 70
     1
102
RTVSPost2010Prop32
280
     0
102
RTVSPost2010PropOp32
 70
     1
102
RTVSPost2010Prop33
280
     0
102
RTVSPost2010PropOp33
 70
     1
102
RTVSPost2010Prop34
280
     0
102
RTVSPost2010PropOp34
 70
     1
102
RTVSPost2010Prop35
280
     0
102
RTVSPost2010PropOp35
 70
     1
102
RTVSPost2010Prop36
280
     0
102
RTVSPost2010PropOp36
 70
     1
102
RTVSPost2010Prop37
 90
       50
102
RTVSPost2010PropOp37
 70
     1
102
RTVSPost2010Prop38
140
0.0
102
RTVSPost2010PropOp38
 70
     1
102
RTVSPost2010Prop39
140
1.0
102
RTVSPost2010PropOp39
 70
     1
102
RTVSPost2010Prop40
 90
        0
102
RTVSPost2010PropOp40
 70
     1
102
RTVSPost2010Prop41ColorIndex
 90
       18
102
RTVSPost2010Prop41ColorRGB
 90
        0
102
RTVSPost2010PropOp41
 70
     1
102
RTVSPost2010Prop42
 90
       50
102
RTVSPost2010PropOp42
 70
     1
102
RTVSPost2010Prop43
 90
        3
102
RTVSPost2010PropOp43
 70
     1
102
RTVSPost2010Prop44ColorIndex
 90
        5
102
RTVSPost2010Prop44ColorRGB
 90
      255
102
RTVSPost2010PropOp44
 70
     1
102
RTVSPost2010Prop45
280
     0
102
RTVSPost2010PropOp45
 70
     1
102
RTVSPost2010Prop46
 90
       50
102
RTVSPost2010PropOp46
 70
     1
102
RTVSPost2010Prop47
 90
       50
102
RTVSPost2010PropOp47
 70
     1
102
RTVSPost2010Prop48
 90
       50
102
RTVSPost2010PropOp48
 70
     1
102
RTVSPost2010Prop49
280
     0
102
RTVSPost2010PropOp49
 70
     1
102
RTVSPost2010Prop50
 90
       50
102
RTVSPost2010PropOp50
 70
     1
102
RTVSPost2010Prop51ColorIndex
 90
      256
102
RTVSPost2010Prop51ColorRGB
 90
-16777216
102
RTVSPost2010PropOp51
 70
     0
102
RTVSPost2010Prop52
140
1.0
102
RTVSPost2010PropOp52
 70
     0
102
RTVSPost2010Prop53
 90
        2
102
RTVSPost2010PropOp53
 70
     1
102
RTVSPost2010Prop54
  1
strokes_ogs.tif
102
RTVSPost2010PropOp54
 70
     1
102
RTVSPost2010Prop55
280
     0
102
RTVSPost2010PropOp55
 70
     1
102
RTVSPost2010Prop56
140
1.0
102
RTVSPost2010PropOp56
 70
     1
102
RTVSPost2010Prop57
140
1.0
102
RTVSPost2010PropOp57
 70
     1
  0
XRECORD
  5
3E7
102
{ACAD_REACTORS
330
3E6
102
}
330
3E6
100
AcDbXrecord
280
     1
102
RTVSPost2010Prop28
280
     0
102
RTVSPost2010PropOp28
 70
     0
102
RTVSPost2010Prop29
280
     1
102
RTVSPost2010PropOp29
 70
     0
102
RTVSPost2010Prop30
280
     1
102
RTVSPost2010PropOp30
 70
     0
102
RTVSPost2010Prop31
280
     0
102
RTVSPost2010PropOp31
 70
     0
102
RTVSPost2010Prop32
280
     0
102
RTVSPost2010PropOp32
 70
     0
102
RTVSPost2010Prop33
280
     0
102
RTVSPost2010PropOp33
 70
     0
102
RTVSPost2010Prop34
280
     0
102
RTVSPost2010PropOp34
 70
     0
102
RTVSPost2010Prop35
280
     0
102
RTVSPost2010PropOp35
 70
     0
102
RTVSPost2010Prop36
280
     0
102
RTVSPost2010PropOp36
 70
     0
102
RTVSPost2010Prop37
 90
       50
102
RTVSPost2010PropOp37
 70
     0
102
RTVSPost2010Prop38
140
0.0
102
RTVSPost2010PropOp38
 70
     0
102
RTVSPost2010Prop39
140
1.0
102
RTVSPost2010PropOp39
 70
     0
102
RTVSPost2010Prop40
 90
        0
102
RTVSPost2010PropOp40
 70
     0
102
RTVSPost2010Prop41ColorIndex
 90
       18
102
RTVSPost2010Prop41ColorRGB
 90
        0
102
RTVSPost2010PropOp41
 70
     0
102
RTVSPost2010Prop42
 90
       50
102
RTVSPost2010PropOp42
 70
     0
102
RTVSPost2010Prop43
 90
        3
102
RTVSPost2010PropOp43
 70
     0
102
RTVSPost2010Prop44ColorIndex
 90
        5
102
RTVSPost2010Prop44ColorRGB
 90
      255
102
RTVSPost2010PropOp44
 70
     0
102
RTVSPost2010Prop45
280
     0
102
RTVSPost2010PropOp45
 70
     0
102
RTVSPost2010Prop46
 90
       50
102
RTVSPost2010PropOp46
 70
     0
102
RTVSPost2010Prop47
 90
       50
102
RTVSPost2010PropOp47
 70
     0
102
RTVSPost2010Prop48
 90
       50
102
RTVSPost2010PropOp48
 70
     0
102
RTVSPost2010Prop49
280
     0
102
RTVSPost2010PropOp49
 70
     0
102
RTVSPost2010Prop50
 90
       50
102
RTVSPost2010PropOp50
 70
     0
102
RTVSPost2010Prop51ColorIndex
 90
      256
102
RTVSPost2010Prop51ColorRGB
 90
-16777216
102
RTVSPost2010PropOp51
 70
     0
102
RTVSPost2010Prop52
140
1.0
102
RTVSPost2010PropOp52
 70
     0
102
RTVSPost2010Prop53
 90
        2
102
RTVSPost2010PropOp53
 70
     0
102
RTVSPost2010Prop54
  1
strokes_ogs.tif
102
RTVSPost2010PropOp54
 70
     0
102
RTVSPost2010Prop55
280
     0
102
RTVSPost2010PropOp55
 70
     0
102
RTVSPost2010Prop56
140
1.0
102
RTVSPost2010PropOp56
 70
     0
102
RTVSPost2010Prop57
140
1.0
102
RTVSPost2010PropOp57
 70
     0
  0
XRECORD
  5
3D3
102
{ACAD_REACTORS
330
3D2
102
}
330
3D2
100
AcDbXrecord
280
     1
102
RTVSPost2010Prop28
280
     0
102
RTVSPost2010PropOp28
 70
     1
102
RTVSPost2010Prop29
280
     1
102
RTVSPost2010PropOp29
 70
     1
102
RTVSPost2010Prop30
280
     1
102
RTVSPost2010PropOp30
 70
     1
102
RTVSPost2010Prop31
280
     0
102
RTVSPost2010PropOp31
 70
     1
102
RTVSPost2010Prop32
280
     0
102
RTVSPost2010PropOp32
 70
     1
102
RTVSPost2010Prop33
280
     0
102
RTVSPost2010PropOp33
 70
     1
102
RTVSPost2010Prop34
280
     0
102
RTVSPost2010PropOp34
 70
     1
102
RTVSPost2010Prop35
280
     0
102
RTVSPost2010PropOp35
 70
     1
102
RTVSPost2010Prop36
280
     0
102
RTVSPost2010PropOp36
 70
     1
102
RTVSPost2010Prop37
 90
       50
102
RTVSPost2010PropOp37
 70
     1
102
RTVSPost2010Prop38
140
0.0
102
RTVSPost2010PropOp38
 70
     1
102
RTVSPost2010Prop39
140
1.0
102
RTVSPost2010PropOp39
 70
     1
102
RTVSPost2010Prop40
 90
        0
102
RTVSPost2010PropOp40
 70
     1
102
RTVSPost2010Prop41ColorIndex
 90
       18
102
RTVSPost2010Prop41ColorRGB
 90
        0
102
RTVSPost2010PropOp41
 70
     1
102
RTVSPost2010Prop42
 90
       50
102
RTVSPost2010PropOp42
 70
     1
102
RTVSPost2010Prop43
 90
        3
102
RTVSPost2010PropOp43
 70
     1
102
RTVSPost2010Prop44ColorIndex
 90
        5
102
RTVSPost2010Prop44ColorRGB
 90
      255
102
RTVSPost2010PropOp44
 70
     1
102
RTVSPost2010Prop45
280
     0
102
RTVSPost2010PropOp45
 70
     1
102
RTVSPost2010Prop46
 90
       50
102
RTVSPost2010PropOp46
 70
     1
102
RTVSPost2010Prop47
 90
       50
102
RTVSPost2010PropOp47
 70
     1
102
RTVSPost2010Prop48
 90
       50
102
RTVSPost2010PropOp48
 70
     1
102
RTVSPost2010Prop49
280
     0
102
RTVSPost2010PropOp49
 70
     1
102
RTVSPost2010Prop50
 90
       50
102
RTVSPost2010PropOp50
 70
     1
102
RTVSPost2010Prop51ColorIndex
 90
      256
102
RTVSPost2010Prop51ColorRGB
 90
-16777216
102
RTVSPost2010PropOp51
 70
     0
102
RTVSPost2010Prop52
140
1.0
102
RTVSPost2010PropOp52
 70
     0
102
RTVSPost2010Prop53
 90
        2
102
RTVSPost2010PropOp53
 70
     1
102
RTVSPost2010Prop54
  1
strokes_ogs.tif
102
RTVSPost2010PropOp54
 70
     1
102
RTVSPost2010Prop55
280
     0
102
RTVSPost2010PropOp55
 70
     1
102
RTVSPost2010Prop56
140
1.0
102
RTVSPost2010PropOp56
 70
     1
102
RTVSPost2010Prop57
140
1.0
102
RTVSPost2010PropOp57
 70
     1
  0
XRECORD
  5
3E9
102
{ACAD_REACTORS
330
3E8
102
}
330
3E8
100
AcDbXrecord
280
     1
102
RTVSPost2010Prop28
280
     0
102
RTVSPost2010PropOp28
 70
     0
102
RTVSPost2010Prop29
280
     1
102
RTVSPost2010PropOp29
 70
     0
102
RTVSPost2010Prop30
280
     1
102
RTVSPost2010PropOp30
 70
     0
102
RTVSPost2010Prop31
280
     0
102
RTVSPost2010PropOp31
 70
     0
102
RTVSPost2010Prop32
280
     0
102
RTVSPost2010PropOp32
 70
     0
102
RTVSPost2010Prop33
280
     0
102
RTVSPost2010PropOp33
 70
     0
102
RTVSPost2010Prop34
280
     0
102
RTVSPost2010PropOp34
 70
     0
102
RTVSPost2010Prop35
280
     0
102
RTVSPost2010PropOp35
 70
     0
102
RTVSPost2010Prop36
280
     0
102
RTVSPost2010PropOp36
 70
     0
102
RTVSPost2010Prop37
 90
       50
102
RTVSPost2010PropOp37
 70
     0
102
RTVSPost2010Prop38
140
0.0
102
RTVSPost2010PropOp38
 70
     0
102
RTVSPost2010Prop39
140
1.0
102
RTVSPost2010PropOp39
 70
     0
102
RTVSPost2010Prop40
 90
        0
102
RTVSPost2010PropOp40
 70
     0
102
RTVSPost2010Prop41ColorIndex
 90
       18
102
RTVSPost2010Prop41ColorRGB
 90
        0
102
RTVSPost2010PropOp41
 70
     0
102
RTVSPost2010Prop42
 90
       50
102
RTVSPost2010PropOp42
 70
     0
102
RTVSPost2010Prop43
 90
        3
102
RTVSPost2010PropOp43
 70
     0
102
RTVSPost2010Prop44ColorIndex
 90
        5
102
RTVSPost2010Prop44ColorRGB
 90
      255
102
RTVSPost2010PropOp44
 70
     0
102
RTVSPost2010Prop45
280
     0
102
RTVSPost2010PropOp45
 70
     0
102
RTVSPost2010Prop46
 90
       50
102
RTVSPost2010PropOp46
 70
     0
102
RTVSPost2010Prop47
 90
       50
102
RTVSPost2010PropOp47
 70
     0
102
RTVSPost2010Prop48
 90
       50
102
RTVSPost2010PropOp48
 70
     0
102
RTVSPost2010Prop49
280
     0
102
RTVSPost2010PropOp49
 70
     0
102
RTVSPost2010Prop50
 90
       50
102
RTVSPost2010PropOp50
 70
     0
102
RTVSPost2010Prop51ColorIndex
 90
      256
102
RTVSPost2010Prop51ColorRGB
 90
-16777216
102
RTVSPost2010PropOp51
 70
     0
102
RTVSPost2010Prop52
140
1.0
102
RTVSPost2010PropOp52
 70
     0
102
RTVSPost2010Prop53
 90
        2
102
RTVSPost2010PropOp53
 70
     0
102
RTVSPost2010Prop54
  1
strokes_ogs.tif
102
RTVSPost2010PropOp54
 70
     0
102
RTVSPost2010Prop55
280
     0
102
RTVSPost2010PropOp55
 70
     0
102
RTVSPost2010Prop56
140
1.0
102
RTVSPost2010PropOp56
 70
     0
102
RTVSPost2010Prop57
140
1.0
102
RTVSPost2010PropOp57
 70
     0
  0
XRECORD
  5
3C9
102
{ACAD_REACTORS
330
3C8
102
}
330
3C8
100
AcDbXrecord
280
     1
102
RTVSPost2010Prop28
280
     0
102
RTVSPost2010PropOp28
 70
     1
102
RTVSPost2010Prop29
280
     1
102
RTVSPost2010PropOp29
 70
     1
102
RTVSPost2010Prop30
280
     1
102
RTVSPost2010PropOp30
 70
     1
102
RTVSPost2010Prop31
280
     0
102
RTVSPost2010PropOp31
 70
     1
102
RTVSPost2010Prop32
280
     0
102
RTVSPost2010PropOp32
 70
     1
102
RTVSPost2010Prop33
280
     0
102
RTVSPost2010PropOp33
 70
     1
102
RTVSPost2010Prop34
280
     0
102
RTVSPost2010PropOp34
 70
     1
102
RTVSPost2010Prop35
280
     0
102
RTVSPost2010PropOp35
 70
     1
102
RTVSPost2010Prop36
280
     0
102
RTVSPost2010PropOp36
 70
     1
102
RTVSPost2010Prop37
 90
       50
102
RTVSPost2010PropOp37
 70
     1
102
RTVSPost2010Prop38
140
0.0
102
RTVSPost2010PropOp38
 70
     1
102
RTVSPost2010Prop39
140
1.0
102
RTVSPost2010PropOp39
 70
     1
102
RTVSPost2010Prop40
 90
        0
102
RTVSPost2010PropOp40
 70
     1
102
RTVSPost2010Prop41ColorIndex
 90
       18
102
RTVSPost2010Prop41ColorRGB
 90
        0
102
RTVSPost2010PropOp41
 70
     1
102
RTVSPost2010Prop42
 90
       50
102
RTVSPost2010PropOp42
 70
     1
102
RTVSPost2010Prop43
 90
        3
102
RTVSPost2010PropOp43
 70
     1
102
RTVSPost2010Prop44ColorIndex
 90
        5
102
RTVSPost2010Prop44ColorRGB
 90
      255
102
RTVSPost2010PropOp44
 70
     1
102
RTVSPost2010Prop45
280
     0
102
RTVSPost2010PropOp45
 70
     1
102
RTVSPost2010Prop46
 90
       50
102
RTVSPost2010PropOp46
 70
     1
102
RTVSPost2010Prop47
 90
       50
102
RTVSPost2010PropOp47
 70
     1
102
RTVSPost2010Prop48
 90
       50
102
RTVSPost2010PropOp48
 70
     1
102
RTVSPost2010Prop49
280
     0
102
RTVSPost2010PropOp49
 70
     1
102
RTVSPost2010Prop50
 90
       50
102
RTVSPost2010PropOp50
 70
     1
102
RTVSPost2010Prop51ColorIndex
 90
      256
102
RTVSPost2010Prop51ColorRGB
 90
-16777216
102
RTVSPost2010PropOp51
 70
     0
102
RTVSPost2010Prop52
140
1.0
102
RTVSPost2010PropOp52
 70
     0
102
RTVSPost2010Prop53
 90
        2
102
RTVSPost2010PropOp53
 70
     1
102
RTVSPost2010Prop54
  1
strokes_ogs.tif
102
RTVSPost2010PropOp54
 70
     1
102
RTVSPost2010Prop55
280
     0
102
RTVSPost2010PropOp55
 70
     1
102
RTVSPost2010Prop56
140
1.0
102
RTVSPost2010PropOp56
 70
     1
102
RTVSPost2010Prop57
140
1.0
102
RTVSPost2010PropOp57
 70
     1
  0
XRECORD
  5
3E5
102
{ACAD_REACTORS
330
3E4
102
}
330
3E4
100
AcDbXrecord
280
     1
102
RTVSPost2010Prop28
280
     0
102
RTVSPost2010PropOp28
 70
     1
102
RTVSPost2010Prop29
280
     1
102
RTVSPost2010PropOp29
 70
     1
102
RTVSPost2010Prop30
280
     1
102
RTVSPost2010PropOp30
 70
     1
102
RTVSPost2010Prop31
280
     0
102
RTVSPost2010PropOp31
 70
     1
102
RTVSPost2010Prop32
280
     0
102
RTVSPost2010PropOp32
 70
     1
102
RTVSPost2010Prop33
280
     0
102
RTVSPost2010PropOp33
 70
     1
102
RTVSPost2010Prop34
280
     0
102
RTVSPost2010PropOp34
 70
     1
102
RTVSPost2010Prop35
280
     0
102
RTVSPost2010PropOp35
 70
     1
102
RTVSPost2010Prop36
280
     0
102
RTVSPost2010PropOp36
 70
     1
102
RTVSPost2010Prop37
 90
       50
102
RTVSPost2010PropOp37
 70
     1
102
RTVSPost2010Prop38
140
0.0
102
RTVSPost2010PropOp38
 70
     1
102
RTVSPost2010Prop39
140
1.0
102
RTVSPost2010PropOp39
 70
     1
102
RTVSPost2010Prop40
 90
        0
102
RTVSPost2010PropOp40
 70
     1
102
RTVSPost2010Prop41ColorIndex
 90
       18
102
RTVSPost2010Prop41ColorRGB
 90
        0
102
RTVSPost2010PropOp41
 70
     1
102
RTVSPost2010Prop42
 90
       50
102
RTVSPost2010PropOp42
 70
     1
102
RTVSPost2010Prop43
 90
        3
102
RTVSPost2010PropOp43
 70
     1
102
RTVSPost2010Prop44ColorIndex
 90
        5
102
RTVSPost2010Prop44ColorRGB
 90
      255
102
RTVSPost2010PropOp44
 70
     1
102
RTVSPost2010Prop45
280
     0
102
RTVSPost2010PropOp45
 70
     1
102
RTVSPost2010Prop46
 90
       50
102
RTVSPost2010PropOp46
 70
     1
102
RTVSPost2010Prop47
 90
       50
102
RTVSPost2010PropOp47
 70
     1
102
RTVSPost2010Prop48
 90
       50
102
RTVSPost2010PropOp48
 70
     1
102
RTVSPost2010Prop49
280
     0
102
RTVSPost2010PropOp49
 70
     1
102
RTVSPost2010Prop50
 90
       50
102
RTVSPost2010PropOp50
 70
     1
102
RTVSPost2010Prop51ColorIndex
 90
      256
102
RTVSPost2010Prop51ColorRGB
 90
-16777216
102
RTVSPost2010PropOp51
 70
     0
102
RTVSPost2010Prop52
140
1.0
102
RTVSPost2010PropOp52
 70
     0
102
RTVSPost2010Prop53
 90
        2
102
RTVSPost2010PropOp53
 70
     1
102
RTVSPost2010Prop54
  1
strokes_ogs.tif
102
RTVSPost2010PropOp54
 70
     1
102
RTVSPost2010Prop55
280
     0
102
RTVSPost2010PropOp55
 70
     1
102
RTVSPost2010Prop56
140
1.0
102
RTVSPost2010PropOp56
 70
     1
102
RTVSPost2010Prop57
140
1.0
102
RTVSPost2010PropOp57
 70
     1
  0
XRECORD
  5
3E3
102
{ACAD_REACTORS
330
3E2
102
}
330
3E2
100
AcDbXrecord
280
     1
102
RTVSPost2010Prop28
280
     0
102
RTVSPost2010PropOp28
 70
     1
102
RTVSPost2010Prop29
280
     1
102
RTVSPost2010PropOp29
 70
     1
102
RTVSPost2010Prop30
280
     1
102
RTVSPost2010PropOp30
 70
     1
102
RTVSPost2010Prop31
280
     0
102
RTVSPost2010PropOp31
 70
     1
102
RTVSPost2010Prop32
280
     0
102
RTVSPost2010PropOp32
 70
     1
102
RTVSPost2010Prop33
280
     0
102
RTVSPost2010PropOp33
 70
     1
102
RTVSPost2010Prop34
280
     0
102
RTVSPost2010PropOp34
 70
     1
102
RTVSPost2010Prop35
280
     0
102
RTVSPost2010PropOp35
 70
     1
102
RTVSPost2010Prop36
280
     0
102
RTVSPost2010PropOp36
 70
     1
102
RTVSPost2010Prop37
 90
       50
102
RTVSPost2010PropOp37
 70
     1
102
RTVSPost2010Prop38
140
0.0
102
RTVSPost2010PropOp38
 70
     1
102
RTVSPost2010Prop39
140
1.0
102
RTVSPost2010PropOp39
 70
     1
102
RTVSPost2010Prop40
 90
        0
102
RTVSPost2010PropOp40
 70
     1
102
RTVSPost2010Prop41ColorIndex
 90
       18
102
RTVSPost2010Prop41ColorRGB
 90
        0
102
RTVSPost2010PropOp41
 70
     1
102
RTVSPost2010Prop42
 90
       50
102
RTVSPost2010PropOp42
 70
     1
102
RTVSPost2010Prop43
 90
        3
102
RTVSPost2010PropOp43
 70
     1
102
RTVSPost2010Prop44ColorIndex
 90
        5
102
RTVSPost2010Prop44ColorRGB
 90
      255
102
RTVSPost2010PropOp44
 70
     1
102
RTVSPost2010Prop45
280
     0
102
RTVSPost2010PropOp45
 70
     1
102
RTVSPost2010Prop46
 90
       50
102
RTVSPost2010PropOp46
 70
     1
102
RTVSPost2010Prop47
 90
       50
102
RTVSPost2010PropOp47
 70
     1
102
RTVSPost2010Prop48
 90
       50
102
RTVSPost2010PropOp48
 70
     1
102
RTVSPost2010Prop49
280
     0
102
RTVSPost2010PropOp49
 70
     1
102
RTVSPost2010Prop50
 90
       50
102
RTVSPost2010PropOp50
 70
     1
102
RTVSPost2010Prop51ColorIndex
 90
      256
102
RTVSPost2010Prop51ColorRGB
 90
-16777216
102
RTVSPost2010PropOp51
 70
     0
102
RTVSPost2010Prop52
140
1.0
102
RTVSPost2010PropOp52
 70
     0
102
RTVSPost2010Prop53
 90
        2
102
RTVSPost2010PropOp53
 70
     1
102
RTVSPost2010Prop54
  1
strokes_ogs.tif
102
RTVSPost2010PropOp54
 70
     1
102
RTVSPost2010Prop55
280
     0
102
RTVSPost2010PropOp55
 70
     1
102
RTVSPost2010Prop56
140
1.0
102
RTVSPost2010PropOp56
 70
     1
102
RTVSPost2010Prop57
140
1.0
102
RTVSPost2010PropOp57
 70
     1
  0
XRECORD
  5
3DD
102
{ACAD_REACTORS
330
3DC
102
}
330
3DC
100
AcDbXrecord
280
     1
102
RTVSPost2010Prop28
280
     0
102
RTVSPost2010PropOp28
 70
     1
102
RTVSPost2010Prop29
280
     1
102
RTVSPost2010PropOp29
 70
     1
102
RTVSPost2010Prop30
280
     1
102
RTVSPost2010PropOp30
 70
     1
102
RTVSPost2010Prop31
280
     0
102
RTVSPost2010PropOp31
 70
     1
102
RTVSPost2010Prop32
280
     0
102
RTVSPost2010PropOp32
 70
     1
102
RTVSPost2010Prop33
280
     0
102
RTVSPost2010PropOp33
 70
     1
102
RTVSPost2010Prop34
280
     0
102
RTVSPost2010PropOp34
 70
     1
102
RTVSPost2010Prop35
280
     0
102
RTVSPost2010PropOp35
 70
     1
102
RTVSPost2010Prop36
280
     0
102
RTVSPost2010PropOp36
 70
     1
102
RTVSPost2010Prop37
 90
       50
102
RTVSPost2010PropOp37
 70
     1
102
RTVSPost2010Prop38
140
0.0
102
RTVSPost2010PropOp38
 70
     1
102
RTVSPost2010Prop39
140
1.0
102
RTVSPost2010PropOp39
 70
     1
102
RTVSPost2010Prop40
 90
        0
102
RTVSPost2010PropOp40
 70
     1
102
RTVSPost2010Prop41ColorIndex
 90
       18
102
RTVSPost2010Prop41ColorRGB
 90
        0
102
RTVSPost2010PropOp41
 70
     1
102
RTVSPost2010Prop42
 90
       50
102
RTVSPost2010PropOp42
 70
     1
102
RTVSPost2010Prop43
 90
        3
102
RTVSPost2010PropOp43
 70
     1
102
RTVSPost2010Prop44ColorIndex
 90
        5
102
RTVSPost2010Prop44ColorRGB
 90
      255
102
RTVSPost2010PropOp44
 70
     1
102
RTVSPost2010Prop45
280
     0
102
RTVSPost2010PropOp45
 70
     1
102
RTVSPost2010Prop46
 90
       50
102
RTVSPost2010PropOp46
 70
     1
102
RTVSPost2010Prop47
 90
       50
102
RTVSPost2010PropOp47
 70
     1
102
RTVSPost2010Prop48
 90
       50
102
RTVSPost2010PropOp48
 70
     1
102
RTVSPost2010Prop49
280
     0
102
RTVSPost2010PropOp49
 70
     1
102
RTVSPost2010Prop50
 90
       50
102
RTVSPost2010PropOp50
 70
     1
102
RTVSPost2010Prop51ColorIndex
 90
      256
102
RTVSPost2010Prop51ColorRGB
 90
-16777216
102
RTVSPost2010PropOp51
 70
     0
102
RTVSPost2010Prop52
140
1.0
102
RTVSPost2010PropOp52
 70
     0
102
RTVSPost2010Prop53
 90
        2
102
RTVSPost2010PropOp53
 70
     1
102
RTVSPost2010Prop54
  1
strokes_ogs.tif
102
RTVSPost2010PropOp54
 70
     1
102
RTVSPost2010Prop55
280
     0
102
RTVSPost2010PropOp55
 70
     1
102
RTVSPost2010Prop56
140
1.0
102
RTVSPost2010PropOp56
 70
     1
102
RTVSPost2010Prop57
140
1.0
102
RTVSPost2010PropOp57
 70
     1
  0
XRECORD
  5
3DF
102
{ACAD_REACTORS
330
3DE
102
}
330
3DE
100
AcDbXrecord
280
     1
102
RTVSPost2010Prop28
280
     0
102
RTVSPost2010PropOp28
 70
     1
102
RTVSPost2010Prop29
280
     1
102
RTVSPost2010PropOp29
 70
     1
102
RTVSPost2010Prop30
280
     1
102
RTVSPost2010PropOp30
 70
     1
102
RTVSPost2010Prop31
280
     0
102
RTVSPost2010PropOp31
 70
     1
102
RTVSPost2010Prop32
280
     0
102
RTVSPost2010PropOp32
 70
     1
102
RTVSPost2010Prop33
280
     0
102
RTVSPost2010PropOp33
 70
     1
102
RTVSPost2010Prop34
280
     0
102
RTVSPost2010PropOp34
 70
     1
102
RTVSPost2010Prop35
280
     0
102
RTVSPost2010PropOp35
 70
     1
102
RTVSPost2010Prop36
280
     0
102
RTVSPost2010PropOp36
 70
     1
102
RTVSPost2010Prop37
 90
       50
102
RTVSPost2010PropOp37
 70
     1
102
RTVSPost2010Prop38
140
0.0
102
RTVSPost2010PropOp38
 70
     1
102
RTVSPost2010Prop39
140
1.0
102
RTVSPost2010PropOp39
 70
     1
102
RTVSPost2010Prop40
 90
        0
102
RTVSPost2010PropOp40
 70
     1
102
RTVSPost2010Prop41ColorIndex
 90
       18
102
RTVSPost2010Prop41ColorRGB
 90
        0
102
RTVSPost2010PropOp41
 70
     1
102
RTVSPost2010Prop42
 90
       50
102
RTVSPost2010PropOp42
 70
     1
102
RTVSPost2010Prop43
 90
        3
102
RTVSPost2010PropOp43
 70
     1
102
RTVSPost2010Prop44ColorIndex
 90
        5
102
RTVSPost2010Prop44ColorRGB
 90
      255
102
RTVSPost2010PropOp44
 70
     1
102
RTVSPost2010Prop45
280
     0
102
RTVSPost2010PropOp45
 70
     1
102
RTVSPost2010Prop46
 90
       50
102
RTVSPost2010PropOp46
 70
     1
102
RTVSPost2010Prop47
 90
       50
102
RTVSPost2010PropOp47
 70
     1
102
RTVSPost2010Prop48
 90
       50
102
RTVSPost2010PropOp48
 70
     1
102
RTVSPost2010Prop49
280
     0
102
RTVSPost2010PropOp49
 70
     1
102
RTVSPost2010Prop50
 90
       50
102
RTVSPost2010PropOp50
 70
     1
102
RTVSPost2010Prop51ColorIndex
 90
      256
102
RTVSPost2010Prop51ColorRGB
 90
-16777216
102
RTVSPost2010PropOp51
 70
     0
102
RTVSPost2010Prop52
140
1.0
102
RTVSPost2010PropOp52
 70
     0
102
RTVSPost2010Prop53
 90
        2
102
RTVSPost2010PropOp53
 70
     1
102
RTVSPost2010Prop54
  1
strokes_ogs.tif
102
RTVSPost2010PropOp54
 70
     1
102
RTVSPost2010Prop55
280
     0
102
RTVSPost2010PropOp55
 70
     1
102
RTVSPost2010Prop56
140
1.0
102
RTVSPost2010PropOp56
 70
     1
102
RTVSPost2010Prop57
140
1.0
102
RTVSPost2010PropOp57
 70
     1
  0
XRECORD
  5
3D1
102
{ACAD_REACTORS
330
3D0
102
}
330
3D0
100
AcDbXrecord
280
     1
102
RTVSPost2010Prop28
280
     0
102
RTVSPost2010PropOp28
 70
     1
102
RTVSPost2010Prop29
280
     1
102
RTVSPost2010PropOp29
 70
     1
102
RTVSPost2010Prop30
280
     1
102
RTVSPost2010PropOp30
 70
     1
102
RTVSPost2010Prop31
280
     0
102
RTVSPost2010PropOp31
 70
     1
102
RTVSPost2010Prop32
280
     0
102
RTVSPost2010PropOp32
 70
     1
102
RTVSPost2010Prop33
280
     0
102
RTVSPost2010PropOp33
 70
     1
102
RTVSPost2010Prop34
280
     0
102
RTVSPost2010PropOp34
 70
     1
102
RTVSPost2010Prop35
280
     0
102
RTVSPost2010PropOp35
 70
     1
102
RTVSPost2010Prop36
280
     0
102
RTVSPost2010PropOp36
 70
     1
102
RTVSPost2010Prop37
 90
       50
102
RTVSPost2010PropOp37
 70
     1
102
RTVSPost2010Prop38
140
0.0
102
RTVSPost2010PropOp38
 70
     1
102
RTVSPost2010Prop39
140
1.0
102
RTVSPost2010PropOp39
 70
     1
102
RTVSPost2010Prop40
 90
        0
102
RTVSPost2010PropOp40
 70
     1
102
RTVSPost2010Prop41ColorIndex
 90
       18
102
RTVSPost2010Prop41ColorRGB
 90
        0
102
RTVSPost2010PropOp41
 70
     1
102
RTVSPost2010Prop42
 90
       50
102
RTVSPost2010PropOp42
 70
     1
102
RTVSPost2010Prop43
 90
        3
102
RTVSPost2010PropOp43
 70
     1
102
RTVSPost2010Prop44ColorIndex
 90
        5
102
RTVSPost2010Prop44ColorRGB
 90
      255
102
RTVSPost2010PropOp44
 70
     1
102
RTVSPost2010Prop45
280
     0
102
RTVSPost2010PropOp45
 70
     1
102
RTVSPost2010Prop46
 90
       50
102
RTVSPost2010PropOp46
 70
     1
102
RTVSPost2010Prop47
 90
       50
102
RTVSPost2010PropOp47
 70
     1
102
RTVSPost2010Prop48
 90
       50
102
RTVSPost2010PropOp48
 70
     1
102
RTVSPost2010Prop49
280
     0
102
RTVSPost2010PropOp49
 70
     1
102
RTVSPost2010Prop50
 90
       50
102
RTVSPost2010PropOp50
 70
     1
102
RTVSPost2010Prop51ColorIndex
 90
      256
102
RTVSPost2010Prop51ColorRGB
 90
-16777216
102
RTVSPost2010PropOp51
 70
     0
102
RTVSPost2010Prop52
140
1.0
102
RTVSPost2010PropOp52
 70
     0
102
RTVSPost2010Prop53
 90
        2
102
RTVSPost2010PropOp53
 70
     1
102
RTVSPost2010Prop54
  1
strokes_ogs.tif
102
RTVSPost2010PropOp54
 70
     1
102
RTVSPost2010Prop55
280
     0
102
RTVSPost2010PropOp55
 70
     1
102
RTVSPost2010Prop56
140
1.0
102
RTVSPost2010PropOp56
 70
     1
102
RTVSPost2010Prop57
140
1.0
102
RTVSPost2010PropOp57
 70
     1
  0
XRECORD
  5
3D9
102
{ACAD_REACTORS
330
3D8
102
}
330
3D8
100
AcDbXrecord
280
     1
102
RTVSPost2010Prop28
280
     0
102
RTVSPost2010PropOp28
 70
     1
102
RTVSPost2010Prop29
280
     1
102
RTVSPost2010PropOp29
 70
     1
102
RTVSPost2010Prop30
280
     1
102
RTVSPost2010PropOp30
 70
     1
102
RTVSPost2010Prop31
280
     0
102
RTVSPost2010PropOp31
 70
     1
102
RTVSPost2010Prop32
280
     0
102
RTVSPost2010PropOp32
 70
     1
102
RTVSPost2010Prop33
280
     0
102
RTVSPost2010PropOp33
 70
     1
102
RTVSPost2010Prop34
280
     0
102
RTVSPost2010PropOp34
 70
     1
102
RTVSPost2010Prop35
280
     0
102
RTVSPost2010PropOp35
 70
     1
102
RTVSPost2010Prop36
280
     0
102
RTVSPost2010PropOp36
 70
     1
102
RTVSPost2010Prop37
 90
       50
102
RTVSPost2010PropOp37
 70
     1
102
RTVSPost2010Prop38
140
0.0
102
RTVSPost2010PropOp38
 70
     1
102
RTVSPost2010Prop39
140
1.0
102
RTVSPost2010PropOp39
 70
     1
102
RTVSPost2010Prop40
 90
        0
102
RTVSPost2010PropOp40
 70
     1
102
RTVSPost2010Prop41ColorIndex
 90
       18
102
RTVSPost2010Prop41ColorRGB
 90
        0
102
RTVSPost2010PropOp41
 70
     1
102
RTVSPost2010Prop42
 90
       50
102
RTVSPost2010PropOp42
 70
     1
102
RTVSPost2010Prop43
 90
        3
102
RTVSPost2010PropOp43
 70
     1
102
RTVSPost2010Prop44ColorIndex
 90
        5
102
RTVSPost2010Prop44ColorRGB
 90
      255
102
RTVSPost2010PropOp44
 70
     1
102
RTVSPost2010Prop45
280
     0
102
RTVSPost2010PropOp45
 70
     1
102
RTVSPost2010Prop46
 90
       50
102
RTVSPost2010PropOp46
 70
     1
102
RTVSPost2010Prop47
 90
       50
102
RTVSPost2010PropOp47
 70
     1
102
RTVSPost2010Prop48
 90
       50
102
RTVSPost2010PropOp48
 70
     1
102
RTVSPost2010Prop49
280
     0
102
RTVSPost2010PropOp49
 70
     1
102
RTVSPost2010Prop50
 90
       50
102
RTVSPost2010PropOp50
 70
     1
102
RTVSPost2010Prop51ColorIndex
 90
      256
102
RTVSPost2010Prop51ColorRGB
 90
-16777216
102
RTVSPost2010PropOp51
 70
     0
102
RTVSPost2010Prop52
140
1.0
102
RTVSPost2010PropOp52
 70
     0
102
RTVSPost2010Prop53
 90
        2
102
RTVSPost2010PropOp53
 70
     1
102
RTVSPost2010Prop54
  1
strokes_ogs.tif
102
RTVSPost2010PropOp54
 70
     1
102
RTVSPost2010Prop55
280
     0
102
RTVSPost2010PropOp55
 70
     1
102
RTVSPost2010Prop56
140
1.0
102
RTVSPost2010PropOp56
 70
     1
102
RTVSPost2010Prop57
140
1.0
102
RTVSPost2010PropOp57
 70
     1
  0
XRECORD
  5
3E1
102
{ACAD_REACTORS
330
3E0
102
}
330
3E0
100
AcDbXrecord
280
     1
102
RTVSPost2010Prop28
280
     0
102
RTVSPost2010PropOp28
 70
     1
102
RTVSPost2010Prop29
280
     1
102
RTVSPost2010PropOp29
 70
     1
102
RTVSPost2010Prop30
280
     1
102
RTVSPost2010PropOp30
 70
     1
102
RTVSPost2010Prop31
280
     0
102
RTVSPost2010PropOp31
 70
     1
102
RTVSPost2010Prop32
280
     0
102
RTVSPost2010PropOp32
 70
     1
102
RTVSPost2010Prop33
280
     0
102
RTVSPost2010PropOp33
 70
     1
102
RTVSPost2010Prop34
280
     0
102
RTVSPost2010PropOp34
 70
     1
102
RTVSPost2010Prop35
280
     0
102
RTVSPost2010PropOp35
 70
     1
102
RTVSPost2010Prop36
280
     0
102
RTVSPost2010PropOp36
 70
     1
102
RTVSPost2010Prop37
 90
       50
102
RTVSPost2010PropOp37
 70
     1
102
RTVSPost2010Prop38
140
0.0
102
RTVSPost2010PropOp38
 70
     1
102
RTVSPost2010Prop39
140
1.0
102
RTVSPost2010PropOp39
 70
     1
102
RTVSPost2010Prop40
 90
        0
102
RTVSPost2010PropOp40
 70
     1
102
RTVSPost2010Prop41ColorIndex
 90
       18
102
RTVSPost2010Prop41ColorRGB
 90
        0
102
RTVSPost2010PropOp41
 70
     1
102
RTVSPost2010Prop42
 90
       50
102
RTVSPost2010PropOp42
 70
     1
102
RTVSPost2010Prop43
 90
        3
102
RTVSPost2010PropOp43
 70
     1
102
RTVSPost2010Prop44ColorIndex
 90
        5
102
RTVSPost2010Prop44ColorRGB
 90
      255
102
RTVSPost2010PropOp44
 70
     1
102
RTVSPost2010Prop45
280
     0
102
RTVSPost2010PropOp45
 70
     1
102
RTVSPost2010Prop46
 90
       50
102
RTVSPost2010PropOp46
 70
     1
102
RTVSPost2010Prop47
 90
       50
102
RTVSPost2010PropOp47
 70
     1
102
RTVSPost2010Prop48
 90
       50
102
RTVSPost2010PropOp48
 70
     1
102
RTVSPost2010Prop49
280
     0
102
RTVSPost2010PropOp49
 70
     1
102
RTVSPost2010Prop50
 90
       50
102
RTVSPost2010PropOp50
 70
     1
102
RTVSPost2010Prop51ColorIndex
 90
      256
102
RTVSPost2010Prop51ColorRGB
 90
-16777216
102
RTVSPost2010PropOp51
 70
     0
102
RTVSPost2010Prop52
140
1.0
102
RTVSPost2010PropOp52
 70
     0
102
RTVSPost2010Prop53
 90
        2
102
RTVSPost2010PropOp53
 70
     1
102
RTVSPost2010Prop54
  1
strokes_ogs.tif
102
RTVSPost2010PropOp54
 70
     1
102
RTVSPost2010Prop55
280
     0
102
RTVSPost2010PropOp55
 70
     1
102
RTVSPost2010Prop56
140
1.0
102
RTVSPost2010PropOp56
 70
     1
102
RTVSPost2010Prop57
140
1.0
102
RTVSPost2010PropOp57
 70
     1
  0
ENDSEC
  0
EOF
