  0
SECTION
  2
HEADER
  9
$ACADVER
  1
AC1015
  9
$ACADMAINTVER
 70
     6
  9
$DWGCODEPAGE
  3
ANSI_1252
  9
$INSBASE
 10
0.0
 20
0.0
 30
0.0
  9
$EXTMIN
 10
0.6121109341552797
 20
0.333211868962743
 30
-0.0000000000000013
  9
$EXTMAX
 10
12.70359146546297
 20
5.739836323110119
 30
0.0
  9
$LIMMIN
 10
0.0
 20
0.0
  9
$LIMMAX
 10
22.0
 20
17.0
  9
$ORTHOMODE
 70
     0
  9
$REGENMODE
 70
     1
  9
$FILLMODE
 70
     1
  9
$QTEXTMODE
 70
     0
  9
$MIRRTEXT
 70
     1
  9
$LTSCALE
 40
1.0
  9
$ATTMODE
 70
     1
  9
$TEXTSIZE
 40
0.1944444444444444
  9
$TRACEWID
 40
0.05
  9
$TEXTSTYLE
  7
Standard
  9
$CLAYER
  8
0
  9
$CELTYPE
  6
ByLayer
  9
$CECOLOR
 62
   256
  9
$CELTSCALE
 40
1.0
  9
$DISPSILH
 70
     0
  9
$DIMSCALE
 40
1.0
  9
$DIMASZ
 40
0.15
  9
$DIMEXO
 40
0.0393700787401575
  9
$DIMDLI
 40
0.38
  9
$DIMRND
 40
0.0
  9
$DIMDLE
 40
0.0
  9
$DIMEXE
 40
0.0393700787401575
  9
$DIMTP
 40
0.0
  9
$DIMTM
 40
0.0
  9
$DIMTXT
 40
0.1944444444444444
  9
$DIMCEN
 40
0.09
  9
$DIMTSZ
 40
0.0
  9
$DIMTOL
 70
     0
  9
$DIMLIM
 70
     0
  9
$DIMTIH
 70
     1
  9
$DIMTOH
 70
     1
  9
$DIMSE1
 70
     0
  9
$DIMSE2
 70
     0
  9
$DIMTAD
 70
     1
  9
$DIMZIN
 70
     0
  9
$DIMBLK
  1

  9
$DIMASO
 70
     1
  9
$DIMSHO
 70
     1
  9
$DIMPOST
  1

  9
$DIMAPOST
  1

  9
$DIMALT
 70
     0
  9
$DIMALTD
 70
     2
  9
$DIMALTF
 40
25.4
  9
$DIMLFAC
 40
1.0
  9
$DIMTOFL
 70
     0
  9
$DIMTVP
 40
0.0
  9
$DIMTIX
 70
     0
  9
$DIMSOXD
 70
     0
  9
$DIMSAH
 70
     0
  9
$DIMBLK1
  1

  9
$DIMBLK2
  1

  9
$DIMSTYLE
  2
Standard
  9
$DIMCLRD
 70
     0
  9
$DIMCLRE
 70
     0
  9
$DIMCLRT
 70
     0
  9
$DIMTFAC
 40
1.0
  9
$DIMGAP
 40
0.06
  9
$DIMJUST
 70
     0
  9
$DIMSD1
 70
     0
  9
$DIMSD2
 70
     0
  9
$DIMTOLJ
 70
     1
  9
$DIMTZIN
 70
     0
  9
$DIMALTZ
 70
     0
  9
$DIMALTTZ
 70
     0
  9
$DIMUPT
 70
     0
  9
$DIMDEC
 70
     2
  9
$DIMTDEC
 70
     2
  9
$DIMALTU
 70
     2
  9
$DIMALTTD
 70
     2
  9
$DIMTXSTY
  7
Standard
  9
$DIMAUNIT
 70
     0
  9
$DIMADEC
 70
     1
  9
$DIMALTRND
 40
0.0
  9
$DIMAZIN
 70
     0
  9
$DIMDSEP
 70
    46
  9
$DIMATFIT
 70
     3
  9
$DIMFRAC
 70
     0
  9
$DIMLDRBLK
  1

  9
$DIMLUNIT
 70
     2
  9
$DIMLWD
 70
    -2
  9
$DIMLWE
 70
    -2
  9
$DIMTMOVE
 70
     0
  9
$LUNITS
 70
     2
  9
$LUPREC
 70
     3
  9
$SKETCHINC
 40
0.1
  9
$FILLETRAD
 40
0.5
  9
$AUNITS
 70
     0
  9
$AUPREC
 70
     1
  9
$MENU
  1
.
  9
$ELEVATION
 40
0.0
  9
$PELEVATION
 40
0.0
  9
$THICKNESS
 40
0.0
  9
$LIMCHECK
 70
     0
  9
$CHAMFERA
 40
0.5
  9
$CHAMFERB
 40
0.5
  9
$CHAMFERC
 40
1.0
  9
$CHAMFERD
 40
0.0
  9
$SKPOLY
 70
     0
  9
$TDCREATE
 40
2457722.534998831
  9
$TDUCREATE
 40
2457722.743332164
  9
$TDUPDATE
 40
2457722.536435868
  9
$TDUUPDATE
 40
2457722.744769202
  9
$TDINDWG
 40
0.0010723843
  9
$TDUSRTIMER
 40
2457722.743696076
  9
$USRTIMER
 70
     1
  9
$ANGBASE
 50
0.0
  9
$ANGDIR
 70
     0
  9
$PDMODE
 70
     0
  9
$PDSIZE
 40
-1.0
  9
$PLINEWID
 40
0.0
  9
$SPLFRAME
 70
     0
  9
$SPLINETYPE
 70
     6
  9
$SPLINESEGS
 70
     8
  9
$HANDSEED
  5
28A
  9
$SURFTAB1
 70
     6
  9
$SURFTAB2
 70
     6
  9
$SURFTYPE
 70
     6
  9
$SURFU
 70
     6
  9
$SURFV
 70
     6
  9
$UCSBASE
  2

  9
$UCSNAME
  2

  9
$UCSORG
 10
0.0
 20
0.0
 30
0.0
  9
$UCSXDIR
 10
1.0
 20
0.0
 30
0.0
  9
$UCSYDIR
 10
0.0
 20
1.0
 30
0.0
  9
$UCSORTHOREF
  2

  9
$UCSORTHOVIEW
 70
     0
  9
$UCSORGTOP
 10
0.0
 20
0.0
 30
0.0
  9
$UCSORGBOTTOM
 10
0.0
 20
0.0
 30
0.0
  9
$UCSORGLEFT
 10
0.0
 20
0.0
 30
0.0
  9
$UCSORGRIGHT
 10
0.0
 20
0.0
 30
0.0
  9
$UCSORGFRONT
 10
0.0
 20
0.0
 30
0.0
  9
$UCSORGBACK
 10
0.0
 20
0.0
 30
0.0
  9
$PUCSBASE
  2

  9
$PUCSNAME
  2

  9
$PUCSORG
 10
0.0
 20
0.0
 30
0.0
  9
$PUCSXDIR
 10
1.0
 20
0.0
 30
0.0
  9
$PUCSYDIR
 10
0.0
 20
1.0
 30
0.0
  9
$PUCSORTHOREF
  2

  9
$PUCSORTHOVIEW
 70
     0
  9
$PUCSORGTOP
 10
0.0
 20
0.0
 30
0.0
  9
$PUCSORGBOTTOM
 10
0.0
 20
0.0
 30
0.0
  9
$PUCSORGLEFT
 10
0.0
 20
0.0
 30
0.0
  9
$PUCSORGRIGHT
 10
0.0
 20
0.0
 30
0.0
  9
$PUCSORGFRONT
 10
0.0
 20
0.0
 30
0.0
  9
$PUCSORGBACK
 10
0.0
 20
0.0
 30
0.0
  9
$USERI1
 70
     0
  9
$USERI2
 70
     0
  9
$USERI3
 70
     0
  9
$USERI4
 70
     0
  9
$USERI5
 70
     0
  9
$USERR1
 40
0.0
  9
$USERR2
 40
0.0
  9
$USERR3
 40
0.0
  9
$USERR4
 40
0.0
  9
$USERR5
 40
0.0
  9
$WORLDVIEW
 70
     1
  9
$SHADEDGE
 70
     3
  9
$SHADEDIF
 70
    70
  9
$TILEMODE
 70
     1
  9
$MAXACTVP
 70
    64
  9
$PINSBASE
 10
0.0
 20
0.0
 30
0.0
  9
$PLIMCHECK
 70
     0
  9
$PEXTMIN
 10
1.000000000000000E+20
 20
1.000000000000000E+20
 30
1.000000000000000E+20
  9
$PEXTMAX
 10
-1.000000000000000E+20
 20
-1.000000000000000E+20
 30
-1.000000000000000E+20
  9
$PLIMMIN
 10
0.0
 20
0.0
  9
$PLIMMAX
 10
0.0
 20
0.0
  9
$UNITMODE
 70
     0
  9
$VISRETAIN
 70
     1
  9
$PLINEGEN
 70
     0
  9
$PSLTSCALE
 70
     1
  9
$TREEDEPTH
 70
  3020
  9
$CMLSTYLE
  2
Standard
  9
$CMLJUST
 70
     0
  9
$CMLSCALE
 40
1.0
  9
$PROXYGRAPHICS
 70
     1
  9
$MEASUREMENT
 70
     0
  9
$CELWEIGHT
370
    -1
  9
$ENDCAPS
280
     0
  9
$JOINSTYLE
280
     0
  9
$LWDISPLAY
290
     1
  9
$INSUNITS
 70
     1
  9
$HYPERLINKBASE
  1

  9
$STYLESHEET
  1

  9
$XEDIT
290
     1
  9
$CEPSNTYPE
380
     0
  9
$PSTYLEMODE
290
     1
  9
$FINGERPRINTGUID
  2
{57411920-566B-4237-890B-8B2B60E48607}
  9
$VERSIONGUID
  2
{FAEB1C32-E019-11D5-929B-00C0DF256EC4}
  9
$EXTNAMES
290
     1
  9
$PSVPSCALE
 40
0.0
  9
$OLESTARTUP
290
     0
  0
ENDSEC
  0
SECTION
  2
CLASSES
  0
CLASS
  1
ACDBDICTIONARYWDFLT
  2
AcDbDictionaryWithDefault
  3
ObjectDBX Classes
 90
        0
280
     0
281
     0
  0
CLASS
  1
VISUALSTYLE
  2
AcDbVisualStyle
  3
ObjectDBX Classes
 90
     4095
280
     0
281
     0
  0
CLASS
  1
MATERIAL
  2
AcDbMaterial
  3
ObjectDBX Classes
 90
     1153
280
     0
281
     0
  0
CLASS
  1
ACDBPLACEHOLDER
  2
AcDbPlaceHolder
  3
ObjectDBX Classes
 90
        0
280
     0
281
     0
  0
CLASS
  1
LAYOUT
  2
AcDbLayout
  3
ObjectDBX Classes
 90
        0
280
     0
281
     0
  0
CLASS
  1
SCALE
  2
AcDbScale
  3
ObjectDBX Classes
 90
     1153
280
     0
281
     0
  0
CLASS
  1
TABLESTYLE
  2
AcDbTableStyle
  3
ObjectDBX Classes
 90
     4095
280
     0
281
     0
  0
CLASS
  1
SUN
  2
AcDbSun
  3
SCENEOE
 90
     1153
280
     0
281
     0
  0
CLASS
  1
RASTERVARIABLES
  2
AcDbRasterVariables
  3
ISM
 90
        0
280
     0
281
     0
  0
CLASS
  1
DICTIONARYVAR
  2
AcDbDictionaryVar
  3
ObjectDBX Classes
 90
        0
280
     0
281
     0
  0
ENDSEC
  0
SECTION
  2
TABLES
  0
TABLE
  2
VPORT
  5
8
330
0
100
AcDbSymbolTable
 70
     1
  0
VPORT
  5
29
330
8
100
AcDbSymbolTableRecord
100
AcDbViewportTableRecord
  2
*Active
 70
     0
 10
0.0
 20
0.0
 11
1.0
 21
1.0
 12
6.657851199809124
 22
3.036524096036431
 13
0.0
 23
0.0
 14
0.5
 24
0.5
 15
0.5
 25
0.5
 16
0.0
 26
0.0
 36
1.0
 17
0.0
 27
0.0
 37
0.0
 40
5.514756943230323
 41
2.363867684478372
 42
50.0
 43
0.0
 44
0.0
 50
0.0
 51
0.0
 71
    16
 72
  2000
 73
     1
 74
     3
 75
     0
 76
     0
 77
     0
 78
     0
281
     0
 65
     1
110
0.0
120
0.0
130
0.0
111
1.0
121
0.0
131
0.0
112
0.0
122
1.0
132
0.0
 79
     0
146
0.0
  0
ENDTAB
  0
TABLE
  2
LTYPE
  5
5
330
0
100
AcDbSymbolTable
 70
     6
  0
LTYPE
  5
14
330
5
100
AcDbSymbolTableRecord
100
AcDbLinetypeTableRecord
  2
ByBlock
 70
     0
  3

 72
    65
 73
     0
 40
0.0
  0
LTYPE
  5
15
330
5
100
AcDbSymbolTableRecord
100
AcDbLinetypeTableRecord
  2
ByLayer
 70
     0
  3

 72
    65
 73
     0
 40
0.0
  0
LTYPE
  5
16
330
5
100
AcDbSymbolTableRecord
100
AcDbLinetypeTableRecord
  2
Continuous
 70
     0
  3
Solid line
 72
    65
 73
     0
 40
0.0
  0
ENDTAB
  0
TABLE
  2
LAYER
  5
2
330
0
100
AcDbSymbolTable
 70
    12
  0
LAYER
  5
10
330
2
100
AcDbSymbolTableRecord
100
AcDbLayerTableRecord
  2
0
 70
     0
 62
     7
  6
Continuous
370
    -3
390
F
  0
ENDTAB
  0
TABLE
  2
STYLE
  5
3
330
0
100
AcDbSymbolTable
 70
     5
  0
STYLE
  5
11
330
3
100
AcDbSymbolTableRecord
100
AcDbTextStyleTableRecord
  2
Standard
 70
     0
 40
0.0
 41
1.0
 50
0.0
 71
     0
 42
0.1944444444444444
  3
txt
  4

  0
ENDTAB
  0
TABLE
  2
VIEW
  5
6
330
0
100
AcDbSymbolTable
 70
     0
  0
ENDTAB
  0
TABLE
  2
UCS
  5
7
330
0
100
AcDbSymbolTable
 70
     0
  0
ENDTAB
  0
TABLE
  2
APPID
  5
9
330
0
100
AcDbSymbolTable
 70
     1
  0
APPID
  5
12
330
9
100
AcDbSymbolTableRecord
100
AcDbRegAppTableRecord
  2
ACAD
 70
     0
  0
ENDTAB
  0
TABLE
  2
DIMSTYLE
  5
A
330
0
100
AcDbSymbolTable
 70
     1
100
AcDbDimStyleTable
  0
DIMSTYLE
105
27
330
A
100
AcDbSymbolTableRecord
100
AcDbDimStyleTableRecord
  2
Standard
 70
     0
178
     0
340
11
  0
ENDTAB
  0
TABLE
  2
BLOCK_RECORD
  5
1
330
0
100
AcDbSymbolTable
 70
    14
  0
BLOCK_RECORD
  5
1F
330
1
100
AcDbSymbolTableRecord
100
AcDbBlockTableRecord
  2
*Model_Space
340
22
  0
BLOCK_RECORD
  5
1B
330
1
100
AcDbSymbolTableRecord
100
AcDbBlockTableRecord
  2
*Paper_Space
340
1E
  0
BLOCK_RECORD
  5
23
330
1
100
AcDbSymbolTableRecord
100
AcDbBlockTableRecord
  2
*Paper_Space0
340
26
  0
BLOCK_RECORD
  5
1CC
330
1
100
AcDbSymbolTableRecord
100
AcDbBlockTableRecord
  2
CUMA MINI
340
0
102
{BLKREFS
331
233
102
}
  0
BLOCK_RECORD
  5
234
330
1
100
AcDbSymbolTableRecord
100
AcDbBlockTableRecord
  2
CUMA MINI-1
340
0
102
{BLKREFS
331
281
102
}
  0
ENDTAB
  0
ENDSEC
  0
SECTION
  2
BLOCKS
  0
BLOCK
  5
20
330
1F
100
AcDbEntity
  8
0
100
AcDbBlockBegin
  2
*Model_Space
 70
     0
 10
0.0
 20
0.0
 30
0.0
  3
*Model_Space
  1
*Model_Space
  0
ENDBLK
  5
21
330
1F
100
AcDbEntity
  8
0
100
AcDbBlockEnd
  0
BLOCK
  5
1C
330
1B
100
AcDbEntity
 67
     1
  8
0
100
AcDbBlockBegin
  2
*Paper_Space
 70
     0
 10
0.0
 20
0.0
 30
0.0
  3
*Paper_Space
  1
*Paper_Space
  0
ENDBLK
  5
1D
330
1B
100
AcDbEntity
 67
     1
  8
0
100
AcDbBlockEnd
  0
BLOCK
  5
24
330
23
100
AcDbEntity
  8
0
100
AcDbBlockBegin
  2
*Paper_Space0
 70
     0
 10
0.0
 20
0.0
 30
0.0
  3
*Paper_Space0
  1
*Paper_Space0
  0
ENDBLK
  5
25
330
23
100
AcDbEntity
  8
0
100
AcDbBlockEnd
  0
BLOCK
  5
1CD
330
1CC
100
AcDbEntity
  8
0
100
AcDbBlockBegin
  2
CUMA MINI
 70
     0
 10
0.0
 20
0.0
 30
0.0
  3
CUMA MINI
  1
CUMA MINI
  0
SPLINE
  5
1CF
330
1CC
100
AcDbEntity
  8
0
  6
Continuous
370
    15
100
AcDbSpline
210
0.0
220
0.0
230
1.0
 70
     8
 71
     3
 72
    12
 73
     8
 74
     0
 42
0.000000001
 43
0.00000001
 40
0.0
 40
0.0
 40
0.0
 40
0.0
 40
0.1324290563581314
 40
0.3455879196953096
 40
0.5689408844199336
 40
0.8134495296504448
 40
1.0
 40
1.0
 40
1.0
 40
1.0
 10
12.70357210568661
 20
5.635738805653524
 30
0.0
 10
12.70335614695099
 20
5.638586282717664
 30
0.0
 10
12.70279257931534
 20
5.646017081532049
 30
0.0
 10
12.69730572717135
 20
5.657456975802933
 30
0.0
 10
12.68649811815124
 20
5.66952060872616
 30
0.0
 10
12.67250119338621
 20
5.680108362846427
 30
0.0
 10
12.65976045958775
 20
5.68634551114291
 30
0.0
 10
12.65424662216548
 20
5.689044776525066
 30
0.0
  0
SPLINE
  5
1D0
330
1CC
100
AcDbEntity
  8
0
  6
Continuous
370
    15
100
AcDbSpline
210
0.0
220
0.0
230
1.0
 70
     8
 71
     3
 72
    12
 73
     8
 74
     0
 42
0.000000001
 43
0.00000001
 40
0.0
 40
0.0
 40
0.0
 40
0.0
 40
0.1717158891123415
 40
0.4337271995380789
 40
0.6699808866278439
 40
0.8853981129459189
 40
1.0
 40
1.0
 40
1.0
 40
1.0
 10
6.881165419958826
 20
5.687732711682152
 30
0.0
 10
6.876303860473326
 20
5.685309836513957
 30
0.0
 10
6.86402432948797
 20
5.679190036727437
 30
0.0
 10
6.850441784012061
 20
5.668605561254548
 30
0.0
 10
6.839850987465711
 20
5.656205092858198
 30
0.0
 10
6.835023674966786
 20
5.645013704829688
 30
0.0
 10
6.834582832678112
 20
5.638129428109066
 30
0.0
 10
6.83442974651998
 20
5.635738805653524
 30
0.0
  0
LINE
  5
1D1
330
1CC
100
AcDbEntity
  8
0
  6
Continuous
370
    15
100
AcDbLine
 10
12.3290566454545
 20
5.739836323110119
 30
0.0
 11
7.208945206752093
 21
5.739836323110119
 31
0.0
  0
LINE
  5
1D2
330
1CC
100
AcDbEntity
  8
0
  6
Continuous
370
    15
100
AcDbLine
 10
12.70357210568661
 20
5.128308507531628
 30
0.0
 11
12.70357210568661
 21
5.635738805653524
 31
0.0
  0
LINE
  5
1D3
330
1CC
100
AcDbEntity
  8
0
  6
Continuous
370
    15
100
AcDbLine
 10
6.83442974651998
 20
5.635738805653524
 30
0.0
 11
6.83442974651998
 21
5.128308507531628
 31
0.0
  0
LINE
  5
1D4
330
1CC
100
AcDbEntity
  8
0
  6
Continuous
370
    15
100
AcDbLine
 10
12.70359146546297
 20
0.7067423858407729
 30
0.0
 11
12.70359146546297
 21
4.331609857729083
 31
0.0
  0
LINE
  5
1D5
330
1CC
100
AcDbEntity
  8
0
  6
Continuous
370
    15
100
AcDbLine
 10
6.834489292498766
 20
4.331609857729083
 30
0.0
 11
6.834489292498766
 21
0.7067423858407729
 31
0.0
  0
LINE
  5
1D6
330
1CC
100
AcDbEntity
  8
0
  6
Continuous
370
    15
100
AcDbLine
 10
7.208172282347647
 20
0.3332119275631689
 30
0.0
 11
12.32990847561409
 21
0.3332119275631689
 31
0.0
  0
ELLIPSE
  5
1D7
330
1CC
100
AcDbEntity
  8
0
  6
Continuous
370
    15
100
AcDbEllipse
 10
12.32905663065461
 20
5.645245922111089
 30
0.0
 11
0.3646730000189269
 21
0.0
 31
0.0
210
0.0
220
0.0
230
1.0
 40
0.2584643425963479
 41
0.4933144357620288
 42
1.570796326794897
  0
LINE
  5
1D8
330
1CC
100
AcDbEntity
  8
0
  6
Continuous
370
    15
100
AcDbLine
 10
12.70355861250916
 20
5.635241318067211
 30
0.0
 11
12.70357210568661
 21
5.635738805653524
 31
0.0
  0
LINE
  5
1D9
330
1CC
100
AcDbEntity
  8
0
  6
Continuous
370
    15
100
AcDbLine
 10
6.834443239697439
 20
5.635241318067211
 30
0.0
 11
6.83442974651998
 21
5.635738805653524
 31
0.0
  0
ELLIPSE
  5
1DA
330
1CC
100
AcDbEntity
  8
0
  6
Continuous
370
    15
100
AcDbEllipse
 10
7.208945279053685
 20
5.645245922111089
 30
0.0
 11
0.3646730000189287
 21
0.0
 31
0.0
210
0.0
220
0.0
230
1.0
 40
0.2584643425963467
 41
1.570796326794897
 42
2.663106330355145
  0
ELLIPSE
  5
1DB
330
1CC
100
AcDbEntity
  8
0
  6
Continuous
370
    15
100
AcDbEllipse
 10
12.66033256012179
 20
4.331112268187814
 30
0.0
 11
0.04176086168882875
 21
0.8248029560892521
 31
0.0
210
0.0
220
0.0
230
1.0
 40
0.0135294545857108
 41
5.811624345685856
 42
6.02207093340748
  0
ELLIPSE
  5
1DC
330
1CC
100
AcDbEntity
  8
0
  6
Continuous
370
    15
100
AcDbEllipse
 10
6.877669349597401
 20
4.331112267972602
 30
0.0
 11
-0.04176086168883408
 21
0.8248029560892522
 31
0.0
210
0.0
220
0.0
230
1.0
 40
0.0135294545857087
 41
0.2611143737329727
 42
0.4732194059671364
  0
LINE
  5
1DD
330
1CC
100
AcDbEntity
  8
0
  6
Continuous
370
    15
100
AcDbLine
 10
12.70357210568661
 20
5.128308507531628
 30
0.0
 11
12.70355861250916
 21
5.127810873280342
 31
0.0
  0
LINE
  5
1DE
330
1CC
100
AcDbEntity
  8
0
  6
Continuous
370
    15
100
AcDbLine
 10
6.834443239697439
 20
5.127810873280342
 30
0.0
 11
6.83442974651998
 21
5.128308507531628
 31
0.0
  0
SPLINE
  5
1DF
330
1CC
100
AcDbEntity
  8
0
  6
Continuous
370
    15
100
AcDbSpline
210
0.0
220
0.0
230
1.0
 70
     8
 71
     3
 72
    18
 73
    14
 74
     0
 42
0.000000001
 43
0.00000001
 40
0.0
 40
0.0
 40
0.0
 40
0.0
 40
0.25
 40
0.25
 40
0.3749999999999999
 40
0.3749999999999999
 40
0.4999999999999993
 40
0.4999999999999993
 40
0.7499999999999997
 40
0.7499999999999997
 40
0.8749999999999998
 40
0.8749999999999998
 40
1.0
 40
1.0
 40
1.0
 40
1.0
 10
12.70261688752842
 20
4.504560050021258
 30
0.0
 10
12.70194284868955
 20
4.564633201780548
 30
0.0
 10
12.70135053462289
 20
4.622155355048978
 30
0.0
 10
12.70073008080539
 20
4.704756959684934
 30
0.0
 10
12.70056720051339
 20
4.731671535000348
 30
0.0
 10
12.70034641729769
 20
4.784216282140108
 30
0.0
 10
12.70029048984733
 20
4.809430580155867
 30
0.0
 10
12.70028816896743
 20
4.881643740061316
 30
0.0
 10
12.70050910712957
 20
4.925421590368588
 30
0.0
 10
12.70112993837826
 20
4.984329919410198
 30
0.0
 10
12.70138247294512
 20
5.00262089559099
 30
0.0
 10
12.7019518557678
 20
5.036270148032552
 30
0.0
 10
12.70226924675826
 20
5.051676193191492
 30
0.0
 10
12.70260499525325
 20
5.06563978007277
 30
0.0
  0
SPLINE
  5
1E0
330
1CC
100
AcDbEntity
  8
0
  6
Continuous
370
    15
100
AcDbSpline
210
0.0
220
0.0
230
1.0
 70
     8
 71
     3
 72
    18
 73
    14
 74
     0
 42
0.000000001
 43
0.00000001
 40
0.0
 40
0.0
 40
0.0
 40
0.0
 40
0.2500000000000006
 40
0.2500000000000006
 40
0.3750000000000008
 40
0.3750000000000008
 40
0.500000000000001
 40
0.500000000000001
 40
0.7500000000000006
 40
0.7500000000000006
 40
0.8750000000000002
 40
0.8750000000000002
 40
1.0
 40
1.0
 40
1.0
 40
1.0
 10
6.835411947994949
 20
5.065016533730283
 30
0.0
 10
6.836088666077401
 20
5.036998726139974
 30
0.0
 10
6.836683207369278
 20
5.003467494811412
 30
0.0
 10
6.837306676971266
 20
4.945210546794012
 30
0.0
 10
6.837470508384872
 20
4.924452604476246
 30
0.0
 10
6.837693150010525
 20
4.880159455068377
 30
0.0
 10
6.837749970526804
 20
4.856968550442602
 30
0.0
 10
6.837754957455353
 20
4.784702717224649
 30
0.0
 10
6.837535783975488
 20
4.732826725871533
 30
0.0
 10
6.836917999265633
 20
4.649284702065554
 30
0.0
 10
6.836666537314461
 20
4.620756109172422
 30
0.0
 10
6.836099457024066
 20
4.562781924719209
 30
0.0
 10
6.835783298304081
 20
4.533269185087249
 30
0.0
 10
6.835448890458119
 20
4.50322179126656
 30
0.0
  0
ELLIPSE
  5
1E1
330
1CC
100
AcDbEntity
  8
0
  6
Continuous
370
    15
100
AcDbEllipse
 10
12.32907583185712
 20
0.7075745594257663
 30
0.0
 11
0.2879924120725458
 21
-0.2399265993255613
 31
0.0
210
0.0
220
0.0
230
1.0
 40
0.9978032691124321
 41
5.408131454916588
 42
6.976644917380127
  0
ELLIPSE
  5
1E2
330
1CC
100
AcDbEntity
  8
0
  6
Continuous
370
    15
100
AcDbEllipse
 10
7.209004926067399
 20
0.7075745594257619
 30
0.0
 11
0.2879924120725549
 21
0.2399265993255525
 31
0.0
210
0.0
220
0.0
230
1.0
 40
0.9978032691124307
 41
2.448133043389273
 42
4.016646505852853
  0
ELLIPSE
  5
1E3
330
1CC
100
AcDbEntity
  8
0
  6
Continuous
370
    15
100
AcDbEllipse
 10
12.6603517613134
 20
4.331609833658074
 30
0.0
 11
0.0
 21
0.8248031496063
 31
0.0
210
0.0
220
0.0
230
1.0
 40
0.0524077792830429
 41
4.712388980384691
 42
4.923643463232961
  0
ELLIPSE
  5
1E4
330
1CC
100
AcDbEntity
  8
0
  6
Continuous
370
    15
100
AcDbEllipse
 10
6.877728996611111
 20
4.331609833442862
 30
0.0
 11
0.0
 21
0.8248031496062981
 31
0.0
210
0.0
220
0.0
230
1.0
 40
0.0524077792830409
 41
1.361200959194386
 42
1.57079632679489
  0
LINE
  5
1E5
330
1CC
100
AcDbEntity
  8
0
  6
Continuous
370
    15
100
AcDbLine
 10
12.70359146546297
 20
4.331609857729083
 30
0.0
 11
12.70357797228551
 21
4.331609857729083
 31
0.0
  0
LINE
  5
1E6
330
1CC
100
AcDbEntity
  8
0
  6
Continuous
370
    15
100
AcDbLine
 10
6.834489292498766
 20
4.331609857729083
 30
0.0
 11
6.834502785676225
 21
4.331609857729083
 31
0.0
  0
LINE
  5
1E7
330
1CC
100
AcDbEntity
  8
0
  6
Continuous
370
    15
100
AcDbLine
 10
12.32990847561409
 20
0.3332119275631689
 30
0.0
 11
12.32990847561409
 21
0.3332213141214009
 31
0.0
  0
LINE
  5
1E8
330
1CC
100
AcDbEntity
  8
0
  6
Continuous
370
    15
100
AcDbLine
 10
12.70359146546297
 20
0.7067423858407729
 30
0.0
 11
12.70357797228551
 21
0.7067423858407729
 31
0.0
  0
LINE
  5
1E9
330
1CC
100
AcDbEntity
  8
0
  6
Continuous
370
    15
100
AcDbLine
 10
6.834489292498766
 20
0.7067423858407729
 30
0.0
 11
6.834502785676225
 21
0.7067423858407729
 31
0.0
  0
LINE
  5
1EA
330
1CC
100
AcDbEntity
  8
0
  6
Continuous
370
    15
100
AcDbLine
 10
7.208172282347647
 20
0.3332119275631689
 30
0.0
 11
7.208172282347647
 21
0.3332213141214009
 31
0.0
  0
ELLIPSE
  5
1EB
330
1CC
100
AcDbEntity
  8
0
  6
Continuous
370
     0
100
AcDbEllipse
 10
12.31306606807762
 20
5.150874436206447
 30
0.0
 11
0.177408486495695
 21
0.0
 31
0.0
210
0.0
220
0.0
230
1.0
 40
0.258464342596356
 41
0.0
 42
1.570796326794897
  0
LINE
  5
1EC
330
1CC
100
AcDbEntity
  8
0
  6
Continuous
370
     0
100
AcDbLine
 10
12.31306605684581
 20
5.196728157141997
 30
0.0
 11
12.31306605684581
 21
5.437819705365193
 31
0.0
  0
ELLIPSE
  5
1ED
330
1CC
100
AcDbEntity
  8
0
  6
Continuous
370
     0
100
AcDbEllipse
 10
12.31306606807762
 20
5.341017315397206
 30
0.0
 11
0.3739789308843182
 21
-0.0106650195921052
 31
0.0
210
0.0
220
0.0
230
1.0
 40
0.2586412235989389
 41
0.0073757195088983
 42
1.57817204630383
  0
ARC
  5
1EE
330
1CC
100
AcDbEntity
  8
0
  6
Continuous
370
     0
100
AcDbCircle
 10
12.49354020855962
 20
5.344855953931411
 30
0.0
 40
0.194005795324396
100
AcDbArc
 50
269.0946093869635
 51
355.9239541126067
  0
LINE
  5
1EF
330
1CC
100
AcDbEntity
  8
0
  6
Continuous
370
     0
100
AcDbLine
 10
12.31306605684581
 20
5.196728157141997
 30
0.0
 11
7.22493579536078
 21
5.196728157141997
 31
0.0
  0
LINE
  5
1F0
330
1CC
100
AcDbEntity
  8
0
  6
Continuous
370
     0
100
AcDbLine
 10
7.22493579536078
 20
5.196728157141997
 30
0.0
 11
7.22493579536078
 21
5.437819705365193
 31
0.0
  0
LINE
  5
1F1
330
1CC
100
AcDbEntity
  8
0
  6
Continuous
370
     0
100
AcDbLine
 10
7.22493579536078
 20
5.437819705365193
 30
0.0
 11
12.31306605684581
 21
5.437819705365193
 31
0.0
  0
ELLIPSE
  5
1F2
330
1CC
100
AcDbEntity
  8
0
  6
Continuous
370
     0
100
AcDbEllipse
 10
7.224935841630675
 20
5.150874436206447
 30
0.0
 11
0.177408486495695
 21
0.0
 31
0.0
210
0.0
220
0.0
230
1.0
 40
0.258464342596356
 41
1.570796326794897
 42
3.141592653589925
  0
ARC
  5
1F3
330
1CC
100
AcDbEntity
  8
0
  6
Continuous
370
     0
100
AcDbCircle
 10
7.044461644508971
 20
5.344855634862434
 30
0.0
 40
0.1940054809168832
100
AcDbArc
 50
184.0759580344268
 51
270.9054784660045
  0
ELLIPSE
  5
1F4
330
1CC
100
AcDbEntity
  8
0
  6
Continuous
370
     0
100
AcDbEllipse
 10
7.224935841630675
 20
5.341017315397206
 30
0.0
 11
0.3739789308843164
 21
0.01066501959210875
 31
0.0
210
0.0
220
0.0
230
1.0
 40
0.25864122359894
 41
1.563420607285961
 42
3.13421693408086
  0
LINE
  5
1F5
330
1CC
100
AcDbEntity
  8
0
  6
Continuous
370
     0
100
AcDbLine
 10
12.70355861250916
 20
5.635241318067211
 30
0.0
 11
12.68705528315703
 21
5.331065938593817
 31
0.0
  0
LINE
  5
1F6
330
1CC
100
AcDbEntity
  8
0
  6
Continuous
370
     0
100
AcDbLine
 10
12.31306605684581
 20
5.437819705365193
 30
0.0
 11
12.3290566454545
 21
5.732541207383919
 31
0.0
  0
ELLIPSE
  5
1F7
330
1CC
100
AcDbEntity
  8
0
  6
Continuous
370
     0
100
AcDbEllipse
 10
12.32905663065461
 20
5.635738778151552
 30
0.0
 11
0.3745020055132695
 21
-0.0005331896050950746
 31
0.0
210
0.0
220
0.0
230
1.0
 40
0.2584824851938677
 41
0.0003680091586914
 42
1.571164335953603
  0
LINE
  5
1F8
330
1CC
100
AcDbEntity
  8
0
  6
Continuous
370
     0
100
AcDbLine
 10
7.208945206752093
 20
5.732541207383919
 30
0.0
 11
7.22493579536078
 21
5.437819705365193
 31
0.0
  0
LINE
  5
1F9
330
1CC
100
AcDbEntity
  8
0
  6
Continuous
370
     0
100
AcDbLine
 10
6.850946862379516
 20
5.331065938593817
 30
0.0
 11
6.834443239697439
 21
5.635241318067211
 31
0.0
  0
ELLIPSE
  5
1FA
330
1CC
100
AcDbEntity
  8
0
  6
Continuous
370
     0
100
AcDbEllipse
 10
7.208945279053685
 20
5.635738778151552
 30
0.0
 11
0.3745020055132713
 21
0.0005331896050915219
 31
0.0
210
0.0
220
0.0
230
1.0
 40
0.2584824851938665
 41
1.570428317636193
 42
3.141224644431102
  0
LINE
  5
1FB
330
1CC
100
AcDbEntity
  8
0
  6
Continuous
370
     0
100
AcDbLine
 10
12.3290566454545
 20
5.732541207383919
 30
0.0
 11
7.208945206752093
 21
5.732541207383919
 31
0.0
  0
LINE
  5
1FC
330
1CC
100
AcDbEntity
  8
0
  6
Continuous
370
     0
100
AcDbLine
 10
12.3290566454545
 20
5.732541207383919
 30
0.0
 11
12.3290566454545
 21
5.739836323110119
 31
0.0
  0
LINE
  5
1FD
330
1CC
100
AcDbEntity
  8
0
  6
Continuous
370
     0
100
AcDbLine
 10
7.208945206752093
 20
5.732541207383919
 30
0.0
 11
7.208945206752093
 21
5.739836323110119
 31
0.0
  0
LINE
  5
1FE
330
1CC
100
AcDbEntity
  8
0
  6
Continuous
370
     0
100
AcDbLine
 10
12.49047464740664
 20
4.657775889831248
 30
0.0
 11
12.49047464740664
 21
5.150874380182076
 31
0.0
  0
LINE
  5
1FF
330
1CC
100
AcDbEntity
  8
0
  6
Continuous
370
     0
100
AcDbLine
 10
12.49047455457332
 20
4.657775916754328
 30
0.0
 11
12.49047458227835
 21
4.657518088724901
 31
0.0
  0
LINE
  5
200
330
1CC
100
AcDbEntity
  8
0
  6
Continuous
370
     0
100
AcDbLine
 10
7.047527498129902
 20
4.657518052809802
 30
0.0
 11
12.49047464740664
 21
4.657518052809802
 31
0.0
  0
LINE
  5
201
330
1CC
100
AcDbEntity
  8
0
  6
Continuous
370
     0
100
AcDbLine
 10
7.047527498129902
 20
5.150874380182076
 30
0.0
 11
7.047527498129902
 21
4.657518052809802
 31
0.0
  0
LINE
  5
202
330
1CC
100
AcDbEntity
  8
0
  6
Continuous
370
     0
100
AcDbLine
 10
12.68705528315703
 20
5.331065938593817
 30
0.0
 11
12.68705528315703
 21
4.837967448242988
 31
0.0
  0
ARC
  5
203
330
1CC
100
AcDbEntity
  8
0
  6
Continuous
370
     0
100
AcDbCircle
 10
12.49354020855962
 20
4.851757463580585
 30
0.0
 40
0.1940057953243977
100
AcDbArc
 50
269.0946093869635
 51
355.9239541126063
  0
ARC
  5
204
330
1CC
100
AcDbEntity
  8
0
  6
Continuous
370
     0
100
AcDbCircle
 10
7.044461644508969
 20
4.851499307490158
 30
0.0
 40
0.1940054809168813
100
AcDbArc
 50
184.0759580344263
 51
270.9054784660056
  0
LINE
  5
205
330
1CC
100
AcDbEntity
  8
0
  6
Continuous
370
     0
100
AcDbLine
 10
6.850946862379516
 20
4.837709611221543
 30
0.0
 11
6.850946862379516
 21
5.331065938593817
 31
0.0
  0
LINE
  5
206
330
1CC
100
AcDbEntity
  8
0
  6
Continuous
370
     0
100
AcDbLine
 10
12.70355861250916
 20
5.127810873280342
 30
0.0
 11
12.70355861250916
 21
5.635241318067211
 31
0.0
  0
LINE
  5
207
330
1CC
100
AcDbEntity
  8
0
  6
Continuous
370
     0
100
AcDbLine
 10
12.68705528315703
 20
4.837967448242988
 30
0.0
 11
12.70260499685874
 21
5.065639738153267
 31
0.0
  0
LINE
  5
208
330
1CC
100
AcDbEntity
  8
0
  6
Continuous
370
     0
100
AcDbLine
 10
6.850946738057308
 20
4.837709658510608
 30
0.0
 11
6.850946752032616
 21
4.837564148719112
 31
0.0
  0
LINE
  5
209
330
1CC
100
AcDbEntity
  8
0
  6
Continuous
370
     0
100
AcDbLine
 10
6.835411815175039
 20
5.065016558685622
 30
0.0
 11
6.850946862379516
 21
4.837564119568942
 31
0.0
  0
LINE
  5
20A
330
1CC
100
AcDbEntity
  8
0
  6
Continuous
370
     0
100
AcDbLine
 10
6.834443239697439
 20
5.635241318067211
 30
0.0
 11
6.834443239697439
 21
5.127810873280342
 31
0.0
  0
SPLINE
  5
20B
330
1CC
100
AcDbEntity
  8
0
  6
Continuous
370
     0
100
AcDbSpline
210
0.0
220
0.0
230
1.0
 70
     8
 71
     3
 72
    24
 73
    20
 74
     0
 42
0.000000001
 43
0.00000001
 40
0.0
 40
0.0
 40
0.0
 40
0.0
 40
0.1250000000000001
 40
0.1250000000000001
 40
0.1875000000000001
 40
0.1875000000000001
 40
0.2500000000000001
 40
0.2500000000000001
 40
0.3750000000000002
 40
0.3750000000000002
 40
0.4375000000000002
 40
0.4375000000000002
 40
0.5000000000000002
 40
0.5000000000000002
 40
0.6250000000000002
 40
0.6250000000000002
 40
0.7500000000000003
 40
0.7500000000000003
 40
1.0
 40
1.0
 40
1.0
 40
1.0
 10
12.49049375735283
 20
4.277232330343532
 30
0.0
 10
12.49049418849163
 20
4.29890090745128
 30
0.0
 10
12.49044333877979
 20
4.32030363550143
 30
0.0
 10
12.4903382515236
 20
4.35202196654766
 30
0.0
 10
12.49029826643388
 20
4.362530116326862
 30
0.0
 10
12.49021490263393
 20
4.383415379050868
 30
0.0
 10
12.49017134282438
 20
4.393836378879714
 30
0.0
 10
12.49004599632261
 20
4.424459585836603
 30
0.0
 10
12.48996996233139
 20
4.4440774523964
 30
0.0
 10
12.48989022053458
 20
4.472340374053685
 30
0.0
 10
12.48986921238425
 20
4.48156638147986
 30
0.0
 10
12.48984057071205
 20
4.499622066147303
 30
0.0
 10
12.48983294959645
 20
4.508489165744402
 30
0.0
 10
12.48983190620733
 20
4.534180700212287
 30
0.0
 10
12.48986052169414
 20
4.550024545437529
 30
0.0
 10
12.48996369618277
 20
4.579226988601748
 30
0.0
 10
12.49003863152805
 20
4.592624036005768
 30
0.0
 10
12.49028538170552
 20
4.628663720221898
 30
0.0
 10
12.4904781980937
 20
4.646301598407002
 30
0.0
 10
12.49047458227835
 20
4.657518088725054
 30
0.0
  0
ARC
  5
20C
330
1CC
100
AcDbEntity
  8
0
  6
Continuous
370
     0
100
AcDbCircle
 10
12.4935372079292
 20
4.851502373482441
 30
0.0
 40
0.1940084945144931
100
AcDbArc
 50
269.095508259613
 51
355.9264544058997
  0
SPLINE
  5
20D
330
1CC
100
AcDbEntity
  8
0
  6
Continuous
370
     0
100
AcDbSpline
210
0.0
220
0.0
230
1.0
 70
     8
 71
     3
 72
    28
 73
    24
 74
     0
 42
0.000000001
 43
0.00000001
 40
0.0
 40
0.0
 40
0.0
 40
0.0
 40
0.1250000000000012
 40
0.1250000000000012
 40
0.2500000000000025
 40
0.2500000000000025
 40
0.3125000000000024
 40
0.3125000000000024
 40
0.3750000000000023
 40
0.3750000000000023
 40
0.5000000000000021
 40
0.5000000000000021
 40
0.562500000000002
 40
0.562500000000002
 40
0.6250000000000018
 40
0.6250000000000018
 40
0.7500000000000016
 40
0.7500000000000016
 40
0.8125000000000014
 40
0.8125000000000014
 40
0.8750000000000013
 40
0.8750000000000013
 40
1.0
 40
1.0
 40
1.0
 40
1.0
 10
12.68705563738612
 20
4.837720570760172
 30
0.0
 10
12.68707165527107
 20
4.829697440608019
 30
0.0
 10
12.68703607599288
 20
4.819245214125205
 30
0.0
 10
12.68692423271753
 20
4.793652615682019
 30
0.0
 10
12.68684773143692
 20
4.778512530394972
 30
0.0
 10
12.68673771752626
 20
4.752126084697879
 30
0.0
 10
12.68670205797398
 20
4.742777511276081
 30
0.0
 10
12.68663792079956
 20
4.723180394850178
 30
0.0
 10
12.68660932253915
 20
4.712904994368502
 30
0.0
 10
12.68653870601254
 20
4.680666154977725
 30
0.0
 10
12.6865123743787
 20
4.657299822293668
 30
0.0
 10
12.68651341168862
 20
4.619339036509354
 30
0.0
 10
12.68652045454527
 20
4.606227547363979
 30
0.0
 10
12.6865468087124
 20
4.579526032571835
 30
0.0
 10
12.68656610805431
 20
4.565878640047792
 30
0.0
 10
12.68663905832796
 20
4.524062310429549
 30
0.0
 10
12.68670834064211
 20
4.495025094938345
 30
0.0
 10
12.68682036607251
 20
4.44968653249639
 30
0.0
 10
12.68685893714271
 20
4.434258041258177
 30
0.0
 10
12.68693148075206
 20
4.403349367376567
 30
0.0
 10
12.68696562203011
 20
4.387802014130523
 30
0.0
 10
12.68705212752333
 20
4.340885702197344
 30
0.0
 10
12.68708915004146
 20
4.309244337487034
 30
0.0
 10
12.68707447897658
 20
4.27722972277108
 30
0.0
  0
LWPOLYLINE
  5
20E
330
1CC
100
AcDbEntity
  8
0
  6
Continuous
370
     0
100
AcDbPolyline
 90
        9
 70
   128
 43
0.0
 10
12.49049371385304
 20
4.27723235256933
 10
12.52763309814904
 20
4.277231765909439
 10
12.56343871118621
 20
4.277231325914522
 10
12.59662400782683
 20
4.277230885919606
 10
12.62599748183529
 20
4.27723059258966
 10
12.65050373207033
 20
4.277230152594743
 10
12.66926276869767
 20
4.277230005929772
 10
12.6816008128342
 20
4.277229859264798
 10
12.68707434960344
 20
4.277229712599826
  0
LINE
  5
20F
330
1CC
100
AcDbEntity
  8
0
  6
Continuous
370
     0
100
AcDbLine
 10
7.047527355134982
 20
4.657518088725077
 30
0.0
 11
7.04752736911029
 21
4.657421082197413
 31
0.0
  0
LINE
  5
210
330
1CC
100
AcDbEntity
  8
0
  6
Continuous
370
     0
100
AcDbLine
 10
12.49049371385304
 20
4.27723235256933
 30
0.0
 11
7.04758704410869
 21
4.27723235256933
 31
0.0
  0
SPLINE
  5
211
330
1CC
100
AcDbEntity
  8
0
  6
Continuous
370
     0
100
AcDbSpline
210
0.0
220
0.0
230
1.0
 70
     8
 71
     3
 72
    24
 73
    20
 74
     0
 42
0.000000001
 43
0.00000001
 40
0.0
 40
0.0
 40
0.0
 40
0.0
 40
0.1249999999999989
 40
0.1249999999999989
 40
0.1874999999999988
 40
0.1874999999999988
 40
0.2499999999999987
 40
0.2499999999999987
 40
0.3750000000000006
 40
0.3750000000000006
 40
0.4375000000000016
 40
0.4375000000000016
 40
0.5000000000000026
 40
0.5000000000000026
 40
0.6250000000000022
 40
0.6250000000000022
 40
0.750000000000002
 40
0.750000000000002
 40
1.0
 40
1.0
 40
1.0
 40
1.0
 10
7.047527369110288
 20
4.657421082197427
 30
0.0
 10
7.047528986694315
 20
4.651797093459182
 30
0.0
 10
7.047581684419169
 20
4.644528659703649
 30
0.0
 10
7.047689396333061
 20
4.631238476854636
 30
0.0
 10
7.047730231223547
 20
4.626408434447461
 30
0.0
 10
7.047815265746006
 20
4.615937177934684
 30
0.0
 10
7.047859647758065
 20
4.610268734981734
 30
0.0
 10
7.047987392310461
 20
4.592274375112847
 30
0.0
 10
7.048064976682511
 20
4.578953458677391
 30
0.0
 10
7.048147077900692
 20
4.5570382911643
 30
0.0
 10
7.048168877571591
 20
4.549409301626254
 30
0.0
 10
7.048199124596039
 20
4.533492729677832
 30
0.0
 10
7.048207562614122
 20
4.525166493905827
 30
0.0
 10
7.048211079120803
 20
4.499467141993499
 30
0.0
 10
7.048184140720869
 20
4.48147073901737
 30
0.0
 10
7.048084393679899
 20
4.44380595974545
 30
0.0
 10
7.048011208808035
 20
4.4240706187245
 30
0.0
 10
7.047769771846717
 20
4.362657819326779
 30
0.0
 10
7.047580401117628
 20
4.320537646709042
 30
0.0
 10
7.047586912178796
 20
4.277232330343532
 30
0.0
  0
SPLINE
  5
212
330
1CC
100
AcDbEntity
  8
0
  6
Continuous
370
     0
100
AcDbSpline
210
0.0
220
0.0
230
1.0
 70
     8
 71
     3
 72
    28
 73
    24
 74
     0
 42
0.000000001
 43
0.00000001
 40
0.0
 40
0.0
 40
0.0
 40
0.0
 40
0.1249999999999991
 40
0.1249999999999991
 40
0.2499999999999981
 40
0.2499999999999981
 40
0.3124999999999983
 40
0.3124999999999983
 40
0.3749999999999985
 40
0.3749999999999985
 40
0.4999999999999989
 40
0.4999999999999989
 40
0.5624999999999991
 40
0.5624999999999991
 40
0.6249999999999992
 40
0.6249999999999992
 40
0.7499999999999997
 40
0.7499999999999997
 40
0.8124999999999999
 40
0.8124999999999999
 40
0.875
 40
0.875
 40
1.0
 40
1.0
 40
1.0
 40
1.0
 10
6.851005506446478
 20
4.277212626010597
 30
0.0
 10
6.850988082228939
 20
4.309203173453502
 30
0.0
 10
6.851022111387925
 20
4.340766120775779
 30
0.0
 10
6.851130700712098
 20
4.403066842574768
 30
0.0
 10
6.851205497445902
 20
4.433804666374916
 30
0.0
 10
6.851312900983473
 20
4.479264457712535
 30
0.0
 10
6.85134769282879
 20
4.494195551596873
 30
0.0
 10
6.851410109042245
 20
4.523325743042914
 30
0.0
 10
6.851437853162698
 20
4.537572288344643
 30
0.0
 10
6.851505929956861
 20
4.579368298389687
 30
0.0
 10
6.851530600330857
 20
4.605980634375708
 30
0.0
 10
6.851527106223367
 20
4.643954878710908
 30
0.0
 10
6.851519250804241
 20
4.656251252420239
 30
0.0
 10
6.851491298920193
 20
4.679730319891224
 30
0.0
 10
6.851471211201261
 20
4.690972284559003
 30
0.0
 10
6.8513959092317
 20
4.723232091175609
 30
0.0
 10
6.851325079329381
 20
4.742793673427396
 30
0.0
 10
6.851210658935051
 20
4.769147179118546
 30
0.0
 10
6.851171267283901
 20
4.777434214783851
 30
0.0
 10
6.851097061007994
 20
4.792709257449783
 30
0.0
 10
6.851062075540471
 20
4.799738536749429
 30
0.0
 10
6.850972966068934
 20
4.81903344209573
 30
0.0
 10
6.850934115387984
 20
4.829518171358782
 30
0.0
 10
6.850946752032598
 20
4.837564148719141
 30
0.0
  0
ARC
  5
213
330
1CC
100
AcDbEntity
  8
0
  6
Continuous
370
     0
100
AcDbCircle
 10
7.044436735044568
 20
4.851378902227289
 30
0.0
 40
0.1939824194194829
100
AcDbArc
 50
184.0838719118861
 51
270.9129444536499
  0
LWPOLYLINE
  5
214
330
1CC
100
AcDbEntity
  8
0
  6
Continuous
370
     0
100
AcDbPolyline
 90
        9
 70
   128
 43
0.0
 10
6.851005528368468
 20
4.277212552798058
 10
6.856477305158036
 20
4.277213139457947
 10
6.868813882644838
 20
4.277214459442698
 10
6.887572332612292
 20
4.277216219422368
 10
6.912078582847331
 20
4.277218712726897
 10
6.941452643515674
 20
4.277221646026346
 10
6.974639113476076
 20
4.27722501932071
 10
7.010445899833025
 20
4.277228539280047
 10
7.04758704410869
 20
4.27723235256933
  0
LINE
  5
215
330
1CC
100
AcDbEntity
  8
0
  6
Continuous
370
     0
100
AcDbLine
 10
12.68705517165099
 20
4.837967486539856
 30
0.0
 11
12.68705563738612
 21
4.83772057076002
 31
0.0
  0
LINE
  5
216
330
1CC
100
AcDbEntity
  8
0
  6
Continuous
370
     0
100
AcDbLine
 10
12.70261702338647
 20
4.504559979794514
 30
0.0
 11
12.68707434960344
 21
4.276994755314073
 31
0.0
  0
LINE
  5
217
330
1CC
100
AcDbEntity
  8
0
  6
Continuous
370
     0
100
AcDbLine
 10
12.68707447897658
 20
4.27722972277108
 30
0.0
 11
12.68707437285493
 21
4.276994769958048
 31
0.0
  0
ELLIPSE
  5
218
330
1CC
100
AcDbEntity
  8
0
  6
Continuous
370
     0
100
AcDbEllipse
 10
-4.267132025467047
 20
4.729199907614003
 30
0.0
 11
-0.9606852291619014
 21
14.06584505913641
 31
0.0
210
0.0
220
0.0
230
1.0
 40
0.7874789890145613
 41
4.626437694779411
 42
4.626563801509553
  0
LINE
  5
219
330
1CC
100
AcDbEntity
  8
0
  6
Continuous
370
     0
100
AcDbLine
 10
6.851006408358302
 20
4.275437173307393
 30
0.0
 11
6.835448774748079
 21
4.503221808586515
 31
0.0
  0
LINE
  5
21A
330
1CC
100
AcDbEntity
  8
0
  6
Continuous
370
     0
100
AcDbLine
 10
12.49049375735283
 20
4.277232330343368
 30
0.0
 11
12.49049375577725
 21
4.276994769957961
 31
0.0
  0
LINE
  5
21B
330
1CC
100
AcDbEntity
  8
0
  6
Continuous
370
     0
100
AcDbLine
 10
12.49049371385304
 20
4.276994755314073
 30
0.0
 11
12.68707434960344
 21
4.276994755314073
 31
0.0
  0
LINE
  5
21C
330
1CC
100
AcDbEntity
  8
0
  6
Continuous
370
     0
100
AcDbLine
 10
12.49049371385304
 20
0.7204914936765725
 30
0.0
 11
12.49049371385304
 21
4.276994755314073
 31
0.0
  0
LINE
  5
21D
330
1CC
100
AcDbEntity
  8
0
  6
Continuous
370
     0
100
AcDbLine
 10
12.68707434960344
 20
4.276994755314073
 30
0.0
 11
12.68707434960344
 21
0.7204914936765725
 31
0.0
  0
LINE
  5
21E
330
1CC
100
AcDbEntity
  8
0
  6
Continuous
370
     0
100
AcDbLine
 10
12.49049371385304
 20
0.7204914936765725
 30
0.0
 11
12.68707434960344
 21
0.7204914936765725
 31
0.0
  0
ELLIPSE
  5
21F
330
1CC
100
AcDbEntity
  8
0
  6
Continuous
370
     0
100
AcDbEllipse
 10
7.224995488642957
 20
0.7208963038163372
 30
0.0
 11
0.1364340864500626
 21
0.1136632946627989
 31
1.665334536937735E-16
210
-1.188609242999917E-16
220
-1.322474177070389E-15
230
1.0
 40
0.9976816604083467
 41
2.448133043389257
 42
4.016646505852825
  0
LINE
  5
220
330
1CC
100
AcDbEntity
  8
0
  6
Continuous
370
     0
100
AcDbLine
 10
7.04758704410869
 20
4.275437173307393
 30
0.0
 11
7.04758704410869
 21
0.7204914936765725
 31
0.0
  0
ELLIPSE
  5
221
330
1CC
100
AcDbEntity
  8
0
  6
Continuous
370
     0
100
AcDbEllipse
 10
-4.267132025467047
 20
4.729199907614003
 30
0.0
 11
0.9713176602400444
 21
-14.22151949193433
 31
-1.509903313490214E-14
210
7.217673736072719E-17
220
-1.056773617177036E-15
230
1.0
 40
0.7926684849484333
 41
1.484845041189606
 42
1.484971147919749
  0
ELLIPSE
  5
222
330
1CC
100
AcDbEntity
  8
0
  6
Continuous
370
     0
100
AcDbEllipse
 10
12.31308526928156
 20
0.7208963038163372
 30
0.0
 11
-0.1364340864500644
 21
0.1136632946627989
 31
1.665334536937735E-16
210
3.194165594941510E-16
220
-1.081740130505017E-15
230
1.0
 40
0.9976816604083388
 41
2.266538801326735
 42
3.83505226379034
  0
LINE
  5
223
330
1CC
100
AcDbEntity
  8
0
  6
Continuous
370
     0
100
AcDbLine
 10
7.224590546015797
 20
0.5435622042454886
 30
0.0
 11
12.31349021194594
 21
0.5435622042454886
 31
0.0
  0
ELLIPSE
  5
224
330
1CC
100
AcDbEntity
  8
0
  6
Continuous
370
     0
100
AcDbEllipse
 10
12.31308526928156
 20
0.7208963038163372
 30
0.0
 11
0.2393995451541073
 21
0.2873597702455353
 31
0.0
210
0.0
220
0.0
230
1.0
 40
0.9998805339525498
 41
3.837335128121798
 42
5.405848590585365
  0
LINE
  5
225
330
1CC
100
AcDbEntity
  8
0
  6
Continuous
370
     0
100
AcDbLine
 10
12.31349021194594
 20
0.3468989961156508
 30
0.0
 11
12.31349021194594
 21
0.5435622042454886
 31
0.0
  0
LINE
  5
226
330
1CC
100
AcDbEntity
  8
0
  6
Continuous
370
     0
100
AcDbLine
 10
12.31349021194594
 20
0.3468989961156508
 30
0.0
 11
7.224590546015797
 21
0.3468989961156508
 31
0.0
  0
LINE
  5
227
330
1CC
100
AcDbEntity
  8
0
  6
Continuous
370
     0
100
AcDbLine
 10
7.224590546015797
 20
0.3468989961156508
 30
0.0
 11
7.224590546015797
 21
0.5435622042454886
 31
0.0
  0
LINE
  5
228
330
1CC
100
AcDbEntity
  8
0
  6
Continuous
370
     0
100
AcDbLine
 10
6.851006408358302
 20
4.275437173307393
 30
0.0
 11
7.04758704410869
 21
4.275437173307393
 31
0.0
  0
LINE
  5
229
330
1CC
100
AcDbEntity
  8
0
  6
Continuous
370
     0
100
AcDbLine
 10
6.851006408358302
 20
0.7204914936765725
 30
0.0
 11
6.851006408358302
 21
4.275437173307393
 31
0.0
  0
LINE
  5
22A
330
1CC
100
AcDbEntity
  8
0
  6
Continuous
370
     0
100
AcDbLine
 10
6.851006408358302
 20
0.7204914936765725
 30
0.0
 11
7.04758704410869
 21
0.7204914936765725
 31
0.0
  0
ELLIPSE
  5
22B
330
1CC
100
AcDbEntity
  8
0
  6
Continuous
370
     0
100
AcDbEllipse
 10
7.224995488642957
 20
0.7208963038163372
 30
0.0
 11
-0.2393995451541038
 21
0.2873597702455353
 31
0.0
210
0.0
220
0.0
230
1.0
 40
0.999880533952556
 41
0.8773367165942395
 42
2.445850179057798
  0
LINE
  5
22C
330
1CC
100
AcDbEntity
  8
0
  6
Continuous
370
     0
100
AcDbLine
 10
12.68707434960344
 20
0.7204914936765725
 30
0.0
 11
12.70357797228551
 21
0.7067423858407729
 31
0.0
  0
LINE
  5
22D
330
1CC
100
AcDbEntity
  8
0
  6
Continuous
370
     0
100
AcDbLine
 10
12.32990847561409
 20
0.3332213141214009
 30
0.0
 11
12.31349021194594
 21
0.3468989961156508
 31
0.0
  0
LINE
  5
22E
330
1CC
100
AcDbEntity
  8
0
  6
Continuous
370
     0
100
AcDbLine
 10
7.224590546015797
 20
0.3468989961156508
 30
0.0
 11
7.208172282347647
 21
0.3332213141214009
 31
0.0
  0
LINE
  5
22F
330
1CC
100
AcDbEntity
  8
0
  6
Continuous
370
     0
100
AcDbLine
 10
6.834502785676225
 20
0.7067423858407729
 30
0.0
 11
6.851006408358302
 21
0.7204914936765725
 31
0.0
  0
LINE
  5
230
330
1CC
100
AcDbEntity
  8
0
  6
Continuous
370
     0
100
AcDbLine
 10
12.70357797228551
 20
0.7067423858407729
 30
0.0
 11
12.70357797228551
 21
4.331609857729083
 31
0.0
  0
LINE
  5
231
330
1CC
100
AcDbEntity
  8
0
  6
Continuous
370
     0
100
AcDbLine
 10
6.834502785676225
 20
4.331609857729083
 30
0.0
 11
6.834502785676225
 21
0.7067423858407729
 31
0.0
  0
LINE
  5
232
330
1CC
100
AcDbEntity
  8
0
  6
Continuous
370
     0
100
AcDbLine
 10
7.208172282347647
 20
0.3332213141214009
 30
0.0
 11
12.32990847561409
 21
0.3332213141214009
 31
0.0
  0
ENDBLK
  5
1CE
330
1CC
100
AcDbEntity
  8
0
100
AcDbBlockEnd
  0
BLOCK
  5
235
330
234
100
AcDbEntity
  8
0
100
AcDbBlockBegin
  2
CUMA MINI-1
 70
     0
 10
0.0
 20
0.0
 30
0.0
  3
CUMA MINI-1
  1
CUMA MINI-1
  0
LINE
  5
237
330
234
100
AcDbEntity
  8
0
  6
Continuous
370
    15
100
AcDbLine
 10
0.6121109341552797
 20
0.9715671132295904
 30
0.0
 11
0.6121109341552797
 21
4.127352410661874
 31
0.0
  0
SPLINE
  5
238
330
234
100
AcDbEntity
  8
0
  6
Continuous
370
    15
100
AcDbSpline
210
0.0
220
0.0
230
1.0
 70
     8
 71
     3
 72
    18
 73
    14
 74
     0
 42
0.000000001
 43
0.00000001
 40
0.0
 40
0.0
 40
0.0
 40
0.0
 40
0.1249999999999996
 40
0.1249999999999996
 40
0.2499999999999991
 40
0.2499999999999991
 40
0.4999999999999992
 40
0.4999999999999992
 40
0.6249999999999991
 40
0.6249999999999991
 40
0.7499999999999991
 40
0.7499999999999991
 40
1.0
 40
1.0
 40
1.0
 40
1.0
 10
1.575657872403503
 20
4.505269666658252
 30
0.0
 10
1.582130638341182
 20
4.535698315507538
 30
0.0
 10
1.590260807536033
 20
4.565585278269284
 30
0.0
 10
1.609780387358876
 20
4.624294274621377
 30
0.0
 10
1.621201593282192
 20
4.653184239172496
 30
0.0
 10
1.660249239186709
 20
4.737784694986937
 30
0.0
 10
1.69204089894694
 20
4.790320511019061
 30
0.0
 10
1.748096492046374
 20
4.863509944780651
 30
0.0
 10
1.76822362774347
 20
4.886997942566868
 30
0.0
 10
1.811263436750753
 20
4.931860767872866
 30
0.0
 10
1.833834292024384
 20
4.952887394778951
 30
0.0
 10
1.904587597160647
 20
5.011903037682773
 30
0.0
 10
1.955773545588819
 20
5.045877532310875
 30
0.0
 10
2.01113533765686
 20
5.074271906667823
 30
0.0
  0
SPLINE
  5
239
330
234
100
AcDbEntity
  8
0
  6
Continuous
370
    15
100
AcDbSpline
210
0.0
220
0.0
230
1.0
 70
     8
 71
     3
 72
    24
 73
    20
 74
     0
 42
0.000000001
 43
0.00000001
 40
0.0
 40
0.0
 40
0.0
 40
0.0
 40
0.1249999999999989
 40
0.1249999999999989
 40
0.1874999999999988
 40
0.1874999999999988
 40
0.2499999999999987
 40
0.2499999999999987
 40
0.3750000000000006
 40
0.3750000000000006
 40
0.4375000000000016
 40
0.4375000000000016
 40
0.5000000000000026
 40
0.5000000000000026
 40
0.6250000000000022
 40
0.6250000000000022
 40
0.750000000000002
 40
0.750000000000002
 40
1.0
 40
1.0
 40
1.0
 40
1.0
 10
2.360645008484412
 20
4.657421082197427
 30
0.0
 10
2.339735499787773
 20
4.651797093459182
 30
0.0
 10
2.319542301642071
 20
4.644528659703649
 30
0.0
 10
2.290292360481555
 20
4.631238476854636
 30
0.0
 10
2.28071658678251
 20
4.626408434447461
 30
0.0
 10
2.261918314342509
 20
4.615937177934684
 30
0.0
 10
2.252658215622596
 20
4.610268734981734
 30
0.0
 10
2.225810634855007
 20
4.592274375112847
 30
0.0
 10
2.209091482437656
 20
4.578953458677391
 30
0.0
 10
2.185734144239984
 20
4.5570382911643
 30
0.0
 10
2.178236719188537
 20
4.549409301626254
 30
0.0
 10
2.163828117925823
 20
4.533492729677832
 30
0.0
 10
2.156888290728678
 20
4.525166493905827
 30
0.0
 10
2.137207937666023
 20
4.499467141993499
 30
0.0
 10
2.125645983564934
 20
4.48147073901737
 30
0.0
 10
2.105539286259266
 20
4.44380595974545
 30
0.0
 10
2.096971904667538
 20
4.4240706187245
 30
0.0
 10
2.076158792351604
 20
4.362657819326779
 30
0.0
 10
2.069202829348337
 20
4.320537646709042
 30
0.0
 10
2.069202829348337
 20
4.277232330343532
 30
0.0
  0
LWPOLYLINE
  5
23A
330
234
100
AcDbEntity
  8
0
  6
Continuous
370
    15
100
AcDbPolyline
 90
       13
 70
   128
 43
0.0
 10
4.069770868472665
 20
5.645245922493165
 10
4.115685328064909
 20
5.657548767036323
 10
4.160814176732599
 20
5.669641000679141
 10
4.204385250895832
 20
5.681315825810564
 10
4.245653034166878
 20
5.692373484738212
 10
4.283911426369333
 20
5.702624779647712
 10
4.318505815898661
 20
5.711894299232096
 10
4.348844272092892
 20
5.720023351991252
 10
4.374407720115093
 20
5.726873192861307
 10
4.394758731685137
 20
5.732326196534409
 10
4.409549124158595
 20
5.736289084088128
 10
4.4185258087925
 20
5.738694389635166
 10
4.421535190694531
 20
5.739500753653314
  0
ARC
  5
23B
330
234
100
AcDbEntity
  8
0
  6
Continuous
370
    15
100
AcDbCircle
 10
4.424082627575761
 20
5.729993745364082
 30
0.0
 40
0.0098425196850402
100
AcDbArc
 50
14.99999999998852
 51
105.0000000000048
  0
LINE
  5
23C
330
234
100
AcDbEntity
  8
0
  6
Continuous
370
    15
100
AcDbLine
 10
2.176015227799427
 20
5.137815624371271
 30
0.0
 11
4.069770868472665
 21
5.645245922493165
 31
0.0
  0
ARC
  5
23D
330
234
100
AcDbEntity
  8
0
  6
Continuous
370
    15
100
AcDbCircle
 10
2.392037475035997
 20
4.331609833442862
 30
0.0
 40
0.8346456692913424
100
AcDbArc
 50
104.9999999977095
 51
117.1527231581833
  0
LINE
  5
23E
330
234
100
AcDbEntity
  8
0
  6
Continuous
370
    15
100
AcDbLine
 10
4.433589768105691
 20
5.732541207383919
 30
0.0
 11
4.512560165832918
 21
5.437819705365193
 31
0.0
  0
ARC
  5
23F
330
234
100
AcDbEntity
  8
0
  6
Continuous
370
    15
100
AcDbCircle
 10
2.392037475035997
 20
4.331609833442862
 30
0.0
 40
0.8346456692913407
100
AcDbArc
 50
167.991070030998
 51
179.9999999999996
  0
LINE
  5
240
330
234
100
AcDbEntity
  8
0
  6
Continuous
370
    15
100
AcDbLine
 10
1.557391907522145
 20
0.3430543205296717
 30
0.0
 11
1.557391907522145
 21
0.7067423858407729
 31
0.0
  0
ARC
  5
241
330
234
100
AcDbEntity
  8
0
  6
Continuous
370
    15
100
AcDbCircle
 10
1.567234325429691
 20
0.3430543886477819
 30
0.0
 40
0.0098425196850389
100
AcDbArc
 50
180.0
 51
272.4999999999902
  0
LINE
  5
242
330
234
100
AcDbEntity
  8
0
  6
Continuous
370
    15
100
AcDbLine
 10
1.557391907522145
 20
0.7067423858407729
 30
0.0
 11
1.557391907522145
 21
4.331609857729083
 31
0.0
  0
LINE
  5
243
330
234
100
AcDbEntity
  8
0
  6
Continuous
370
    15
100
AcDbLine
 10
1.880938943212512
 20
0.3468989961156508
 30
0.0
 11
1.567663735527778
 21
0.3332213141214009
 31
0.0
  0
LINE
  5
244
330
234
100
AcDbEntity
  8
0
  6
Continuous
370
    15
100
AcDbLine
 10
2.361006354898526
 20
4.657518088725054
 30
0.0
 11
2.360645008484412
 21
4.657421082197427
 31
0.0
  0
LWPOLYLINE
  5
245
330
234
100
AcDbEntity
  8
0
  6
Continuous
370
    15
100
AcDbPolyline
 90
       10
 70
   128
 43
0.0
 10
4.37336590381691
 20
5.196728157141997
 10
4.37076606551713
 20
5.196031645188164
 10
4.363045584704784
 20
5.193962935752738
 10
4.350439015336948
 20
5.190584948108873
 10
4.33332940965524
 20
5.186000494402206
 10
4.312236639987382
 20
5.180348613026556
 10
4.287801604762994
 20
5.173801341994523
 10
4.260766731238827
 20
5.166557412343684
 10
4.231953480758621
 20
5.158836821532606
 10
4.202237310292358
 20
5.150874380182076
  0
ARC
  5
246
330
234
100
AcDbEntity
  8
0
  6
Continuous
370
    15
100
AcDbCircle
 10
4.322417270281681
 20
5.386871083230329
 30
0.0
 40
0.1968503937007888
100
AcDbArc
 50
285.000000000001
 51
15.00000000000015
  0
LINE
  5
247
330
234
100
AcDbEntity
  8
0
  6
Continuous
370
    15
100
AcDbLine
 10
4.202237310292358
 20
5.150874380182076
 30
0.0
 11
2.361006397432315
 21
4.657518052809802
 31
0.0
  0
LINE
  5
248
330
234
100
AcDbEntity
  8
0
  6
Continuous
370
    15
100
AcDbLine
 10
2.069202795039097
 20
4.27723235256933
 30
0.0
 11
2.069202795039097
 21
4.275437173307393
 31
0.0
  0
LINE
  5
249
330
234
100
AcDbEntity
  8
0
  6
Continuous
370
    15
100
AcDbLine
 10
2.069202795039097
 20
4.275437173307393
 30
0.0
 11
2.069202795039097
 21
0.7204914936765725
 31
0.0
  0
LINE
  5
24A
330
234
100
AcDbEntity
  8
0
  6
Continuous
370
    15
100
AcDbLine
 10
2.069202795039097
 20
0.7204914936765725
 30
0.0
 11
2.069202795039097
 21
0.5435622042454886
 31
0.0
  0
ARC
  5
24B
330
234
100
AcDbEntity
  8
0
  6
Continuous
370
    15
100
AcDbCircle
 10
1.872352435647545
 20
0.543562166681105
 30
0.0
 40
0.1968503937007881
100
AcDbArc
 50
272.5000000000013
 51
0.0
  0
SPLINE
  5
24C
330
234
100
AcDbEntity
  8
0
  6
Continuous
370
    15
100
AcDbSpline
210
0.0
220
0.0
230
1.0
 70
     8
 71
     3
 72
    13
 73
     9
 74
     0
 42
0.000000001
 43
0.00000001
 40
0.0
 40
0.0
 40
0.0
 40
0.0
 40
0.1844510337780624
 40
0.3847785775007624
 40
0.584422411778553
 40
0.7834876357777076
 40
0.983540713886072
 40
1.0
 40
1.0
 40
1.0
 40
1.0
 10
1.557446466891871
 20
4.341167280654251
 30
0.0
 10
1.55749046174973
 20
4.344621739936352
 30
0.0
 10
1.557582238295936
 20
4.351827998970936
 30
0.0
 10
1.558353772607995
 20
4.374586128614782
 30
0.0
 10
1.560356139566521
 20
4.404446576156493
 30
0.0
 10
1.563973884553786
 20
4.437648749025602
 30
0.0
 10
1.567396482896039
 20
4.461919452971937
 30
0.0
 10
1.569379721359948
 20
4.472403788736411
 30
0.0
 10
1.569530487296236
 20
4.473200808725
 30
0.0
  0
SPLINE
  5
24D
330
234
100
AcDbEntity
  8
0
  6
Continuous
370
    15
100
AcDbSpline
210
0.0
220
0.0
230
1.0
 70
     8
 71
     3
 72
     9
 73
     5
 74
     0
 42
0.000000001
 43
0.00000001
 40
0.0
 40
0.0
 40
0.0
 40
0.0
 40
0.4834380851026119
 40
1.0
 40
1.0
 40
1.0
 40
1.0
 10
1.576394994663527
 20
4.508348189366128
 30
0.0
 10
1.577575320408525
 20
4.513759641612038
 30
0.0
 10
1.58001684452789
 20
4.524953323724949
 30
0.0
 10
1.581450967647188
 20
4.530627703157814
 30
0.0
 10
1.58219178103189
 20
4.53355887146351
 30
0.0
  0
SPLINE
  5
24E
330
234
100
AcDbEntity
  8
0
  6
Continuous
370
    15
100
AcDbSpline
210
0.0
220
0.0
230
1.0
 70
     8
 71
     3
 72
     9
 73
     5
 74
     0
 42
0.000000001
 43
0.00000001
 40
0.0
 40
0.0
 40
0.0
 40
0.0
 40
0.1637290587631936
 40
0.9999999999999999
 40
0.9999999999999999
 40
0.9999999999999999
 40
0.9999999999999999
 10
2.006190536295422
 20
5.071323592492897
 30
0.0
 10
2.003208092388093
 20
5.069897966399067
 30
0.0
 10
1.984992364954878
 20
5.061190739321603
 30
0.0
 10
1.967790100213048
 20
5.050578860525127
 30
0.0
 10
1.953404346085994
 20
5.041704454655704
 30
0.0
  0
LINE
  5
24F
330
234
100
AcDbEntity
  8
0
  6
Continuous
370
    15
100
AcDbLine
 10
0.6217098632676317
 20
4.515579212499398
 30
0.0
 11
1.586270240583843
 21
4.54926243672125
 31
0.0
  0
SPLINE
  5
250
330
234
100
AcDbEntity
  8
0
  6
Continuous
370
    15
100
AcDbSpline
210
0.0
220
0.0
230
1.0
 70
     8
 71
     3
 72
     9
 73
     5
 74
     0
 42
0.000000001
 43
0.00000001
 40
0.0
 40
0.0
 40
0.0
 40
0.0
 40
0.9087613722394803
 40
1.0
 40
1.0
 40
1.0
 40
1.0
 10
1.586270240583843
 20
4.54926243672125
 30
0.0
 10
1.586153510811134
 20
4.549019687522094
 30
0.0
 10
1.586025061499494
 20
4.548752566574205
 30
0.0
 10
1.584396602325099
 20
4.542227123967235
 30
0.0
 10
1.584248023944663
 20
4.541631751538244
 30
0.0
  0
LINE
  5
251
330
234
100
AcDbEntity
  8
0
  6
Continuous
370
    15
100
AcDbLine
 10
1.584014239978688
 20
4.540695149024621
 30
0.0
 11
1.580842463285991
 21
4.527997922370735
 31
0.0
  0
LINE
  5
252
330
234
100
AcDbEntity
  8
0
  6
Continuous
370
    15
100
AcDbLine
 10
1.557391907522145
 20
0.5492632183868871
 30
0.0
 11
0.6217098632676317
 21
0.5819379742586523
 31
0.0
  0
SPLINE
  5
253
330
234
100
AcDbEntity
  8
0
  6
Continuous
370
    15
100
AcDbSpline
210
0.0
220
0.0
230
1.0
 70
    24
 71
     3
 72
    27
 73
    23
 74
     0
 42
0.000000001
 43
0.00000001
 40
0.0
 40
0.0
 40
0.0
 40
0.0
 40
0.1250000000000015
 40
0.1250000000000015
 40
0.1875000000000021
 40
0.1875000000000021
 40
0.2500000000000027
 40
0.2500000000000027
 40
0.3750000000000022
 40
0.3750000000000022
 40
0.5000000000000017
 40
0.5000000000000017
 40
0.6250000000000011
 40
0.6250000000000011
 40
0.6875000000000009
 40
0.6875000000000009
 40
0.7500000000000006
 40
0.8125000000000003
 40
0.8125000000000003
 40
0.8750000000000001
 40
0.8750000000000001
 40
1.0
 40
1.0
 40
1.0
 40
1.0
 10
0.6122108675149907
 20
0.5917745127829432
 30
0.0
 10
0.6122108675149898
 20
0.5917745127831182
 30
0.0
 10
0.6122108675149898
 20
0.5942840640382556
 30
0.0
 10
0.6122108675149907
 20
0.6015923649662547
 30
0.0
 10
0.6122108675149853
 20
0.6046250223030283
 30
0.0
 10
0.6122108675149862
 20
0.6119165477473425
 30
0.0
 10
0.612210867514988
 20
0.6161961669831477
 30
0.0
 10
0.6122108675149871
 20
0.630638266944513
 30
0.0
 10
0.6122108675149871
 20
0.6424437237993912
 30
0.0
 10
0.6122108675149853
 20
0.6702877814147481
 30
0.0
 10
0.6122108675149827
 20
0.686475445703298
 30
0.0
 10
0.6122108675149827
 20
0.7218747103852321
 30
0.0
 10
0.6122108675149835
 20
0.7412066980467102
 30
0.0
 10
0.6122108675149827
 20
0.7726626064190452
 30
0.0
 10
0.6122108675149827
 20
0.7835589149758295
 30
0.0
 10
0.6122108675149827
 20
0.8057056885008249
 30
0.0
 10
0.6122108675149835
 20
0.8283219247346558
 30
0.0
 10
0.6122108675149773
 20
0.8518759840590819
 30
0.0
 10
0.6122108675149738
 20
0.875898652985061
 30
0.0
 10
0.6122108675149773
 20
0.8881986022518928
 30
0.0
 10
0.6122108675149773
 20
0.9254031293308049
 30
0.0
 10
0.61221086751498
 20
0.9504792044350774
 30
0.0
 10
0.6122108675149782
 20
0.975835577981913
 30
0.0
  0
ARC
  5
254
330
234
100
AcDbEntity
  8
0
  6
Continuous
370
    15
100
AcDbCircle
 10
0.6220533872000296
 20
0.5917745127829432
 30
0.0
 40
0.0098425196850389
100
AcDbArc
 50
180.0
 51
268.0000000000122
  0
SPLINE
  5
255
330
234
100
AcDbEntity
  8
0
  6
Continuous
370
    15
100
AcDbSpline
210
0.0
220
0.0
230
1.0
 70
    24
 71
     3
 72
    27
 73
    23
 74
     0
 42
0.000000001
 43
0.00000001
 40
0.0
 40
0.0
 40
0.0
 40
0.0
 40
0.1249999999999978
 40
0.1249999999999978
 40
0.1874999999999967
 40
0.1874999999999967
 40
0.2499999999999956
 40
0.2499999999999956
 40
0.3749999999999946
 40
0.3749999999999946
 40
0.4999999999999937
 40
0.4999999999999937
 40
0.6249999999999927
 40
0.6249999999999927
 40
0.6874999999999929
 40
0.6874999999999929
 40
0.7499999999999943
 40
0.8124999999999959
 40
0.8124999999999959
 40
0.8749999999999973
 40
0.8749999999999973
 40
1.0
 40
1.0
 40
1.0
 40
1.0
 10
0.6122108675149072
 20
4.121681696144767
 30
0.0
 10
0.6122108675149072
 20
4.14704621554694
 30
0.0
 10
0.6122108675149054
 20
4.171983698585422
 30
0.0
 10
0.6122108675149054
 20
4.208786864812932
 30
0.0
 10
0.6122108675149054
 20
4.220953074101075
 30
0.0
 10
0.6122108675149063
 20
4.245076835218118
 30
0.0
 10
0.6122108675149054
 20
4.257067368383488
 30
0.0
 10
0.6122108675149045
 20
4.291936739821859
 30
0.0
 10
0.6122108675149054
 20
4.313977139224662
 30
0.0
 10
0.6122108675149018
 20
4.355713604422869
 30
0.0
 10
0.6122108675149018
 20
4.375489110805505
 30
0.0
 10
0.612210867514901
 20
4.410907393186918
 30
0.0
 10
0.6122108675149018
 20
4.426783987642857
 30
0.0
 10
0.6122108675149018
 20
4.44783951326122
 30
0.0
 10
0.6122108675149027
 20
4.45438141293743
 30
0.0
 10
0.612210867514901
 20
4.466243170251259
 30
0.0
 10
0.612210867514901
 20
4.476964498373022
 30
0.0
 10
0.6122108675149045
 20
4.485407645907806
 30
0.0
 10
0.6122108675149045
 20
4.492712436637559
 30
0.0
 10
0.6122108675149018
 20
4.495805553358585
 30
0.0
 10
0.6122108675149027
 20
4.503234156066814
 30
0.0
 10
0.6122108675149027
 20
4.505742761343869
 30
0.0
 10
0.6122108675149045
 20
4.505742761343869
 30
0.0
  0
ARC
  5
256
330
234
100
AcDbEntity
  8
0
  6
Continuous
370
    15
100
AcDbCircle
 10
0.6220533871999434
 20
4.505742761343873
 30
0.0
 40
0.0098425196850397
100
AcDbArc
 50
91.99999999999282
 51
180.0000000000207
  0
LINE
  5
257
330
234
100
AcDbEntity
  8
0
  6
Continuous
370
    15
100
AcDbLine
 10
0.6122109596664433
 20
0.9758356505857497
 30
0.0
 11
0.6122109596664433
 21
4.121681682837274
 31
0.0
  0
SPLINE
  5
258
330
234
100
AcDbEntity
  8
0
  6
Continuous
370
    15
100
AcDbSpline
210
0.0
220
0.0
230
1.0
 70
     8
 71
     3
 72
     9
 73
     5
 74
     0
 42
0.000000001
 43
0.00000001
 40
0.0
 40
0.0
 40
0.0
 40
0.0
 40
0.8314994174648073
 40
1.0
 40
1.0
 40
1.0
 40
1.0
 10
1.585904458142727
 20
4.547903732417119
 30
0.0
 10
1.58814955172511
 20
4.557198106973932
 30
0.0
 10
1.590849606030891
 20
4.568375955522704
 30
0.0
 10
1.59520960054635
 20
4.57898478537264
 30
0.0
 10
1.595944262162054
 20
4.58077237938237
 30
0.0
  0
SPLINE
  5
259
330
234
100
AcDbEntity
  8
0
  6
Continuous
370
    15
100
AcDbSpline
210
0.0
220
0.0
230
1.0
 70
     8
 71
     3
 72
    10
 73
     6
 74
     0
 42
0.000000001
 43
0.00000001
 40
0.0
 40
0.0
 40
0.0
 40
0.0
 40
0.5
 40
0.5
 40
1.0
 40
1.0
 40
1.0
 40
1.0
 10
1.584004782739157
 20
4.540694891365009
 30
0.0
 10
1.584004782739157
 20
4.540694891365009
 30
0.0
 10
1.584212233851711
 20
4.54149924837259
 30
0.0
 10
1.584889945629892
 20
4.544090544491219
 30
0.0
 10
1.585372762957842
 20
4.54592186300397
 30
0.0
 10
1.58590451215517
 20
4.547903706272765
 30
0.0
  0
ARC
  5
25A
330
234
100
AcDbEntity
  8
0
  6
Continuous
370
    15
100
AcDbCircle
 10
1.578848727715839
 20
4.559009405482019
 30
0.0
 40
0.0100000000214113
100
AcDbArc
 50
271.9999999999984
 51
344.3972836197921
  0
LINE
  5
25B
330
234
100
AcDbEntity
  8
0
  6
Continuous
370
    15
100
AcDbLine
 10
2.176358255314919
 20
5.137907516942294
 30
0.0
 11
2.17616642365872
 21
5.137856140272044
 31
0.0
  0
ARC
  5
25C
330
234
100
AcDbEntity
  8
0
  6
Continuous
370
     0
100
AcDbCircle
 10
2.227159735311186
 20
5.176440864360027
 30
0.0
 40
0.2389666168753002
100
AcDbArc
 50
205.3118683273428
 51
207.7928087867101
  0
SPLINE
  5
25D
330
234
100
AcDbEntity
  8
0
  6
Continuous
370
     0
100
AcDbSpline
210
0.0
220
0.0
230
1.0
 70
     8
 71
     3
 72
    18
 73
    14
 74
     0
 42
0.000000001
 43
0.00000001
 40
0.0
 40
0.0
 40
0.0
 40
0.0
 40
0.2500000000000006
 40
0.2500000000000006
 40
0.3750000000000008
 40
0.3750000000000008
 40
0.500000000000001
 40
0.500000000000001
 40
0.7500000000000006
 40
0.7500000000000006
 40
0.8750000000000002
 40
0.8750000000000002
 40
1.0
 40
1.0
 40
1.0
 40
1.0
 10
2.015760430410762
 20
5.065016533730283
 30
0.0
 10
1.961086811970008
 20
5.036998726139974
 30
0.0
 10
1.910537132249749
 20
5.003467494811412
 30
0.0
 10
1.840665144193742
 20
4.945210546794012
 30
0.0
 10
1.818375761445311
 20
4.924452604476246
 30
0.0
 10
1.775873710966429
 20
4.880159455068377
 30
0.0
 10
1.755999125149831
 20
4.856968550442602
 30
0.0
 10
1.700650966643145
 20
4.784702717224649
 30
0.0
 10
1.669265894859283
 20
4.732826725871533
 30
0.0
 10
1.630726796129171
 20
4.649284702065554
 30
0.0
 10
1.619456503002307
 20
4.620756109172422
 30
0.0
 10
1.600199304053314
 20
4.562781924719209
 30
0.0
 10
1.592180989856876
 20
4.533269185087249
 30
0.0
 10
1.585800108038628
 20
4.50322179126656
 30
0.0
  0
ARC
  5
25E
330
234
100
AcDbEntity
  8
0
  6
Continuous
370
     0
100
AcDbCircle
 10
1.532930290508587
 20
4.267522085581739
 30
0.0
 40
0.241556554583089
100
AcDbArc
 50
77.3572656879294
 51
79.8116676404487
  0
LINE
  5
25F
330
234
100
AcDbEntity
  8
0
  6
Continuous
370
     0
100
AcDbLine
 10
2.015760425743242
 20
5.065016558685622
 30
0.0
 11
2.312182214786773
 21
4.837564119568942
 31
0.0
  0
SPLINE
  5
260
330
234
100
AcDbEntity
  8
0
  6
Continuous
370
     0
100
AcDbSpline
210
0.0
220
0.0
230
1.0
 70
     8
 71
     3
 72
    28
 73
    24
 74
     0
 42
0.000000001
 43
0.00000001
 40
0.0
 40
0.0
 40
0.0
 40
0.0
 40
0.1249999999999991
 40
0.1249999999999991
 40
0.2499999999999981
 40
0.2499999999999981
 40
0.3124999999999983
 40
0.3124999999999983
 40
0.3749999999999985
 40
0.3749999999999985
 40
0.4999999999999989
 40
0.4999999999999989
 40
0.5624999999999991
 40
0.5624999999999991
 40
0.6249999999999992
 40
0.6249999999999992
 40
0.7499999999999997
 40
0.7499999999999997
 40
0.8124999999999999
 40
0.8124999999999999
 40
0.875
 40
0.875
 40
1.0
 40
1.0
 40
1.0
 40
1.0
 10
1.88263971090388
 20
4.277212626010597
 30
0.0
 10
1.882368023337428
 20
4.309203173453502
 30
0.0
 10
1.884722088734092
 20
4.340766120775779
 30
0.0
 10
1.894497871857435
 20
4.403066842574768
 30
0.0
 10
1.901919284497702
 20
4.433804666374916
 30
0.0
 10
1.917024830088466
 20
4.479264457712535
 30
0.0
 10
1.922692592572481
 20
4.494195551596873
 30
0.0
 10
1.935153813888247
 20
4.523325743042914
 30
0.0
 10
1.941962771792211
 20
4.537572288344643
 30
0.0
 10
1.964102866610017
 20
4.579368298389687
 30
0.0
 10
1.981135430192588
 20
4.605980634375708
 30
0.0
 10
2.010214242914532
 20
4.643954878710908
 30
0.0
 10
2.020480258345923
 20
4.656251252420239
 30
0.0
 10
2.041804535841665
 20
4.679730319891224
 30
0.0
 10
2.05290670988214
 20
4.690972284559003
 30
0.0
 10
2.087509802634668
 20
4.723232091175609
 30
0.0
 10
2.112298599127846
 20
4.742793673427396
 30
0.0
 10
2.152125122332725
 20
4.769147179118546
 30
0.0
 10
2.165863487919809
 20
4.777434214783851
 30
0.0
 10
2.19374282301605
 20
4.792709257449783
 30
0.0
 10
2.207941652247635
 20
4.799738536749429
 30
0.0
 10
2.251302093929054
 20
4.81903344209573
 30
0.0
 10
2.281222531261805
 20
4.829518171358782
 30
0.0
 10
2.312182149670428
 20
4.837564148719141
 30
0.0
  0
LINE
  5
261
330
234
100
AcDbEntity
  8
0
  6
Continuous
370
     0
100
AcDbLine
 10
1.882654789238674
 20
4.275437182874432
 30
0.0
 11
1.882639710903871
 21
4.277212626011236
 31
0.0
  0
LINE
  5
262
330
234
100
AcDbEntity
  8
0
  6
Continuous
370
     0
100
AcDbLine
 10
1.882654776724391
 20
4.275437173307393
 30
0.0
 11
1.585800032682392
 21
4.503221808586515
 31
0.0
  0
LWPOLYLINE
  5
263
330
234
100
AcDbEntity
  8
0
  6
Continuous
370
     0
100
AcDbPolyline
 90
        9
 70
   128
 43
0.0
 10
2.312182214786773
 20
4.837564119568942
 10
2.321767504056694
 20
4.801927464579954
 10
2.330912945074445
 20
4.767928324007594
 10
2.339289714971951
 20
4.736787683746927
 10
2.346597003890859
 20
4.709624157542301
 10
2.352572574860553
 20
4.687413360789987
 10
2.357001563696497
 20
4.670953004274763
 10
2.359724985568628
 20
4.660834441165267
 10
2.360645014940371
 20
4.657421107263058
  0
LWPOLYLINE
  5
264
330
234
100
AcDbEntity
  8
0
  6
Continuous
370
     0
100
AcDbPolyline
 90
        9
 70
   128
 43
0.0
 10
1.882639670232235
 20
4.277212552798058
 10
1.919545270562258
 20
4.277213139457947
 10
1.954755423811563
 20
4.277214459442698
 10
1.98700573125326
 20
4.277216219422368
 10
2.015137539605542
 20
4.277218712726897
 10
2.038140180543738
 20
4.277221646026346
 10
2.055187490278428
 20
4.27722501932071
 10
2.065667289214896
 20
4.277228539280047
 10
2.069202795039097
 20
4.27723235256933
  0
ELLIPSE
  5
265
330
234
100
AcDbEntity
  8
0
  6
Continuous
370
     0
100
AcDbEllipse
 10
4.07231830107285
 20
5.635738778151552
 30
0.0
 11
0.3612714704611397
 21
0.09680239875846475
 31
0.0
210
0.0
220
0.0
230
1.0
 40
0.0013772620064033
 41
4.71238898038469
 42
6.283185307179586
  0
LWPOLYLINE
  5
266
330
234
100
AcDbEntity
  8
0
  6
Continuous
370
     0
100
AcDbPolyline
 90
        9
 70
   128
 43
0.0
 10
4.072451620004395
 20
5.635241318067211
 10
4.071936266791132
 20
5.637164389185061
 10
4.071436588396793
 20
5.639029380973851
 10
4.070973081251267
 20
5.640759147658105
 10
4.07056476596816
 20
5.642282996721137
 10
4.070228380687444
 20
5.643538448884714
 10
4.069977739416207
 20
5.644473878078555
 10
4.069823127035637
 20
5.6450508580799
 10
4.069770868472665
 20
5.645245922493165
  0
LINE
  5
267
330
234
100
AcDbEntity
  8
0
  6
Continuous
370
     0
100
AcDbLine
 10
4.072451620004395
 20
5.635241318067211
 30
0.0
 11
2.178695970164595
 21
5.127810873280342
 31
0.0
  0
LWPOLYLINE
  5
268
330
234
100
AcDbEntity
  8
0
  6
Continuous
370
     0
100
AcDbPolyline
 90
        9
 70
   128
 43
0.0
 10
2.178695970164595
 20
5.127810873280342
 10
2.178180736116623
 20
5.129734237728139
 10
2.177681048555723
 20
5.131599082851954
 10
2.177217440578029
 20
5.133328849536209
 10
2.176809125294922
 20
5.134852845264215
 10
2.176472822513253
 20
5.136108150762817
 10
2.176222172075455
 20
5.137043579956659
 10
2.176067587194566
 20
5.137620559958004
 10
2.176015227799427
 20
5.137815624371271
  0
ARC
  5
269
330
234
100
AcDbEntity
  8
0
  6
Continuous
370
     0
100
AcDbCircle
 10
2.392170797301934
 20
4.331112267972602
 30
0.0
 40
0.8248031496062985
100
AcDbArc
 50
104.9999999976821
 51
117.1527231581871
  0
ELLIPSE
  5
26A
330
234
100
AcDbEntity
  8
0
  6
Continuous
370
     0
100
AcDbEllipse
 10
4.151288679009996
 20
5.341017315397206
 30
0.0
 11
0.3612714704624462
 21
0.09680239875881824
 31
0.0
210
0.0
220
0.0
230
1.0
 40
0.0275452401278689
 41
4.71238898038469
 42
6.283185307179586
  0
LINE
  5
26B
330
234
100
AcDbEntity
  8
0
  6
Continuous
370
     0
100
AcDbLine
 10
4.153955124328332
 20
5.331065938593817
 30
0.0
 11
4.072451620004395
 21
5.635241318067211
 31
0.0
  0
LINE
  5
26C
330
234
100
AcDbEntity
  8
0
  6
Continuous
370
     0
100
AcDbLine
 10
2.312724141859719
 20
4.837709611221543
 30
0.0
 11
4.153955124328332
 21
5.331065938593817
 31
0.0
  0
LINE
  5
26D
330
234
100
AcDbEntity
  8
0
  6
Continuous
370
     0
100
AcDbLine
 10
2.312724169291601
 20
4.837709658510581
 30
0.0
 11
2.312182149670428
 21
4.837564148719141
 31
0.0
  0
ARC
  5
26E
330
234
100
AcDbEntity
  8
0
  6
Continuous
370
     0
100
AcDbCircle
 10
2.392552592715552
 20
4.331609833442862
 30
0.0
 40
0.8248031496063006
100
AcDbArc
 50
167.991070030998
 51
179.9999999999996
  0
LINE
  5
26F
330
234
100
AcDbEntity
  8
0
  6
Continuous
370
     0
100
AcDbLine
 10
1.557391907522145
 20
4.331609857729083
 30
0.0
 11
1.567749387871648
 21
4.331609857729083
 31
0.0
  0
LINE
  5
270
330
234
100
AcDbEntity
  8
0
  6
Continuous
370
     0
100
AcDbLine
 10
1.557391907522145
 20
0.7067423858407729
 30
0.0
 11
1.567749387871648
 21
0.7067423858407729
 31
0.0
  0
ELLIPSE
  5
271
330
234
100
AcDbEntity
  8
0
  6
Continuous
370
     0
100
AcDbEllipse
 10
1.567234325429691
 20
0.7075745594257619
 30
0.0
 11
-0.0004292946579331769
 21
0.3743533232377718
 31
0.0
210
0.0
220
0.0
230
1.0
 40
0.0013734725063854
 41
3.141651042732167
 42
4.710164505186612
  0
LINE
  5
272
330
234
100
AcDbEntity
  8
0
  6
Continuous
370
     0
100
AcDbLine
 10
1.567749387871648
 20
4.331609857729083
 30
0.0
 11
1.567749387871648
 21
0.7067423858407729
 31
0.0
  0
LINE
  5
273
330
234
100
AcDbEntity
  8
0
  6
Continuous
370
     0
100
AcDbLine
 10
1.882654776724391
 20
0.7204914936765725
 30
0.0
 11
1.882654776724391
 21
4.275437173307393
 31
0.0
  0
LINE
  5
274
330
234
100
AcDbEntity
  8
0
  6
Continuous
370
     0
100
AcDbLine
 10
1.567749387871648
 20
0.7067423858407729
 30
0.0
 11
1.882654776724391
 21
0.7204914936765725
 31
0.0
  0
ELLIPSE
  5
275
330
234
100
AcDbEntity
  8
0
  6
Continuous
370
     0
100
AcDbEllipse
 10
1.872352435647545
 20
0.7208963038163372
 30
0.0
 11
-0.008580637956788983
 21
0.3739973678690713
 31
0.0
210
0.0
220
0.0
230
1.0
 40
0.027507320404774
 41
3.142161977120616
 42
4.710675439583393
  0
LWPOLYLINE
  5
276
330
234
100
AcDbEntity
  8
0
  6
Continuous
370
     0
100
AcDbPolyline
 90
        9
 70
   128
 43
0.0
 10
2.312724141859719
 20
4.837709611221543
 10
2.322275404856047
 20
4.802063863004268
 10
2.331387846255013
 20
4.768055775868593
 10
2.339734109838264
 20
4.736906922369473
 10
2.347014559067226
 20
4.7097362095812
 10
2.352967543631174
 20
4.687519399565018
 10
2.357379226000377
 20
4.67105449643565
 10
2.360091354669635
 20
4.660932853361734
 10
2.361006397432315
 20
4.657518052809802
  0
LWPOLYLINE
  5
277
330
234
100
AcDbEntity
  8
0
  6
Continuous
370
     0
100
AcDbPolyline
 90
        9
 70
   128
 43
0.0
 10
4.153955124328332
 20
5.331065938593817
 10
4.163506387611116
 20
5.295420190376541
 10
4.172618818697701
 20
5.261412103240867
 10
4.180965121238835
 20
5.230263396406718
 10
4.188245510885153
 20
5.203092536953472
 10
4.19419849315746
 20
5.180875726937291
 10
4.198610253442429
 20
5.164410823807923
 10
4.201322331695603
 20
5.154289180734008
 10
4.202237310292358
 20
5.150874380182076
  0
LINE
  5
278
330
234
100
AcDbEntity
  8
0
  6
Continuous
370
     0
100
AcDbLine
 10
1.882654776724391
 20
4.275437173307393
 30
0.0
 11
2.069202795039097
 21
4.275437173307393
 31
0.0
  0
LINE
  5
279
330
234
100
AcDbEntity
  8
0
  6
Continuous
370
     0
100
AcDbLine
 10
1.882654776724391
 20
0.7204914936765725
 30
0.0
 11
2.069202795039097
 21
0.7204914936765725
 31
0.0
  0
LINE
  5
27A
330
234
100
AcDbEntity
  8
0
  6
Continuous
370
     0
100
AcDbLine
 10
0.6217098632676317
 20
0.9758356505857497
 30
0.0
 11
1.557391907522145
 21
0.9758356505857497
 31
0.0
  0
LINE
  5
27B
330
234
100
AcDbEntity
  8
0
  6
Continuous
370
     0
100
AcDbLine
 10
0.6217098632676317
 20
4.121681682837274
 30
0.0
 11
0.6217098632676317
 21
0.9758356505857497
 31
0.0
  0
LINE
  5
27C
330
234
100
AcDbEntity
  8
0
  6
Continuous
370
     0
100
AcDbLine
 10
1.557391907522145
 20
4.121681682837274
 30
0.0
 11
0.6217098632676317
 21
4.121681682837274
 31
0.0
  0
SPLINE
  5
27D
330
234
100
AcDbEntity
  8
0
  6
Continuous
370
     0
100
AcDbSpline
210
0.0
220
0.0
230
1.0
 70
     8
 71
     3
 72
    30
 73
    26
 74
     0
 42
0.000000001
 43
0.00000001
 40
0.0
 40
0.0
 40
0.0
 40
0.0
 40
0.0625000000000006
 40
0.0625000000000006
 40
0.1250000000000011
 40
0.1250000000000011
 40
0.1875000000000017
 40
0.1875000000000017
 40
0.2500000000000022
 40
0.2500000000000022
 40
0.3125000000000028
 40
0.3125000000000028
 40
0.3750000000000022
 40
0.3750000000000022
 40
0.5000000000000002
 40
0.5000000000000002
 40
0.5624999999999997
 40
0.5624999999999997
 40
0.6249999999999991
 40
0.6249999999999991
 40
0.7499999999999992
 40
0.7499999999999992
 40
0.8749999999999993
 40
0.8749999999999993
 40
1.0
 40
1.0
 40
1.0
 40
1.0
 10
0.6217098882166523
 20
4.515579285231857
 30
0.0
 10
0.6217098868509332
 20
4.515579285184163
 30
0.0
 10
0.621709894742227
 20
4.514931470233387
 30
0.0
 10
0.621709905100114
 20
4.512380907453842
 30
0.0
 10
0.6217099089675546
 20
4.510478095166322
 30
0.0
 10
0.6217099088815452
 20
4.505409541782024
 30
0.0
 10
0.6217099048988892
 20
4.502243559061347
 30
0.0
 10
0.6217098945356154
 20
4.494766699931615
 30
0.0
 10
0.6217098881607148
 20
4.490445679501727
 30
0.0
 10
0.6217098882732621
 20
4.480638292224203
 30
0.0
 10
0.6217098949032396
 20
4.475151821620381
 30
0.0
 10
0.6217099056001798
 20
4.463011787520626
 30
0.0
 10
0.6217099096545962
 20
4.456316659839478
 30
0.0
 10
0.6217099095963974
 20
4.434762880273048
 30
0.0
 10
0.6217098883797423
 20
4.418510033320596
 30
0.0
 10
0.621709888136162
 20
4.391319042637361
 30
0.0
 10
0.6217098947664921
 20
4.381782251863296
 30
0.0
 10
0.6217099055580801
 20
4.361745737294994
 30
0.0
 10
0.6217099096074028
 20
4.351328648779532
 30
0.0
 10
0.6217099096905354
 20
4.319278095461204
 30
0.0
 10
0.6217098885926493
 20
4.296710814843186
 30
0.0
 10
0.621709887848036
 20
4.249110272738406
 30
0.0
 10
0.6217099088848412
 20
4.223959812255062
 30
0.0
 10
0.6217099089648848
 20
4.173316219735449
 30
0.0
 10
0.621709888216655
 20
4.147668276113393
 30
0.0
 10
0.6217098882166558
 20
4.121681696144904
 30
0.0
  0
SPLINE
  5
27E
330
234
100
AcDbEntity
  8
0
  6
Continuous
370
     0
100
AcDbSpline
210
0.0
220
0.0
230
1.0
 70
     8
 71
     3
 72
    30
 73
    26
 74
     0
 42
0.000000001
 43
0.00000001
 40
0.0
 40
0.0
 40
0.0
 40
0.0
 40
0.0624999999999995
 40
0.0624999999999995
 40
0.1249999999999989
 40
0.1249999999999989
 40
0.1874999999999984
 40
0.1874999999999984
 40
0.2499999999999978
 40
0.2499999999999978
 40
0.3124999999999973
 40
0.3124999999999973
 40
0.3749999999999968
 40
0.3749999999999968
 40
0.4999999999999971
 40
0.4999999999999971
 40
0.5624999999999978
 40
0.5624999999999978
 40
0.6249999999999984
 40
0.6249999999999984
 40
0.7499999999999998
 40
0.7499999999999998
 40
0.875
 40
0.875
 40
1.0
 40
1.0
 40
1.0
 40
1.0
 10
0.6217098882167269
 20
0.9758355779819157
 30
0.0
 10
0.6217098868516775
 20
0.9629267812611833
 30
0.0
 10
0.621709894742299
 20
0.9499297329382594
 30
0.0
 10
0.6217099051001886
 20
0.9242364657648698
 30
0.0
 10
0.6217099089676301
 20
0.91145994572992
 30
0.0
 10
0.6217099088816207
 20
0.8860480117389873
 30
0.0
 10
0.6217099048989647
 20
0.8734450000035121
 30
0.0
 10
0.6217098945356909
 20
0.8488302265125416
 30
0.0
 10
0.6217098881607912
 20
0.8367626663236951
 30
0.0
 10
0.6217098882733385
 20
0.8131072668538053
 30
0.0
 10
0.6217098949033151
 20
0.8015194702845534
 30
0.0
 10
0.6217099056002597
 20
0.7788243169991258
 30
0.0
 10
0.6217099096546761
 20
0.7676580416318597
 30
0.0
 10
0.6217099095964782
 20
0.7354144874339905
 30
0.0
 10
0.6217098883798204
 20
0.7155967022895826
 30
0.0
 10
0.6217098881362393
 20
0.6883746345417823
 30
0.0
 10
0.621709894766572
 20
0.6797220618286692
 30
0.0
 10
0.621709905558161
 20
0.6632746730153007
 30
0.0
 10
0.6217099096074836
 20
0.6555540172915224
 30
0.0
 10
0.6217099096906162
 20
0.6341238971960586
 30
0.0
 10
0.6217098885927301
 20
0.6220044888770229
 30
0.0
 10
0.6217098878481186
 20
0.6022186087104542
 30
0.0
 10
0.6217099088849212
 20
0.5945905811779584
 30
0.0
 10
0.6217099089649656
 20
0.5845063967339703
 30
0.0
 10
0.6217098882167376
 20
0.5819379888951435
 30
0.0
 10
0.6217098882167393
 20
0.5819379888949632
 30
0.0
  0
LINE
  5
27F
330
234
100
AcDbEntity
  8
0
  6
Continuous
370
     0
100
AcDbLine
 10
0.6122109596664433
 20
0.9758356505857497
 30
0.0
 11
0.6217098632676317
 21
0.9758356505857497
 31
0.0
  0
LINE
  5
280
330
234
100
AcDbEntity
  8
0
  6
Continuous
370
     0
100
AcDbLine
 10
0.6122109596664433
 20
4.121681682837274
 30
0.0
 11
0.6217098632676317
 21
4.121681682837274
 31
0.0
  0
ENDBLK
  5
236
330
234
100
AcDbEntity
  8
0
100
AcDbBlockEnd
  0
ENDSEC
  0
SECTION
  2
ENTITIES
  0
INSERT
  5
233
330
1F
100
AcDbEntity
  8
0
100
AcDbBlockReference
  2
CUMA MINI
 10
0.0
 20
0.0
 30
0.0
  0
INSERT
  5
281
330
1F
100
AcDbEntity
  8
0
100
AcDbBlockReference
  2
CUMA MINI-1
 10
0.0
 20
0.0
 30
0.0
  0
ENDSEC
  0
SECTION
  2
OBJECTS
  0
DICTIONARY
  5
C
330
0
100
AcDbDictionary
281
     1
  3
ACAD_DETAILVIEWSTYLE
350
287
  3
ACAD_GROUP
350
D
  3
ACAD_IMAGE_VARS
350
1C9
  3
ACAD_LAYOUT
350
1A
  3
ACAD_MLINESTYLE
350
17
  3
ACAD_PLOTSETTINGS
350
19
  3
ACAD_PLOTSTYLENAME
350
E
  3
ACAD_SCALELIST
350
19F
  3
ACAD_SECTIONVIEWSTYLE
350
288
  3
AcDbVariableDictionary
350
282
  3
APPDATA
350
1C7
  3
DWGPROPS
350
289
  0
DICTIONARY
  5
287
102
{ACAD_REACTORS
330
C
102
}
330
C
100
AcDbDictionary
281
     1
  0
DICTIONARY
  5
D
102
{ACAD_REACTORS
330
C
102
}
330
C
100
AcDbDictionary
281
     1
  0
RASTERVARIABLES
  5
1C9
102
{ACAD_REACTORS
330
C
102
}
330
C
100
AcDbRasterVariables
 90
        0
 70
     1
 71
     1
 72
     5
  0
DICTIONARY
  5
1A
102
{ACAD_REACTORS
330
C
102
}
330
C
100
AcDbDictionary
281
     1
  3
Layout1
350
1E
  3
Layout2
350
26
  3
Model
350
22
  0
DICTIONARY
  5
17
102
{ACAD_REACTORS
330
C
102
}
330
C
100
AcDbDictionary
281
     1
  3
Standard
350
18
  0
DICTIONARY
  5
19
102
{ACAD_REACTORS
330
C
102
}
330
C
100
AcDbDictionary
281
     1
  0
ACDBDICTIONARYWDFLT
  5
E
102
{ACAD_REACTORS
330
C
102
}
330
C
100
AcDbDictionary
281
     1
  3
Normal
350
F
100
AcDbDictionaryWithDefault
340
F
  0
DICTIONARY
  5
19F
102
{ACAD_REACTORS
330
C
102
}
330
C
100
AcDbDictionary
281
     1
  3
A0
350
1A0
  3
A1
350
1A1
  3
A2
350
1A2
  3
A3
350
1A3
  3
A4
350
1A4
  3
A5
350
1A5
  3
A6
350
1A6
  3
A7
350
1A7
  3
A8
350
1A8
  3
A9
350
1A9
  3
B0
350
1AA
  3
B1
350
1AB
  3
B2
350
1AC
  3
B3
350
1AD
  3
B4
350
1AE
  3
B5
350
1AF
  3
B6
350
1B0
  3
B7
350
1B1
  3
B8
350
1B2
  3
B9
350
1B3
  3
C0
350
1B4
  3
C1
350
1B5
  3
C2
350
1B6
  3
C3
350
1B7
  3
C4
350
1B8
  3
C5
350
1B9
  3
C6
350
1BA
  3
C7
350
1BB
  3
C8
350
1BC
  3
C9
350
1BD
  3
D0
350
1BE
  3
D1
350
1BF
  3
D2
350
1C0
  0
DICTIONARY
  5
288
102
{ACAD_REACTORS
330
C
102
}
330
C
100
AcDbDictionary
281
     1
  0
DICTIONARY
  5
282
102
{ACAD_REACTORS
330
C
102
}
330
C
100
AcDbDictionary
281
     1
  0
DICTIONARY
  5
1C7
102
{ACAD_REACTORS
330
C
102
}
330
C
100
AcDbDictionary
281
     1
  0
XRECORD
  5
289
102
{ACAD_REACTORS
330
C
102
}
330
C
100
AcDbXrecord
280
     1
  1
DWGPROPS COOKIE
  2

  3

  4

  6

  7

  8
egaignard
  9

300
=
301
=
302
=
303
=
304
=
305
=
306
=
307
=
308
=
309
=
 40
0.0
 41
2457722.743332164
 42
2457722.744769202
  1

 90
        0
  0
LAYOUT
  5
1E
102
{ACAD_REACTORS
330
1A
102
}
330
1A
100
AcDbPlotSettings
  1

  2
none_device
  4

  6

 40
0.0
 41
0.0
 42
0.0
 43
0.0
 44
0.0
 45
0.0
 46
0.0
 47
0.0
 48
0.0
 49
0.0
140
0.0
141
0.0
142
1.0
143
1.0
 70
   688
 72
     0
 73
     0
 74
     5
  7

 75
    16
147
1.0
148
0.0
149
0.0
100
AcDbLayout
  1
Layout1
 70
     1
 71
     1
 10
0.0
 20
0.0
 11
12.0
 21
9.0
 12
0.0
 22
0.0
 32
0.0
 14
1.000000000000000E+20
 24
1.000000000000000E+20
 34
1.000000000000000E+20
 15
-1.000000000000000E+20
 25
-1.000000000000000E+20
 35
-1.000000000000000E+20
146
0.0
 13
0.0
 23
0.0
 33
0.0
 16
1.0
 26
0.0
 36
0.0
 17
0.0
 27
1.0
 37
0.0
 76
     0
330
1B
  0
LAYOUT
  5
26
102
{ACAD_REACTORS
330
1A
102
}
330
1A
100
AcDbPlotSettings
  1

  2
none_device
  4

  6

 40
0.0
 41
0.0
 42
0.0
 43
0.0
 44
0.0
 45
0.0
 46
0.0
 47
0.0
 48
0.0
 49
0.0
140
0.0
141
0.0
142
1.0
143
1.0
 70
   688
 72
     0
 73
     0
 74
     5
  7

 75
    16
147
1.0
148
0.0
149
0.0
100
AcDbLayout
  1
Layout2
 70
     1
 71
     2
 10
0.0
 20
0.0
 11
0.0
 21
0.0
 12
0.0
 22
0.0
 32
0.0
 14
0.0
 24
0.0
 34
0.0
 15
0.0
 25
0.0
 35
0.0
146
0.0
 13
0.0
 23
0.0
 33
0.0
 16
1.0
 26
0.0
 36
0.0
 17
0.0
 27
1.0
 37
0.0
 76
     0
330
23
  0
LAYOUT
  5
22
102
{ACAD_REACTORS
330
1A
102
}
330
1A
100
AcDbPlotSettings
  1

  2
none_device
  4

  6

 40
0.0
 41
0.0
 42
0.0
 43
0.0
 44
0.0
 45
0.0
 46
0.0
 47
0.0
 48
0.0
 49
0.0
140
0.0
141
0.0
142
1.0
143
1.0
 70
  1712
 72
     0
 73
     0
 74
     0
  7

 75
     0
147
1.0
148
0.0
149
0.0
100
AcDbLayout
  1
Model
 70
     1
 71
     0
 10
0.0
 20
0.0
 11
22.0
 21
17.0
 12
0.0
 22
0.0
 32
0.0
 14
0.6121109341552797
 24
0.333211868962743
 34
-0.0000000000000013
 15
12.70359146546297
 25
5.739836323110119
 35
0.0
146
0.0
 13
0.0
 23
0.0
 33
0.0
 16
1.0
 26
0.0
 36
0.0
 17
0.0
 27
1.0
 37
0.0
 76
     0
330
1F
331
29
  0
MLINESTYLE
  5
18
102
{ACAD_REACTORS
330
17
102
}
330
17
100
AcDbMlineStyle
  2
Standard
 70
     0
  3

 62
   256
 51
90.0
 52
90.0
 71
     2
 49
0.5
 62
   256
  6
BYLAYER
 49
-0.5
 62
   256
  6
BYLAYER
  0
ACDBPLACEHOLDER
  5
F
102
{ACAD_REACTORS
330
E
102
}
330
E
  0
SCALE
  5
1A0
102
{ACAD_REACTORS
330
19F
102
}
330
19F
100
AcDbScale
 70
     0
300
1:1
140
1.0
141
1.0
290
     1
  0
SCALE
  5
1A1
102
{ACAD_REACTORS
330
19F
102
}
330
19F
100
AcDbScale
 70
     0
300
1:2
140
1.0
141
2.0
290
     0
  0
SCALE
  5
1A2
102
{ACAD_REACTORS
330
19F
102
}
330
19F
100
AcDbScale
 70
     0
300
1:4
140
1.0
141
4.0
290
     0
  0
SCALE
  5
1A3
102
{ACAD_REACTORS
330
19F
102
}
330
19F
100
AcDbScale
 70
     0
300
1:5
140
1.0
141
5.0
290
     0
  0
SCALE
  5
1A4
102
{ACAD_REACTORS
330
19F
102
}
330
19F
100
AcDbScale
 70
     0
300
1:8
140
1.0
141
8.0
290
     0
  0
SCALE
  5
1A5
102
{ACAD_REACTORS
330
19F
102
}
330
19F
100
AcDbScale
 70
     0
300
1:10
140
1.0
141
10.0
290
     0
  0
SCALE
  5
1A6
102
{ACAD_REACTORS
330
19F
102
}
330
19F
100
AcDbScale
 70
     0
300
1:16
140
1.0
141
16.0
290
     0
  0
SCALE
  5
1A7
102
{ACAD_REACTORS
330
19F
102
}
330
19F
100
AcDbScale
 70
     0
300
1:20
140
1.0
141
20.0
290
     0
  0
SCALE
  5
1A8
102
{ACAD_REACTORS
330
19F
102
}
330
19F
100
AcDbScale
 70
     0
300
1:30
140
1.0
141
30.0
290
     0
  0
SCALE
  5
1A9
102
{ACAD_REACTORS
330
19F
102
}
330
19F
100
AcDbScale
 70
     0
300
1:40
140
1.0
141
40.0
290
     0
  0
SCALE
  5
1AA
102
{ACAD_REACTORS
330
19F
102
}
330
19F
100
AcDbScale
 70
     0
300
1:50
140
1.0
141
50.0
290
     0
  0
SCALE
  5
1AB
102
{ACAD_REACTORS
330
19F
102
}
330
19F
100
AcDbScale
 70
     0
300
1:100
140
1.0
141
100.0
290
     0
  0
SCALE
  5
1AC
102
{ACAD_REACTORS
330
19F
102
}
330
19F
100
AcDbScale
 70
     0
300
2:1
140
2.0
141
1.0
290
     0
  0
SCALE
  5
1AD
102
{ACAD_REACTORS
330
19F
102
}
330
19F
100
AcDbScale
 70
     0
300
4:1
140
4.0
141
1.0
290
     0
  0
SCALE
  5
1AE
102
{ACAD_REACTORS
330
19F
102
}
330
19F
100
AcDbScale
 70
     0
300
8:1
140
8.0
141
1.0
290
     0
  0
SCALE
  5
1AF
102
{ACAD_REACTORS
330
19F
102
}
330
19F
100
AcDbScale
 70
     0
300
10:1
140
10.0
141
1.0
290
     0
  0
SCALE
  5
1B0
102
{ACAD_REACTORS
330
19F
102
}
330
19F
100
AcDbScale
 70
     0
300
100:1
140
100.0
141
1.0
290
     0
  0
SCALE
  5
1B1
102
{ACAD_REACTORS
330
19F
102
}
330
19F
100
AcDbScale
 70
     0
300
1/128" = 1'-0"
140
0.0078125
141
12.0
290
     0
  0
SCALE
  5
1B2
102
{ACAD_REACTORS
330
19F
102
}
330
19F
100
AcDbScale
 70
     0
300
1/64" = 1'-0"
140
0.015625
141
12.0
290
     0
  0
SCALE
  5
1B3
102
{ACAD_REACTORS
330
19F
102
}
330
19F
100
AcDbScale
 70
     0
300
1/32" = 1'-0"
140
0.03125
141
12.0
290
     0
  0
SCALE
  5
1B4
102
{ACAD_REACTORS
330
19F
102
}
330
19F
100
AcDbScale
 70
     0
300
1/16" = 1'-0"
140
0.0625
141
12.0
290
     0
  0
SCALE
  5
1B5
102
{ACAD_REACTORS
330
19F
102
}
330
19F
100
AcDbScale
 70
     0
300
3/32" = 1'-0"
140
0.09375
141
12.0
290
     0
  0
SCALE
  5
1B6
102
{ACAD_REACTORS
330
19F
102
}
330
19F
100
AcDbScale
 70
     0
300
1/8" = 1'-0"
140
0.125
141
12.0
290
     0
  0
SCALE
  5
1B7
102
{ACAD_REACTORS
330
19F
102
}
330
19F
100
AcDbScale
 70
     0
300
3/16" = 1'-0"
140
0.1875
141
12.0
290
     0
  0
SCALE
  5
1B8
102
{ACAD_REACTORS
330
19F
102
}
330
19F
100
AcDbScale
 70
     0
300
1/4" = 1'-0"
140
0.25
141
12.0
290
     0
  0
SCALE
  5
1B9
102
{ACAD_REACTORS
330
19F
102
}
330
19F
100
AcDbScale
 70
     0
300
3/8" = 1'-0"
140
0.375
141
12.0
290
     0
  0
SCALE
  5
1BA
102
{ACAD_REACTORS
330
19F
102
}
330
19F
100
AcDbScale
 70
     0
300
1/2" = 1'-0"
140
0.5
141
12.0
290
     0
  0
SCALE
  5
1BB
102
{ACAD_REACTORS
330
19F
102
}
330
19F
100
AcDbScale
 70
     0
300
3/4" = 1'-0"
140
0.75
141
12.0
290
     0
  0
SCALE
  5
1BC
102
{ACAD_REACTORS
330
19F
102
}
330
19F
100
AcDbScale
 70
     0
300
1" = 1'-0"
140
1.0
141
12.0
290
     0
  0
SCALE
  5
1BD
102
{ACAD_REACTORS
330
19F
102
}
330
19F
100
AcDbScale
 70
     0
300
1-1/2" = 1'-0"
140
1.5
141
12.0
290
     0
  0
SCALE
  5
1BE
102
{ACAD_REACTORS
330
19F
102
}
330
19F
100
AcDbScale
 70
     0
300
3" = 1'-0"
140
3.0
141
12.0
290
     0
  0
SCALE
  5
1BF
102
{ACAD_REACTORS
330
19F
102
}
330
19F
100
AcDbScale
 70
     0
300
6" = 1'-0"
140
6.0
141
12.0
290
     0
  0
SCALE
  5
1C0
102
{ACAD_REACTORS
330
19F
102
}
330
19F
100
AcDbScale
 70
     0
300
1'-0" = 1'-0"
140
12.0
141
12.0
290
     0
  0
ENDSEC
  0
EOF
