  0
SECTION
  2
HEADER
  9
$ACADVER
  1
AC1018
  9
$ACADMAINTVER
 70
     0
  9
$DWGCODEPAGE
  3
ANSI_1252
  9
$INSBASE
 10
0.0
 20
0.0
 30
0.0
  9
$EXTMIN
 10
739.5295685593469
 20
100.9600117217227
 30
0.0
  9
$EXTMAX
 10
1231.081520106958
 20
488.4648118978884
 30
0.0
  9
$LIMMIN
 10
0.0
 20
0.0
  9
$LIMMAX
 10
12.0
 20
9.0
  9
$ORTHOMODE
 70
     0
  9
$REGENMODE
 70
     1
  9
$FILLMODE
 70
     1
  9
$QTEXTMODE
 70
     0
  9
$MIRRTEXT
 70
     1
  9
$LTSCALE
 40
1.0
  9
$ATTMODE
 70
     1
  9
$TEXTSIZE
 40
0.2
  9
$TRACEWID
 40
0.05
  9
$TEXTSTYLE
  7
Standard
  9
$CLAYER
  8
Predefinito
  9
$CELTYPE
  6
ByLayer
  9
$CECOLOR
 62
   256
  9
$CELTSCALE
 40
1.0
  9
$DISPSILH
 70
     0
  9
$DIMSCALE
 40
1.0
  9
$DIMASZ
 40
0.18
  9
$DIMEXO
 40
0.0625
  9
$DIMDLI
 40
0.38
  9
$DIMRND
 40
0.0
  9
$DIMDLE
 40
0.0
  9
$DIMEXE
 40
0.18
  9
$DIMTP
 40
0.0
  9
$DIMTM
 40
0.0
  9
$DIMTXT
 40
0.18
  9
$DIMCEN
 40
0.09
  9
$DIMTSZ
 40
0.0
  9
$DIMTOL
 70
     0
  9
$DIMLIM
 70
     0
  9
$DIMTIH
 70
     1
  9
$DIMTOH
 70
     1
  9
$DIMSE1
 70
     0
  9
$DIMSE2
 70
     0
  9
$DIMTAD
 70
     0
  9
$DIMZIN
 70
     0
  9
$DIMBLK
  1

  9
$DIMASO
 70
     1
  9
$DIMSHO
 70
     1
  9
$DIMPOST
  1

  9
$DIMAPOST
  1

  9
$DIMALT
 70
     0
  9
$DIMALTD
 70
     2
  9
$DIMALTF
 40
25.4
  9
$DIMLFAC
 40
1.0
  9
$DIMTOFL
 70
     0
  9
$DIMTVP
 40
0.0
  9
$DIMTIX
 70
     0
  9
$DIMSOXD
 70
     0
  9
$DIMSAH
 70
     0
  9
$DIMBLK1
  1

  9
$DIMBLK2
  1

  9
$DIMSTYLE
  2
Standard
  9
$DIMCLRD
 70
     0
  9
$DIMCLRE
 70
     0
  9
$DIMCLRT
 70
     0
  9
$DIMTFAC
 40
1.0
  9
$DIMGAP
 40
0.09
  9
$DIMJUST
 70
     0
  9
$DIMSD1
 70
     0
  9
$DIMSD2
 70
     0
  9
$DIMTOLJ
 70
     1
  9
$DIMTZIN
 70
     0
  9
$DIMALTZ
 70
     0
  9
$DIMALTTZ
 70
     0
  9
$DIMUPT
 70
     0
  9
$DIMDEC
 70
     4
  9
$DIMTDEC
 70
     4
  9
$DIMALTU
 70
     2
  9
$DIMALTTD
 70
     2
  9
$DIMTXSTY
  7
Standard
  9
$DIMAUNIT
 70
     0
  9
$DIMADEC
 70
     0
  9
$DIMALTRND
 40
0.0
  9
$DIMAZIN
 70
     0
  9
$DIMDSEP
 70
    46
  9
$DIMATFIT
 70
     3
  9
$DIMFRAC
 70
     0
  9
$DIMLDRBLK
  1

  9
$DIMLUNIT
 70
     2
  9
$DIMLWD
 70
    -2
  9
$DIMLWE
 70
    -2
  9
$DIMTMOVE
 70
     2
  9
$LUNITS
 70
     2
  9
$LUPREC
 70
     3
  9
$SKETCHINC
 40
0.1
  9
$FILLETRAD
 40
0.5
  9
$AUNITS
 70
     0
  9
$AUPREC
 70
     0
  9
$MENU
  1
.
  9
$ELEVATION
 40
0.0
  9
$PELEVATION
 40
0.0
  9
$THICKNESS
 40
0.0
  9
$LIMCHECK
 70
     0
  9
$CHAMFERA
 40
0.5
  9
$CHAMFERB
 40
0.5
  9
$CHAMFERC
 40
1.0
  9
$CHAMFERD
 40
0.0
  9
$SKPOLY
 70
     0
  9
$TDCREATE
 40
2456595.704516968
  9
$TDUCREATE
 40
2456595.662850301
  9
$TDUPDATE
 40
2456595.704516979
  9
$TDUUPDATE
 40
2456595.662850312
  9
$TDINDWG
 40
0.0000000116
  9
$TDUSRTIMER
 40
0.0000000116
  9
$USRTIMER
 70
     1
  9
$ANGBASE
 50
0.0
  9
$ANGDIR
 70
     0
  9
$PDMODE
 70
     0
  9
$PDSIZE
 40
0.0
  9
$PLINEWID
 40
0.0
  9
$SPLFRAME
 70
     0
  9
$SPLINETYPE
 70
     6
  9
$SPLINESEGS
 70
     8
  9
$HANDSEED
  5
118
  9
$SURFTAB1
 70
     6
  9
$SURFTAB2
 70
     6
  9
$SURFTYPE
 70
     6
  9
$SURFU
 70
     6
  9
$SURFV
 70
     6
  9
$UCSBASE
  2

  9
$UCSNAME
  2

  9
$UCSORG
 10
0.0
 20
0.0
 30
0.0
  9
$UCSXDIR
 10
1.0
 20
0.0
 30
0.0
  9
$UCSYDIR
 10
0.0
 20
1.0
 30
0.0
  9
$UCSORTHOREF
  2

  9
$UCSORTHOVIEW
 70
     0
  9
$UCSORGTOP
 10
0.0
 20
0.0
 30
0.0
  9
$UCSORGBOTTOM
 10
0.0
 20
0.0
 30
0.0
  9
$UCSORGLEFT
 10
0.0
 20
0.0
 30
0.0
  9
$UCSORGRIGHT
 10
0.0
 20
0.0
 30
0.0
  9
$UCSORGFRONT
 10
0.0
 20
0.0
 30
0.0
  9
$UCSORGBACK
 10
0.0
 20
0.0
 30
0.0
  9
$PUCSBASE
  2

  9
$PUCSNAME
  2

  9
$PUCSORG
 10
0.0
 20
0.0
 30
0.0
  9
$PUCSXDIR
 10
1.0
 20
0.0
 30
0.0
  9
$PUCSYDIR
 10
0.0
 20
1.0
 30
0.0
  9
$PUCSORTHOREF
  2

  9
$PUCSORTHOVIEW
 70
     0
  9
$PUCSORGTOP
 10
0.0
 20
0.0
 30
0.0
  9
$PUCSORGBOTTOM
 10
0.0
 20
0.0
 30
0.0
  9
$PUCSORGLEFT
 10
0.0
 20
0.0
 30
0.0
  9
$PUCSORGRIGHT
 10
0.0
 20
0.0
 30
0.0
  9
$PUCSORGFRONT
 10
0.0
 20
0.0
 30
0.0
  9
$PUCSORGBACK
 10
0.0
 20
0.0
 30
0.0
  9
$USERI1
 70
     0
  9
$USERI2
 70
     0
  9
$USERI3
 70
     0
  9
$USERI4
 70
     0
  9
$USERI5
 70
     0
  9
$USERR1
 40
0.0
  9
$USERR2
 40
0.0
  9
$USERR3
 40
0.0
  9
$USERR4
 40
0.0
  9
$USERR5
 40
0.0
  9
$WORLDVIEW
 70
     1
  9
$SHADEDGE
 70
     3
  9
$SHADEDIF
 70
    70
  9
$TILEMODE
 70
     1
  9
$MAXACTVP
 70
    64
  9
$PINSBASE
 10
0.0
 20
0.0
 30
0.0
  9
$PLIMCHECK
 70
     0
  9
$PEXTMIN
 10
1.000000000000000E+20
 20
1.000000000000000E+20
 30
1.000000000000000E+20
  9
$PEXTMAX
 10
-1.000000000000000E+20
 20
-1.000000000000000E+20
 30
-1.000000000000000E+20
  9
$PLIMMIN
 10
0.0
 20
0.0
  9
$PLIMMAX
 10
12.0
 20
9.0
  9
$UNITMODE
 70
     0
  9
$VISRETAIN
 70
     1
  9
$PLINEGEN
 70
     0
  9
$PSLTSCALE
 70
     1
  9
$TREEDEPTH
 70
  3020
  9
$CMLSTYLE
  2
Standard
  9
$CMLJUST
 70
     0
  9
$CMLSCALE
 40
1.0
  9
$PROXYGRAPHICS
 70
     1
  9
$MEASUREMENT
 70
     0
  9
$CELWEIGHT
370
    -1
  9
$ENDCAPS
280
     0
  9
$JOINSTYLE
280
     0
  9
$LWDISPLAY
290
     0
  9
$INSUNITS
 70
     4
  9
$HYPERLINKBASE
  1

  9
$STYLESHEET
  1

  9
$XEDIT
290
     1
  9
$CEPSNTYPE
380
     0
  9
$PSTYLEMODE
290
     1
  9
$FINGERPRINTGUID
  2
{7D50AA62-5FDA-49D5-99B7-8D2329BAC53C}
  9
$VERSIONGUID
  2
{FAEB1C32-E019-11D5-929B-00C0DF256EC4}
  9
$EXTNAMES
290
     1
  9
$PSVPSCALE
 40
0.0
  9
$OLESTARTUP
290
     0
  9
$SORTENTS
280
   127
  9
$INDEXCTL
280
     0
  9
$HIDETEXT
280
     1
  9
$XCLIPFRAME
290
     0
  9
$HALOGAP
280
     0
  9
$OBSCOLOR
 70
   257
  9
$OBSLTYPE
280
     0
  9
$INTERSECTIONDISPLAY
280
     0
  9
$INTERSECTIONCOLOR
 70
   257
  9
$DIMASSOC
280
     2
  9
$PROJECTNAME
  1

  0
ENDSEC
  0
SECTION
  2
CLASSES
  0
CLASS
  1
ACDBDICTIONARYWDFLT
  2
AcDbDictionaryWithDefault
  3
ObjectDBX Classes
 90
        0
 91
        4
280
     0
281
     0
  0
CLASS
  1
VISUALSTYLE
  2
AcDbVisualStyle
  3
ObjectDBX Classes
 90
     4095
 91
        4
280
     0
281
     0
  0
ENDSEC
  0
SECTION
  2
TABLES
  0
TABLE
  2
VPORT
  5
8
330
0
100
AcDbSymbolTable
 70
     1
  0
VPORT
  5
29
330
8
100
AcDbSymbolTableRecord
100
AcDbViewportTableRecord
  2
*Active
 70
     0
 10
0.0
 20
0.0
 11
1.0
 21
1.0
 12
985.3055443331523
 22
294.7124118098055
 13
0.0
 23
0.0
 14
0.5
 24
0.5
 15
0.5
 25
0.5
 16
0.0
 26
0.0
 36
1.0
 17
0.0
 27
0.0
 37
0.0
 40
395.254896179689
 41
1.26850545160768
 42
50.0
 43
0.0
 44
0.0
 50
0.0
 51
0.0
 71
     0
 72
   100
 73
     1
 74
     3
 75
     0
 76
     0
 77
     0
 78
     0
281
     0
 65
     1
110
0.0
120
0.0
130
0.0
111
1.0
121
0.0
131
0.0
112
0.0
122
1.0
132
0.0
 79
     0
146
0.0
  0
ENDTAB
  0
TABLE
  2
LTYPE
  5
5
330
0
100
AcDbSymbolTable
 70
     1
  0
LTYPE
  5
14
330
5
100
AcDbSymbolTableRecord
100
AcDbLinetypeTableRecord
  2
ByBlock
 70
     0
  3

 72
    65
 73
     0
 40
0.0
  0
LTYPE
  5
15
330
5
100
AcDbSymbolTableRecord
100
AcDbLinetypeTableRecord
  2
ByLayer
 70
     0
  3

 72
    65
 73
     0
 40
0.0
  0
LTYPE
  5
16
330
5
100
AcDbSymbolTableRecord
100
AcDbLinetypeTableRecord
  2
Continuous
 70
     0
  3
Solid line
 72
    65
 73
     0
 40
0.0
  0
ENDTAB
  0
TABLE
  2
LAYER
  5
2
330
0
100
AcDbSymbolTable
 70
     4
  0
LAYER
  5
10
330
2
100
AcDbSymbolTableRecord
100
AcDbLayerTableRecord
  2
0
 70
     0
 62
     7
  6
Continuous
370
    -3
390
F
  0
LAYER
  5
3B
330
2
100
AcDbSymbolTableRecord
100
AcDbLayerTableRecord
  2
Predefinito
 70
     0
 62
     7
  6
Continuous
370
    -3
390
F
  0
LAYER
  5
4C
330
2
100
AcDbSymbolTableRecord
100
AcDbLayerTableRecord
  2
Linee visibili 2D
 70
     0
 62
     7
  6
Continuous
370
    -3
390
F
  0
LAYER
  5
53
330
2
100
AcDbSymbolTableRecord
100
AcDbLayerTableRecord
  2
Linee visibili 2D - Tangent
 70
     0
 62
     7
  6
Continuous
370
    -3
390
F
  0
ENDTAB
  0
TABLE
  2
STYLE
  5
3
330
0
100
AcDbSymbolTable
 70
     1
  0
STYLE
  5
11
330
3
100
AcDbSymbolTableRecord
100
AcDbTextStyleTableRecord
  2
Standard
 70
     0
 40
0.0
 41
1.0
 50
0.0
 71
     0
 42
0.2
  3
txt
  4

  0
ENDTAB
  0
TABLE
  2
VIEW
  5
6
330
0
100
AcDbSymbolTable
 70
     0
  0
ENDTAB
  0
TABLE
  2
UCS
  5
7
330
0
100
AcDbSymbolTable
 70
     0
  0
ENDTAB
  0
TABLE
  2
APPID
  5
9
330
0
100
AcDbSymbolTable
 70
     1
  0
APPID
  5
12
330
9
100
AcDbSymbolTableRecord
100
AcDbRegAppTableRecord
  2
ACAD
 70
     0
  0
ENDTAB
  0
TABLE
  2
DIMSTYLE
  5
A
330
0
100
AcDbSymbolTable
 70
     1
100
AcDbDimStyleTable
  0
DIMSTYLE
105
27
330
A
100
AcDbSymbolTableRecord
100
AcDbDimStyleTableRecord
  2
Standard
 70
     0
340
11
  0
ENDTAB
  0
TABLE
  2
BLOCK_RECORD
  5
1
330
0
100
AcDbSymbolTable
 70
     1
  0
BLOCK_RECORD
  5
1F
330
1
100
AcDbSymbolTableRecord
100
AcDbBlockTableRecord
  2
*Model_Space
340
22
  0
BLOCK_RECORD
  5
1B
330
1
100
AcDbSymbolTableRecord
100
AcDbBlockTableRecord
  2
*Paper_Space
340
1E
  0
BLOCK_RECORD
  5
23
330
1
100
AcDbSymbolTableRecord
100
AcDbBlockTableRecord
  2
*Paper_Space0
340
26
  0
ENDTAB
  0
ENDSEC
  0
SECTION
  2
BLOCKS
  0
BLOCK
  5
20
330
1F
100
AcDbEntity
  8
0
100
AcDbBlockBegin
  2
*Model_Space
 70
     0
 10
0.0
 20
0.0
 30
0.0
  3
*Model_Space
  1

  0
ENDBLK
  5
21
330
1F
100
AcDbEntity
  8
0
100
AcDbBlockEnd
  0
BLOCK
  5
1C
330
1B
100
AcDbEntity
 67
     1
  8
0
100
AcDbBlockBegin
  2
*Paper_Space
 70
     0
 10
0.0
 20
0.0
 30
0.0
  3
*Paper_Space
  1

  0
ENDBLK
  5
1D
330
1B
100
AcDbEntity
 67
     1
  8
0
100
AcDbBlockEnd
  0
BLOCK
  5
24
330
23
100
AcDbEntity
  8
0
100
AcDbBlockBegin
  2
*Paper_Space0
 70
     0
 10
0.0
 20
0.0
 30
0.0
  3
*Paper_Space0
  1

  0
ENDBLK
  5
25
330
23
100
AcDbEntity
  8
0
100
AcDbBlockEnd
  0
ENDSEC
  0
SECTION
  2
ENTITIES
  0
POLYLINE
  5
3C
330
1F
100
AcDbEntity
  8
Predefinito
100
AcDb2dPolyline
 66
     1
 10
0.0
 20
0.0
 30
0.0
  0
VERTEX
  5
3D
330
3C
100
AcDbEntity
  8
Predefinito
100
AcDbVertex
100
AcDb2dVertex
 10
932.5324055460732
 20
240.3316053326575
 30
0.0
  0
VERTEX
  5
3E
330
3C
100
AcDbEntity
  8
Predefinito
100
AcDbVertex
100
AcDb2dVertex
 10
932.5324055462414
 20
216.6103372049634
 30
0.0
  0
SEQEND
  5
3F
330
3C
100
AcDbEntity
  8
Predefinito
  0
POLYLINE
  5
40
330
1F
100
AcDbEntity
  8
Predefinito
100
AcDb2dPolyline
 66
     1
 10
0.0
 20
0.0
 30
0.0
  0
VERTEX
  5
41
330
40
100
AcDbEntity
  8
Predefinito
100
AcDbVertex
100
AcDb2dVertex
 10
746.5356287782242
 20
240.3316051074766
 30
0.0
  0
VERTEX
  5
42
330
40
100
AcDbEntity
  8
Predefinito
100
AcDbVertex
100
AcDb2dVertex
 10
746.5356287783925
 20
216.6103372036443
 30
0.0
  0
SEQEND
  5
43
330
40
100
AcDbEntity
  8
Predefinito
  0
POLYLINE
  5
44
330
1F
100
AcDbEntity
  8
Predefinito
100
AcDb2dPolyline
 66
     1
 10
0.0
 20
0.0
 30
0.0
  0
VERTEX
  5
45
330
44
100
AcDbEntity
  8
Predefinito
100
AcDbVertex
100
AcDb2dVertex
 10
1091.711380970128
 20
346.559209754774
 30
0.0
  0
VERTEX
  5
46
330
44
100
AcDbEntity
  8
Predefinito
100
AcDbVertex
100
AcDb2dVertex
 10
1115.434987816431
 20
346.5616749977193
 30
0.0
  0
SEQEND
  5
47
330
44
100
AcDbEntity
  8
Predefinito
  0
POLYLINE
  5
48
330
1F
100
AcDbEntity
  8
Predefinito
100
AcDb2dPolyline
 66
     1
 10
0.0
 20
0.0
 30
0.0
  0
VERTEX
  5
49
330
48
100
AcDbEntity
  8
Predefinito
100
AcDbVertex
100
AcDb2dVertex
 10
1091.710645366208
 20
441.443142377864
 30
0.0
  0
VERTEX
  5
4A
330
48
100
AcDbEntity
  8
Predefinito
100
AcDbVertex
100
AcDb2dVertex
 10
1115.428777635554
 20
441.4451631303626
 30
0.0
  0
SEQEND
  5
4B
330
48
100
AcDbEntity
  8
Predefinito
  0
SPLINE
  5
4D
330
1F
100
AcDbEntity
  8
Linee visibili 2D
100
AcDbSpline
210
0.0
220
0.0
230
1.0
 70
    12
 71
     2
 72
     6
 73
     3
 74
     0
 42
0.0000000001
 43
0.0000000001
 40
0.0
 40
0.0
 40
0.0
 40
0.647617125743591
 40
0.647617125743591
 40
0.647617125743591
 10
1208.220120835088
 20
482.9088645175101
 30
0.0
 41
1.0
 10
1208.13602303426
 20
483.2215617277143
 30
0.0
 41
0.999999999999855
 10
1208.051925570151
 20
483.5342590284887
 30
0.0
 41
1.0
  0
SPLINE
  5
4E
330
1F
100
AcDbEntity
  8
Linee visibili 2D
100
AcDbSpline
210
0.0
220
0.0
230
1.0
 70
    12
 71
     2
 72
     6
 73
     3
 74
     0
 42
0.0000000001
 43
0.0000000001
 40
0.0
 40
0.0
 40
0.0
 40
7.499931057029019
 40
7.499931057029019
 40
7.499931057029019
 10
1123.519867915096
 20
340.8061111323836
 30
0.0
 41
1.0
 10
1128.16623646125
 20
341.1328014617536
 30
0.0
 41
0.7317106889643218
 10
1128.169333815737
 20
345.7906397634114
 30
0.0
 41
1.0
  0
SPLINE
  5
4F
330
1F
100
AcDbEntity
  8
Linee visibili 2D
100
AcDbSpline
210
0.0
220
0.0
230
1.0
 70
    12
 71
     2
 72
     6
 73
     3
 74
     0
 42
0.0000000001
 43
0.0000000001
 40
0.0
 40
0.0
 40
0.0
 40
0.1450435868988065
 40
0.1450435868988065
 40
0.1450435868988065
 10
1135.441322778778
 20
450.2201513658168
 30
0.0
 41
1.0
 10
1135.511092443476
 20
450.2399451084826
 30
0.0
 41
0.9999732152758424
 10
1135.581144368897
 20
450.2587154602546
 30
0.0
 41
1.0
  0
SPLINE
  5
50
330
1F
100
AcDbEntity
  8
Linee visibili 2D
100
AcDbSpline
210
0.0
220
0.0
230
1.0
 70
    12
 71
     2
 72
     6
 73
     3
 74
     0
 42
0.0000000001
 43
0.0000000001
 40
0.0
 40
0.0
 40
0.0
 40
0.1444871771759305
 40
0.1444871771759305
 40
0.1444871771759305
 10
1128.169334819922
 20
440.599457197364
 30
0.0
 41
1.0
 10
1128.169334829644
 20
440.671702069963
 30
0.0
 41
0.9999733406516619
 10
1128.170389863305
 20
440.7439392385179
 30
0.0
 41
1.0
  0
SPLINE
  5
51
330
1F
100
AcDbEntity
  8
Linee visibili 2D
100
AcDbSpline
210
0.0
220
0.0
230
1.0
 70
     8
 71
     3
 72
    15
 73
    11
 74
     0
 42
0.0000000001
 43
0.0000000001
 40
0.0
 40
0.0
 40
0.0
 40
0.0
 40
5.290398038126436
 40
10.22873214275372
 40
20.45766565566863
 40
23.98418052317424
 40
27.86499590508233
 40
39.50521953173852
 40
53.61486222164209
 40
103.1355439918143
 40
103.1355439918143
 40
103.1355439918143
 40
103.1355439918143
 10
1115.583063724628
 20
446.9227542019216
 30
0.0
 10
1115.919461109122
 20
448.6546298964015
 30
0.0
 10
1117.014635401126
 20
451.9138691834887
 30
0.0
 10
1120.739379976482
 20
457.681512744622
 30
0.0
 10
1125.938639795443
 20
461.4740872910423
 30
0.0
 10
1131.6159058452
 20
463.0844456552911
 30
0.0
 10
1137.757392744432
 20
464.664833601948
 30
0.0
 10
1147.289668342701
 20
467.2691865938886
 30
0.0
 10
1171.528718710417
 20
473.740855665679
 30
0.0
 10
1192.014019901421
 20
479.2429446294975
 30
0.0
 10
1207.959593458831
 20
483.5096186980807
 30
0.0
  0
SPLINE
  5
52
330
1F
100
AcDbEntity
  8
Linee visibili 2D
100
AcDbSpline
210
0.0
220
0.0
230
1.0
 70
    24
 71
     2
 72
     6
 73
     3
 74
     0
 42
0.0000000001
 43
0.0000000001
 40
0.0
 40
0.0
 40
0.0
 40
0.3539487560086256
 40
0.3539487560086256
 40
0.3539487560086256
 10
1115.583063931454
 20
446.9227541611954
 30
0.0
 10
1115.756704004615
 20
446.888562708133
 30
0.0
 10
1115.930344077777
 20
446.8543712550705
 30
0.0
  0
SPLINE
  5
54
330
1F
100
AcDbEntity
  8
Linee visibili 2D - Tangent
100
AcDbSpline
210
0.0
220
0.0
230
1.0
 70
    24
 71
     2
 72
     6
 73
     3
 74
     0
 42
0.0000000001
 43
0.0000000001
 40
0.0
 40
0.0
 40
0.0
 40
10.08200934697198
 40
10.08200934697198
 40
10.08200934697198
 10
1141.373690049239
 20
456.7162934550867
 30
0.0
 10
1137.37439215313
 20
459.78506266379
 30
0.0
 10
1133.375094257022
 20
462.8538318724933
 30
0.0
  0
SPLINE
  5
55
330
1F
100
AcDbEntity
  8
Linee visibili 2D - Tangent
100
AcDbSpline
210
0.0
220
0.0
230
1.0
 70
    24
 71
     2
 72
     6
 73
     3
 74
     0
 42
0.0000000001
 43
0.0000000001
 40
0.0
 40
0.0
 40
0.0
 40
10.07657151435443
 40
10.07657151435443
 40
10.07657151435443
 10
1115.436732931512
 20
440.4755081373058
 30
0.0
 10
1119.433873766325
 20
437.4083941000308
 30
0.0
 10
1123.431014601137
 20
434.3412800627557
 30
0.0
  0
SPLINE
  5
56
330
1F
100
AcDbEntity
  8
Linee visibili 2D
100
AcDbSpline
210
0.0
220
0.0
230
1.0
 70
    24
 71
     2
 72
     6
 73
     3
 74
     0
 42
0.0000000001
 43
0.0000000001
 40
0.0
 40
0.0
 40
0.0
 40
7.964772788111079
 40
7.964772788111079
 40
7.964772788111079
 10
1115.430239667484
 20
340.4511490347514
 30
0.0
 10
1119.408835712116
 20
340.6248582895212
 30
0.0
 10
1123.387431756749
 20
340.7985675442909
 30
0.0
  0
SPLINE
  5
57
330
1F
100
AcDbEntity
  8
Linee visibili 2D - Tangent
100
AcDbSpline
210
0.0
220
0.0
230
1.0
 70
    24
 71
     2
 72
     6
 73
     3
 74
     0
 42
0.0000000001
 43
0.0000000001
 40
0.0
 40
0.0
 40
0.0
 40
8.006215934801844
 40
8.006215934801844
 40
8.006215934801844
 10
1123.431014601137
 20
350.787146892029
 30
0.0
 10
1119.431716705406
 20
350.6125337772022
 30
0.0
 10
1115.432418809675
 20
350.4379206623755
 30
0.0
  0
SPLINE
  5
58
330
1F
100
AcDbEntity
  8
Linee visibili 2D - Tangent
100
AcDbSpline
210
0.0
220
0.0
230
1.0
 70
    24
 71
     2
 72
     6
 73
     3
 74
     0
 42
0.0000000001
 43
0.0000000001
 40
0.0
 40
0.0
 40
0.0
 40
7.998595792317329
 40
7.998595792317329
 40
7.998595792317329
 10
1219.250148436604
 20
485.8639832898913
 30
0.0
 10
1220.28524288786
 20
482.0009581619382
 30
0.0
 10
1221.320337339117
 20
478.1379330339851
 30
0.0
  0
SPLINE
  5
59
330
1F
100
AcDbEntity
  8
Linee visibili 2D
100
AcDbSpline
210
0.0
220
0.0
230
1.0
 70
    24
 71
     2
 72
     6
 73
     3
 74
     0
 42
0.0000000001
 43
0.0000000001
 40
0.0
 40
0.0
 40
0.0
 40
7.750000000155154
 40
7.750000000155154
 40
7.750000000155154
 10
1230.911867890911
 20
480.9788867439033
 30
0.0
 10
1229.908944091236
 20
484.7218493208799
 30
0.0
 10
1228.906020291562
 20
488.4648118978565
 30
0.0
  0
SPLINE
  5
5A
330
1F
100
AcDbEntity
  8
Linee visibili 2D
100
AcDbSpline
210
0.0
220
0.0
230
1.0
 70
    12
 71
     2
 72
     6
 73
     3
 74
     0
 42
0.0000000001
 43
0.0000000001
 40
0.0
 40
0.0
 40
0.0
 40
0.1323382867032802
 40
0.1323382867032802
 40
0.1323382867032802
 10
1123.387431756749
 20
340.7985675442909
 30
0.0
 41
1.0
 10
1123.453541781159
 20
340.8014539702922
 30
0.0
 41
0.9999124341673428
 10
1123.519552262651
 20
340.8060889585117
 30
0.0
 41
1.0
  0
SPLINE
  5
5B
330
1F
100
AcDbEntity
  8
Linee visibili 2D
100
AcDbSpline
210
0.0
220
0.0
230
1.0
 70
    24
 71
     2
 72
     6
 73
     3
 74
     0
 42
0.0000000001
 43
0.0000000001
 40
0.0
 40
0.0
 40
0.0
 40
4.993338239828745
 40
4.993338239828745
 40
4.993338239828745
 10
1128.169334819922
 20
345.7938086522003
 30
0.0
 10
1128.169334819922
 20
348.2904777721146
 30
0.0
 10
1128.169334819922
 20
350.787146892029
 30
0.0
  0
SPLINE
  5
5C
330
1F
100
AcDbEntity
  8
Linee visibili 2D - Tangent
100
AcDbSpline
210
0.0
220
0.0
230
1.0
 70
    12
 71
     2
 72
     6
 73
     3
 74
     0
 42
0.0000000001
 43
0.0000000001
 40
0.0
 40
0.0
 40
0.0
 40
9.99323573702671
 40
9.99323573702671
 40
9.99323573702671
 10
1123.431014601137
 20
350.787146892029
 30
0.0
 41
1.0
 10
1123.670841098875
 20
345.7917157091729
 30
0.0
 41
0.9986308063964493
 10
1123.387431756749
 20
340.7985675442909
 30
0.0
 41
1.0
  0
SPLINE
  5
5D
330
1F
100
AcDbEntity
  8
Linee visibili 2D
100
AcDbSpline
210
0.0
220
0.0
230
1.0
 70
    24
 71
     2
 72
     6
 73
     3
 74
     0
 42
0.0000000001
 43
0.0000000001
 40
0.0
 40
0.0
 40
0.0
 40
83.55413317072657
 40
83.55413317072657
 40
83.55413317072657
 10
1128.169334819922
 20
350.787146892029
 30
0.0
 10
1128.169334819922
 20
392.5642134773923
 30
0.0
 10
1128.169334819922
 20
434.3412800627556
 30
0.0
  0
SPLINE
  5
5E
330
1F
100
AcDbEntity
  8
Linee visibili 2D - Tangent
100
AcDbSpline
210
0.0
220
0.0
230
1.0
 70
    24
 71
     2
 72
     6
 73
     3
 74
     0
 42
0.0000000001
 43
0.0000000001
 40
0.0
 40
0.0
 40
0.0
 40
83.55413317072669
 40
83.55413317072669
 40
83.55413317072669
 10
1123.431014601137
 20
434.3412800627557
 30
0.0
 10
1123.431014601137
 20
392.5642134773923
 30
0.0
 10
1123.431014601137
 20
350.787146892029
 30
0.0
  0
SPLINE
  5
5F
330
1F
100
AcDbEntity
  8
Linee visibili 2D - Tangent
100
AcDbSpline
210
0.0
220
0.0
230
1.0
 70
    24
 71
     2
 72
     6
 73
     3
 74
     0
 42
0.0000000001
 43
0.0000000001
 40
0.0
 40
0.0
 40
0.0
 40
4.659552016302413
 40
4.659552016302413
 40
4.659552016302413
 10
1123.431014601137
 20
350.787146892029
 30
0.0
 10
1125.760790609288
 20
350.787146892029
 30
0.0
 10
1128.090566617439
 20
350.787146892029
 30
0.0
  0
SPLINE
  5
60
330
1F
100
AcDbEntity
  8
Linee visibili 2D - Tangent
100
AcDbSpline
210
0.0
220
0.0
230
1.0
 70
    12
 71
     2
 72
     6
 73
     3
 74
     0
 42
0.0000000001
 43
0.0000000001
 40
0.0
 40
0.0
 40
0.0
 40
6.214943953779638
 40
6.214943953779638
 40
6.214943953779638
 10
1123.431014601227
 20
434.3412800627551
 30
0.0
 41
1.0
 10
1123.414436275649
 20
437.4487078167492
 30
0.0
 41
0.9999999999987617
 10
1123.397848169358
 20
440.5561355185478
 30
0.0
 41
1.0
  0
SPLINE
  5
61
330
1F
100
AcDbEntity
  8
Linee visibili 2D - Tangent
100
AcDbSpline
210
0.0
220
0.0
230
1.0
 70
    24
 71
     2
 72
     6
 73
     3
 74
     0
 42
0.0000000001
 43
0.0000000001
 40
0.0
 40
0.0
 40
0.0
 40
4.738320218785134
 40
4.738320218785134
 40
4.738320218785134
 10
1123.431014601137
 20
434.3412800627557
 30
0.0
 10
1125.80017471053
 20
434.3412800627556
 30
0.0
 10
1128.169334819922
 20
434.3412800627556
 30
0.0
  0
SPLINE
  5
62
330
1F
100
AcDbEntity
  8
Linee visibili 2D
100
AcDbSpline
210
0.0
220
0.0
230
1.0
 70
    24
 71
     2
 72
     6
 73
     3
 74
     0
 42
0.0000000001
 43
0.0000000001
 40
0.0
 40
0.0
 40
0.0
 40
6.258177134608445
 40
6.258177134608445
 40
6.258177134608445
 10
1128.169334819922
 20
434.3412800627556
 30
0.0
 10
1128.169334819922
 20
437.4703686300598
 30
0.0
 10
1128.169334819922
 20
440.599457197364
 30
0.0
  0
SPLINE
  5
63
330
1F
100
AcDbEntity
  8
Linee visibili 2D - Tangent
100
AcDbSpline
210
0.0
220
0.0
230
1.0
 70
    12
 71
     2
 72
     6
 73
     3
 74
     0
 42
0.0000000001
 43
0.0000000001
 40
0.0
 40
0.0
 40
0.0
 40
19.44843092694499
 40
19.44843092694499
 40
19.44843092694499
 10
1123.397848168986
 20
440.5561355185452
 30
0.0
 41
1.0
 10
1123.321620545811
 20
451.9980529743327
 30
0.0
 41
0.7892799234253896
 10
1134.39339562324
 20
454.8857999075695
 30
0.0
 41
1.0
  0
SPLINE
  5
64
330
1F
100
AcDbEntity
  8
Linee visibili 2D - Tangent
100
AcDbSpline
210
0.0
220
0.0
230
1.0
 70
    12
 71
     2
 72
     6
 73
     3
 74
     0
 42
0.0000000001
 43
0.0000000001
 40
0.0
 40
0.0
 40
0.0
 40
4.77193208097483
 40
4.77193208097483
 40
4.77193208097483
 10
1123.397848168986
 20
440.5561355185451
 30
0.0
 41
1.0
 10
1125.783974628515
 20
440.5355976457901
 30
0.0
 41
0.9998436063652768
 10
1128.169334819922
 20
440.5994571973639
 30
0.0
 41
1.0
  0
SPLINE
  5
65
330
1F
100
AcDbEntity
  8
Linee visibili 2D
100
AcDbSpline
210
0.0
220
0.0
230
1.0
 70
    12
 71
     2
 72
     6
 73
     3
 74
     0
 42
0.0000000001
 43
0.0000000001
 40
0.0
 40
0.0
 40
0.0
 40
12.80042010140455
 40
12.80042010140455
 40
12.80042010140455
 10
1135.441327769171
 20
450.2201270054059
 30
0.0
 41
1.0
 10
1128.2779157604
 20
448.1889726921679
 30
0.0
 41
0.8020765759130021
 10
1128.170412891063
 20
440.7439406180474
 30
0.0
 41
1.0
  0
SPLINE
  5
66
330
1F
100
AcDbEntity
  8
Linee visibili 2D - Tangent
100
AcDbSpline
210
0.0
220
0.0
230
1.0
 70
    12
 71
     2
 72
     6
 73
     3
 74
     0
 42
0.0000000001
 43
0.0000000001
 40
0.0
 40
0.0
 40
0.0
 40
7.216316020040526
 40
7.216316020040526
 40
7.216316020040526
 10
1134.393395623278
 20
454.8857999075148
 30
0.0
 41
1.0
 10
1137.883544508561
 20
455.8010403041083
 30
0.0
 41
0.9999999999983307
 10
1141.373690049292
 20
456.7162934549397
 30
0.0
 41
1.0
  0
SPLINE
  5
67
330
1F
100
AcDbEntity
  8
Linee visibili 2D - Tangent
100
AcDbSpline
210
0.0
220
0.0
230
1.0
 70
    12
 71
     2
 72
     6
 73
     3
 74
     0
 42
0.0000000001
 43
0.0000000001
 40
0.0
 40
0.0
 40
0.0
 40
4.77743255524576
 40
4.77743255524576
 40
4.77743255524576
 10
1134.39339562324
 20
454.8857999075695
 30
0.0
 41
1.0
 10
1135.034757590616
 20
452.5844475048457
 30
0.0
 41
0.9997894097391468
 10
1135.581144368897
 20
450.2587154602546
 30
0.0
 41
1.0
  0
SPLINE
  5
68
330
1F
100
AcDbEntity
  8
Linee visibili 2D
100
AcDbSpline
210
0.0
220
0.0
230
1.0
 70
    24
 71
     2
 72
     6
 73
     3
 74
     0
 42
0.0000000001
 43
0.0000000001
 40
0.0
 40
0.0
 40
0.0
 40
7.266513642899403
 40
7.266513642899403
 40
7.266513642899403
 10
1135.581144368897
 20
450.2587154602546
 30
0.0
 10
1139.090600966276
 20
451.1990715213944
 30
0.0
 10
1142.600057563656
 20
452.1394275825343
 30
0.0
  0
SPLINE
  5
69
330
1F
100
AcDbEntity
  8
Linee visibili 2D
100
AcDbSpline
210
0.0
220
0.0
230
1.0
 70
    24
 71
     2
 72
     6
 73
     3
 74
     0
 42
0.0000000001
 43
0.0000000001
 40
0.0
 40
0.0
 40
0.0
 40
82.7668596428563
 40
82.7668596428563
 40
82.7668596428563
 10
1142.600057563656
 20
452.1394275825343
 30
0.0
 10
1182.573381208594
 20
462.8502473719835
 30
0.0
 10
1222.546704853533
 20
473.5610671614327
 30
0.0
  0
SPLINE
  5
6A
330
1F
100
AcDbEntity
  8
Linee visibili 2D - Tangent
100
AcDbSpline
210
0.0
220
0.0
230
1.0
 70
    24
 71
     2
 72
     6
 73
     3
 74
     0
 42
0.0000000001
 43
0.0000000001
 40
0.0
 40
0.0
 40
0.0
 40
82.76685964285652
 40
82.76685964285652
 40
82.76685964285652
 10
1221.320337339117
 20
478.1379330339851
 30
0.0
 10
1181.347013694178
 20
467.4271132445359
 30
0.0
 10
1141.373690049239
 20
456.7162934550867
 30
0.0
  0
SPLINE
  5
6B
330
1F
100
AcDbEntity
  8
Linee visibili 2D - Tangent
100
AcDbSpline
210
0.0
220
0.0
230
1.0
 70
    24
 71
     2
 72
     6
 73
     3
 74
     0
 42
0.0000000001
 43
0.0000000001
 40
0.0
 40
0.0
 40
0.0
 40
4.659552016302546
 40
4.659552016302546
 40
4.659552016302546
 10
1141.373690049239
 20
456.7162934550867
 30
0.0
 10
1141.976680450972
 20
454.4659026393447
 30
0.0
 10
1142.579670852705
 20
452.2155118236028
 30
0.0
  0
SPLINE
  5
6C
330
1F
100
AcDbEntity
  8
Linee visibili 2D - Tangent
100
AcDbSpline
210
0.0
220
0.0
230
1.0
 70
    24
 71
     2
 72
     6
 73
     3
 74
     0
 42
0.0000000001
 43
0.0000000001
 40
0.0
 40
0.0
 40
0.0
 40
4.738320218785242
 40
4.738320218785242
 40
4.738320218785242
 10
1221.320337339117
 20
478.137933033985
 30
0.0
 10
1221.933521096325
 20
475.8495000977088
 30
0.0
 10
1222.546704853533
 20
473.5610671614326
 30
0.0
  0
SPLINE
  5
6D
330
1F
100
AcDbEntity
  8
Linee visibili 2D
100
AcDbSpline
210
0.0
220
0.0
230
1.0
 70
    24
 71
     2
 72
     6
 73
     3
 74
     0
 42
0.0000000001
 43
0.0000000001
 40
0.0
 40
0.0
 40
0.0
 40
5.000000000000353
 40
5.000000000000353
 40
5.000000000000353
 10
1222.546704853533
 20
473.5610671614327
 30
0.0
 10
1224.961519419256
 20
474.208114774189
 30
0.0
 10
1227.376333984979
 20
474.8551623869453
 30
0.0
  0
SPLINE
  5
6E
330
1F
100
AcDbEntity
  8
Linee visibili 2D - Tangent
100
AcDbSpline
210
0.0
220
0.0
230
1.0
 70
    12
 71
     2
 72
     6
 73
     3
 74
     0
 42
0.0000000001
 43
0.0000000001
 40
0.0
 40
0.0
 40
0.0
 40
10.00797678344478
 40
10.00797678344478
 40
10.00797678344478
 10
1221.320337339117
 20
478.1379330339851
 30
0.0
 41
1.0
 10
1226.190393757708
 20
479.3075906790478
 30
0.0
 41
0.9986351468490453
 10
1230.911867890911
 20
480.9788867439033
 30
0.0
 41
1.0
  0
SPLINE
  5
6F
330
1F
100
AcDbEntity
  8
Linee visibili 2D
100
AcDbSpline
210
0.0
220
0.0
230
1.0
 70
    12
 71
     2
 72
     6
 73
     3
 74
     0
 42
0.0000000001
 43
0.0000000001
 40
0.0
 40
0.0
 40
0.0
 40
7.85398163397422
 40
7.85398163397422
 40
7.85398163397422
 10
1227.376333984979
 20
474.8551623869454
 30
0.0
 41
1.0
 10
1232.205963116424
 20
476.1492576124584
 30
0.0
 41
0.7071067811865636
 10
1230.911867890911
 20
480.9788867439034
 30
0.0
 41
1.0
  0
SPLINE
  5
70
330
1F
100
AcDbEntity
  8
Linee visibili 2D
100
AcDbSpline
210
0.0
220
0.0
230
1.0
 70
    12
 71
     2
 72
     6
 73
     3
 74
     0
 42
0.0000000001
 43
0.0000000001
 40
0.0
 40
0.0
 40
0.0
 40
88.90439930636859
 40
88.90439930636859
 40
88.90439930636859
 10
1133.375094257017
 20
462.8538318724926
 30
0.0
 41
1.0
 10
1176.31687874227
 20
474.3430172068963
 30
0.0
 41
0.9999999315208361
 10
1219.250147657638
 20
485.8639830807668
 30
0.0
 41
1.0
  0
SPLINE
  5
71
330
1F
100
AcDbEntity
  8
Linee visibili 2D
100
AcDbSpline
210
0.0
220
0.0
230
1.0
 70
    12
 71
     2
 72
     6
 73
     3
 74
     0
 42
0.0000000001
 43
0.0000000001
 40
0.0
 40
0.0
 40
0.0
 40
2.892819387284741
 40
2.892819387284741
 40
2.892819387284741
 10
1133.375094257022
 20
462.8538318724933
 30
0.0
 41
1.0
 10
1131.975544259737
 20
462.4885714881887
 30
0.0
 41
0.9999805195815153
 10
1130.580663015211
 20
462.105868395813
 30
0.0
 41
1.0
  0
SPLINE
  5
72
330
1F
100
AcDbEntity
  8
Linee visibili 2D
100
AcDbSpline
210
0.0
220
0.0
230
1.0
 70
    12
 71
     2
 72
     6
 73
     3
 74
     0
 42
0.0000000001
 43
0.0000000001
 40
0.0
 40
0.0
 40
0.0
 40
26.75712653720545
 40
26.75712653720545
 40
26.75712653720545
 10
1130.580631031303
 20
462.1058593668062
 30
0.0
 41
1.0
 10
1115.423763830181
 20
458.0531268586849
 30
0.0
 41
0.7930350621597217
 10
1115.431917025586
 20
442.3637929767055
 30
0.0
 41
1.0
  0
SPLINE
  5
73
330
1F
100
AcDbEntity
  8
Linee visibili 2D
100
AcDbSpline
210
0.0
220
0.0
230
1.0
 70
    12
 71
     2
 72
     6
 73
     3
 74
     0
 42
0.0000000001
 43
0.0000000001
 40
0.0
 40
0.0
 40
0.0
 40
1.884788130090204
 40
1.884788130090204
 40
1.884788130090204
 10
1115.431914032383
 20
442.3635903345542
 30
0.0
 41
1.0
 10
1115.425397220931
 20
441.4212025940687
 30
0.0
 41
0.9999742029337835
 10
1115.432418809675
 20
440.478818479421
 30
0.0
 41
1.0
  0
SPLINE
  5
74
330
1F
100
AcDbEntity
  8
Linee visibili 2D
100
AcDbSpline
210
0.0
220
0.0
230
1.0
 70
    12
 71
     2
 72
     6
 73
     3
 74
     0
 42
0.0000000001
 43
0.0000000001
 40
0.0
 40
0.0
 40
0.0
 40
90.04089641515306
 40
90.04089641515306
 40
90.04089641515306
 10
1115.43241880898
 20
350.4379213576297
 30
0.0
 41
1.0
 10
1115.415583927406
 20
395.4583685160046
 30
0.0
 41
0.9999999300849749
 10
1115.432418810367
 20
440.4788156743789
 30
0.0
 41
1.0
  0
SPLINE
  5
75
330
1F
100
AcDbEntity
  8
Linee visibili 2D
100
AcDbSpline
210
0.0
220
0.0
230
1.0
 70
    12
 71
     2
 72
     6
 73
     3
 74
     0
 42
0.0000000001
 43
0.0000000001
 40
0.0
 40
0.0
 40
0.0
 40
9.986775315796063
 40
9.986775315796063
 40
9.986775315796063
 10
1115.430239668382
 20
340.4511490347985
 30
0.0
 41
1.0
 10
1115.438518722215
 20
345.4445332798218
 30
0.0
 41
0.9999989634877773
 10
1115.432418809675
 20
350.4379206623755
 30
0.0
 41
1.0
  0
SPLINE
  5
76
330
1F
100
AcDbEntity
  8
Linee visibili 2D
100
AcDbSpline
210
0.0
220
0.0
230
1.0
 70
    12
 71
     2
 72
     6
 73
     3
 74
     0
 42
0.0000000001
 43
0.0000000001
 40
0.0
 40
0.0
 40
0.0
 40
10.00000890533368
 40
10.00000890533368
 40
10.00000890533368
 10
1219.250148436604
 20
485.8639832898911
 30
0.0
 41
1.0
 10
1224.07869622425
 20
487.1621259934542
 30
0.0
 41
0.9999998893093808
 10
1228.906020291562
 20
488.4648118978553
 30
0.0
 41
1.0
  0
SPLINE
  5
77
330
1F
100
AcDbEntity
  8
Linee visibili 2D
100
AcDbSpline
210
0.0
220
0.0
230
1.0
 70
    12
 71
     3
 72
    38
 73
    34
 74
     0
 42
0.0000000001
 43
0.0000000001
 40
97.96628333783575
 40
97.96628333783575
 40
97.96628333783575
 40
97.96628333783575
 40
97.99753336086083
 40
97.99753336086083
 40
98.06003340691099
 40
98.06003340691099
 40
98.12253345296115
 40
98.12253345296115
 40
98.18503349901131
 40
98.18503349901131
 40
98.24753354506147
 40
98.24753354506147
 40
98.31003359111163
 40
98.31003359111163
 40
98.3412836141367
 40
98.3412836141367
 40
98.37253363716178
 40
98.37253363716178
 40
98.43503368321194
 40
98.43503368321194
 40
98.46628370623702
 40
98.46628370623702
 40
98.49753335699424
 40
98.49753335699424
 40
98.49753335699424
 40
161.0319026205792
 40
161.0319026205792
 40
161.0319026205792
 40
161.530156089267
 40
161.530156089267
 40
161.7793219979609
 40
161.7793219979609
 40
162.0319026205779
 40
162.0319026205779
 40
162.0319026205779
 40
162.0319026205779
 10
1208.194672041081
 20
483.1740419051574
 30
0.0
 41
1.0
 10
1208.250038752828
 20
483.1888773708584
 30
0.0
 41
1.0
 10
1208.277146734556
 20
483.1961409326717
 30
0.0
 41
1.0
 10
1208.270404670282
 20
483.1943344019912
 30
0.0
 41
1.0
 10
1208.152014116863
 20
483.1626117488187
 30
0.0
 41
1.0
 10
1207.692003472961
 20
483.0393522682641
 30
0.0
 41
1.0
 10
1207.347142488719
 20
482.9469470460534
 30
0.0
 41
1.0
 10
1206.448932616753
 20
482.7062724362017
 30
0.0
 41
1.0
 10
1205.888503037875
 20
482.5561057831385
 30
0.0
 41
1.0
 10
1204.599435140052
 20
482.2107010809293
 30
0.0
 41
1.0
 10
1203.868345085513
 20
482.0148060912057
 30
0.0
 41
1.0
 10
1202.225774049496
 20
481.5746805086238
 30
0.0
 41
1.0
 10
1201.327716599671
 20
481.3340467401646
 30
0.0
 41
1.0
 10
1199.90362428106
 20
480.9524623534561
 30
0.0
 41
1.0
 10
1199.414312126713
 20
480.8213515568358
 30
0.0
 41
1.0
 10
1198.405641041928
 20
480.5510789542642
 30
0.0
 41
1.0
 10
1197.88229420176
 20
480.41084859106
 30
0.0
 41
1.0
 10
1196.307345621277
 20
479.9888423908213
 30
0.0
 41
1.0
 10
1195.244645809349
 20
479.7040928344028
 30
0.0
 41
1.0
 10
1193.633029105841
 20
479.2722614401904
 30
0.0
 41
1.0
 10
1193.092863297477
 20
479.1275244480619
 30
0.0
 41
1.0
 10
1192.006511582546
 20
478.8364373833462
 30
0.0
 41
1.0
 10
1191.459972020996
 20
478.6899925491542
 30
0.0
 41
1.0
 10
1190.915342890527
 20
478.5440596135156
 30
0.0
 41
1.0
 10
1170.780822139248
 20
473.1490309734947
 30
0.0
 41
1.0
 10
1150.646301387968
 20
467.7540023334737
 30
0.0
 41
1.0
 10
1130.511780636688
 20
462.3589736934528
 30
0.0
 41
1.0
 10
1126.113562351479
 20
461.1795691915819
 30
0.0
 41
1.0
 10
1122.131962883335
 20
458.5016969858974
 30
0.0
 41
1.0
 10
1118.00550361428
 20
453.0586308697161
 30
0.0
 41
1.0
 10
1116.929976369226
 20
451.0067829186524
 30
0.0
 41
1.0
 10
1115.501154421897
 20
446.6771801529071
 30
0.0
 41
1.0
 10
1115.169184491817
 20
444.6638608883618
 30
0.0
 41
1.0
 10
1115.178144396136
 20
442.2934058287622
 30
0.0
 41
1.0
  0
SPLINE
  5
78
330
1F
100
AcDbEntity
  8
Linee visibili 2D
100
AcDbSpline
210
0.0
220
0.0
230
1.0
 70
    12
 71
     3
 72
    18
 73
    14
 74
     0
 42
0.0000000001
 43
0.0000000001
 40
391.6203585871152
 40
391.6203585871152
 40
391.6203585871152
 40
391.6203585871152
 40
398.4909411610857
 40
398.4909411610857
 40
406.345429441124
 40
406.345429441124
 40
406.345429441124
 40
481.287185732242
 40
481.287185732242
 40
481.287185732242
 40
481.787185732242
 40
481.787185732242
 40
482.287185732242
 40
482.287185732242
 40
482.287185732242
 40
482.287185732242
 10
1091.710645366208
 20
441.443142377864
 30
0.0
 41
1.0
 10
1091.708776822479
 20
441.2070631022328
 30
0.0
 41
1.0
 10
1091.706017150166
 20
440.1631296647633
 30
0.0
 41
1.0
 10
1091.706015613666
 20
436.7429237279866
 30
0.0
 41
1.0
 10
1091.709621006004
 20
434.1894622129929
 30
0.0
 41
1.0
 10
1091.711381002463
 20
431.4975392956002
 30
0.0
 41
1.0
 10
1091.711380948598
 20
406.5169538649666
 30
0.0
 41
1.0
 10
1091.711380894732
 20
381.5363684343331
 30
0.0
 41
1.0
 10
1091.711380840866
 20
356.5557830036996
 30
0.0
 41
1.0
 10
1091.709664694788
 20
353.9307278733322
 30
0.0
 41
1.0
 10
1091.708673339087
 20
351.3371874457334
 30
0.0
 41
1.0
 10
1091.708673386938
 20
347.6364001129264
 30
0.0
 41
1.0
 10
1091.709664790108
 20
346.5592546939766
 30
0.0
 41
1.0
 10
1091.711380970128
 20
346.559209754774
 30
0.0
 41
1.0
  0
SPLINE
  5
79
330
1F
100
AcDbEntity
  8
Linee visibili 2D
100
AcDbSpline
210
0.0
220
0.0
230
1.0
 70
    24
 71
     2
 72
     6
 73
     3
 74
     0
 42
0.0000000001
 43
0.0000000001
 40
0.0
 40
0.0
 40
0.0
 40
71.07401818897893
 40
71.07401818897893
 40
71.07401818897893
 10
749.5706556621751
 20
488.4648118978672
 30
0.0
 10
785.1076647566646
 20
488.4648118978778
 30
0.0
 10
820.644673851154
 20
488.4648118978884
 30
0.0
  0
SPLINE
  5
7A
330
1F
100
AcDbEntity
  8
Linee visibili 2D
100
AcDbSpline
210
0.0
220
0.0
230
1.0
 70
    24
 71
     2
 72
     6
 73
     3
 74
     0
 42
0.0000000001
 43
0.0000000001
 40
0.0
 40
0.0
 40
0.0
 40
37.80294307230201
 40
37.80294307230201
 40
37.80294307230201
 10
820.644673851154
 20
488.4648118978884
 30
0.0
 10
839.546145387305
 20
488.4648118978884
 30
0.0
 10
858.447616923456
 20
488.4648118978884
 30
0.0
  0
SPLINE
  5
7B
330
1F
100
AcDbEntity
  8
Linee visibili 2D
100
AcDbSpline
210
0.0
220
0.0
230
1.0
 70
    24
 71
     2
 72
     6
 73
     3
 74
     0
 42
0.0000000001
 43
0.0000000001
 40
0.0
 40
0.0
 40
0.0
 40
71.06938792810843
 40
71.06938792810843
 40
71.06938792810843
 10
858.447616923456
 20
488.4648118978884
 30
0.0
 10
893.9823108875103
 20
488.4648118978848
 30
0.0
 10
929.5170048515645
 20
488.4648118978813
 30
0.0
  0
SPLINE
  5
7C
330
1F
100
AcDbEntity
  8
Linee visibili 2D
100
AcDbSpline
210
0.0
220
0.0
230
1.0
 70
    24
 71
     2
 72
     6
 73
     3
 74
     0
 42
0.0000000001
 43
0.0000000001
 40
0.0
 40
0.0
 40
0.0
 40
6.151836899482913
 40
6.151836899482913
 40
6.151836899482913
 10
739.5576175513322
 20
462.8538318723452
 30
0.0
 10
739.7672120496007
 20
459.7850626637282
 30
0.0
 10
739.9768065478693
 20
456.7162934551113
 30
0.0
  0
SPLINE
  5
7D
330
1F
100
AcDbEntity
  8
Linee visibili 2D
100
AcDbSpline
210
0.0
220
0.0
230
1.0
 70
    24
 71
     2
 72
     6
 73
     3
 74
     0
 42
0.0000000001
 43
0.0000000001
 40
0.0
 40
0.0
 40
0.0
 40
6.151836906246978
 40
6.151836906246978
 40
6.151836906246978
 10
939.1108539658715
 20
456.7162934551115
 30
0.0
 10
939.3204485125082
 20
459.7850626638149
 30
0.0
 10
939.5300430591449
 20
462.8538318725182
 30
0.0
  0
SPLINE
  5
7E
330
1F
100
AcDbEntity
  8
Linee visibili 2D - Tangent
100
AcDbSpline
210
0.0
220
0.0
230
1.0
 70
    24
 71
     2
 72
     6
 73
     3
 74
     0
 42
0.0000000001
 43
0.0000000001
 40
0.0
 40
0.0
 40
0.0
 40
6.151836900365079
 40
6.151836900365079
 40
6.151836900365079
 10
739.9512845286392
 20
434.3412800627789
 30
0.0
 10
739.7416900163768
 20
437.4100492708822
 30
0.0
 10
739.5320955041143
 20
440.4788184789854
 30
0.0
  0
SPLINE
  5
7F
330
1F
100
AcDbEntity
  8
Linee visibili 2D - Tangent
100
AcDbSpline
210
0.0
220
0.0
230
1.0
 70
    24
 71
     2
 72
     6
 73
     3
 74
     0
 42
0.0000000001
 43
0.0000000001
 40
0.0
 40
0.0
 40
0.0
 40
6.151836900724877
 40
6.151836900724877
 40
6.151836900724877
 10
939.5555650081894
 20
440.4788184794459
 30
0.0
 10
939.3459704966455
 20
437.4100492711132
 30
0.0
 10
939.1363759851015
 20
434.3412800627805
 30
0.0
  0
SPLINE
  5
80
330
1F
100
AcDbEntity
  8
Linee visibili 2D - Tangent
100
AcDbSpline
210
0.0
220
0.0
230
1.0
 70
    24
 71
     2
 72
     6
 73
     3
 74
     0
 42
0.0000000001
 43
0.0000000001
 40
0.0
 40
0.0
 40
0.0
 40
0.5455975064032855
 40
0.5455975064032855
 40
0.5455975064032855
 10
739.5320976019314
 20
350.4379206624127
 30
0.0
 10
739.7416910652861
 20
350.6125337772332
 30
0.0
 10
739.9512845286408
 20
350.7871468920538
 30
0.0
  0
SPLINE
  5
81
330
1F
100
AcDbEntity
  8
Linee visibili 2D - Tangent
100
AcDbSpline
210
0.0
220
0.0
230
1.0
 70
    24
 71
     2
 72
     6
 73
     3
 74
     0
 42
0.0000000001
 43
0.0000000001
 40
0.0
 40
0.0
 40
0.0
 40
0.5427746057008257
 40
0.5427746057008257
 40
0.5427746057008257
 10
749.9398639562748
 20
340.7985675443159
 30
0.0
 10
749.7313545729049
 20
340.624858289539
 30
0.0
 10
749.522845189535
 20
340.4511490347622
 30
0.0
  0
SPLINE
  5
82
330
1F
100
AcDbEntity
  8
Linee visibili 2D - Tangent
100
AcDbSpline
210
0.0
220
0.0
230
1.0
 70
    24
 71
     2
 72
     6
 73
     3
 74
     0
 42
0.0000000001
 43
0.0000000001
 40
0.0
 40
0.0
 40
0.0
 40
0.542774605693513
 40
0.542774605693513
 40
0.542774605693513
 10
929.5648153242082
 20
340.4511490347763
 30
0.0
 10
929.3563059408372
 20
340.6248582895461
 30
0.0
 10
929.1477965574661
 20
340.7985675443158
 30
0.0
  0
SPLINE
  5
83
330
1F
100
AcDbEntity
  8
Linee visibili 2D - Tangent
100
AcDbSpline
210
0.0
220
0.0
230
1.0
 70
    24
 71
     2
 72
     6
 73
     3
 74
     0
 42
0.0000000001
 43
0.0000000001
 40
0.0
 40
0.0
 40
0.0
 40
0.5455975064356925
 40
0.5455975064356925
 40
0.5455975064356925
 10
939.1363759851015
 20
350.7871468920538
 30
0.0
 10
939.3459694484721
 20
350.6125337772271
 30
0.0
 10
939.5555629118428
 20
350.4379206624003
 30
0.0
  0
SPLINE
  5
84
330
1F
100
AcDbEntity
  8
Linee visibili 2D - Tangent
100
AcDbSpline
210
0.0
220
0.0
230
1.0
 70
    24
 71
     2
 72
     6
 73
     3
 74
     0
 42
0.0000000001
 43
0.0000000001
 40
0.0
 40
0.0
 40
0.0
 40
7.496935479988556
 40
7.496935479988556
 40
7.496935479988556
 10
749.5706556621751
 20
488.4648118978672
 30
0.0
 10
749.7737358069045
 20
484.7218493208977
 30
0.0
 10
749.9768159516339
 20
480.9788867439281
 30
0.0
  0
SPLINE
  5
85
330
1F
100
AcDbEntity
  8
Linee visibili 2D
100
AcDbSpline
210
0.0
220
0.0
230
1.0
 70
    24
 71
     2
 72
     6
 73
     3
 74
     0
 42
0.0000000001
 43
0.0000000001
 40
0.0
 40
0.0
 40
0.0
 40
7.737413645592137
 40
7.737413645592137
 40
7.737413645592137
 10
739.9768065478697
 20
478.1379330340101
 30
0.0
 10
739.7672132698052
 20
482.0009581618781
 30
0.0
 10
739.5576199917407
 20
485.863983289746
 30
0.0
  0
SPLINE
  5
86
330
1F
100
AcDbEntity
  8
Linee visibili 2D
100
AcDbSpline
210
0.0
220
0.0
230
1.0
 70
    24
 71
     2
 72
     6
 73
     3
 74
     0
 42
0.0000000001
 43
0.0000000001
 40
0.0
 40
0.0
 40
0.0
 40
7.737413758775249
 40
7.737413758775249
 40
7.737413758775249
 10
939.5300426080069
 20
485.8639832899162
 30
0.0
 10
939.3204482869393
 20
482.000958161963
 30
0.0
 10
939.1108539658717
 20
478.1379330340099
 30
0.0
  0
SPLINE
  5
87
330
1F
100
AcDbEntity
  8
Linee visibili 2D - Tangent
100
AcDbSpline
210
0.0
220
0.0
230
1.0
 70
    24
 71
     2
 72
     6
 73
     3
 74
     0
 42
0.0000000001
 43
0.0000000001
 40
0.0
 40
0.0
 40
0.0
 40
7.496935480002447
 40
7.496935480002447
 40
7.496935480002447
 10
929.1108445621092
 20
480.9788867439281
 30
0.0
 10
929.3139247068368
 20
484.7218493209047
 30
0.0
 10
929.5170048515645
 20
488.4648118978813
 30
0.0
  0
SPLINE
  5
88
330
1F
100
AcDbEntity
  8
Linee visibili 2D - Tangent
100
AcDbSpline
210
0.0
220
0.0
230
1.0
 70
    24
 71
     2
 72
     6
 73
     3
 74
     0
 42
0.0000000001
 43
0.0000000001
 40
0.0
 40
0.0
 40
0.0
 40
189.2530856417304
 40
189.2530856417304
 40
189.2530856417304
 10
934.1703730777351
 20
440.5994571973888
 30
0.0
 10
839.5438302568699
 20
440.5994571973887
 30
0.0
 10
744.9172874360047
 20
440.5994571973887
 30
0.0
  0
SPLINE
  5
89
330
1F
100
AcDbEntity
  8
Linee visibili 2D - Tangent
100
AcDbSpline
210
0.0
220
0.0
230
1.0
 70
    24
 71
     2
 72
     6
 73
     3
 74
     0
 42
0.0000000001
 43
0.0000000001
 40
0.0
 40
0.0
 40
0.0
 40
189.2209422396891
 40
189.2209422396891
 40
189.2209422396891
 10
744.933359137025
 20
450.2587154602795
 30
0.0
 10
839.5438302568696
 20
450.2587154602795
 30
0.0
 10
934.1543013767141
 20
450.2587154602795
 30
0.0
  0
SPLINE
  5
8A
330
1F
100
AcDbEntity
  8
Linee visibili 2D - Tangent
100
AcDbSpline
210
0.0
220
0.0
230
1.0
 70
    24
 71
     2
 72
     6
 73
     3
 74
     0
 42
0.0000000001
 43
0.0000000001
 40
0.0
 40
0.0
 40
0.0
 40
179.2079326011913
 40
179.2079326011913
 40
179.2079326011913
 10
929.1477965574661
 20
340.7985675443158
 30
0.0
 10
839.5438302568705
 20
340.7985675443158
 30
0.0
 10
749.9398639562748
 20
340.7985675443159
 30
0.0
  0
SPLINE
  5
8B
330
1F
100
AcDbEntity
  8
Linee visibili 2D - Tangent
100
AcDbSpline
210
0.0
220
0.0
230
1.0
 70
    24
 71
     2
 72
     6
 73
     3
 74
     0
 42
0.0000000001
 43
0.0000000001
 40
0.0
 40
0.0
 40
0.0
 40
179.2079326011908
 40
179.2079326011908
 40
179.2079326011908
 10
749.9398639562751
 20
345.7938086522251
 30
0.0
 10
839.5438302568705
 20
345.7938086522251
 30
0.0
 10
929.1477965574659
 20
345.7938086522251
 30
0.0
  0
SPLINE
  5
8C
330
1F
100
AcDbEntity
  8
Linee visibili 2D - Tangent
100
AcDbSpline
210
0.0
220
0.0
230
1.0
 70
    12
 71
     2
 72
     8
 73
     5
 74
     0
 42
0.0000000001
 43
0.0000000001
 40
0.0
 40
0.0
 40
0.0
 40
3.468474842618485
 40
3.468474842618485
 40
7.845978845122337
 40
7.845978845122337
 40
7.845978845122337
 10
744.9444322024151
 20
350.7871468920538
 30
0.0
 41
1.0
 10
744.944056233556
 20
348.9796302130566
 30
0.0
 41
0.9402826759391459
 10
746.1008208259286
 20
347.5907413175583
 30
0.0
 41
1.0
 10
747.5993829803868
 20
345.7929194525239
 30
0.0
 41
0.9055351026934244
 10
749.9398639562751
 20
345.793808652225
 30
0.0
 41
1.0
  0
SPLINE
  5
8D
330
1F
100
AcDbEntity
  8
Linee visibili 2D - Tangent
100
AcDbSpline
210
0.0
220
0.0
230
1.0
 70
    24
 71
     2
 72
     6
 73
     3
 74
     0
 42
0.0000000001
 43
0.0000000001
 40
0.0
 40
0.0
 40
0.0
 40
4.995241107909237
 40
4.995241107909237
 40
4.995241107909237
 10
749.9398639562755
 20
345.7938086522251
 30
0.0
 10
749.939863956275
 20
343.2961880982705
 30
0.0
 10
749.9398639562744
 20
340.7985675443159
 30
0.0
  0
SPLINE
  5
8E
330
1F
100
AcDbEntity
  8
Linee visibili 2D - Tangent
100
AcDbSpline
210
0.0
220
0.0
230
1.0
 70
    12
 71
     2
 72
     6
 73
     3
 74
     0
 42
0.0000000001
 43
0.0000000001
 40
0.0
 40
0.0
 40
0.0
 40
15.68514294556512
 40
15.68514294556512
 40
15.68514294556512
 10
749.9398639562748
 20
340.7985675443159
 30
0.0
 41
1.0
 10
739.9626542898679
 20
340.8099372257378
 30
0.0
 41
0.7079121186764109
 10
739.9512845286408
 20
350.7871468920538
 30
0.0
 41
1.0
  0
SPLINE
  5
8F
330
1F
100
AcDbEntity
  8
Linee visibili 2D - Tangent
100
AcDbSpline
210
0.0
220
0.0
230
1.0
 70
    24
 71
     2
 72
     6
 73
     3
 74
     0
 42
0.0000000001
 43
0.0000000001
 40
0.0
 40
0.0
 40
0.0
 40
4.995241107909408
 40
4.995241107909408
 40
4.995241107909408
 10
929.1477965574659
 20
340.7985675443158
 30
0.0
 10
929.1477965574659
 20
343.2961880982705
 30
0.0
 10
929.1477965574659
 20
345.7938086522252
 30
0.0
  0
SPLINE
  5
90
330
1F
100
AcDbEntity
  8
Linee visibili 2D - Tangent
100
AcDbSpline
210
0.0
220
0.0
230
1.0
 70
    12
 71
     2
 72
     8
 73
     5
 74
     0
 42
0.0000000001
 43
0.0000000001
 40
0.0
 40
0.0
 40
0.0
 40
4.377504002509549
 40
4.377504002509549
 40
7.845978845126792
 40
7.845978845126792
 40
7.845978845126792
 10
929.1477965574658
 20
345.7938086522251
 30
0.0
 41
1.0
 10
931.4882775333568
 20
345.7929194525231
 30
0.0
 41
0.9055351026935262
 10
932.9868396878185
 20
347.5907413175584
 30
0.0
 41
1.0
 10
934.1436042801889
 20
348.9796302130575
 30
0.0
 41
0.940282675939289
 10
934.1432283113289
 20
350.7871468920538
 30
0.0
 41
1.0
  0
SPLINE
  5
91
330
1F
100
AcDbEntity
  8
Linee visibili 2D - Tangent
100
AcDbSpline
210
0.0
220
0.0
230
1.0
 70
    12
 71
     2
 72
     6
 73
     3
 74
     0
 42
0.0000000001
 43
0.0000000001
 40
0.0
 40
0.0
 40
0.0
 40
15.68514294553225
 40
15.68514294553225
 40
15.68514294553225
 10
939.1363759851015
 20
350.7871468920538
 30
0.0
 41
1.0
 10
939.1250062237946
 20
340.8099372258163
 30
0.0
 41
0.7079121186820213
 10
929.1477965574661
 20
340.7985675443158
 30
0.0
 41
1.0
  0
SPLINE
  5
92
330
1F
100
AcDbEntity
  8
Linee visibili 2D - Tangent
100
AcDbSpline
210
0.0
220
0.0
230
1.0
 70
    24
 71
     2
 72
     6
 73
     3
 74
     0
 42
0.0000000001
 43
0.0000000001
 40
0.0
 40
0.0
 40
0.0
 40
83.55413317072507
 40
83.55413317072507
 40
83.55413317072507
 10
739.9512845286408
 20
350.7871468920538
 30
0.0
 10
739.95128452864
 20
392.5642134774163
 30
0.0
 10
739.9512845286392
 20
434.3412800627789
 30
0.0
  0
SPLINE
  5
93
330
1F
100
AcDbEntity
  8
Linee visibili 2D - Tangent
100
AcDbSpline
210
0.0
220
0.0
230
1.0
 70
    24
 71
     2
 72
     6
 73
     3
 74
     0
 42
0.0000000001
 43
0.0000000001
 40
0.0
 40
0.0
 40
0.0
 40
83.55413317072532
 40
83.55413317072532
 40
83.55413317072532
 10
744.9444322024142
 20
434.3412800627791
 30
0.0
 10
744.9444322024146
 20
392.5642134774164
 30
0.0
 10
744.9444322024151
 20
350.7871468920538
 30
0.0
  0
SPLINE
  5
94
330
1F
100
AcDbEntity
  8
Linee visibili 2D - Tangent
100
AcDbSpline
210
0.0
220
0.0
230
1.0
 70
    24
 71
     2
 72
     6
 73
     3
 74
     0
 42
0.0000000001
 43
0.0000000001
 40
0.0
 40
0.0
 40
0.0
 40
4.993147673774047
 40
4.993147673774047
 40
4.993147673774047
 10
739.9512845286408
 20
350.7871468920538
 30
0.0
 10
742.4478583655278
 20
350.7871468920538
 30
0.0
 10
744.9444322024149
 20
350.7871468920538
 30
0.0
  0
SPLINE
  5
95
330
1F
100
AcDbEntity
  8
Linee visibili 2D - Tangent
100
AcDbSpline
210
0.0
220
0.0
230
1.0
 70
    24
 71
     2
 72
     6
 73
     3
 74
     0
 42
0.0000000001
 43
0.0000000001
 40
0.0
 40
0.0
 40
0.0
 40
83.55413317072657
 40
83.55413317072657
 40
83.55413317072657
 10
934.1432283113288
 20
350.7871468920538
 30
0.0
 10
934.1432283113288
 20
392.5642134774171
 30
0.0
 10
934.1432283113288
 20
434.3412800627804
 30
0.0
  0
SPLINE
  5
96
330
1F
100
AcDbEntity
  8
Linee visibili 2D - Tangent
100
AcDbSpline
210
0.0
220
0.0
230
1.0
 70
    24
 71
     2
 72
     6
 73
     3
 74
     0
 42
0.0000000001
 43
0.0000000001
 40
0.0
 40
0.0
 40
0.0
 40
83.55413317072669
 40
83.55413317072669
 40
83.55413317072669
 10
939.1363759851015
 20
434.3412800627805
 30
0.0
 10
939.1363759851015
 20
392.5642134774172
 30
0.0
 10
939.1363759851015
 20
350.7871468920538
 30
0.0
  0
SPLINE
  5
97
330
1F
100
AcDbEntity
  8
Linee visibili 2D - Tangent
100
AcDbSpline
210
0.0
220
0.0
230
1.0
 70
    24
 71
     2
 72
     6
 73
     3
 74
     0
 42
0.0000000001
 43
0.0000000001
 40
0.0
 40
0.0
 40
0.0
 40
4.993147673772683
 40
4.993147673772683
 40
4.993147673772683
 10
939.1363759851015
 20
350.7871468920538
 30
0.0
 10
936.6398021482152
 20
350.7871468920538
 30
0.0
 10
934.1432283113288
 20
350.7871468920538
 30
0.0
  0
SPLINE
  5
98
330
1F
100
AcDbEntity
  8
Linee visibili 2D - Tangent
100
AcDbSpline
210
0.0
220
0.0
230
1.0
 70
    24
 71
     2
 72
     6
 73
     3
 74
     0
 42
0.0000000001
 43
0.0000000001
 40
0.0
 40
0.0
 40
0.0
 40
4.993147673774956
 40
4.993147673774956
 40
4.993147673774956
 10
739.9512845286392
 20
434.3412800627789
 30
0.0
 10
742.4478583655267
 20
434.341280062779
 30
0.0
 10
744.9444322024142
 20
434.3412800627791
 30
0.0
  0
SPLINE
  5
99
330
1F
100
AcDbEntity
  8
Linee visibili 2D - Tangent
100
AcDbSpline
210
0.0
220
0.0
230
1.0
 70
    12
 71
     2
 72
     6
 73
     3
 74
     0
 42
0.0000000001
 43
0.0000000001
 40
0.0
 40
0.0
 40
0.0
 40
6.214940514153097
 40
6.214940514153097
 40
6.214940514153097
 10
739.9226998773133
 20
440.5561355185698
 30
0.0
 41
1.0
 10
739.9504134400611
 20
437.4487695204097
 30
0.0
 41
0.9999906728931653
 10
739.9512845286392
 20
434.3412800627789
 30
0.0
 41
1.0
  0
SPLINE
  5
9A
330
1F
100
AcDbEntity
  8
Linee visibili 2D - Tangent
100
AcDbSpline
210
0.0
220
0.0
230
1.0
 70
    12
 71
     2
 72
     6
 73
     3
 74
     0
 42
0.0000000001
 43
0.0000000001
 40
0.0
 40
0.0
 40
0.0
 40
6.258255621204893
 40
6.258255621204893
 40
6.258255621204893
 10
744.9172874360045
 20
440.5994571973887
 30
0.0
 41
1.0
 10
744.9444299532719
 20
437.4704274903735
 30
0.0
 41
0.9999905963502896
 10
744.9444322024141
 20
434.3412800627791
 30
0.0
 41
1.0
  0
SPLINE
  5
9B
330
1F
100
AcDbEntity
  8
Linee visibili 2D - Tangent
100
AcDbSpline
210
0.0
220
0.0
230
1.0
 70
    12
 71
     2
 72
     6
 73
     3
 74
     0
 42
0.0000000001
 43
0.0000000001
 40
0.0
 40
0.0
 40
0.0
 40
6.21494051415173
 40
6.21494051415173
 40
6.21494051415173
 10
939.1363759851015
 20
434.3412800627805
 30
0.0
 41
1.0
 10
939.1372470736802
 20
437.4487695204106
 30
0.0
 41
0.9999906728931665
 10
939.1649606364272
 20
440.55613551857
 30
0.0
 41
1.0
  0
SPLINE
  5
9C
330
1F
100
AcDbEntity
  8
Linee visibili 2D - Tangent
100
AcDbSpline
210
0.0
220
0.0
230
1.0
 70
    24
 71
     2
 72
     6
 73
     3
 74
     0
 42
0.0000000001
 43
0.0000000001
 40
0.0
 40
0.0
 40
0.0
 40
4.99314767377291
 40
4.99314767377291
 40
4.99314767377291
 10
939.1363759851017
 20
434.3412800627805
 30
0.0
 10
936.6398021482153
 20
434.3412800627805
 30
0.0
 10
934.1432283113288
 20
434.3412800627804
 30
0.0
  0
SPLINE
  5
9D
330
1F
100
AcDbEntity
  8
Linee visibili 2D - Tangent
100
AcDbSpline
210
0.0
220
0.0
230
1.0
 70
    12
 71
     2
 72
     6
 73
     3
 74
     0
 42
0.0000000001
 43
0.0000000001
 40
0.0
 40
0.0
 40
0.0
 40
6.258255621203688
 40
6.258255621203688
 40
6.258255621203688
 10
934.1432283113289
 20
434.3412800627804
 30
0.0
 41
1.0
 10
934.1432305604683
 20
437.4704274903743
 30
0.0
 41
0.9999905963502878
 10
934.1703730777353
 20
440.5994571973888
 30
0.0
 41
1.0
  0
SPLINE
  5
9E
330
1F
100
AcDbEntity
  8
Linee visibili 2D - Tangent
100
AcDbSpline
210
0.0
220
0.0
230
1.0
 70
    24
 71
     2
 72
     6
 73
     3
 74
     0
 42
0.0000000001
 43
0.0000000001
 40
0.0
 40
0.0
 40
0.0
 40
4.994775435321417
 40
4.994775435321417
 40
4.994775435321417
 10
739.9226998773133
 20
440.5561355185698
 30
0.0
 10
742.419993656659
 20
440.5777963579792
 30
0.0
 10
744.9172874360047
 20
440.5994571973887
 30
0.0
  0
SPLINE
  5
9F
330
1F
100
AcDbEntity
  8
Linee visibili 2D - Tangent
100
AcDbSpline
210
0.0
220
0.0
230
1.0
 70
    12
 71
     2
 72
     6
 73
     3
 74
     0
 42
0.0000000001
 43
0.0000000001
 40
0.0
 40
0.0
 40
0.0
 40
13.96662512559662
 40
13.96662512559662
 40
13.96662512559662
 10
739.9264492418429
 20
454.5223618677279
 30
0.0
 41
1.0
 10
739.833227175178
 20
447.5392732162114
 30
0.0
 41
0.999914452298806
 10
739.9226998773133
 20
440.5561355185698
 30
0.0
 41
1.0
  0
SPLINE
  5
A0
330
1F
100
AcDbEntity
  8
Linee visibili 2D - Tangent
100
AcDbSpline
210
0.0
220
0.0
230
1.0
 70
    12
 71
     2
 72
     6
 73
     3
 74
     0
 42
0.0000000001
 43
0.0000000001
 40
0.0
 40
0.0
 40
0.0
 40
9.659273025436109
 40
9.659273025436109
 40
9.659273025436109
 10
744.9172874360044
 20
440.5994571973887
 30
0.0
 41
1.0
 10
744.9208323743018
 20
445.4290938011054
 30
0.0
 41
0.9999995676740652
 10
744.9333591370241
 20
450.2587154602795
 30
0.0
 41
1.0
  0
SPLINE
  5
A1
330
1F
100
AcDbEntity
  8
Linee visibili 2D - Tangent
100
AcDbSpline
210
0.0
220
0.0
230
1.0
 70
    12
 71
     2
 72
     6
 73
     3
 74
     0
 42
0.0000000001
 43
0.0000000001
 40
0.0
 40
0.0
 40
0.0
 40
13.96662512266443
 40
13.96662512266443
 40
13.96662512266443
 10
939.1649606364272
 20
440.55613551857
 30
0.0
 41
1.0
 10
939.2544333401141
 20
447.5392732147384
 30
0.0
 41
0.9999144522960258
 10
939.1612112720707
 20
454.5223618647832
 30
0.0
 41
1.0
  0
SPLINE
  5
A2
330
1F
100
AcDbEntity
  8
Linee visibili 2D - Tangent
100
AcDbSpline
210
0.0
220
0.0
230
1.0
 70
    24
 71
     2
 72
     6
 73
     3
 74
     0
 42
0.0000000001
 43
0.0000000001
 40
0.0
 40
0.0
 40
0.0
 40
4.994775435322098
 40
4.994775435322098
 40
4.994775435322098
 10
939.1649606364272
 20
440.55613551857
 30
0.0
 10
936.6676668570811
 20
440.5777963579794
 30
0.0
 10
934.1703730777351
 20
440.5994571973888
 30
0.0
  0
SPLINE
  5
A3
330
1F
100
AcDbEntity
  8
Linee visibili 2D - Tangent
100
AcDbSpline
210
0.0
220
0.0
230
1.0
 70
    12
 71
     2
 72
     6
 73
     3
 74
     0
 42
0.0000000001
 43
0.0000000001
 40
0.0
 40
0.0
 40
0.0
 40
9.659273025436052
 40
9.659273025436052
 40
9.659273025436052
 10
934.1543013767138
 20
450.2587154602795
 30
0.0
 41
1.0
 10
934.1668281394367
 20
445.4290938011055
 30
0.0
 41
0.9999995676740652
 10
934.1703730777343
 20
440.5994571973888
 30
0.0
 41
1.0
  0
SPLINE
  5
A4
330
1F
100
AcDbEntity
  8
Linee visibili 2D - Tangent
100
AcDbSpline
210
0.0
220
0.0
230
1.0
 70
    12
 71
     2
 72
     6
 73
     3
 74
     0
 42
0.0000000001
 43
0.0000000001
 40
0.0
 40
0.0
 40
0.0
 40
7.510944906952916
 40
7.510944906952916
 40
7.510944906952916
 10
739.9385952710227
 20
454.8857999075942
 30
0.0
 41
1.0
 10
740.2374396438242
 20
450.1990189655237
 30
0.0
 41
0.7248942157046452
 10
744.933359137025
 20
450.2587154602793
 30
0.0
 41
1.0
  0
SPLINE
  5
A5
330
1F
100
AcDbEntity
  8
Linee visibili 2D - Tangent
100
AcDbSpline
210
0.0
220
0.0
230
1.0
 70
    12
 71
     2
 72
     6
 73
     3
 74
     0
 42
0.0000000001
 43
0.0000000001
 40
0.0
 40
0.0
 40
0.0
 40
1.831011485780557
 40
1.831011485780557
 40
1.831011485780557
 10
739.9768065478693
 20
456.7162934551113
 30
0.0
 41
1.0
 10
739.9757886397364
 20
455.8006691027098
 30
0.0
 41
0.9998047753979933
 10
739.9385952710227
 20
454.8857999075942
 30
0.0
 41
1.0
  0
SPLINE
  5
A6
330
1F
100
AcDbEntity
  8
Linee visibili 2D - Tangent
100
AcDbSpline
210
0.0
220
0.0
230
1.0
 70
    12
 71
     2
 72
     6
 73
     3
 74
     0
 42
0.0000000001
 43
0.0000000001
 40
0.0
 40
0.0
 40
0.0
 40
1.881186692106105
 40
1.881186692106105
 40
1.881186692106105
 10
744.9699542216439
 20
452.1394275825587
 30
0.0
 41
1.0
 10
744.9699458837724
 20
451.1987156482495
 30
0.0
 41
0.999810917303539
 10
744.9333591370253
 20
450.2587154602795
 30
0.0
 41
1.0
  0
SPLINE
  5
A7
330
1F
100
AcDbEntity
  8
Linee visibili 2D - Tangent
100
AcDbSpline
210
0.0
220
0.0
230
1.0
 70
    12
 71
     2
 72
     6
 73
     3
 74
     0
 42
0.0000000001
 43
0.0000000001
 40
0.0
 40
0.0
 40
0.0
 40
1.831011485780644
 40
1.831011485780644
 40
1.831011485780644
 10
939.149065242719
 20
454.8857999075943
 30
0.0
 41
1.0
 10
939.1118718740041
 20
455.8006691027099
 30
0.0
 41
0.9998047753979761
 10
939.1108539658715
 20
456.7162934551115
 30
0.0
 41
1.0
  0
SPLINE
  5
A8
330
1F
100
AcDbEntity
  8
Linee visibili 2D - Tangent
100
AcDbSpline
210
0.0
220
0.0
230
1.0
 70
    12
 71
     2
 72
     6
 73
     3
 74
     0
 42
0.0000000001
 43
0.0000000001
 40
0.0
 40
0.0
 40
0.0
 40
7.510944906954313
 40
7.510944906954313
 40
7.510944906954313
 10
939.149065242719
 20
454.8857999075943
 30
0.0
 41
1.0
 10
938.8502208699149
 20
450.1990189655243
 30
0.0
 41
0.7248942157048687
 10
934.1543013767141
 20
450.2587154602795
 30
0.0
 41
1.0
  0
SPLINE
  5
A9
330
1F
100
AcDbEntity
  8
Linee visibili 2D - Tangent
100
AcDbSpline
210
0.0
220
0.0
230
1.0
 70
    12
 71
     2
 72
     6
 73
     3
 74
     0
 42
0.0000000001
 43
0.0000000001
 40
0.0
 40
0.0
 40
0.0
 40
1.881186692106403
 40
1.881186692106403
 40
1.881186692106403
 10
934.154301376714
 20
450.2587154602795
 30
0.0
 41
1.0
 10
934.117714629967
 20
451.1987156482498
 30
0.0
 41
0.9998109173035085
 10
934.1177062920985
 20
452.1394275825591
 30
0.0
 41
1.0
  0
SPLINE
  5
AA
330
1F
100
AcDbEntity
  8
Linee visibili 2D
100
AcDbSpline
210
0.0
220
0.0
230
1.0
 70
    24
 71
     2
 72
     6
 73
     3
 74
     0
 42
0.0000000001
 43
0.0000000001
 40
0.0
 40
0.0
 40
0.0
 40
21.42163957889886
 40
21.42163957889886
 40
21.42163957889886
 10
739.9768065478693
 20
456.7162934551113
 30
0.0
 10
739.9768065478695
 20
467.4271132445607
 30
0.0
 10
739.9768065478697
 20
478.1379330340101
 30
0.0
  0
SPLINE
  5
AB
330
1F
100
AcDbEntity
  8
Linee visibili 2D - Tangent
100
AcDbSpline
210
0.0
220
0.0
230
1.0
 70
    24
 71
     2
 72
     6
 73
     3
 74
     0
 42
0.0000000001
 43
0.0000000001
 40
0.0
 40
0.0
 40
0.0
 40
21.42163957889875
 40
21.42163957889875
 40
21.42163957889875
 10
744.9699542216449
 20
473.5610671614575
 30
0.0
 10
744.9699542216445
 20
462.8502473720081
 30
0.0
 10
744.969954221644
 20
452.1394275825587
 30
0.0
  0
SPLINE
  5
AC
330
1F
100
AcDbEntity
  8
Linee visibili 2D - Tangent
100
AcDbSpline
210
0.0
220
0.0
230
1.0
 70
    12
 71
     2
 72
     6
 73
     3
 74
     0
 42
0.0000000001
 43
0.0000000001
 40
0.0
 40
0.0
 40
0.0
 40
7.46768064828811
 40
7.46768064828811
 40
7.46768064828811
 10
739.9768065478693
 20
456.7162934551114
 30
0.0
 41
1.0
 10
740.308456000143
 20
452.0660287641058
 30
0.0
 41
0.7264382226822111
 10
744.9699542216439
 20
452.1394275825588
 30
0.0
 41
1.0
  0
SPLINE
  5
AD
330
1F
100
AcDbEntity
  8
Linee visibili 2D - Tangent
100
AcDbSpline
210
0.0
220
0.0
230
1.0
 70
    24
 71
     2
 72
     6
 73
     3
 74
     0
 42
0.0000000001
 43
0.0000000001
 40
0.0
 40
0.0
 40
0.0
 40
21.42163957889835
 40
21.42163957889835
 40
21.42163957889835
 10
934.1177062920985
 20
452.1394275825591
 30
0.0
 10
934.1177062920987
 20
462.8502473720083
 30
0.0
 10
934.1177062920988
 20
473.5610671614575
 30
0.0
  0
SPLINE
  5
AE
330
1F
100
AcDbEntity
  8
Linee visibili 2D
100
AcDbSpline
210
0.0
220
0.0
230
1.0
 70
    24
 71
     2
 72
     6
 73
     3
 74
     0
 42
0.0000000001
 43
0.0000000001
 40
0.0
 40
0.0
 40
0.0
 40
21.42163957889841
 40
21.42163957889841
 40
21.42163957889841
 10
939.1108539658717
 20
478.1379330340099
 30
0.0
 10
939.1108539658716
 20
467.4271132445607
 30
0.0
 10
939.1108539658715
 20
456.7162934551115
 30
0.0
  0
SPLINE
  5
AF
330
1F
100
AcDbEntity
  8
Linee visibili 2D - Tangent
100
AcDbSpline
210
0.0
220
0.0
230
1.0
 70
    12
 71
     2
 72
     6
 73
     3
 74
     0
 42
0.0000000001
 43
0.0000000001
 40
0.0
 40
0.0
 40
0.0
 40
7.46768064828747
 40
7.46768064828747
 40
7.46768064828747
 10
939.1108539658715
 20
456.7162934551115
 30
0.0
 41
1.0
 10
938.7792045136005
 20
452.0660287641046
 30
0.0
 41
0.7264382226819024
 10
934.1177062920985
 20
452.139427582559
 30
0.0
 41
1.0
  0
SPLINE
  5
B0
330
1F
100
AcDbEntity
  8
Linee visibili 2D - Tangent
100
AcDbSpline
210
0.0
220
0.0
230
1.0
 70
    12
 71
     2
 72
     6
 73
     3
 74
     0
 42
0.0000000001
 43
0.0000000001
 40
23.57811247231798
 40
23.57811247231798
 40
23.57811247231798
 40
31.43748329642417
 40
31.43748329642417
 40
31.43748329642417
 10
749.9768159516351
 20
474.8551623869702
 30
0.0
 41
1.0
 10
744.9699542216449
 20
474.8551623869701
 30
0.0
 41
0.7071067811865515
 10
744.9699542216449
 20
473.5610671614575
 30
0.0
 41
1.0
  0
SPLINE
  5
B1
330
1F
100
AcDbEntity
  8
Linee visibili 2D - Tangent
100
AcDbSpline
210
0.0
220
0.0
230
1.0
 70
    12
 71
     2
 72
     6
 73
     3
 74
     0
 42
0.0000000001
 43
0.0000000001
 40
0.0
 40
0.0
 40
0.0
 40
7.467680648288671
 40
7.467680648288671
 40
7.467680648288671
 10
744.9699542216449
 20
473.5610671614577
 30
0.0
 41
1.0
 10
740.3084560001432
 20
473.4876683430039
 30
0.0
 41
0.7264382226821412
 10
739.9768065478697
 20
478.1379330340102
 30
0.0
 41
1.0
  0
SPLINE
  5
B2
330
1F
100
AcDbEntity
  8
Linee visibili 2D - Tangent
100
AcDbSpline
210
0.0
220
0.0
230
1.0
 70
    12
 71
     3
 72
    10
 73
     6
 74
     0
 42
0.0000000001
 43
0.0000000001
 40
0.0
 40
0.0
 40
0.0
 40
0.0
 40
0.5
 40
0.5
 40
1.0
 40
1.0
 40
1.0
 40
1.0
 10
749.9768159516339
 20
480.9788867439281
 30
0.0
 41
1.0
 10
747.3514663474245
 20
480.9125276141506
 30
0.0
 41
1.0
 10
744.756944442956
 20
480.5680103924802
 30
0.0
 41
1.0
 10
741.0545385376477
 20
479.5161750023741
 30
0.0
 41
1.0
 10
739.9768065478688
 20
478.8174228726817
 30
0.0
 41
1.0
 10
739.9768065478697
 20
478.1379330340101
 30
0.0
 41
1.0
  0
SPLINE
  5
B3
330
1F
100
AcDbEntity
  8
Linee visibili 2D - Tangent
100
AcDbSpline
210
0.0
220
0.0
230
1.0
 70
    12
 71
     2
 72
     6
 73
     3
 74
     0
 42
0.0000000001
 43
0.0000000001
 40
0.0
 40
0.0
 40
0.0
 40
7.467680648287171
 40
7.467680648287171
 40
7.467680648287171
 10
939.1108539658717
 20
478.1379330340098
 30
0.0
 41
1.0
 10
938.7792045136
 20
473.4876683430036
 30
0.0
 41
0.7264382226819951
 10
934.1177062920988
 20
473.5610671614575
 30
0.0
 41
1.0
  0
SPLINE
  5
B4
330
1F
100
AcDbEntity
  8
Linee visibili 2D - Tangent
100
AcDbSpline
210
0.0
220
0.0
230
1.0
 70
    12
 71
     2
 72
     6
 73
     3
 74
     0
 42
0.0000000001
 43
0.0000000001
 40
0.0
 40
0.0
 40
0.0
 40
7.859370824106231
 40
7.859370824106231
 40
7.859370824106231
 10
934.1177062920988
 20
473.5610671614575
 30
0.0
 41
1.0
 10
934.1177062920984
 20
474.8551623869701
 30
0.0
 41
0.7071067811865523
 10
929.110844562109
 20
474.8551623869702
 30
0.0
 41
1.0
  0
SPLINE
  5
B5
330
1F
100
AcDbEntity
  8
Linee visibili 2D - Tangent
100
AcDbSpline
210
0.0
220
0.0
230
1.0
 70
    12
 71
     3
 72
    10
 73
     6
 74
     0
 42
0.0000000001
 43
0.0000000001
 40
0.0
 40
0.0
 40
0.0
 40
0.0
 40
0.5
 40
0.5
 40
1.0
 40
1.0
 40
1.0
 40
1.0
 10
939.1108539658717
 20
478.1379330340099
 30
0.0
 41
1.0
 10
939.1108539658705
 20
478.8174228726715
 30
0.0
 41
1.0
 10
938.0331219762218
 20
479.5161750023369
 30
0.0
 41
1.0
 10
934.330716070655
 20
480.5680103925172
 30
0.0
 41
1.0
 10
931.7361941664169
 20
480.9125276141704
 30
0.0
 41
1.0
 10
929.1108445621092
 20
480.9788867439281
 30
0.0
 41
1.0
  0
SPLINE
  5
B6
330
1F
100
AcDbEntity
  8
Linee visibili 2D - Tangent
100
AcDbSpline
210
0.0
220
0.0
230
1.0
 70
    24
 71
     2
 72
     6
 73
     3
 74
     0
 42
0.0000000001
 43
0.0000000001
 40
0.0
 40
0.0
 40
0.0
 40
179.1340286104753
 40
179.1340286104753
 40
179.1340286104753
 10
749.9768159516339
 20
480.9788867439281
 30
0.0
 10
839.5438302568715
 20
480.9788867439281
 30
0.0
 10
929.1108445621092
 20
480.9788867439281
 30
0.0
  0
SPLINE
  5
B7
330
1F
100
AcDbEntity
  8
Linee visibili 2D - Tangent
100
AcDbSpline
210
0.0
220
0.0
230
1.0
 70
    24
 71
     2
 72
     6
 73
     3
 74
     0
 42
0.0000000001
 43
0.0000000001
 40
0.0
 40
0.0
 40
0.0
 40
6.123724356958007
 40
6.123724356958007
 40
6.123724356958007
 10
929.1108445621092
 20
474.8551623869702
 30
0.0
 10
929.1108445621092
 20
477.9170245654492
 30
0.0
 10
929.1108445621092
 20
480.9788867439282
 30
0.0
  0
SPLINE
  5
B8
330
1F
100
AcDbEntity
  8
Linee visibili 2D - Tangent
100
AcDbSpline
210
0.0
220
0.0
230
1.0
 70
    24
 71
     2
 72
     6
 73
     3
 74
     0
 42
0.0000000001
 43
0.0000000001
 40
0.0
 40
0.0
 40
0.0
 40
179.1340286104742
 40
179.1340286104742
 40
179.1340286104742
 10
929.1108445621092
 20
474.8551623869702
 30
0.0
 10
839.5438302568721
 20
474.8551623869702
 30
0.0
 10
749.976815951635
 20
474.8551623869702
 30
0.0
  0
SPLINE
  5
B9
330
1F
100
AcDbEntity
  8
Linee visibili 2D - Tangent
100
AcDbSpline
210
0.0
220
0.0
230
1.0
 70
    24
 71
     2
 72
     6
 73
     3
 74
     0
 42
0.0000000001
 43
0.0000000001
 40
0.0
 40
0.0
 40
0.0
 40
6.123724356957837
 40
6.123724356957837
 40
6.123724356957837
 10
749.9768159516336
 20
480.978886743928
 30
0.0
 10
749.9768159516342
 20
477.9170245654491
 30
0.0
 10
749.9768159516348
 20
474.8551623869702
 30
0.0
  0
SPLINE
  5
BA
330
1F
100
AcDbEntity
  8
Linee visibili 2D
100
AcDbSpline
210
0.0
220
0.0
230
1.0
 70
    12
 71
     2
 72
     6
 73
     3
 74
     0
 42
0.0000000001
 43
0.0000000001
 40
0.0
 40
0.0
 40
0.0
 40
23.01015143893357
 40
23.01015143893357
 40
23.01015143893357
 10
939.5300430591575
 20
462.8538318725182
 30
0.0
 41
1.0
 10
939.5291806820364
 20
474.3589075812003
 30
0.0
 41
0.9999999971922512
 10
939.5300426080398
 20
485.8639832899162
 30
0.0
 41
1.0
  0
SPLINE
  5
BB
330
1F
100
AcDbEntity
  8
Linee visibili 2D
100
AcDbSpline
210
0.0
220
0.0
230
1.0
 70
    12
 71
     2
 72
     6
 73
     3
 74
     0
 42
0.0000000001
 43
0.0000000001
 40
0.0
 40
0.0
 40
0.0
 40
19.74230002064242
 40
19.74230002064242
 40
19.74230002064242
 10
939.5359632317219
 20
462.1058683958378
 30
0.0
 41
1.0
 10
939.5638568573422
 20
452.2347482253669
 30
0.0
 41
0.9999985456559651
 10
939.5580802351376
 20
442.363590334579
 30
0.0
 41
1.0
  0
SPLINE
  5
BC
330
1F
100
AcDbEntity
  8
Linee visibili 2D
100
AcDbSpline
210
0.0
220
0.0
230
1.0
 70
    12
 71
     2
 72
     6
 73
     3
 74
     0
 42
0.0000000001
 43
0.0000000001
 40
0.0
 40
0.0
 40
0.0
 40
1.884773617095074
 40
1.884773617095074
 40
1.884773617095074
 10
939.5580802351368
 20
442.363590334579
 30
0.0
 41
1.0
 10
939.5563362357406
 20
441.4212050560942
 30
0.0
 41
0.9999998668091696
 10
939.5555650081892
 20
440.4788184794459
 30
0.0
 41
1.0
  0
SPLINE
  5
BD
330
1F
100
AcDbEntity
  8
Linee visibili 2D
100
AcDbSpline
210
0.0
220
0.0
230
1.0
 70
    12
 71
     2
 72
     6
 73
     3
 74
     0
 42
0.0000000001
 43
0.0000000001
 40
0.0
 40
0.0
 40
0.0
 40
90.040897822809
 40
90.040897822809
 40
90.040897822809
 10
939.5555629116258
 20
350.4379206624003
 30
0.0
 41
1.0
 10
939.5564462387495
 20
395.4583695709025
 30
0.0
 41
0.9999999998079732
 10
939.5555650081174
 20
440.4788184794459
 30
0.0
 41
1.0
  0
SPLINE
  5
BE
330
1F
100
AcDbEntity
  8
Linee visibili 2D
100
AcDbSpline
210
0.0
220
0.0
230
1.0
 70
    12
 71
     2
 72
     8
 73
     5
 74
     0
 42
0.0000000001
 43
0.0000000001
 40
0.0
 40
0.0
 40
0.0
 40
7.846405321291239
 40
7.846405321291239
 40
15.69281064258248
 40
15.69281064258248
 40
15.69281064258248
 10
929.5648153242082
 20
340.4511490347763
 30
0.0
 41
1.0
 10
933.703294627606
 20
340.4479099758224
 30
0.0
 41
0.92376781715266
 10
936.6302246518832
 20
343.373675186693
 30
0.0
 41
1.0
 10
939.5571546761602
 20
346.2994403975637
 30
0.0
 41
0.92376781715266
 10
939.5555629118428
 20
350.4379206624003
 30
0.0
 41
1.0
  0
SPLINE
  5
BF
330
1F
100
AcDbEntity
  8
Linee visibili 2D
100
AcDbSpline
210
0.0
220
0.0
230
1.0
 70
    24
 71
     2
 72
     6
 73
     3
 74
     0
 42
0.0000000001
 43
0.0000000001
 40
0.0
 40
0.0
 40
0.0
 40
180.0419701346732
 40
180.0419701346732
 40
180.0419701346732
 10
749.522845189535
 20
340.4511490347622
 30
0.0
 10
839.5438302568716
 20
340.4511490347693
 30
0.0
 10
929.5648153242082
 20
340.4511490347763
 30
0.0
  0
SPLINE
  5
C0
330
1F
100
AcDbEntity
  8
Linee visibili 2D
100
AcDbSpline
210
0.0
220
0.0
230
1.0
 70
    12
 71
     2
 72
     8
 73
     5
 74
     0
 42
0.0000000001
 43
0.0000000001
 40
0.0
 40
0.0
 40
0.0
 40
7.846392629746839
 40
7.846392629746839
 40
15.69278525949368
 40
15.69278525949368
 40
15.69278525949368
 10
739.5320976019314
 20
350.4379206624127
 30
0.0
 41
1.0
 10
739.5305303203392
 20
346.2994505360394
 30
0.0
 41
0.9237689497221677
 10
742.4574531675968
 20
343.3736924993152
 30
0.0
 41
1.0
 10
745.3843760148545
 20
340.4479344625909
 30
0.0
 41
0.9237689497221677
 10
749.522845189535
 20
340.4511490347622
 30
0.0
 41
1.0
  0
SPLINE
  5
C1
330
1F
100
AcDbEntity
  8
Linee visibili 2D
100
AcDbSpline
210
0.0
220
0.0
230
1.0
 70
    12
 71
     2
 72
     6
 73
     3
 74
     0
 42
0.0000000001
 43
0.0000000001
 40
0.0
 40
0.0
 40
0.0
 40
90.04089782233618
 40
90.04089782233618
 40
90.04089782233618
 10
739.5320955040639
 20
440.4788184789854
 30
0.0
 41
1.0
 10
739.5312142740246
 20
395.4583695706785
 30
0.0
 41
0.9999999998079732
 10
739.5320976017456
 20
350.4379206624127
 30
0.0
 41
1.0
  0
SPLINE
  5
C2
330
1F
100
AcDbEntity
  8
Linee visibili 2D
100
AcDbSpline
210
0.0
220
0.0
230
1.0
 70
    12
 71
     2
 72
     6
 73
     3
 74
     0
 42
0.0000000001
 43
0.0000000001
 40
0.0
 40
0.0
 40
0.0
 40
1.88476631930442
 40
1.88476631930442
 40
1.88476631930442
 10
739.5320955041144
 20
440.4788184789854
 30
0.0
 41
1.0
 10
739.5313238175132
 20
441.42120140823
 30
0.0
 41
0.9999998638343258
 10
739.5295685593471
 20
442.3635830187789
 30
0.0
 41
1.0
  0
SPLINE
  5
C3
330
1F
100
AcDbEntity
  8
Linee visibili 2D
100
AcDbSpline
210
0.0
220
0.0
230
1.0
 70
    12
 71
     2
 72
     6
 73
     3
 74
     0
 42
0.0000000001
 43
0.0000000001
 40
0.0
 40
0.0
 40
0.0
 40
19.74230758974071
 40
19.74230758974071
 40
19.74230758974071
 10
739.529568559347
 20
442.3635830187789
 30
0.0
 41
1.0
 10
739.5237756560363
 20
452.2347447033133
 30
0.0
 41
0.9999985428091704
 10
739.5516859511887
 20
462.1058686299678
 30
0.0
 41
1.0
  0
SPLINE
  5
C4
330
1F
100
AcDbEntity
  8
Linee visibili 2D
100
AcDbSpline
210
0.0
220
0.0
230
1.0
 70
    12
 71
     2
 72
     6
 73
     3
 74
     0
 42
0.0000000001
 43
0.0000000001
 40
0.0
 40
0.0
 40
0.0
 40
23.01015143893661
 40
23.01015143893661
 40
23.01015143893661
 10
739.5576199917538
 20
485.863983289746
 30
0.0
 41
1.0
 10
739.5584809244741
 20
474.3589075809541
 30
0.0
 41
0.9999999971922422
 10
739.5576175513504
 20
462.8538318723452
 30
0.0
 41
1.0
  0
SPLINE
  5
C5
330
1F
100
AcDbEntity
  8
Linee visibili 2D
100
AcDbSpline
210
0.0
220
0.0
230
1.0
 70
    12
 71
     3
 72
     8
 73
     4
 74
     0
 42
0.0000000001
 43
0.0000000001
 40
-15.73799084256543
 40
-15.73799084256543
 40
-15.73799084256543
 40
-15.73799084256543
 40
0.0
 40
0.0
 40
0.0
 40
0.0
 10
749.5706556621751
 20
488.4648118978672
 30
0.0
 41
1.0
 10
744.0316010804388
 20
488.4648449838814
 30
0.0
 41
1.0
 10
739.5576147227127
 20
487.2989286383647
 30
0.0
 41
1.0
 10
739.5576199917407
 20
485.863983289746
 30
0.0
 41
1.0
  0
SPLINE
  5
C6
330
1F
100
AcDbEntity
  8
Linee visibili 2D
100
AcDbSpline
210
0.0
220
0.0
230
1.0
 70
     8
 71
     3
 72
    11
 73
     7
 74
     0
 42
0.0000000001
 43
0.0000000001
 40
0.0
 40
0.0
 40
0.0
 40
0.0
 40
0.4579930102172657
 40
1.215549305379042
 40
3.643550162108799
 40
10.78069388759772
 40
10.78069388759772
 40
10.78069388759772
 40
10.78069388759772
 10
939.5300426080069
 20
485.8639832899162
 30
0.0
 10
939.5305884436546
 20
486.0164404241193
 30
0.0
 10
939.37916233038
 20
486.4132437654588
 30
0.0
 10
938.4008092980873
 20
487.1757512919261
 30
0.0
 10
935.0983678393354
 20
488.2290601378052
 30
0.0
 10
931.8933400257097
 20
488.4504276894714
 30
0.0
 10
929.5170048515646
 20
488.4648118978813
 30
0.0
  0
SPLINE
  5
C7
330
1F
100
AcDbEntity
  8
Linee visibili 2D
100
AcDbSpline
210
0.0
220
0.0
230
1.0
 70
    24
 71
     2
 72
     6
 73
     3
 74
     0
 42
0.0000000001
 43
0.0000000001
 40
0.0
 40
0.0
 40
0.0
 40
2.008893755781572
 40
2.008893755781572
 40
2.008893755781572
 10
740.1622880485486
 20
108.8714053565804
 30
0.0
 10
739.9629451191826
 20
109.8558726881949
 30
0.0
 10
739.7636021898165
 20
110.8403400198095
 30
0.0
  0
SPLINE
  5
C8
330
1F
100
AcDbEntity
  8
Linee visibili 2D
100
AcDbSpline
210
0.0
220
0.0
230
1.0
 70
    24
 71
     2
 72
     6
 73
     3
 74
     0
 42
0.0000000001
 43
0.0000000001
 40
0.0
 40
0.0
 40
0.0
 40
0.969993171757262
 40
0.969993171757262
 40
0.969993171757262
 10
939.117877698249
 20
109.8221043039266
 30
0.0
 10
939.0216250817193
 20
109.3467548302495
 30
0.0
 10
938.9253724651898
 20
108.8714053565724
 30
0.0
  0
SPLINE
  5
C9
330
1F
100
AcDbEntity
  8
Linee visibili 2D
100
AcDbSpline
210
0.0
220
0.0
230
1.0
 70
    12
 71
     2
 72
     6
 73
     3
 74
     0
 42
0.0000000001
 43
0.0000000001
 40
0.0
 40
0.0
 40
0.0
 40
5.935491325061544
 40
5.935491325061544
 40
5.935491325061544
 10
749.9768158880561
 20
100.9600117217232
 30
0.0
 41
1.0
 10
746.923574100149
 20
100.9721558393752
 30
0.0
 41
0.9585105544192632
 10
744.3731662846028
 20
102.6508019811862
 30
0.0
 41
1.0
  0
SPLINE
  5
CA
330
1F
100
AcDbEntity
  8
Linee visibili 2D
100
AcDbSpline
210
0.0
220
0.0
230
1.0
 70
    12
 71
     2
 72
     6
 73
     3
 74
     0
 42
0.0000000001
 43
0.0000000001
 40
0.0
 40
0.0
 40
0.0
 40
5.935621030358197
 40
5.935621030358197
 40
5.935621030358197
 10
934.7145808673031
 20
102.6506900708541
 30
0.0
 41
1.0
 10
932.1642385991015
 20
100.9716711393601
 30
0.0
 41
0.9584716749591552
 10
929.110844698002
 20
100.9600117217235
 30
0.0
 41
1.0
  0
SPLINE
  5
CB
330
1F
100
AcDbEntity
  8
Linee visibili 2D
100
AcDbSpline
210
0.0
220
0.0
230
1.0
 70
    24
 71
     2
 72
     6
 73
     3
 74
     0
 42
0.0000000001
 43
0.0000000001
 40
0.0
 40
0.0
 40
0.0
 40
179.1340286104742
 40
179.1340286104742
 40
179.1340286104742
 10
929.1108445621092
 20
100.9600117217227
 30
0.0
 10
839.5438302568721
 20
100.9600117217227
 30
0.0
 10
749.976815951635
 20
100.9600117217227
 30
0.0
  0
SPLINE
  5
CC
330
1F
100
AcDbEntity
  8
Linee visibili 2D
100
AcDbSpline
210
0.0
220
0.0
230
1.0
 70
    24
 71
     2
 72
     6
 73
     3
 74
     0
 42
0.0000000001
 43
0.0000000001
 40
0.0
 40
0.0
 40
0.0
 40
199.9744447486726
 40
199.9744447486726
 40
199.9744447486726
 10
739.5295685593469
 20
216.6103372035947
 30
0.0
 10
839.5167909336832
 20
216.6103372043038
 30
0.0
 10
939.5040133080195
 20
216.6103372050129
 30
0.0
  0
SPLINE
  5
CD
330
1F
100
AcDbEntity
  8
Linee visibili 2D
100
AcDbSpline
210
0.0
220
0.0
230
1.0
 70
     8
 71
     3
 72
    23
 73
    19
 74
     0
 42
0.0000000001
 43
0.0000000001
 40
0.0
 40
0.0
 40
0.0
 40
0.0
 40
1.514205198136092
 40
11.88877522476571
 40
68.37946341428032
 40
71.44626479454227
 40
75.19039742065677
 40
79.28051285142513
 40
90.28969655813013
 40
102.2161352551397
 40
114.1432008368857
 40
125.1531421474745
 40
129.2437248335125
 40
136.0543242042173
 40
142.1868241095262
 40
190.2134975092499
 40
201.4985801627845
 40
204.4028486271633
 40
204.4028486271633
 40
204.4028486271633
 40
204.4028486271633
 10
856.4587862842308
 20
216.4455611442235
 30
0.0
 10
856.4435796051041
 20
215.9410124913477
 30
0.0
 10
856.4326947907327
 20
211.9780746917639
 30
0.0
 10
856.4297616238418
 20
189.1849346427317
 30
0.0
 10
856.4404273749985
 20
165.8742350022625
 30
0.0
 10
856.4396768511102
 20
144.7736381442763
 30
0.0
 10
856.4754187716746
 20
141.1476144850336
 30
0.0
 10
856.2285509078747
 20
134.8180142090167
 30
0.0
 10
851.1214611027597
 20
126.6921112888205
 30
0.0
 10
839.5697716458783
 20
122.5900035554948
 30
0.0
 10
827.9117317204036
 20
126.6927003302935
 30
0.0
 10
822.9044413537135
 20
134.8110241161095
 30
0.0
 10
822.5308161863442
 20
142.1813269953619
 30
0.0
 10
822.6659630763486
 20
147.8335404682171
 30
0.0
 10
822.614704530288
 20
168.1670191512533
 30
0.0
 10
822.6488527229196
 20
189.9750325962262
 30
0.0
 10
822.6391223279351
 20
210.7155395027071
 30
0.0
 10
822.6332157195111
 20
215.4453303042341
 30
0.0
 10
822.6207392573303
 20
216.4133553636951
 30
0.0
  0
SPLINE
  5
CE
330
1F
100
AcDbEntity
  8
Linee visibili 2D
100
AcDbSpline
210
0.0
220
0.0
230
1.0
 70
    12
 71
     2
 72
     6
 73
     3
 74
     0
 42
0.0000000001
 43
0.0000000001
 40
0.0
 40
0.0
 40
0.0
 40
33.83831581241107
 40
33.83831581241107
 40
33.83831581241107
 10
822.6210224301761
 20
216.4592400032228
 30
0.0
 41
1.0
 10
839.5401797240512
 20
216.4514087755139
 30
0.0
 41
0.9999998936067035
 10
856.4593370424886
 20
216.4591867565591
 30
0.0
 41
1.0
  0
SPLINE
  5
CF
330
1F
100
AcDbEntity
  8
Linee visibili 2D
100
AcDbSpline
210
0.0
220
0.0
230
1.0
 70
    24
 71
     2
 72
     6
 73
     3
 74
     0
 42
0.0000000001
 43
0.0000000001
 40
0.0
 40
0.0
 40
0.0
 40
10.0
 40
10.0
 40
10.0
 10
871.5387255918386
 20
198.0791901362339
 30
0.0
 10
866.5387255918386
 20
198.0791901362339
 30
0.0
 10
861.5387255918386
 20
198.0791901362339
 30
0.0
  0
SPLINE
  5
D0
330
1F
100
AcDbEntity
  8
Linee visibili 2D
100
AcDbSpline
210
0.0
220
0.0
230
1.0
 70
    24
 71
     2
 72
     6
 73
     3
 74
     0
 42
0.0000000001
 43
0.0000000001
 40
0.0
 40
0.0
 40
0.0
 40
10.0
 40
10.0
 40
10.0
 10
772.5535651827711
 20
198.0791901362339
 30
0.0
 10
767.5535651827711
 20
198.0791901362339
 30
0.0
 10
762.5535651827711
 20
198.0791901362339
 30
0.0
  0
SPLINE
  5
D1
330
1F
100
AcDbEntity
  8
Linee visibili 2D
100
AcDbSpline
210
0.0
220
0.0
230
1.0
 70
    24
 71
     2
 72
     6
 73
     3
 74
     0
 42
0.0000000001
 43
0.0000000001
 40
0.0
 40
0.0
 40
0.0
 40
10.0
 40
10.0
 40
10.0
 10
901.538725591839
 20
198.0791901362339
 30
0.0
 10
896.538725591839
 20
198.0791901362339
 30
0.0
 10
891.538725591839
 20
198.0791901362339
 30
0.0
  0
SPLINE
  5
D2
330
1F
100
AcDbEntity
  8
Linee visibili 2D
100
AcDbSpline
210
0.0
220
0.0
230
1.0
 70
    24
 71
     2
 72
     6
 73
     3
 74
     0
 42
0.0000000001
 43
0.0000000001
 40
0.0
 40
0.0
 40
0.0
 40
10.0
 40
10.0
 40
10.0
 10
886.5387255918388
 20
198.0791901362339
 30
0.0
 10
881.5387255918388
 20
198.0791901362339
 30
0.0
 10
876.5387255918388
 20
198.0791901362339
 30
0.0
  0
SPLINE
  5
D3
330
1F
100
AcDbEntity
  8
Linee visibili 2D
100
AcDbSpline
210
0.0
220
0.0
230
1.0
 70
    24
 71
     2
 72
     6
 73
     3
 74
     0
 42
0.0000000001
 43
0.0000000001
 40
0.0
 40
0.0
 40
0.0
 40
10.01461431061165
 40
10.01461431061165
 40
10.01461431061165
 10
931.553339902451
 20
198.0791901362339
 30
0.0
 10
926.5460327471451
 20
198.0791901362339
 30
0.0
 10
921.5387255918392
 20
198.0791901362339
 30
0.0
  0
SPLINE
  5
D4
330
1F
100
AcDbEntity
  8
Linee visibili 2D
100
AcDbSpline
210
0.0
220
0.0
230
1.0
 70
    24
 71
     2
 72
     6
 73
     3
 74
     0
 42
0.0000000001
 43
0.0000000001
 40
0.0
 40
0.0
 40
0.0
 40
10.0
 40
10.0
 40
10.0
 10
802.5535651827715
 20
198.0791901362339
 30
0.0
 10
797.5535651827715
 20
198.0791901362339
 30
0.0
 10
792.5535651827715
 20
198.0791901362339
 30
0.0
  0
SPLINE
  5
D5
330
1F
100
AcDbEntity
  8
Linee visibili 2D
100
AcDbSpline
210
0.0
220
0.0
230
1.0
 70
    24
 71
     2
 72
     6
 73
     3
 74
     0
 42
0.0000000001
 43
0.0000000001
 40
0.0
 40
0.0
 40
0.0
 40
10.0
 40
10.0
 40
10.0
 10
916.5387255918392
 20
198.0791901362339
 30
0.0
 10
911.5387255918392
 20
198.0791901362339
 30
0.0
 10
906.5387255918392
 20
198.0791901362339
 30
0.0
  0
SPLINE
  5
D6
330
1F
100
AcDbEntity
  8
Linee visibili 2D
100
AcDbSpline
210
0.0
220
0.0
230
1.0
 70
    24
 71
     2
 72
     6
 73
     3
 74
     0
 42
0.0000000001
 43
0.0000000001
 40
0.0
 40
0.0
 40
0.0
 40
10.01037720575528
 40
10.01037720575528
 40
10.01037720575528
 10
757.5535651827711
 20
198.0791901362339
 30
0.0
 10
752.5483765798934
 20
198.0791901362339
 30
0.0
 10
747.5431879770158
 20
198.0791901362339
 30
0.0
  0
SPLINE
  5
D7
330
1F
100
AcDbEntity
  8
Linee visibili 2D
100
AcDbSpline
210
0.0
220
0.0
230
1.0
 70
    24
 71
     2
 72
     6
 73
     3
 74
     0
 42
0.0000000001
 43
0.0000000001
 40
0.0
 40
0.0
 40
0.0
 40
10.0
 40
10.0
 40
10.0
 10
817.5535651827718
 20
198.0791901362339
 30
0.0
 10
812.5535651827718
 20
198.079190136234
 30
0.0
 10
807.5535651827718
 20
198.079190136234
 30
0.0
  0
SPLINE
  5
D8
330
1F
100
AcDbEntity
  8
Linee visibili 2D
100
AcDbSpline
210
0.0
220
0.0
230
1.0
 70
    24
 71
     2
 72
     6
 73
     3
 74
     0
 42
0.0000000001
 43
0.0000000001
 40
0.0
 40
0.0
 40
0.0
 40
10.0
 40
10.0
 40
10.0
 10
787.5535651827713
 20
198.0791901362339
 30
0.0
 10
782.5535651827713
 20
198.0791901362339
 30
0.0
 10
777.5535651827713
 20
198.0791901362339
 30
0.0
  0
SPLINE
  5
D9
330
1F
100
AcDbEntity
  8
Linee visibili 2D
100
AcDbSpline
210
0.0
220
0.0
230
1.0
 70
    24
 71
     2
 72
     6
 73
     3
 74
     0
 42
0.0000000001
 43
0.0000000001
 40
0.0
 40
0.0
 40
0.0
 40
71.07401818897893
 40
71.07401818897893
 40
71.07401818897893
 10
749.5706556621751
 20
103.1362301891164
 30
0.0
 10
785.1076647566646
 20
103.1362301894984
 30
0.0
 10
820.644673851154
 20
103.1362301898804
 30
0.0
  0
SPLINE
  5
DA
330
1F
100
AcDbEntity
  8
Linee visibili 2D
100
AcDbSpline
210
0.0
220
0.0
230
1.0
 70
    24
 71
     2
 72
     6
 73
     3
 74
     0
 42
0.0000000001
 43
0.0000000001
 40
0.0
 40
0.0
 40
0.0
 40
37.80294307230201
 40
37.80294307230201
 40
37.80294307230201
 10
820.644673851154
 20
103.1362301898804
 30
0.0
 10
839.546145387305
 20
103.1362301898804
 30
0.0
 10
858.447616923456
 20
103.1362301898804
 30
0.0
  0
SPLINE
  5
DB
330
1F
100
AcDbEntity
  8
Linee visibili 2D
100
AcDbSpline
210
0.0
220
0.0
230
1.0
 70
    24
 71
     2
 72
     6
 73
     3
 74
     0
 42
0.0000000001
 43
0.0000000001
 40
0.0
 40
0.0
 40
0.0
 40
71.06938792810843
 40
71.06938792810843
 40
71.06938792810843
 10
858.447616923456
 20
103.1362301898804
 30
0.0
 10
893.9823108875103
 20
103.1362301897536
 30
0.0
 10
929.5170048515645
 20
103.1362301896269
 30
0.0
  0
SPLINE
  5
DC
330
1F
100
AcDbEntity
  8
Linee visibili 2D - Tangent
100
AcDbSpline
210
0.0
220
0.0
230
1.0
 70
    24
 71
     2
 72
     6
 73
     3
 74
     0
 42
0.0000000001
 43
0.0000000001
 40
0.0
 40
0.0
 40
0.0
 40
2.046555831269126
 40
2.046555831269126
 40
2.046555831269126
 10
749.5706556621751
 20
103.1362301891164
 30
0.0
 10
749.7737358069045
 20
102.1333063896969
 30
0.0
 10
749.9768159516339
 20
101.1303825902773
 30
0.0
  0
SPLINE
  5
DD
330
1F
100
AcDbEntity
  8
Linee visibili 2D - Tangent
100
AcDbSpline
210
0.0
220
0.0
230
1.0
 70
    24
 71
     2
 72
     6
 73
     3
 74
     0
 42
0.0000000001
 43
0.0000000001
 40
0.0
 40
0.0
 40
0.0
 40
1.969019711772705
 40
1.969019711772705
 40
1.969019711772705
 10
929.1262324115155
 20
101.2063764320982
 30
0.0
 10
929.32161863154
 20
102.1713033108625
 30
0.0
 10
929.5170048515645
 20
103.1362301896269
 30
0.0
  0
SPLINE
  5
DE
330
1F
100
AcDbEntity
  8
Linee visibili 2D - Tangent
100
AcDbSpline
210
0.0
220
0.0
230
1.0
 70
    12
 71
     2
 72
     6
 73
     3
 74
     0
 42
0.0000000001
 43
0.0000000001
 40
0.0
 40
0.0
 40
0.0
 40
13.50736702438137
 40
13.50736702438137
 40
13.50736702438137
 10
749.9768159516339
 20
101.1303825902773
 30
0.0
 41
1.0
 10
741.914551233393
 20
100.963735996134
 30
0.0
 41
0.7731759730694904
 10
740.1741272174074
 20
108.837668159857
 30
0.0
 41
1.0
  0
SPLINE
  5
DF
330
1F
100
AcDbEntity
  8
Linee visibili 2D - Tangent
100
AcDbSpline
210
0.0
220
0.0
230
1.0
 70
    12
 71
     2
 72
     6
 73
     3
 74
     0
 42
0.0000000001
 43
0.0000000001
 40
0.0
 40
0.0
 40
0.0
 40
13.50736702436919
 40
13.50736702436919
 40
13.50736702436919
 10
938.9135332963511
 20
108.8376681598308
 30
0.0
 41
1.0
 10
937.1731092803312
 20
100.9637359961346
 30
0.0
 41
0.7731759730710444
 10
929.1108445621092
 20
101.1303825902775
 30
0.0
 41
1.0
  0
SPLINE
  5
E0
330
1F
100
AcDbEntity
  8
Linee visibili 2D - Tangent
100
AcDbSpline
210
0.0
220
0.0
230
1.0
 70
    24
 71
     2
 72
     6
 73
     3
 74
     0
 42
0.0000000001
 43
0.0000000001
 40
0.0
 40
0.0
 40
0.0
 40
179.1340286104753
 40
179.1340286104753
 40
179.1340286104753
 10
749.9768159516339
 20
101.1303825902773
 30
0.0
 10
839.5438302568715
 20
101.1303825902774
 30
0.0
 10
929.1108445621092
 20
101.1303825902775
 30
0.0
  0
SPLINE
  5
E1
330
1F
100
AcDbEntity
  8
Linee visibili 2D - Tangent
100
AcDbSpline
210
0.0
220
0.0
230
1.0
 70
    28
 71
     2
 72
     6
 73
     3
 74
     0
 42
0.0000000001
 43
0.0000000001
 40
5.890486225480627
 40
5.890486225480627
 40
5.890486225480627
 40
7.85398163397417
 40
7.85398163397417
 40
7.85398163397417
 10
929.1108445621092
 20
100.9931294506541
 30
0.0
 41
0.8901650429449578
 10
929.1108445621092
 20
100.8835422472625
 30
0.0
 41
0.9267766952966385
 10
929.1108445621092
 20
101.1303825902775
 30
0.0
 41
1.0
  0
SPLINE
  5
E2
330
1F
100
AcDbEntity
  8
Linee visibili 2D - Tangent
100
AcDbSpline
210
0.0
220
0.0
230
1.0
 70
    24
 71
     2
 72
     6
 73
     3
 74
     0
 42
0.0000000001
 43
0.0000000001
 40
0.0
 40
0.0
 40
0.0
 40
0.154848638312187
 40
0.154848638312187
 40
0.154848638312187
 10
749.9768159516336
 20
101.1303825902773
 30
0.0
 10
749.9768159516337
 20
101.0529582711213
 30
0.0
 10
749.9768159516339
 20
100.9755339519652
 30
0.0
  0
SPLINE
  5
E3
330
1F
100
AcDbEntity
  8
Linee visibili 2D
100
AcDbSpline
210
0.0
220
0.0
230
1.0
 70
    24
 71
     2
 72
     6
 73
     3
 74
     0
 42
0.0000000001
 43
0.0000000001
 40
0.0
 40
0.0
 40
0.0
 40
10.0
 40
10.0
 40
10.0
 10
861.5387255918386
 20
199.7812340767019
 30
0.0
 10
866.5387255918386
 20
199.7812340767044
 30
0.0
 10
871.5387255918386
 20
199.7812340767069
 30
0.0
  0
SPLINE
  5
E4
330
1F
100
AcDbEntity
  8
Linee visibili 2D
100
AcDbSpline
210
0.0
220
0.0
230
1.0
 70
    24
 71
     2
 72
     6
 73
     3
 74
     0
 42
0.0000000001
 43
0.0000000001
 40
0.0
 40
0.0
 40
0.0
 40
90.61230650020025
 40
90.61230650020025
 40
90.61230650020025
 10
871.5387255918386
 20
199.7812340767069
 30
0.0
 10
871.5387255918384
 20
154.4750808266068
 30
0.0
 10
871.5387255918383
 20
109.1689275765067
 30
0.0
  0
SPLINE
  5
E5
330
1F
100
AcDbEntity
  8
Linee visibili 2D
100
AcDbSpline
210
0.0
220
0.0
230
1.0
 70
    24
 71
     2
 72
     6
 73
     3
 74
     0
 42
0.0000000001
 43
0.0000000001
 40
0.0
 40
0.0
 40
0.0
 40
9.999999999999561
 40
9.999999999999561
 40
9.999999999999561
 10
871.5387255918383
 20
109.1689275765067
 30
0.0
 10
866.5387255918386
 20
109.1689278480764
 30
0.0
 10
861.5387255918388
 20
109.1689281196461
 30
0.0
  0
SPLINE
  5
E6
330
1F
100
AcDbEntity
  8
Linee visibili 2D
100
AcDbSpline
210
0.0
220
0.0
230
1.0
 70
    24
 71
     2
 72
     6
 73
     3
 74
     0
 42
0.0000000001
 43
0.0000000001
 40
0.0
 40
0.0
 40
0.0
 40
90.61230595705581
 40
90.61230595705581
 40
90.61230595705581
 10
861.5387255918388
 20
109.1689281196461
 30
0.0
 10
861.5387255918387
 20
154.475081098174
 30
0.0
 10
861.5387255918386
 20
199.7812340767019
 30
0.0
  0
SPLINE
  5
E7
330
1F
100
AcDbEntity
  8
Linee visibili 2D
100
AcDbSpline
210
0.0
220
0.0
230
1.0
 70
    24
 71
     2
 72
     6
 73
     3
 74
     0
 42
0.0000000001
 43
0.0000000001
 40
0.0
 40
0.0
 40
0.0
 40
10.0
 40
10.0
 40
10.0
 10
762.5535651827711
 20
199.7812340766511
 30
0.0
 10
767.5535651827711
 20
199.7812340766537
 30
0.0
 10
772.5535651827711
 20
199.7812340766563
 30
0.0
  0
SPLINE
  5
E8
330
1F
100
AcDbEntity
  8
Linee visibili 2D
100
AcDbSpline
210
0.0
220
0.0
230
1.0
 70
    24
 71
     2
 72
     6
 73
     3
 74
     0
 42
0.0000000001
 43
0.0000000001
 40
0.0
 40
0.0
 40
0.0
 40
90.6123057896666
 40
90.6123057896666
 40
90.6123057896666
 10
772.5535651827711
 20
199.7812340766563
 30
0.0
 10
772.553565182771
 20
154.475081181823
 30
0.0
 10
772.5535651827709
 20
109.1689282869897
 30
0.0
  0
SPLINE
  5
E9
330
1F
100
AcDbEntity
  8
Linee visibili 2D
100
AcDbSpline
210
0.0
220
0.0
230
1.0
 70
    24
 71
     2
 72
     6
 73
     3
 74
     0
 42
0.0000000001
 43
0.0000000001
 40
0.0
 40
0.0
 40
0.0
 40
9.999999999999773
 40
9.999999999999773
 40
9.999999999999773
 10
772.5535651827709
 20
109.1689282869897
 30
0.0
 10
767.553565182771
 20
109.1689282869349
 30
0.0
 10
762.5535651827711
 20
109.16892828688
 30
0.0
  0
SPLINE
  5
EA
330
1F
100
AcDbEntity
  8
Linee visibili 2D
100
AcDbSpline
210
0.0
220
0.0
230
1.0
 70
    24
 71
     2
 72
     6
 73
     3
 74
     0
 42
0.0000000001
 43
0.0000000001
 40
0.0
 40
0.0
 40
0.0
 40
90.61230578977109
 40
90.61230578977109
 40
90.61230578977109
 10
762.5535651827711
 20
109.16892828688
 30
0.0
 10
762.5535651827711
 20
154.4750811817656
 30
0.0
 10
762.5535651827711
 20
199.7812340766511
 30
0.0
  0
SPLINE
  5
EB
330
1F
100
AcDbEntity
  8
Linee visibili 2D
100
AcDbSpline
210
0.0
220
0.0
230
1.0
 70
    24
 71
     2
 72
     6
 73
     3
 74
     0
 42
0.0000000001
 43
0.0000000001
 40
0.0
 40
0.0
 40
0.0
 40
10.0
 40
10.0
 40
10.0
 10
891.538725591839
 20
199.7812340767172
 30
0.0
 10
896.538725591839
 20
199.7812340767197
 30
0.0
 10
901.538725591839
 20
199.7812340767222
 30
0.0
  0
SPLINE
  5
EC
330
1F
100
AcDbEntity
  8
Linee visibili 2D
100
AcDbSpline
210
0.0
220
0.0
230
1.0
 70
    24
 71
     2
 72
     6
 73
     3
 74
     0
 42
0.0000000001
 43
0.0000000001
 40
0.0
 40
0.0
 40
0.0
 40
90.6123081296339
 40
90.6123081296339
 40
90.6123081296339
 10
901.538725591839
 20
199.7812340767222
 30
0.0
 10
901.5387255918391
 20
154.4750800119052
 30
0.0
 10
901.5387255918392
 20
109.1689259470883
 30
0.0
  0
SPLINE
  5
ED
330
1F
100
AcDbEntity
  8
Linee visibili 2D
100
AcDbSpline
210
0.0
220
0.0
230
1.0
 70
    24
 71
     2
 72
     6
 73
     3
 74
     0
 42
0.0000000001
 43
0.0000000001
 40
0.0
 40
0.0
 40
0.0
 40
10.00000000000024
 40
10.00000000000024
 40
10.00000000000024
 10
901.5387255918392
 20
109.1689259470883
 30
0.0
 10
896.5387255918391
 20
109.168926218658
 30
0.0
 10
891.538725591839
 20
109.1689264902278
 30
0.0
  0
SPLINE
  5
EE
330
1F
100
AcDbEntity
  8
Linee visibili 2D
100
AcDbSpline
210
0.0
220
0.0
230
1.0
 70
    24
 71
     2
 72
     6
 73
     3
 74
     0
 42
0.0000000001
 43
0.0000000001
 40
0.0
 40
0.0
 40
0.0
 40
90.61230758648935
 40
90.61230758648935
 40
90.61230758648935
 10
891.538725591839
 20
109.1689264902278
 30
0.0
 10
891.538725591839
 20
154.4750802834725
 30
0.0
 10
891.538725591839
 20
199.7812340767172
 30
0.0
  0
SPLINE
  5
EF
330
1F
100
AcDbEntity
  8
Linee visibili 2D
100
AcDbSpline
210
0.0
220
0.0
230
1.0
 70
    24
 71
     2
 72
     6
 73
     3
 74
     0
 42
0.0000000001
 43
0.0000000001
 40
0.0
 40
0.0
 40
0.0
 40
10.0
 40
10.0
 40
10.0
 10
876.5387255918388
 20
199.7812340767094
 30
0.0
 10
881.5387255918388
 20
199.7812340767119
 30
0.0
 10
886.5387255918388
 20
199.7812340767144
 30
0.0
  0
SPLINE
  5
F0
330
1F
100
AcDbEntity
  8
Linee visibili 2D
100
AcDbSpline
210
0.0
220
0.0
230
1.0
 70
    24
 71
     2
 72
     6
 73
     3
 74
     0
 42
0.0000000001
 43
0.0000000001
 40
0.0
 40
0.0
 40
0.0
 40
90.61230731491696
 40
90.61230731491696
 40
90.61230731491696
 10
886.5387255918388
 20
199.7812340767144
 30
0.0
 10
886.5387255918388
 20
154.475080419256
 30
0.0
 10
886.5387255918388
 20
109.1689267617975
 30
0.0
  0
SPLINE
  5
F1
330
1F
100
AcDbEntity
  8
Linee visibili 2D
100
AcDbSpline
210
0.0
220
0.0
230
1.0
 70
    24
 71
     2
 72
     6
 73
     3
 74
     0
 42
0.0000000001
 43
0.0000000001
 40
0.0
 40
0.0
 40
0.0
 40
10.00000000000002
 40
10.00000000000002
 40
10.00000000000002
 10
886.5387255918388
 20
109.1689267617975
 30
0.0
 10
881.5387255918388
 20
109.1689270333672
 30
0.0
 10
876.5387255918388
 20
109.1689273049369
 30
0.0
  0
SPLINE
  5
F2
330
1F
100
AcDbEntity
  8
Linee visibili 2D
100
AcDbSpline
210
0.0
220
0.0
230
1.0
 70
    24
 71
     2
 72
     6
 73
     3
 74
     0
 42
0.0000000001
 43
0.0000000001
 40
0.0
 40
0.0
 40
0.0
 40
90.61230677177252
 40
90.61230677177252
 40
90.61230677177252
 10
876.5387255918388
 20
109.1689273049369
 30
0.0
 10
876.5387255918388
 20
154.4750806908232
 30
0.0
 10
876.5387255918388
 20
199.7812340767094
 30
0.0
  0
SPLINE
  5
F3
330
1F
100
AcDbEntity
  8
Linee visibili 2D
100
AcDbSpline
210
0.0
220
0.0
230
1.0
 70
    24
 71
     2
 72
     6
 73
     3
 74
     0
 42
0.0000000001
 43
0.0000000001
 40
0.0
 40
0.0
 40
0.0
 40
10.01489307413817
 40
10.01489307413817
 40
10.01489307413817
 10
921.5387255918392
 20
199.7812340767324
 30
0.0
 10
926.5461721289083
 20
199.781234076735
 30
0.0
 10
931.5536186659774
 20
199.7812340767376
 30
0.0
  0
SPLINE
  5
F4
330
1F
100
AcDbEntity
  8
Linee visibili 2D
100
AcDbSpline
210
0.0
220
0.0
230
1.0
 70
     8
 71
     3
 72
    11
 73
     7
 74
     0
 42
0.0000000001
 43
0.0000000001
 40
0.0
 40
0.0
 40
0.0
 40
0.0
 40
88.15251022319417
 40
89.36558876824787
 40
89.94676772563919
 40
91.84096286573389
 40
91.84096286573389
 40
91.84096286573389
 40
91.84096286573389
 10
931.5536186659774
 20
199.7812340767376
 30
0.0
 10
931.5203738299831
 20
170.3938239412679
 30
0.0
 10
931.5027210175738
 20
140.6134494693284
 30
0.0
 10
931.54764694744
 20
110.6240027524406
 30
0.0
 10
931.0823296572197
 20
109.462599282738
 30
0.0
 10
930.1391706314901
 20
109.1724141171012
 30
0.0
 10
929.5431267983089
 20
109.1688917542884
 30
0.0
  0
SPLINE
  5
F5
330
1F
100
AcDbEntity
  8
Linee visibili 2D
100
AcDbSpline
210
0.0
220
0.0
230
1.0
 70
    12
 71
     2
 72
     6
 73
     3
 74
     0
 42
0.0000000001
 43
0.0000000001
 40
0.0
 40
0.0
 40
0.0
 40
8.004401206626927
 40
8.004401206626927
 40
8.004401206626927
 10
929.5431267983088
 20
109.16889175431
 30
0.0
 41
1.0
 10
925.5409261952091
 20
109.1689409828015
 30
0.0
 41
0.9999999999666719
 10
921.5387255918392
 20
109.168924860831
 30
0.0
 41
1.0
  0
SPLINE
  5
F6
330
1F
100
AcDbEntity
  8
Linee visibili 2D
100
AcDbSpline
210
0.0
220
0.0
230
1.0
 70
    24
 71
     2
 72
     6
 73
     3
 74
     0
 42
0.0000000001
 43
0.0000000001
 40
0.0
 40
0.0
 40
0.0
 40
90.61230921592312
 40
90.61230921592312
 40
90.61230921592312
 10
921.5387255918392
 20
109.1689248608093
 30
0.0
 10
921.5387255918392
 20
154.4750794687708
 30
0.0
 10
921.5387255918392
 20
199.7812340767324
 30
0.0
  0
SPLINE
  5
F7
330
1F
100
AcDbEntity
  8
Linee visibili 2D
100
AcDbSpline
210
0.0
220
0.0
230
1.0
 70
    24
 71
     2
 72
     6
 73
     3
 74
     0
 42
0.0000000001
 43
0.0000000001
 40
0.0
 40
0.0
 40
0.0
 40
10.0
 40
10.0
 40
10.0
 10
792.5535651827715
 20
199.7812340766666
 30
0.0
 10
797.5535651827715
 20
199.7812340766691
 30
0.0
 10
802.5535651827715
 20
199.7812340766716
 30
0.0
  0
SPLINE
  5
F8
330
1F
100
AcDbEntity
  8
Linee visibili 2D
100
AcDbSpline
210
0.0
220
0.0
230
1.0
 70
    24
 71
     2
 72
     6
 73
     3
 74
     0
 42
0.0000000001
 43
0.0000000001
 40
0.0
 40
0.0
 40
0.0
 40
90.61230578935294
 40
90.61230578935294
 40
90.61230578935294
 10
802.5535651827715
 20
199.7812340766716
 30
0.0
 10
802.5535651827715
 20
154.4750811819951
 30
0.0
 10
802.5535651827715
 20
109.1689282873186
 30
0.0
  0
SPLINE
  5
F9
330
1F
100
AcDbEntity
  8
Linee visibili 2D
100
AcDbSpline
210
0.0
220
0.0
230
1.0
 70
    24
 71
     2
 72
     6
 73
     3
 74
     0
 42
0.0000000001
 43
0.0000000001
 40
0.0
 40
0.0
 40
0.0
 40
10.0
 40
10.0
 40
10.0
 10
802.5535651827715
 20
109.1689282873186
 30
0.0
 10
797.5535651827715
 20
109.1689282872638
 30
0.0
 10
792.5535651827715
 20
109.168928287209
 30
0.0
  0
SPLINE
  5
FA
330
1F
100
AcDbEntity
  8
Linee visibili 2D
100
AcDbSpline
210
0.0
220
0.0
230
1.0
 70
    24
 71
     2
 72
     6
 73
     3
 74
     0
 42
0.0000000001
 43
0.0000000001
 40
0.0
 40
0.0
 40
0.0
 40
90.61230578945754
 40
90.61230578945754
 40
90.61230578945754
 10
792.5535651827715
 20
109.168928287209
 30
0.0
 10
792.5535651827715
 20
154.4750811819378
 30
0.0
 10
792.5535651827715
 20
199.7812340766666
 30
0.0
  0
SPLINE
  5
FB
330
1F
100
AcDbEntity
  8
Linee visibili 2D
100
AcDbSpline
210
0.0
220
0.0
230
1.0
 70
    24
 71
     2
 72
     6
 73
     3
 74
     0
 42
0.0000000001
 43
0.0000000001
 40
0.0
 40
0.0
 40
0.0
 40
10.0
 40
10.0
 40
10.0
 10
906.5387255918392
 20
199.7812340767248
 30
0.0
 10
911.5387255918392
 20
199.7812340767274
 30
0.0
 10
916.5387255918392
 20
199.78123407673
 30
0.0
  0
SPLINE
  5
FC
330
1F
100
AcDbEntity
  8
Linee visibili 2D
100
AcDbSpline
210
0.0
220
0.0
230
1.0
 70
    24
 71
     2
 72
     6
 73
     3
 74
     0
 42
0.0000000001
 43
0.0000000001
 40
0.0
 40
0.0
 40
0.0
 40
90.61230894435096
 40
90.61230894435096
 40
90.61230894435096
 10
916.5387255918392
 20
199.78123407673
 30
0.0
 10
916.5387255918394
 20
154.4750796045545
 30
0.0
 10
916.5387255918395
 20
109.1689251323791
 30
0.0
  0
SPLINE
  5
FD
330
1F
100
AcDbEntity
  8
Linee visibili 2D
100
AcDbSpline
210
0.0
220
0.0
230
1.0
 70
    24
 71
     2
 72
     6
 73
     3
 74
     0
 42
0.0000000001
 43
0.0000000001
 40
0.0
 40
0.0
 40
0.0
 40
10.00000000000024
 40
10.00000000000024
 40
10.00000000000024
 10
916.5387255918395
 20
109.1689251323791
 30
0.0
 10
911.5387255918394
 20
109.1689254039488
 30
0.0
 10
906.5387255918392
 20
109.1689256755185
 30
0.0
  0
SPLINE
  5
FE
330
1F
100
AcDbEntity
  8
Linee visibili 2D
100
AcDbSpline
210
0.0
220
0.0
230
1.0
 70
    24
 71
     2
 72
     6
 73
     3
 74
     0
 42
0.0000000001
 43
0.0000000001
 40
0.0
 40
0.0
 40
0.0
 40
90.61230840120629
 40
90.61230840120629
 40
90.61230840120629
 10
906.5387255918392
 20
109.1689256755185
 30
0.0
 10
906.5387255918392
 20
154.4750798761216
 30
0.0
 10
906.5387255918392
 20
199.7812340767248
 30
0.0
  0
SPLINE
  5
FF
330
1F
100
AcDbEntity
  8
Linee visibili 2D
100
AcDbSpline
210
0.0
220
0.0
230
1.0
 70
    24
 71
     2
 72
     6
 73
     3
 74
     0
 42
0.0000000001
 43
0.0000000001
 40
0.0
 40
0.0
 40
0.0
 40
10.01037720575528
 40
10.01037720575528
 40
10.01037720575528
 10
747.5431879770158
 20
199.7812340766435
 30
0.0
 10
752.5483765798934
 20
199.781234076646
 30
0.0
 10
757.5535651827711
 20
199.7812340766485
 30
0.0
  0
SPLINE
  5
100
330
1F
100
AcDbEntity
  8
Linee visibili 2D
100
AcDbSpline
210
0.0
220
0.0
230
1.0
 70
    24
 71
     2
 72
     6
 73
     3
 74
     0
 42
0.0000000001
 43
0.0000000001
 40
0.0
 40
0.0
 40
0.0
 40
90.61230578982327
 40
90.61230578982327
 40
90.61230578982327
 10
757.5535651827711
 20
199.7812340766485
 30
0.0
 10
757.5535651827711
 20
154.4750811817369
 30
0.0
 10
757.5535651827711
 20
109.1689282868252
 30
0.0
  0
SPLINE
  5
101
330
1F
100
AcDbEntity
  8
Linee visibili 2D
100
AcDbSpline
210
0.0
220
0.0
230
1.0
 70
     8
 71
     3
 72
    16
 73
    12
 74
     0
 42
0.0000000001
 43
0.0000000001
 40
0.0
 40
0.0
 40
0.0
 40
0.0
 40
6.572663390401252
 40
8.429736070825353
 40
8.967533741651833
 40
9.527270006949514
 40
10.13839520329855
 40
10.60445555479058
 40
10.98529728485923
 40
12.131104178808
 40
99.86106223072672
 40
99.86106223072672
 40
99.86106223072672
 40
99.86106223072672
 10
757.5535651827711
 20
109.1689282868252
 30
0.0
 10
755.3616354858441
 20
109.146861767708
 30
0.0
 10
752.554777447449
 20
109.2117700360439
 30
0.0
 10
749.5621269488596
 20
109.1371865818829
 30
0.0
 10
748.5853300710938
 20
109.2922368832492
 30
0.0
 10
748.1174104096999
 20
109.6560255830835
 30
0.0
 10
747.7084799662973
 20
110.0151507325805
 30
0.0
 10
747.5573411893808
 20
110.4977390305649
 30
0.0
 10
747.5450658567227
 20
111.1604606310639
 30
0.0
 10
747.5669108383752
 20
140.9127915142647
 30
0.0
 10
747.5638998873435
 20
170.5379259502246
 30
0.0
 10
747.5431879770158
 20
199.7812340766435
 30
0.0
  0
SPLINE
  5
102
330
1F
100
AcDbEntity
  8
Linee visibili 2D
100
AcDbSpline
210
0.0
220
0.0
230
1.0
 70
    24
 71
     2
 72
     6
 73
     3
 74
     0
 42
0.0000000001
 43
0.0000000001
 40
0.0
 40
0.0
 40
0.0
 40
10.0
 40
10.0
 40
10.0
 10
807.5535651827715
 20
199.7812340766742
 30
0.0
 10
812.5535651827715
 20
199.7812340766767
 30
0.0
 10
817.5535651827715
 20
199.7812340766792
 30
0.0
  0
SPLINE
  5
103
330
1F
100
AcDbEntity
  8
Linee visibili 2D
100
AcDbSpline
210
0.0
220
0.0
230
1.0
 70
    24
 71
     2
 72
     6
 73
     3
 74
     0
 42
0.0000000001
 43
0.0000000001
 40
0.0
 40
0.0
 40
0.0
 40
90.61230578919606
 40
90.61230578919606
 40
90.61230578919606
 10
817.5535651827715
 20
199.7812340766792
 30
0.0
 10
817.5535651827715
 20
154.4750811820812
 30
0.0
 10
817.5535651827715
 20
109.1689282874831
 30
0.0
  0
SPLINE
  5
104
330
1F
100
AcDbEntity
  8
Linee visibili 2D
100
AcDbSpline
210
0.0
220
0.0
230
1.0
 70
    24
 71
     2
 72
     6
 73
     3
 74
     0
 42
0.0000000001
 43
0.0000000001
 40
0.0
 40
0.0
 40
0.0
 40
9.999999999999773
 40
9.999999999999773
 40
9.999999999999773
 10
817.5535651827715
 20
109.1689282874831
 30
0.0
 10
812.5535651827716
 20
109.1689282874283
 30
0.0
 10
807.5535651827718
 20
109.1689282873734
 30
0.0
  0
SPLINE
  5
105
330
1F
100
AcDbEntity
  8
Linee visibili 2D
100
AcDbSpline
210
0.0
220
0.0
230
1.0
 70
    24
 71
     2
 72
     6
 73
     3
 74
     0
 42
0.0000000001
 43
0.0000000001
 40
0.0
 40
0.0
 40
0.0
 40
90.61230578930076
 40
90.61230578930076
 40
90.61230578930076
 10
807.5535651827718
 20
109.1689282873734
 30
0.0
 10
807.5535651827716
 20
154.4750811820238
 30
0.0
 10
807.5535651827715
 20
199.7812340766742
 30
0.0
  0
SPLINE
  5
106
330
1F
100
AcDbEntity
  8
Linee visibili 2D
100
AcDbSpline
210
0.0
220
0.0
230
1.0
 70
    24
 71
     2
 72
     6
 73
     3
 74
     0
 42
0.0000000001
 43
0.0000000001
 40
0.0
 40
0.0
 40
0.0
 40
10.0
 40
10.0
 40
10.0
 10
777.5535651827713
 20
199.7812340766587
 30
0.0
 10
782.5535651827713
 20
199.7812340766613
 30
0.0
 10
787.5535651827713
 20
199.781234076664
 30
0.0
  0
SPLINE
  5
107
330
1F
100
AcDbEntity
  8
Linee visibili 2D
100
AcDbSpline
210
0.0
220
0.0
230
1.0
 70
    24
 71
     2
 72
     6
 73
     3
 74
     0
 42
0.0000000001
 43
0.0000000001
 40
0.0
 40
0.0
 40
0.0
 40
90.61230578950972
 40
90.61230578950972
 40
90.61230578950972
 10
787.5535651827713
 20
199.781234076664
 30
0.0
 10
787.5535651827713
 20
154.4750811819091
 30
0.0
 10
787.5535651827713
 20
109.1689282871542
 30
0.0
  0
SPLINE
  5
108
330
1F
100
AcDbEntity
  8
Linee visibili 2D
100
AcDbSpline
210
0.0
220
0.0
230
1.0
 70
    24
 71
     2
 72
     6
 73
     3
 74
     0
 42
0.0000000001
 43
0.0000000001
 40
0.0
 40
0.0
 40
0.0
 40
10.00000000000023
 40
10.00000000000023
 40
10.00000000000023
 10
787.5535651827713
 20
109.1689282871542
 30
0.0
 10
782.5535651827712
 20
109.1689282870994
 30
0.0
 10
777.5535651827711
 20
109.1689282870445
 30
0.0
  0
SPLINE
  5
109
330
1F
100
AcDbEntity
  8
Linee visibili 2D
100
AcDbSpline
210
0.0
220
0.0
230
1.0
 70
    24
 71
     2
 72
     6
 73
     3
 74
     0
 42
0.0000000001
 43
0.0000000001
 40
0.0
 40
0.0
 40
0.0
 40
90.6123057896142
 40
90.6123057896142
 40
90.6123057896142
 10
777.5535651827711
 20
109.1689282870445
 30
0.0
 10
777.5535651827712
 20
154.4750811818516
 30
0.0
 10
777.5535651827713
 20
199.7812340766587
 30
0.0
  0
SPLINE
  5
10A
330
1F
100
AcDbEntity
  8
Linee visibili 2D
100
AcDbSpline
210
0.0
220
0.0
230
1.0
 70
    12
 71
     2
 72
     6
 73
     3
 74
     0
 42
0.0000000001
 43
0.0000000001
 40
0.0
 40
0.0
 40
0.0
 40
85.87505418535297
 40
85.87505418535297
 40
85.87505418535297
 10
939.5300430590993
 20
198.667156224167
 30
0.0
 41
1.0
 10
939.5291806825225
 20
155.7296291343802
 30
0.0
 41
0.999999999798413
 10
939.5300426077438
 20
112.7921020445845
 30
0.0
 41
1.0
  0
SPLINE
  5
10B
330
1F
100
AcDbEntity
  8
Linee visibili 2D
100
AcDbSpline
210
0.0
220
0.0
230
1.0
 70
    12
 71
     2
 72
     6
 73
     3
 74
     0
 42
0.0000000001
 43
0.0000000001
 40
0.0
 40
0.0
 40
0.0
 40
2.794438520325328
 40
2.794438520325328
 40
2.794438520325328
 10
939.5300430591449
 20
198.667156224167
 30
0.0
 41
1.0
 10
939.5309482350785
 20
200.0643761985248
 30
0.0
 41
0.9999989184958356
 10
939.5359632317213
 20
201.4615874659775
 30
0.0
 41
1.0
  0
SPLINE
  5
10C
330
1F
100
AcDbEntity
  8
Linee visibili 2D
100
AcDbSpline
210
0.0
220
0.0
230
1.0
 70
    12
 71
     2
 72
     6
 73
     3
 74
     0
 42
0.0000000001
 43
0.0000000001
 40
0.0
 40
0.0
 40
0.0
 40
15.14876513203433
 40
15.14876513203433
 40
15.14876513203433
 10
939.5359632317101
 20
201.4615874659775
 30
0.0
 41
1.0
 10
939.547320429353
 20
209.0359615212989
 30
0.0
 41
0.9999999992224379
 10
939.5580802351304
 20
216.6103364488057
 30
0.0
 41
1.0
  0
SPLINE
  5
10D
330
1F
100
AcDbEntity
  8
Linee visibili 2D
100
AcDbSpline
210
0.0
220
0.0
230
1.0
 70
    12
 71
     2
 72
     6
 73
     3
 74
     0
 42
0.0000000001
 43
0.0000000001
 40
0.0
 40
0.0
 40
0.0
 40
15.148766007729
 40
15.148766007729
 40
15.148766007729
 10
739.529568559357
 20
216.610336446137
 30
0.0
 41
1.0
 10
739.5403068545403
 20
209.0359610496647
 30
0.0
 41
0.9999999991053289
 10
739.5516859511629
 20
201.4615865887716
 30
0.0
 41
1.0
  0
SPLINE
  5
10E
330
1F
100
AcDbEntity
  8
Linee visibili 2D
100
AcDbSpline
210
0.0
220
0.0
230
1.0
 70
    12
 71
     2
 72
     6
 73
     3
 74
     0
 42
0.0000000001
 43
0.0000000001
 40
0.0
 40
0.0
 40
0.0
 40
2.79443766687697
 40
2.79443766687697
 40
2.79443766687697
 10
739.5516859511883
 20
201.4615865887716
 30
0.0
 41
1.0
 10
739.556706194882
 20
200.0643757673462
 30
0.0
 41
0.9999989189863853
 10
739.5576175513322
 20
198.6671562241876
 30
0.0
 41
1.0
  0
SPLINE
  5
10F
330
1F
100
AcDbEntity
  8
Linee visibili 2D
100
AcDbSpline
210
0.0
220
0.0
230
1.0
 70
    12
 71
     2
 72
     6
 73
     3
 74
     0
 42
0.0000000001
 43
0.0000000001
 40
0.0
 40
0.0
 40
0.0
 40
85.87505418536416
 40
85.87505418536416
 40
85.87505418536416
 10
739.5576199917829
 20
112.7921020445939
 30
0.0
 41
1.0
 10
739.558480922303
 20
155.7296291344152
 30
0.0
 41
0.9999999997984131
 10
739.5576175514084
 20
198.6671562241876
 30
0.0
 41
1.0
  0
SPLINE
  5
110
330
1F
100
AcDbEntity
  8
Linee visibili 2D
100
AcDbSpline
210
0.0
220
0.0
230
1.0
 70
    12
 71
     2
 72
     8
 73
     5
 74
     0
 42
0.0000000001
 43
0.0000000001
 40
0.0
 40
0.0
 40
0.0
 40
7.728837609480368
 40
7.728837609480368
 40
15.45767521896074
 40
15.45767521896074
 40
15.45767521896074
 10
749.5706556621751
 20
103.1362301891164
 30
0.0
 41
1.0
 10
745.4943436199044
 20
103.0552599761413
 30
0.0
 41
0.9235531171741078
 10
742.5595199369665
 20
105.8853988404762
 30
0.0
 41
1.0
 10
739.6246962540287
 20
108.7155377048111
 30
0.0
 41
0.9235531171741078
 10
739.5576199917407
 20
112.7921020445939
 30
0.0
 41
1.0
  0
SPLINE
  5
111
330
1F
100
AcDbEntity
  8
Linee visibili 2D
100
AcDbSpline
210
0.0
220
0.0
230
1.0
 70
    12
 71
     2
 72
     6
 73
     3
 74
     0
 42
0.0000000001
 43
0.0000000001
 40
0.0
 40
0.0
 40
0.0
 40
15.44993303478673
 40
15.44993303478673
 40
15.44993303478673
 10
939.5300426080069
 20
112.7921020445845
 30
0.0
 41
1.0
 10
939.3502264538611
 20
102.9589260578689
 30
0.0
 41
0.7071970953683625
 10
929.5170048515645
 20
103.1362301896269
 30
0.0
 41
1.0
  0
SPLINE
  5
112
330
1F
100
AcDbEntity
  8
Linee visibili 2D
100
AcDbSpline
210
0.0
220
0.0
230
1.0
 70
    12
 71
     3
 72
     8
 73
     4
 74
     0
 42
0.0000000001
 43
0.0000000001
 40
161.8691859565538
 40
161.8691859565538
 40
161.8691859565538
 40
161.8691859565538
 40
162.0319026205779
 40
162.0319026205779
 40
162.0319026205779
 40
162.0319026205779
 10
856.4842416812178
 20
216.4445509156938
 30
0.0
 41
1.0
 10
856.5034117793393
 20
216.7341592616965
 30
0.0
 41
1.0
 10
856.5269423533932
 20
216.869878205359
 30
0.0
 41
1.0
 10
856.52541230363
 20
216.8641060850526
 30
0.0
 41
1.0
  0
SPLINE
  5
113
330
1F
100
AcDbEntity
  8
Linee visibili 2D
100
AcDbSpline
210
0.0
220
0.0
230
1.0
 70
    12
 71
     3
 72
    30
 73
    26
 74
     0
 42
0.0000000001
 43
0.0000000001
 40
97.67413720670977
 40
97.67413720670977
 40
97.67413720670977
 40
97.67413720670977
 40
97.68503313061004
 40
97.68503313061004
 40
97.7475331766602
 40
97.7475331766602
 40
97.81003322271035
 40
97.81003322271035
 40
97.8725332687605
 40
97.8725332687605
 40
97.93503331481067
 40
97.93503331481067
 40
97.99753336086083
 40
97.99753336086083
 40
98.06003340691099
 40
98.06003340691099
 40
98.12253345296115
 40
98.12253345296115
 40
98.18503349901131
 40
98.18503349901131
 40
98.24753354506147
 40
98.24753354506147
 40
98.31003359111163
 40
98.31003359111163
 40
98.33036115654102
 40
98.33036115654102
 40
98.33036115654102
 40
98.33036115654102
 10
824.8371437494903
 20
132.0462820090068
 30
0.0
 41
1.0
 10
824.9366236784538
 20
131.8767448911978
 30
0.0
 41
1.0
 10
825.0391989304394
 20
131.7090066814064
 30
0.0
 41
1.0
 10
825.7503130500847
 20
130.5926499883385
 30
0.0
 41
1.0
 10
826.4477586420132
 20
129.7119773212258
 30
0.0
 41
1.0
 10
828.027096112279
 20
128.09103804893
 30
0.0
 41
1.0
 10
828.9156304996668
 20
127.3508923896311
 30
0.0
 41
1.0
 10
830.7992626273003
 20
126.0790249882747
 30
0.0
 41
1.0
 10
831.8026764584513
 20
125.536835823984
 30
0.0
 41
1.0
 10
833.9391613225318
 20
124.6497804632976
 30
0.0
 41
1.0
 10
835.0416265215272
 20
124.3189332895923
 30
0.0
 41
1.0
 10
837.2920476999227
 20
123.8757830283012
 30
0.0
 41
1.0
 10
838.456948350296
 20
123.7628563918744
 30
0.0
 41
1.0
 10
840.7654021862074
 20
123.7718458109063
 30
0.0
 41
1.0
 10
841.9065998764866
 20
123.8902363643251
 30
0.0
 41
1.0
 10
844.163458693467
 20
124.3502470082277
 30
0.0
 41
1.0
 10
845.2794586072498
 20
124.6951079924695
 30
0.0
 41
1.0
 10
847.396590632887
 20
125.5933178644359
 30
0.0
 41
1.0
 10
848.4155779537148
 20
126.153747443314
 30
0.0
 41
1.0
 10
850.289353500262
 20
127.4428153411366
 30
0.0
 41
1.0
 10
851.1531534026287
 20
128.1739053956754
 30
0.0
 41
1.0
 10
852.7284313268938
 20
129.8164764316931
 30
0.0
 41
1.0
 10
853.4258490194968
 20
130.7145338815179
 30
0.0
 41
1.0
 10
854.2119276798248
 20
131.9727107174433
 30
0.0
 41
1.0
 10
854.3943865331524
 20
132.2876765449482
 30
0.0
 41
1.0
 10
854.566194416567
 20
132.6089387246508
 30
0.0
 41
1.0
  0
SPLINE
  5
114
330
1F
100
AcDbEntity
  8
Linee visibili 2D
100
AcDbSpline
210
0.0
220
0.0
230
1.0
 70
    12
 71
     3
 72
    17
 73
    13
 74
     0
 42
0.0000000001
 43
0.0000000001
 40
0.0
 40
0.0
 40
0.0
 40
0.0
 40
33.96316409348219
 40
33.96316409348219
 40
33.96316409348219
 40
34.02566761051222
 40
34.02566761051222
 40
34.05691936902802
 40
34.05691936902802
 40
34.08817112754384
 40
34.08817112754384
 40
34.12577709093893
 40
34.12577709093893
 40
34.12577709093893
 40
34.12577709093893
 10
856.52541230363
 20
216.8641060850526
 30
0.0
 41
1.0
 10
845.2043576058027
 20
216.8641060850499
 30
0.0
 41
1.0
 10
833.8833029079751
 20
216.8641060850472
 30
0.0
 41
1.0
 10
822.5622482101478
 20
216.8641060850445
 30
0.0
 41
1.0
 10
822.5616811411094
 20
216.8662427353702
 30
0.0
 41
1.0
 10
822.567314621783
 20
216.8450195550012
 30
0.0
 41
1.0
 10
822.5797314094898
 20
216.7788865036983
 30
0.0
 41
1.0
 10
822.5849001328711
 20
216.7511210703312
 30
0.0
 41
1.0
 10
822.5969772191431
 20
216.6841914366292
 30
0.0
 41
1.0
 10
822.6031029748985
 20
216.6450267322363
 30
0.0
 41
1.0
 10
822.6108238426734
 20
216.5461486840074
 30
0.0
 41
1.0
 10
822.6138568710633
 20
216.4838900413833
 30
0.0
 41
1.0
 10
822.6162445164812
 20
216.4132846206035
 30
0.0
 41
1.0
  0
SPLINE
  5
115
330
1F
100
AcDbEntity
  8
Linee visibili 2D
100
AcDbSpline
210
0.0
220
0.0
230
1.0
 70
    12
 71
     3
 72
    18
 73
    14
 74
     0
 42
0.0000000001
 43
0.0000000001
 40
209.8081788506198
 40
209.8081788506198
 40
209.8081788506198
 40
209.8081788506198
 40
216.6787614273273
 40
216.6787614273273
 40
224.5332497104946
 40
224.5332497104946
 40
224.5332497104946
 40
390.6388467908337
 40
390.6388467908337
 40
390.6388467908337
 40
398.4909411610857
 40
398.4909411610857
 40
405.3636184061192
 40
405.3636184061192
 40
405.3636184061192
 40
405.3636184061192
 10
746.5356287782242
 20
240.3316051074766
 30
0.0
 41
1.0
 10
746.7717080020072
 20
240.3334736343959
 30
0.0
 41
1.0
 10
747.8156413754307
 20
240.3362332946019
 30
0.0
 41
1.0
 10
751.2358471757409
 20
240.3362348051916
 30
0.0
 41
1.0
 10
753.7893086181127
 20
240.3326293989965
 30
0.0
 41
1.0
 10
756.4812318886566
 20
240.3308695110642
 30
0.0
 41
1.0
 10
811.8497642487694
 20
240.3308695110636
 30
0.0
 41
1.0
 10
867.2182966088824
 20
240.330869511063
 30
0.0
 41
1.0
 10
922.5868289689952
 20
240.3308695110625
 30
0.0
 41
1.0
 10
925.2779324534292
 20
240.3326288756942
 30
0.0
 41
1.0
 10
927.8306723776768
 20
240.3362332286061
 30
0.0
 41
1.0
 10
931.2516178590204
 20
240.3362347650746
 30
0.0
 41
1.0
 10
932.2961817401974
 20
240.3334744762074
 30
0.0
 41
1.0
 10
932.5324055460732
 20
240.3316053326575
 30
0.0
 41
1.0
  0
ENDSEC
  0
SECTION
  2
OBJECTS
  0
DICTIONARY
  5
C
330
0
100
AcDbDictionary
281
     1
  3
ACAD_GROUP
350
D
  3
ACAD_LAYOUT
350
1A
  3
ACAD_MLEADERSTYLE
350
117
  3
ACAD_MLINESTYLE
350
17
  3
ACAD_PLOTSETTINGS
350
19
  3
ACAD_PLOTSTYLENAME
350
E
  3
ACAD_TABLESTYLE
350
116
  3
ACAD_VISUALSTYLE
350
2A
  0
DICTIONARY
  5
D
102
{ACAD_REACTORS
330
C
102
}
330
C
100
AcDbDictionary
281
     1
  0
DICTIONARY
  5
1A
102
{ACAD_REACTORS
330
C
102
}
330
C
100
AcDbDictionary
281
     1
  3
Layout1
350
1E
  3
Layout2
350
26
  3
Model
350
22
  0
DICTIONARY
  5
117
102
{ACAD_REACTORS
330
C
102
}
330
C
100
AcDbDictionary
281
     1
  0
DICTIONARY
  5
17
102
{ACAD_REACTORS
330
C
102
}
330
C
100
AcDbDictionary
281
     1
  3
Standard
350
18
  0
DICTIONARY
  5
19
102
{ACAD_REACTORS
330
C
102
}
330
C
100
AcDbDictionary
281
     1
  0
ACDBDICTIONARYWDFLT
  5
E
102
{ACAD_REACTORS
330
C
102
}
330
C
100
AcDbDictionary
281
     1
  3
Normal
350
F
100
AcDbDictionaryWithDefault
340
F
  0
DICTIONARY
  5
116
102
{ACAD_REACTORS
330
C
102
}
330
C
100
AcDbDictionary
281
     1
  0
DICTIONARY
  5
2A
102
{ACAD_REACTORS
330
C
102
}
330
C
100
AcDbDictionary
281
     1
  3
2dWireframe
350
2F
  3
3D Hidden
350
31
  3
3dWireframe
350
30
  3
Basic
350
32
  3
Brighten
350
36
  3
ColorChange
350
3A
  3
Conceptual
350
34
  3
Dim
350
35
  3
Facepattern
350
39
  3
Flat
350
2B
  3
FlatWithEdges
350
2C
  3
Gouraud
350
2D
  3
GouraudWithEdges
350
2E
  3
Linepattern
350
38
  3
Realistic
350
33
  3
Thicken
350
37
  0
LAYOUT
  5
1E
102
{ACAD_REACTORS
330
1A
102
}
330
1A
100
AcDbPlotSettings
  1

  2
none_device
  4

  6

 40
0.0
 41
0.0
 42
0.0
 43
0.0
 44
0.0
 45
0.0
 46
0.0
 47
0.0
 48
0.0
 49
0.0
140
0.0
141
0.0
142
1.0
143
1.0
 70
   688
 72
     0
 73
     0
 74
     5
  7

 75
    16
 76
     0
 77
     2
 78
   300
147
1.0
148
0.0
149
0.0
100
AcDbLayout
  1
Layout1
 70
     1
 71
     1
 10
0.0
 20
0.0
 11
12.0
 21
9.0
 12
0.0
 22
0.0
 32
0.0
 14
1.000000000000000E+20
 24
1.000000000000000E+20
 34
1.000000000000000E+20
 15
-1.000000000000000E+20
 25
-1.000000000000000E+20
 35
-1.000000000000000E+20
146
0.0
 13
0.0
 23
0.0
 33
0.0
 16
1.0
 26
0.0
 36
0.0
 17
0.0
 27
1.0
 37
0.0
 76
     0
330
1B
  0
LAYOUT
  5
26
102
{ACAD_REACTORS
330
1A
102
}
330
1A
100
AcDbPlotSettings
  1

  2
none_device
  4

  6

 40
0.0
 41
0.0
 42
0.0
 43
0.0
 44
0.0
 45
0.0
 46
0.0
 47
0.0
 48
0.0
 49
0.0
140
0.0
141
0.0
142
1.0
143
1.0
 70
   688
 72
     0
 73
     0
 74
     5
  7

 75
    16
 76
     0
 77
     2
 78
   300
147
1.0
148
0.0
149
0.0
100
AcDbLayout
  1
Layout2
 70
     1
 71
     2
 10
0.0
 20
0.0
 11
0.0
 21
0.0
 12
0.0
 22
0.0
 32
0.0
 14
0.0
 24
0.0
 34
0.0
 15
0.0
 25
0.0
 35
0.0
146
0.0
 13
0.0
 23
0.0
 33
0.0
 16
1.0
 26
0.0
 36
0.0
 17
0.0
 27
1.0
 37
0.0
 76
     0
330
23
  0
LAYOUT
  5
22
102
{ACAD_REACTORS
330
1A
102
}
330
1A
100
AcDbPlotSettings
  1

  2
none_device
  4

  6

 40
0.0
 41
0.0
 42
0.0
 43
0.0
 44
0.0
 45
0.0
 46
0.0
 47
0.0
 48
0.0
 49
0.0
140
0.0
141
0.0
142
1.0
143
1.0
 70
  1712
 72
     0
 73
     0
 74
     0
  7

 75
     0
 76
     0
 77
     2
 78
   300
147
1.0
148
0.0
149
0.0
100
AcDbLayout
  1
Model
 70
     1
 71
     0
 10
0.0
 20
0.0
 11
12.0
 21
9.0
 12
0.0
 22
0.0
 32
0.0
 14
739.5295685593469
 24
100.9600117217227
 34
0.0
 15
1231.081520106958
 25
488.4648118978884
 35
0.0
146
0.0
 13
0.0
 23
0.0
 33
0.0
 16
1.0
 26
0.0
 36
0.0
 17
0.0
 27
1.0
 37
0.0
 76
     0
330
1F
331
29
  0
MLINESTYLE
  5
18
102
{ACAD_REACTORS
330
17
102
}
330
17
100
AcDbMlineStyle
  2
Standard
 70
     0
  3

 62
   256
 51
90.0
 52
90.0
 71
     2
 49
0.5
 62
   256
  6
BYLAYER
 49
-0.5
 62
   256
  6
BYLAYER
  0
ACDBPLACEHOLDER
  5
F
102
{ACAD_REACTORS
330
E
102
}
330
E
  0
VISUALSTYLE
  5
2F
102
{ACAD_REACTORS
330
2A
102
}
330
2A
100
AcDbVisualStyle
  2
2dWireframe
 70
     4
 71
     0
 72
     2
 73
     0
 90
        0
 40
-0.6
 41
-30.0
 62
     5
 63
     7
421
 16777215
 74
     1
 91
        4
 64
     7
 65
   257
 75
     1
175
     1
 42
1.0
 92
        0
 66
   257
 43
1.0
 76
     1
 77
     6
 78
     2
 67
     7
 79
     5
170
     0
171
     0
290
     0
174
     0
 93
        1
 44
0.0
173
     0
291
     0
 45
0.0
1001
ACAD
1000
AcDbSavedByObjectVersion
1070
     0
  0
VISUALSTYLE
  5
31
102
{ACAD_REACTORS
330
2A
102
}
330
2A
100
AcDbVisualStyle
  2
3D Hidden
 70
     6
 71
     1
 72
     2
 73
     2
 90
        0
 40
-0.6
 41
-30.0
 62
     5
 63
     7
421
 16777215
 74
     2
 91
        2
 64
     7
 65
   257
 75
     2
175
     1
 42
40.0
 92
        0
 66
   257
 43
1.0
 76
     1
 77
     6
 78
     2
 67
     7
 79
     3
170
     0
171
     0
290
     0
174
     0
 93
        1
 44
0.0
173
     0
291
     0
 45
0.0
1001
ACAD
1000
AcDbSavedByObjectVersion
1070
     0
  0
VISUALSTYLE
  5
30
102
{ACAD_REACTORS
330
2A
102
}
330
2A
100
AcDbVisualStyle
  2
3dWireframe
 70
     5
 71
     0
 72
     2
 73
     0
 90
        0
 40
-0.6
 41
-30.0
 62
     5
 63
     7
421
 16777215
 74
     1
 91
        4
 64
     7
 65
   257
 75
     1
175
     1
 42
1.0
 92
        0
 66
   257
 43
1.0
 76
     1
 77
     6
 78
     2
 67
     7
 79
     5
170
     0
171
     0
290
     0
174
     0
 93
        1
 44
0.0
173
     0
291
     0
 45
0.0
1001
ACAD
1000
AcDbSavedByObjectVersion
1070
     0
  0
VISUALSTYLE
  5
32
102
{ACAD_REACTORS
330
2A
102
}
330
2A
100
AcDbVisualStyle
  2
Basic
 70
     7
 71
     1
 72
     0
 73
     1
 90
        0
 40
-0.6
 41
-30.0
 62
     5
 63
     7
421
 16777215
 74
     0
 91
        4
 64
     7
 65
   257
 75
     1
175
     1
 42
1.0
 92
        8
 66
     7
 43
1.0
 76
     1
 77
     6
 78
     2
 67
     7
 79
     5
170
     0
171
     0
290
     0
174
     0
 93
        1
 44
0.0
173
     0
291
     1
 45
0.0
1001
ACAD
1000
AcDbSavedByObjectVersion
1070
     0
  0
VISUALSTYLE
  5
36
102
{ACAD_REACTORS
330
2A
102
}
330
2A
100
AcDbVisualStyle
  2
Brighten
 70
    12
 71
     2
 72
     2
 73
     0
 90
        0
 40
-0.6
 41
-30.0
 62
     5
 63
     7
421
 16777215
 74
     1
 91
        4
 64
     7
 65
   257
 75
     1
175
     1
 42
1.0
 92
        8
 66
     7
 43
1.0
 76
     1
 77
     6
 78
     2
 67
     7
 79
     5
170
     0
171
     0
290
     0
174
     0
 93
        1
 44
50.0
173
     0
291
     1
 45
0.0
1001
ACAD
1000
AcDbSavedByObjectVersion
1070
     0
  0
VISUALSTYLE
  5
3A
102
{ACAD_REACTORS
330
2A
102
}
330
2A
100
AcDbVisualStyle
  2
ColorChange
 70
    16
 71
     2
 72
     2
 73
     3
 90
        0
 40
-0.6
 41
-30.0
 62
     5
 63
     8
421
  8421504
 74
     1
 91
        4
 64
     7
 65
   257
 75
     1
175
     1
 42
1.0
 92
        8
 66
     8
424
  8421504
 43
1.0
 76
     1
 77
     6
 78
     2
 67
     7
 79
     5
170
     0
171
     0
290
     0
174
     0
 93
        1
 44
0.0
173
     0
291
     1
 45
0.0
1001
ACAD
1000
AcDbSavedByObjectVersion
1070
     0
  0
VISUALSTYLE
  5
34
102
{ACAD_REACTORS
330
2A
102
}
330
2A
100
AcDbVisualStyle
  2
Conceptual
 70
     9
 71
     3
 72
     2
 73
     0
 90
        0
 40
-0.6
 41
-30.0
 62
     5
 63
     7
421
 16777215
 74
     2
 91
        2
 64
     7
 65
   257
 75
     1
175
     1
 42
40.0
 92
        8
 66
     7
 43
1.0
 76
     1
 77
     6
 78
     2
 67
     7
 79
     3
170
     0
171
     0
290
     0
174
     0
 93
        1
 44
0.0
173
     0
291
     0
 45
0.0
1001
ACAD
1000
AcDbSavedByObjectVersion
1070
     0
  0
VISUALSTYLE
  5
35
102
{ACAD_REACTORS
330
2A
102
}
330
2A
100
AcDbVisualStyle
  2
Dim
 70
    11
 71
     2
 72
     2
 73
     0
 90
        0
 40
-0.6
 41
-30.0
 62
     5
 63
     7
421
 16777215
 74
     1
 91
        4
 64
     7
 65
   257
 75
     1
175
     1
 42
1.0
 92
        8
 66
     7
 43
1.0
 76
     1
 77
     6
 78
     2
 67
     7
 79
     5
170
     0
171
     0
290
     0
174
     0
 93
        1
 44
-50.0
173
     0
291
     1
 45
0.0
1001
ACAD
1000
AcDbSavedByObjectVersion
1070
     0
  0
VISUALSTYLE
  5
39
102
{ACAD_REACTORS
330
2A
102
}
330
2A
100
AcDbVisualStyle
  2
Facepattern
 70
    15
 71
     2
 72
     2
 73
     0
 90
        0
 40
-0.6
 41
-30.0
 62
     5
 63
     7
421
 16777215
 74
     1
 91
        4
 64
     7
 65
   257
 75
     1
175
     1
 42
1.0
 92
        8
 66
     7
 43
1.0
 76
     1
 77
     6
 78
     2
 67
     7
 79
     5
170
     0
171
     0
290
     0
174
     0
 93
        1
 44
0.0
173
     0
291
     1
 45
0.0
1001
ACAD
1000
AcDbSavedByObjectVersion
1070
     0
  0
VISUALSTYLE
  5
2B
102
{ACAD_REACTORS
330
2A
102
}
330
2A
100
AcDbVisualStyle
  2
Flat
 70
     0
 71
     2
 72
     1
 73
     1
 90
        2
 40
-0.6
 41
30.0
 62
     5
 63
     7
421
 16777215
 74
     0
 91
        4
 64
     7
 65
   257
 75
     1
175
     1
 42
1.0
 92
        8
 66
     7
 43
1.0
 76
     1
 77
     6
 78
     2
 67
     7
 79
     5
170
     0
171
     0
290
     0
174
     0
 93
       13
 44
0.0
173
     0
291
     1
 45
0.0
1001
ACAD
1000
AcDbSavedByObjectVersion
1070
     0
  0
VISUALSTYLE
  5
2C
102
{ACAD_REACTORS
330
2A
102
}
330
2A
100
AcDbVisualStyle
  2
FlatWithEdges
 70
     1
 71
     2
 72
     1
 73
     1
 90
        2
 40
-0.6
 41
30.0
 62
     5
 63
     7
421
 16777215
 74
     1
 91
        4
 64
     7
 65
   257
 75
     1
175
     1
 42
1.0
 92
        0
 66
   257
 43
1.0
 76
     1
 77
     6
 78
     2
 67
     7
 79
     5
170
     0
171
     0
290
     0
174
     0
 93
       13
 44
0.0
173
     0
291
     1
 45
0.0
1001
ACAD
1000
AcDbSavedByObjectVersion
1070
     0
  0
VISUALSTYLE
  5
2D
102
{ACAD_REACTORS
330
2A
102
}
330
2A
100
AcDbVisualStyle
  2
Gouraud
 70
     2
 71
     2
 72
     2
 73
     1
 90
        2
 40
-0.6
 41
30.0
 62
     5
 63
     7
421
 16777215
 74
     0
 91
        4
 64
     7
 65
   257
 75
     1
175
     1
 42
1.0
 92
        0
 66
     7
 43
1.0
 76
     1
 77
     6
 78
     2
 67
     7
 79
     5
170
     0
171
     0
290
     0
174
     0
 93
       13
 44
0.0
173
     0
291
     1
 45
0.0
1001
ACAD
1000
AcDbSavedByObjectVersion
1070
     0
  0
VISUALSTYLE
  5
2E
102
{ACAD_REACTORS
330
2A
102
}
330
2A
100
AcDbVisualStyle
  2
GouraudWithEdges
 70
     3
 71
     2
 72
     2
 73
     1
 90
        2
 40
-0.6
 41
30.0
 62
     5
 63
     7
421
 16777215
 74
     1
 91
        4
 64
     7
 65
   257
 75
     1
175
     1
 42
1.0
 92
        0
 66
   257
 43
1.0
 76
     1
 77
     6
 78
     2
 67
     7
 79
     5
170
     0
171
     0
290
     0
174
     0
 93
       13
 44
0.0
173
     0
291
     1
 45
0.0
1001
ACAD
1000
AcDbSavedByObjectVersion
1070
     0
  0
VISUALSTYLE
  5
38
102
{ACAD_REACTORS
330
2A
102
}
330
2A
100
AcDbVisualStyle
  2
Linepattern
 70
    14
 71
     2
 72
     2
 73
     0
 90
        0
 40
-0.6
 41
-30.0
 62
     5
 63
     7
421
 16777215
 74
     1
 91
        4
 64
     7
 65
   257
 75
     7
175
     7
 42
1.0
 92
        8
 66
     7
 43
1.0
 76
     1
 77
     6
 78
     2
 67
     7
 79
     5
170
     0
171
     0
290
     0
174
     0
 93
        1
 44
0.0
173
     0
291
     1
 45
0.0
1001
ACAD
1000
AcDbSavedByObjectVersion
1070
     0
  0
VISUALSTYLE
  5
33
102
{ACAD_REACTORS
330
2A
102
}
330
2A
100
AcDbVisualStyle
  2
Realistic
 70
     8
 71
     2
 72
     2
 73
     0
 90
        0
 40
-0.6
 41
-30.0
 62
     5
 63
     7
421
 16777215
 74
     1
 91
        0
 64
     7
 65
   257
 75
     1
175
     1
 42
1.0
 92
        8
 66
     8
424
  7895160
 43
1.0
 76
     1
 77
     6
 78
     2
 67
     7
 79
     5
170
     0
171
     0
290
     0
174
     0
 93
       13
 44
0.0
173
     0
291
     0
 45
0.0
1001
ACAD
1000
AcDbSavedByObjectVersion
1070
     0
  0
VISUALSTYLE
  5
37
102
{ACAD_REACTORS
330
2A
102
}
330
2A
100
AcDbVisualStyle
  2
Thicken
 70
    13
 71
     2
 72
     2
 73
     0
 90
        0
 40
-0.6
 41
-30.0
 62
     5
 63
     7
421
 16777215
 74
     1
 91
        4
 64
     7
 65
   257
 75
     1
175
     1
 42
1.0
 92
       12
 66
     7
 43
1.0
 76
     1
 77
     6
 78
     2
 67
     7
 79
     5
170
     0
171
     0
290
     0
174
     0
 93
        1
 44
0.0
173
     0
291
     1
 45
0.0
1001
ACAD
1000
AcDbSavedByObjectVersion
1070
     0
  0
ENDSEC
  0
EOF
