  0
SECTION
  2
HEADER
  9
$ACADVER
  1
AC1018
  9
$ACADMAINTVER
 70
     0
  9
$DWGCODEPAGE
  3
ANSI_1252
  9
$INSBASE
 10
0.0
 20
0.0
 30
0.0
  9
$EXTMIN
 10
0.0000015325927601
 20
0.121690139911482
 30
0.0
  9
$EXTMAX
 10
2648.756332544784
 20
482.8060249991065
 30
0.0
  9
$LIMMIN
 10
0.0
 20
0.0
  9
$LIMMAX
 10
12.0
 20
9.0
  9
$ORTHOMODE
 70
     0
  9
$REGENMODE
 70
     1
  9
$FILLMODE
 70
     1
  9
$QTEXTMODE
 70
     0
  9
$MIRRTEXT
 70
     1
  9
$LTSCALE
 40
1.0
  9
$ATTMODE
 70
     1
  9
$TEXTSIZE
 40
0.2
  9
$TRACEWID
 40
0.05
  9
$TEXTSTYLE
  7
Standard
  9
$CLAYER
  8
Predefinito
  9
$CELTYPE
  6
ByLayer
  9
$CECOLOR
 62
   256
  9
$CELTSCALE
 40
1.0
  9
$DISPSILH
 70
     0
  9
$DIMSCALE
 40
1.0
  9
$DIMASZ
 40
0.18
  9
$DIMEXO
 40
0.0625
  9
$DIMDLI
 40
0.38
  9
$DIMRND
 40
0.0
  9
$DIMDLE
 40
0.0
  9
$DIMEXE
 40
0.18
  9
$DIMTP
 40
0.0
  9
$DIMTM
 40
0.0
  9
$DIMTXT
 40
0.18
  9
$DIMCEN
 40
0.09
  9
$DIMTSZ
 40
0.0
  9
$DIMTOL
 70
     0
  9
$DIMLIM
 70
     0
  9
$DIMTIH
 70
     1
  9
$DIMTOH
 70
     1
  9
$DIMSE1
 70
     0
  9
$DIMSE2
 70
     0
  9
$DIMTAD
 70
     0
  9
$DIMZIN
 70
     0
  9
$DIMBLK
  1

  9
$DIMASO
 70
     1
  9
$DIMSHO
 70
     1
  9
$DIMPOST
  1

  9
$DIMAPOST
  1

  9
$DIMALT
 70
     0
  9
$DIMALTD
 70
     2
  9
$DIMALTF
 40
25.4
  9
$DIMLFAC
 40
1.0
  9
$DIMTOFL
 70
     0
  9
$DIMTVP
 40
0.0
  9
$DIMTIX
 70
     0
  9
$DIMSOXD
 70
     0
  9
$DIMSAH
 70
     0
  9
$DIMBLK1
  1

  9
$DIMBLK2
  1

  9
$DIMSTYLE
  2
Standard
  9
$DIMCLRD
 70
     0
  9
$DIMCLRE
 70
     0
  9
$DIMCLRT
 70
     0
  9
$DIMTFAC
 40
1.0
  9
$DIMGAP
 40
0.09
  9
$DIMJUST
 70
     0
  9
$DIMSD1
 70
     0
  9
$DIMSD2
 70
     0
  9
$DIMTOLJ
 70
     1
  9
$DIMTZIN
 70
     0
  9
$DIMALTZ
 70
     0
  9
$DIMALTTZ
 70
     0
  9
$DIMUPT
 70
     0
  9
$DIMDEC
 70
     4
  9
$DIMTDEC
 70
     4
  9
$DIMALTU
 70
     2
  9
$DIMALTTD
 70
     2
  9
$DIMTXSTY
  7
Standard
  9
$DIMAUNIT
 70
     0
  9
$DIMADEC
 70
     0
  9
$DIMALTRND
 40
0.0
  9
$DIMAZIN
 70
     0
  9
$DIMDSEP
 70
    46
  9
$DIMATFIT
 70
     3
  9
$DIMFRAC
 70
     0
  9
$DIMLDRBLK
  1

  9
$DIMLUNIT
 70
     2
  9
$DIMLWD
 70
    -2
  9
$DIMLWE
 70
    -2
  9
$DIMTMOVE
 70
     2
  9
$LUNITS
 70
     2
  9
$LUPREC
 70
     3
  9
$SKETCHINC
 40
0.1
  9
$FILLETRAD
 40
0.5
  9
$AUNITS
 70
     0
  9
$AUPREC
 70
     0
  9
$MENU
  1
.
  9
$ELEVATION
 40
0.0
  9
$PELEVATION
 40
0.0
  9
$THICKNESS
 40
0.0
  9
$LIMCHECK
 70
     0
  9
$CHAMFERA
 40
0.5
  9
$CHAMFERB
 40
0.5
  9
$CHAMFERC
 40
1.0
  9
$CHAMFERD
 40
0.0
  9
$SKPOLY
 70
     0
  9
$TDCREATE
 40
2458254.627217882
  9
$TDUCREATE
 40
2458254.543884549
  9
$TDUPDATE
 40
2458254.627217893
  9
$TDUUPDATE
 40
2458254.54388456
  9
$TDINDWG
 40
0.0000000116
  9
$TDUSRTIMER
 40
0.0000000116
  9
$USRTIMER
 70
     1
  9
$ANGBASE
 50
0.0
  9
$ANGDIR
 70
     0
  9
$PDMODE
 70
     0
  9
$PDSIZE
 40
0.0
  9
$PLINEWID
 40
0.0
  9
$SPLFRAME
 70
     0
  9
$SPLINETYPE
 70
     6
  9
$SPLINESEGS
 70
     8
  9
$HANDSEED
  5
15A
  9
$SURFTAB1
 70
     6
  9
$SURFTAB2
 70
     6
  9
$SURFTYPE
 70
     6
  9
$SURFU
 70
     6
  9
$SURFV
 70
     6
  9
$UCSBASE
  2

  9
$UCSNAME
  2

  9
$UCSORG
 10
0.0
 20
0.0
 30
0.0
  9
$UCSXDIR
 10
1.0
 20
0.0
 30
0.0
  9
$UCSYDIR
 10
0.0
 20
1.0
 30
0.0
  9
$UCSORTHOREF
  2

  9
$UCSORTHOVIEW
 70
     0
  9
$UCSORGTOP
 10
0.0
 20
0.0
 30
0.0
  9
$UCSORGBOTTOM
 10
0.0
 20
0.0
 30
0.0
  9
$UCSORGLEFT
 10
0.0
 20
0.0
 30
0.0
  9
$UCSORGRIGHT
 10
0.0
 20
0.0
 30
0.0
  9
$UCSORGFRONT
 10
0.0
 20
0.0
 30
0.0
  9
$UCSORGBACK
 10
0.0
 20
0.0
 30
0.0
  9
$PUCSBASE
  2

  9
$PUCSNAME
  2

  9
$PUCSORG
 10
0.0
 20
0.0
 30
0.0
  9
$PUCSXDIR
 10
1.0
 20
0.0
 30
0.0
  9
$PUCSYDIR
 10
0.0
 20
1.0
 30
0.0
  9
$PUCSORTHOREF
  2

  9
$PUCSORTHOVIEW
 70
     0
  9
$PUCSORGTOP
 10
0.0
 20
0.0
 30
0.0
  9
$PUCSORGBOTTOM
 10
0.0
 20
0.0
 30
0.0
  9
$PUCSORGLEFT
 10
0.0
 20
0.0
 30
0.0
  9
$PUCSORGRIGHT
 10
0.0
 20
0.0
 30
0.0
  9
$PUCSORGFRONT
 10
0.0
 20
0.0
 30
0.0
  9
$PUCSORGBACK
 10
0.0
 20
0.0
 30
0.0
  9
$USERI1
 70
     0
  9
$USERI2
 70
     0
  9
$USERI3
 70
     0
  9
$USERI4
 70
     0
  9
$USERI5
 70
     0
  9
$USERR1
 40
0.0
  9
$USERR2
 40
0.0
  9
$USERR3
 40
0.0
  9
$USERR4
 40
0.0
  9
$USERR5
 40
0.0
  9
$WORLDVIEW
 70
     1
  9
$SHADEDGE
 70
     3
  9
$SHADEDIF
 70
    70
  9
$TILEMODE
 70
     0
  9
$MAXACTVP
 70
    64
  9
$PINSBASE
 10
0.0
 20
0.0
 30
0.0
  9
$PLIMCHECK
 70
     0
  9
$PEXTMIN
 10
0.0
 20
0.0
 30
0.0
  9
$PEXTMAX
 10
0.0
 20
0.0
 30
0.0
  9
$PLIMMIN
 10
0.0
 20
0.0
  9
$PLIMMAX
 10
12.0
 20
9.0
  9
$UNITMODE
 70
     0
  9
$VISRETAIN
 70
     1
  9
$PLINEGEN
 70
     0
  9
$PSLTSCALE
 70
     1
  9
$TREEDEPTH
 70
  3020
  9
$CMLSTYLE
  2
Standard
  9
$CMLJUST
 70
     0
  9
$CMLSCALE
 40
1.0
  9
$PROXYGRAPHICS
 70
     1
  9
$MEASUREMENT
 70
     0
  9
$CELWEIGHT
370
    -1
  9
$ENDCAPS
280
     0
  9
$JOINSTYLE
280
     0
  9
$LWDISPLAY
290
     0
  9
$INSUNITS
 70
     4
  9
$HYPERLINKBASE
  1

  9
$STYLESHEET
  1

  9
$XEDIT
290
     1
  9
$CEPSNTYPE
380
     0
  9
$PSTYLEMODE
290
     1
  9
$FINGERPRINTGUID
  2
{17456892-AD49-4C69-9D64-EA5C16129623}
  9
$VERSIONGUID
  2
{FAEB1C32-E019-11D5-929B-00C0DF256EC4}
  9
$EXTNAMES
290
     1
  9
$PSVPSCALE
 40
0.0
  9
$OLESTARTUP
290
     0
  9
$SORTENTS
280
   127
  9
$INDEXCTL
280
     0
  9
$HIDETEXT
280
     1
  9
$XCLIPFRAME
290
     0
  9
$HALOGAP
280
     0
  9
$OBSCOLOR
 70
   257
  9
$OBSLTYPE
280
     0
  9
$INTERSECTIONDISPLAY
280
     0
  9
$INTERSECTIONCOLOR
 70
   257
  9
$DIMASSOC
280
     2
  9
$PROJECTNAME
  1

  0
ENDSEC
  0
SECTION
  2
CLASSES
  0
CLASS
  1
ACDBDICTIONARYWDFLT
  2
AcDbDictionaryWithDefault
  3
ObjectDBX Classes
 90
        0
 91
        4
280
     0
281
     0
  0
CLASS
  1
VISUALSTYLE
  2
AcDbVisualStyle
  3
ObjectDBX Classes
 90
     4095
 91
        4
280
     0
281
     0
  0
CLASS
  1
SCALE
  2
AcDbScale
  3
ObjectDBX Classes
 90
     1153
 91
        4
280
     0
281
     0
  0
CLASS
  1
DICTIONARYVAR
  2
AcDbDictionaryVar
  3
ObjectDBX Classes
 90
        0
 91
        4
280
     0
281
     0
  0
ENDSEC
  0
SECTION
  2
TABLES
  0
TABLE
  2
VPORT
  5
8
330
0
100
AcDbSymbolTable
 70
     1
  0
VPORT
  5
29
330
8
100
AcDbSymbolTableRecord
100
AcDbViewportTableRecord
  2
*Active
 70
     0
 10
0.0
 20
0.0
 11
1.0
 21
1.0
 12
1324.378167038688
 22
241.463857569509
 13
0.0
 23
0.0
 14
0.5
 24
0.5
 15
0.5
 25
0.5
 16
0.0
 26
0.0
 36
1.0
 17
0.0
 27
0.0
 37
0.0
 40
492.3380215563789
 41
5.487553955495295
 42
50.0
 43
0.0
 44
0.0
 50
0.0
 51
0.0
 71
     0
 72
   100
 73
     1
 74
     3
 75
     0
 76
     0
 77
     0
 78
     0
281
     0
 65
     1
110
0.0
120
0.0
130
0.0
111
1.0
121
0.0
131
0.0
112
0.0
122
1.0
132
0.0
 79
     0
146
0.0
  0
ENDTAB
  0
TABLE
  2
LTYPE
  5
5
330
0
100
AcDbSymbolTable
 70
     1
  0
LTYPE
  5
14
330
5
100
AcDbSymbolTableRecord
100
AcDbLinetypeTableRecord
  2
ByBlock
 70
     0
  3

 72
    65
 73
     0
 40
0.0
  0
LTYPE
  5
15
330
5
100
AcDbSymbolTableRecord
100
AcDbLinetypeTableRecord
  2
ByLayer
 70
     0
  3

 72
    65
 73
     0
 40
0.0
  0
LTYPE
  5
16
330
5
100
AcDbSymbolTableRecord
100
AcDbLinetypeTableRecord
  2
Continuous
 70
     0
  3
Solid line
 72
    65
 73
     0
 40
0.0
  0
ENDTAB
  0
TABLE
  2
LAYER
  5
2
330
0
100
AcDbSymbolTable
 70
     2
  0
LAYER
  5
10
330
2
100
AcDbSymbolTableRecord
100
AcDbLayerTableRecord
  2
0
 70
     0
 62
     7
  6
Continuous
370
    -3
390
F
  0
LAYER
  5
3B
330
2
100
AcDbSymbolTableRecord
100
AcDbLayerTableRecord
  2
Predefinito
 70
     0
 62
     7
  6
Continuous
370
    -3
390
F
  0
ENDTAB
  0
TABLE
  2
STYLE
  5
3
330
0
100
AcDbSymbolTable
 70
     1
  0
STYLE
  5
11
330
3
100
AcDbSymbolTableRecord
100
AcDbTextStyleTableRecord
  2
Standard
 70
     0
 40
0.0
 41
1.0
 50
0.0
 71
     0
 42
0.2
  3
txt
  4

  0
ENDTAB
  0
TABLE
  2
VIEW
  5
6
330
0
100
AcDbSymbolTable
 70
     0
  0
ENDTAB
  0
TABLE
  2
UCS
  5
7
330
0
100
AcDbSymbolTable
 70
     0
  0
ENDTAB
  0
TABLE
  2
APPID
  5
9
330
0
100
AcDbSymbolTable
 70
     1
  0
APPID
  5
12
330
9
100
AcDbSymbolTableRecord
100
AcDbRegAppTableRecord
  2
ACAD
 70
     0
  0
ENDTAB
  0
TABLE
  2
DIMSTYLE
  5
A
330
0
100
AcDbSymbolTable
 70
     1
100
AcDbDimStyleTable
  0
DIMSTYLE
105
27
330
A
100
AcDbSymbolTableRecord
100
AcDbDimStyleTableRecord
  2
Standard
 70
     0
340
11
  0
ENDTAB
  0
TABLE
  2
BLOCK_RECORD
  5
1
330
0
100
AcDbSymbolTable
 70
     3
  0
BLOCK_RECORD
  5
1F
330
1
100
AcDbSymbolTableRecord
100
AcDbBlockTableRecord
  2
*Model_Space
340
22
  0
BLOCK_RECORD
  5
12F
330
1
100
AcDbSymbolTableRecord
100
AcDbBlockTableRecord
  2
*Paper_Space
340
130
  0
BLOCK_RECORD
  5
23
330
1
100
AcDbSymbolTableRecord
100
AcDbBlockTableRecord
  2
*Paper_Space0
340
26
  0
BLOCK_RECORD
  5
1B
330
1
100
AcDbSymbolTableRecord
100
AcDbBlockTableRecord
  2
*Paper_Space1
340
1E
  0
BLOCK_RECORD
  5
12A
330
1
100
AcDbSymbolTableRecord
100
AcDbBlockTableRecord
  2
*Paper_Space2
340
12B
  0
ENDTAB
  0
ENDSEC
  0
SECTION
  2
BLOCKS
  0
BLOCK
  5
20
330
1F
100
AcDbEntity
  8
0
100
AcDbBlockBegin
  2
*Model_Space
 70
     0
 10
0.0
 20
0.0
 30
0.0
  3
*Model_Space
  1

  0
ENDBLK
  5
21
330
1F
100
AcDbEntity
  8
0
100
AcDbBlockEnd
  0
BLOCK
  5
131
330
12F
100
AcDbEntity
 67
     1
  8
0
100
AcDbBlockBegin
  2
*Paper_Space
 70
     0
 10
0.0
 20
0.0
 30
0.0
  3
*Paper_Space
  1

  0
ENDBLK
  5
132
330
12F
100
AcDbEntity
 67
     1
  8
0
100
AcDbBlockEnd
  0
BLOCK
  5
24
330
23
100
AcDbEntity
  8
0
100
AcDbBlockBegin
  2
*Paper_Space0
 70
     0
 10
0.0
 20
0.0
 30
0.0
  3
*Paper_Space0
  1

  0
ENDBLK
  5
25
330
23
100
AcDbEntity
  8
0
100
AcDbBlockEnd
  0
BLOCK
  5
1C
330
1B
100
AcDbEntity
  8
0
100
AcDbBlockBegin
  2
*Paper_Space1
 70
     0
 10
0.0
 20
0.0
 30
0.0
  3
*Paper_Space1
  1

  0
ENDBLK
  5
1D
330
1B
100
AcDbEntity
  8
0
100
AcDbBlockEnd
  0
BLOCK
  5
12C
330
12A
100
AcDbEntity
  8
0
100
AcDbBlockBegin
  2
*Paper_Space2
 70
     0
 10
0.0
 20
0.0
 30
0.0
  3
*Paper_Space2
  1

  0
VIEWPORT
  5
12E
330
12A
100
AcDbEntity
  8
0
100
AcDbViewport
 10
6.0
 20
4.5
 30
0.0
 40
12.696
 41
9.522
 68
     1
 69
     1
 12
6.0
 22
4.5
 13
0.0
 23
0.0
 14
0.5
 24
0.5
 15
0.5
 25
0.5
 16
0.0
 26
0.0
 36
1.0
 17
0.0
 27
0.0
 37
0.0
 42
50.0
 43
0.0
 44
0.0
 45
9.522
 50
0.0
 51
0.0
 72
   100
 90
   557152
  1

281
     0
 71
     1
 74
     0
110
0.0
120
0.0
130
0.0
111
1.0
121
0.0
131
0.0
112
0.0
122
1.0
132
0.0
 79
     0
146
0.0
170
     0
  0
ENDBLK
  5
12D
330
12A
100
AcDbEntity
  8
0
100
AcDbBlockEnd
  0
ENDSEC
  0
SECTION
  2
ENTITIES
  0
LINE
  5
3C
330
1F
100
AcDbEntity
  8
Predefinito
100
AcDbLine
 10
2582.475203639614
 20
106.6238329915826
 30
0.0
 11
2622.756332544784
 21
106.6238329915826
 31
0.0
  0
LINE
  5
3D
330
1F
100
AcDbEntity
  8
Predefinito
100
AcDbLine
 10
2050.475203639613
 20
106.6238329915825
 30
0.0
 11
2579.086212636091
 21
106.6238329915826
 31
0.0
  0
LINE
  5
3E
330
1F
100
AcDbEntity
  8
Predefinito
100
AcDbLine
 10
2580.160609013724
 20
106.5173814982157
 30
0.0
 11
2049.400807261978
 21
106.5173814982156
 31
0.0
  0
LINE
  5
3F
330
1F
100
AcDbEntity
  8
Predefinito
100
AcDbLine
 10
2622.756332544784
 20
106.5173814982157
 30
0.0
 11
2581.400807261992
 21
106.5173814982157
 31
0.0
  0
LINE
  5
40
330
1F
100
AcDbEntity
  8
Predefinito
100
AcDbLine
 10
2622.756332544784
 20
129.9109300043337
 30
0.0
 11
2582.232846262324
 21
129.9109300043337
 31
0.0
  0
LINE
  5
41
330
1F
100
AcDbEntity
  8
Predefinito
100
AcDbLine
 10
2579.328570013384
 20
129.9109300043337
 30
0.0
 11
2050.232846262326
 21
129.9109300043337
 31
0.0
  0
LINE
  5
42
330
1F
100
AcDbEntity
  8
Predefinito
100
AcDbLine
 10
2050.023942399915
 20
130.0173814982161
 30
0.0
 11
2582.023942399915
 21
130.0173814982161
 31
0.0
  0
LINE
  5
43
330
1F
100
AcDbEntity
  8
Predefinito
100
AcDbLine
 10
2047.328570013391
 20
129.9109300043337
 30
0.0
 11
1633.498529829521
 21
129.9109300043337
 31
0.0
  0
LINE
  5
44
330
1F
100
AcDbEntity
  8
Predefinito
100
AcDbLine
 10
1633.488010489525
 20
130.0173814982161
 30
0.0
 11
2050.023942399915
 21
130.0173814982161
 31
0.0
  0
LINE
  5
45
330
1F
100
AcDbEntity
  8
Predefinito
100
AcDbLine
 10
1633.500060091659
 20
106.6238329915826
 30
0.0
 11
2047.086212636096
 21
106.6238329915825
 31
0.0
  0
LINE
  5
46
330
1F
100
AcDbEntity
  8
Predefinito
100
AcDbLine
 10
2048.160609013734
 20
106.5173814982156
 30
0.0
 11
1633.48951458481
 21
106.5173814982156
 31
0.0
  0
SPLINE
  5
47
330
1F
100
AcDbEntity
  8
Predefinito
100
AcDbSpline
210
0.0
220
0.0
230
1.0
 70
     8
 71
     2
 72
     6
 73
     3
 74
     0
 42
0.0000000001
 43
0.0000000001
 40
0.0
 40
0.0
 40
0.0
 40
5.702522527117389
 40
5.702522527117389
 40
5.702522527117389
 10
2622.853908127651
 20
108.4673814982159
 30
0.0
 10
2622.85484311512
 20
111.3186426084737
 30
0.0
 10
2622.85577810259
 20
118.2673814982201
 30
0.0
  0
SPLINE
  5
48
330
1F
100
AcDbEntity
  8
Predefinito
100
AcDbSpline
210
0.0
220
0.0
230
1.0
 70
     8
 71
     2
 72
     6
 73
     3
 74
     0
 42
0.0000000001
 43
0.0000000001
 40
0.0
 40
0.0
 40
0.0
 40
5.702522527109203
 40
5.702522527109203
 40
5.702522527109203
 10
2622.85577810259
 20
118.2673814982201
 30
0.0
 10
2622.85484311512
 20
125.2161203879625
 30
0.0
 10
2622.853908127651
 20
128.0673814982162
 30
0.0
  0
SPLINE
  5
49
330
1F
100
AcDbEntity
  8
Predefinito
100
AcDbSpline
210
0.0
220
0.0
230
1.0
 70
    24
 71
     2
 72
     6
 73
     3
 74
     0
 42
0.0000000001
 43
0.0000000001
 40
0.0
 40
0.0
 40
0.0
 40
43.00146158227268
 40
43.00146158227268
 40
43.00146158227268
 10
0.3752374788775654
 20
439.8060249991061
 30
0.0
 10
0.1876195057347264
 20
461.3059371861144
 30
0.0
 10
0.0000015325918874
 20
482.8058493731228
 30
0.0
  0
SPLINE
  5
4A
330
1F
100
AcDbEntity
  8
Predefinito
100
AcDbSpline
210
0.0
220
0.0
230
1.0
 70
    24
 71
     2
 72
     6
 73
     3
 74
     0
 42
0.0000000001
 43
0.0000000001
 40
0.0
 40
0.0
 40
0.0
 40
43.00145929333076
 40
43.00145929333076
 40
43.00145929333076
 10
236.5862524635226
 20
482.8058471534705
 30
0.0
 10
236.3986384655028
 20
461.3059360762883
 30
0.0
 10
236.2110244674829
 20
439.8060249991061
 30
0.0
  0
SPLINE
  5
4B
330
1F
100
AcDbEntity
  8
Predefinito
100
AcDbSpline
210
0.0
220
0.0
230
1.0
 70
    24
 71
     2
 72
     6
 73
     3
 74
     0
 42
0.0000000001
 43
0.0000000001
 40
0.0
 40
0.0
 40
0.0
 40
1.0
 40
1.0
 40
1.0
 10
124.2510074116428
 20
482.8060249991061
 30
0.0
 10
124.2510074116428
 20
482.3060249991061
 30
0.0
 10
124.2510074116428
 20
481.8060249991061
 30
0.0
  0
SPLINE
  5
4C
330
1F
100
AcDbEntity
  8
Predefinito
100
AcDbSpline
210
0.0
220
0.0
230
1.0
 70
    24
 71
     2
 72
     6
 73
     3
 74
     0
 42
0.0000000001
 43
0.0000000001
 40
0.0
 40
0.0
 40
0.0
 40
0.0033302145394824
 40
0.0033302145394824
 40
0.0033302145394824
 10
106.5046950262752
 20
440.302337384474
 30
0.0
 10
106.5035176176333
 20
440.3035147931158
 30
0.0
 10
106.5023402089915
 20
440.3046922017577
 30
0.0
  0
SPLINE
  5
4D
330
1F
100
AcDbEntity
  8
Predefinito
100
AcDbSpline
210
0.0
220
0.0
230
1.0
 70
    24
 71
     2
 72
     6
 73
     3
 74
     0
 42
0.0000000001
 43
0.0000000001
 40
0.0
 40
0.0
 40
0.0
 40
0.6637086526705033
 40
0.6637086526705033
 40
0.6637086526705033
 10
107.0010074116432
 20
439.8060249991061
 30
0.0
 10
106.7663509671254
 20
440.0406814436238
 30
0.0
 10
106.5316945226077
 20
440.2753378881416
 30
0.0
  0
SPLINE
  5
4E
330
1F
100
AcDbEntity
  8
Predefinito
100
AcDbSpline
210
0.0
220
0.0
230
1.0
 70
    24
 71
     2
 72
     6
 73
     3
 74
     0
 42
0.0000000001
 43
0.0000000001
 40
0.0
 40
0.0
 40
0.0
 40
41.5
 40
41.5
 40
41.5
 10
106.5010074116432
 20
440.3060249991061
 30
0.0
 10
106.5010074116432
 20
461.0560249991061
 30
0.0
 10
106.5010074116432
 20
481.8060249991061
 30
0.0
  0
SPLINE
  5
4F
330
1F
100
AcDbEntity
  8
Predefinito
100
AcDbSpline
210
0.0
220
0.0
230
1.0
 70
    12
 71
     2
 72
     8
 73
     5
 74
     0
 42
0.0000000001
 43
0.0000000001
 40
0.0
 40
0.0
 40
0.0
 40
0.2867277798625147
 40
0.2867277798625147
 40
0.5734555597250295
 40
0.5734555597250295
 40
0.5734555597250295
 10
130.0052819363906
 20
430.3624384761409
 30
0.0
 41
1.0
 10
130.0036566676042
 20
430.2071050140171
 30
0.0
 41
0.8882519044827597
 10
129.8759575920276
 20
430.1186512291865
 30
0.0
 41
1.0
 10
129.7482585164509
 20
430.0301974443558
 30
0.0
 41
0.8882519044827597
 10
129.6022680233156
 20
430.0832813578148
 30
0.0
 41
1.0
  0
SPLINE
  5
50
330
1F
100
AcDbEntity
  8
Predefinito
100
AcDbSpline
210
0.0
220
0.0
230
1.0
 70
    24
 71
     2
 72
     6
 73
     3
 74
     0
 42
0.0000000001
 43
0.0000000001
 40
0.0
 40
0.0
 40
0.0
 40
8.939178647128704
 40
8.939178647128704
 40
8.939178647128704
 10
106.4966951994316
 20
430.3668105278221
 30
0.0
 10
106.4576911693828
 20
434.8362296631192
 30
0.0
 10
106.4186871393341
 20
439.3056487984164
 30
0.0
  0
SPLINE
  5
51
330
1F
100
AcDbEntity
  8
Predefinito
100
AcDbSpline
210
0.0
220
0.0
230
1.0
 70
    24
 71
     2
 72
     6
 73
     3
 74
     0
 42
0.0000000001
 43
0.0000000001
 40
0.0
 40
0.0
 40
0.0
 40
1.0
 40
1.0
 40
1.0
 10
112.2510074116437
 20
481.8060249991061
 30
0.0
 10
112.2510074116437
 20
482.3060249991061
 30
0.0
 10
112.2510074116437
 20
482.8060249991061
 30
0.0
  0
SPLINE
  5
52
330
1F
100
AcDbEntity
  8
Predefinito
100
AcDbSpline
210
0.0
220
0.0
230
1.0
 70
    24
 71
     2
 72
     6
 73
     3
 74
     0
 42
0.0000000001
 43
0.0000000001
 40
0.0
 40
0.0
 40
0.0
 40
0.6637086526704731
 40
0.6637086526704731
 40
0.6637086526704731
 10
129.9703203006787
 20
440.2753378881416
 30
0.0
 10
129.735663856161
 20
440.0406814436238
 30
0.0
 10
129.5010074116433
 20
439.8060249991061
 30
0.0
  0
SPLINE
  5
53
330
1F
100
AcDbEntity
  8
Predefinito
100
AcDbSpline
210
0.0
220
0.0
230
1.0
 70
    24
 71
     2
 72
     6
 73
     3
 74
     0
 42
0.0000000001
 43
0.0000000001
 40
0.0
 40
0.0
 40
0.0
 40
41.5
 40
41.5
 40
41.5
 10
130.0010074116432
 20
481.8060249991061
 30
0.0
 10
130.0010074116432
 20
461.0560249991061
 30
0.0
 10
130.0010074116433
 20
440.3060249991061
 30
0.0
  0
SPLINE
  5
54
330
1F
100
AcDbEntity
  8
Predefinito
100
AcDbSpline
210
0.0
220
0.0
230
1.0
 70
    24
 71
     2
 72
     6
 73
     3
 74
     0
 42
0.0000000001
 43
0.0000000001
 40
0.0
 40
0.0
 40
0.0
 40
0.5000000001759872
 40
0.5000000001759872
 40
0.5000000001759872
 10
127.7673811462416
 20
439.8060249991061
 30
0.0
 10
127.7673811462416
 20
439.5560249990181
 30
0.0
 10
127.7673811462416
 20
439.3060249989301
 30
0.0
  0
SPLINE
  5
55
330
1F
100
AcDbEntity
  8
Predefinito
100
AcDbSpline
210
0.0
220
0.0
230
1.0
 70
    24
 71
     2
 72
     6
 73
     3
 74
     0
 42
0.0000000001
 43
0.0000000001
 40
0.0
 40
0.0
 40
0.0
 40
0.5000000001759872
 40
0.5000000001759872
 40
0.5000000001759872
 10
108.7649276129883
 20
439.3060249989301
 30
0.0
 10
108.7649276129883
 20
439.5560249990181
 30
0.0
 10
108.7649276129883
 20
439.8060249991061
 30
0.0
  0
SPLINE
  5
56
330
1F
100
AcDbEntity
  8
Predefinito
100
AcDbSpline
210
0.0
220
0.0
230
1.0
 70
    12
 71
     2
 72
     8
 73
     5
 74
     0
 42
0.0000000001
 43
0.0000000001
 40
0.0
 40
0.0
 40
0.0
 40
0.2493159170593678
 40
0.2493159170593678
 40
0.4986318341187357
 40
0.4986318341187357
 40
0.4986318341187357
 10
106.8276780610947
 20
430.0669624921206
 30
0.0
 41
1.0
 10
106.6960002642886
 20
430.0538530224427
 30
0.0
 41
0.9152739847735815
 10
106.5973911464465
 20
430.1420978083815
 30
0.0
 41
1.0
 10
106.4987820286045
 20
430.2303425943202
 30
0.0
 41
0.9152739847735815
 10
106.4972481893993
 20
430.3626624632146
 30
0.0
 41
1.0
  0
SPLINE
  5
57
330
1F
100
AcDbEntity
  8
Predefinito
100
AcDbSpline
210
0.0
220
0.0
230
1.0
 70
    24
 71
     2
 72
     6
 73
     3
 74
     0
 42
0.0000000001
 43
0.0000000001
 40
0.0
 40
0.0
 40
0.0
 40
8.927360134449009
 40
8.927360134449009
 40
8.927360134449009
 10
130.0832453171225
 20
439.296214366454
 30
0.0
 10
130.044292854518
 20
434.8327042624893
 30
0.0
 10
130.0053403919136
 20
430.3691941585247
 30
0.0
  0
SPLINE
  5
58
330
1F
100
AcDbEntity
  8
Predefinito
100
AcDbSpline
210
0.0
220
0.0
230
1.0
 70
    24
 71
     2
 72
     6
 73
     3
 74
     0
 42
0.0000000001
 43
0.0000000001
 40
0.0
 40
0.0
 40
0.0
 40
0.5666666666667766
 40
0.5666666666667766
 40
0.5666666666667766
 10
94.29437712530276
 20
439.2726916657727
 30
0.0
 10
94.29437712530276
 20
439.5560249991061
 30
0.0
 10
94.29437712530276
 20
439.8393583324395
 30
0.0
  0
SPLINE
  5
59
330
1F
100
AcDbEntity
  8
Predefinito
100
AcDbSpline
210
0.0
220
0.0
230
1.0
 70
    24
 71
     2
 72
     6
 73
     3
 74
     0
 42
0.0000000001
 43
0.0000000001
 40
0.0
 40
0.0
 40
0.0
 40
0.5666666666667766
 40
0.5666666666667766
 40
0.5666666666667766
 10
142.2943771253028
 20
439.8393583324395
 30
0.0
 10
142.2943771253028
 20
439.5560249991061
 30
0.0
 10
142.2943771253028
 20
439.2726916657727
 30
0.0
  0
SPLINE
  5
5A
330
1F
100
AcDbEntity
  8
Predefinito
100
AcDbSpline
210
0.0
220
0.0
230
1.0
 70
    24
 71
     2
 72
     6
 73
     3
 74
     0
 42
0.0000000001
 43
0.0000000001
 40
0.0
 40
0.0
 40
0.0
 40
90.9554319623148
 40
90.9554319623148
 40
90.9554319623148
 10
129.4647697949884
 20
439.8060249991061
 30
0.0
 10
174.9424857761458
 20
439.8060249991061
 30
0.0
 10
220.4202017573032
 20
439.8060249991061
 30
0.0
  0
SPLINE
  5
5B
330
1F
100
AcDbEntity
  8
Predefinito
100
AcDbSpline
210
0.0
220
0.0
230
1.0
 70
    28
 71
     3
 72
    12
 73
     8
 74
     0
 42
0.0000000001
 43
0.0000000001
 40
-681.4343189630026
 40
-681.4343189630026
 40
-681.4343189630026
 40
-681.4343189630026
 40
-648.321050296042
 40
-600.156295871372
 40
-555.703757396608
 40
-511.251218921844
 40
-505.233047055169
 40
-505.233047055169
 40
-505.233047055169
 40
-505.233047055169
 10
0.3953008675034174
 20
439.8060249991061
 30
0.0
 41
1.0
 10
0.1922342143155386
 20
439.8060249991061
 30
0.0
 41
1.0
 10
3.478699154361845
 20
439.8060249991061
 30
0.0
 41
1.0
 10
22.70888333572717
 20
439.8060249991061
 30
0.0
 41
1.0
 10
57.91953480302836
 20
439.8060249991061
 30
0.0
 41
1.0
 10
88.33585722926334
 20
439.8060249991061
 30
0.0
 41
1.0
 10
105.0405787234248
 20
439.8060249991061
 30
0.0
 41
1.0
 10
107.0374087959141
 20
439.8060249991061
 30
0.0
 41
1.0
  0
SPLINE
  5
5C
330
1F
100
AcDbEntity
  8
Predefinito
100
AcDbSpline
210
0.0
220
0.0
230
1.0
 70
    24
 71
     2
 72
     6
 73
     3
 74
     0
 42
0.0000000001
 43
0.0000000001
 40
0.0
 40
0.0
 40
0.0
 40
15.77050532068517
 40
15.77050532068517
 40
15.77050532068517
 10
220.4202017573032
 20
439.8060249991061
 30
0.0
 10
228.3054544176458
 20
439.8060249991061
 30
0.0
 10
236.1907070779884
 20
439.8060249991061
 30
0.0
  0
SPLINE
  5
5D
330
1F
100
AcDbEntity
  8
Predefinito
100
AcDbSpline
210
0.0
220
0.0
230
1.0
 70
    24
 71
     2
 72
     6
 73
     3
 74
     0
 42
0.0000000001
 43
0.0000000001
 40
0.0
 40
0.0
 40
0.0
 40
15.82068957978717
 40
15.82068957978717
 40
15.82068957978717
 10
220.7451823930012
 20
482.8060249991061
 30
0.0
 10
228.6555271828948
 20
482.8060249991061
 30
0.0
 10
236.5658719727884
 20
482.8060249991061
 30
0.0
  0
SPLINE
  5
5E
330
1F
100
AcDbEntity
  8
Predefinito
100
AcDbSpline
210
0.0
220
0.0
230
1.0
 70
    24
 71
     2
 72
     6
 73
     3
 74
     0
 42
0.0000000001
 43
0.0000000001
 40
0.0
 40
0.0
 40
0.0
 40
96.53669790359807
 40
96.53669790359807
 40
96.53669790359807
 10
124.2084844894032
 20
482.8060249991061
 30
0.0
 10
172.4768334412022
 20
482.8060249991061
 30
0.0
 10
220.7451823930012
 20
482.8060249991061
 30
0.0
  0
SPLINE
  5
5F
330
1F
100
AcDbEntity
  8
Predefinito
100
AcDbSpline
210
0.0
220
0.0
230
1.0
 70
    28
 71
     3
 72
    12
 73
     8
 74
     0
 42
0.0000000001
 43
0.0000000001
 40
-681.4343189630026
 40
-681.4343189630026
 40
-681.4343189630026
 40
-681.4343189630026
 40
-648.321050296042
 40
-600.156295871372
 40
-555.703757396608
 40
-511.251218921844
 40
-499.9703109404329
 40
-499.9703109404329
 40
-499.9703109404329
 40
-499.9703109404329
 10
0.0201272335231798
 20
482.8060249991061
 30
0.0
 41
1.0
 10
-0.1835856100897465
 20
482.8060249991061
 30
0.0
 41
1.0
 10
3.11333738470717
 20
482.8060249991061
 30
0.0
 41
1.0
 10
22.40471507420146
 20
482.8060249991061
 30
0.0
 41
1.0
 10
57.72741244114086
 20
482.8060249991061
 30
0.0
 41
1.0
 10
89.93223283971233
 20
482.8060249991061
 30
0.0
 41
1.0
 10
108.4990007202624
 20
482.8060249991061
 30
0.0
 41
1.0
 10
112.2664046376102
 20
482.8060249991061
 30
0.0
 41
1.0
  0
SPLINE
  5
60
330
1F
100
AcDbEntity
  8
Predefinito
100
AcDbSpline
210
0.0
220
0.0
230
1.0
 70
    28
 71
     2
 72
     8
 73
     5
 74
     0
 42
0.0000000001
 43
0.0000000001
 40
-1.668971097219581
 40
-1.668971097219581
 40
-1.668971097219581
 40
-1.5707963267949
 40
-1.5707963267949
 40
0.0
 40
0.0
 40
0.0
 10
106.5036730063396
 20
440.3060249991059
 30
0.0
 41
0.9656765759202985
 10
106.4998258872937
 20
440.3060249991059
 30
0.0
 41
0.9816941738241592
 10
106.5435133714204
 20
440.3060249991061
 30
0.0
 41
1.0
 10
107.5139523439158
 20
440.3060249991061
 30
0.0
 41
0.707106781186548
 10
119.2214463841387
 20
440.3060249991061
 30
0.0
 41
1.0
  0
SPLINE
  5
61
330
1F
100
AcDbEntity
  8
Predefinito
100
AcDbSpline
210
0.0
220
0.0
230
1.0
 70
    12
 71
     2
 72
     6
 73
     3
 74
     0
 42
0.0000000001
 43
0.0000000001
 40
0.0
 40
0.0
 40
0.0
 40
0.8024969092063412
 40
0.8024969092063412
 40
0.8024969092063412
 10
118.2510132458879
 20
433.0994161989232
 30
0.0
 41
1.0
 10
117.8497384288718
 20
433.1014123533672
 30
0.0
 41
0.9998829012190786
 10
117.4485904686035
 20
433.0911275404611
 30
0.0
 41
1.0
  0
SPLINE
  5
62
330
1F
100
AcDbEntity
  8
Predefinito
100
AcDbSpline
210
0.0
220
0.0
230
1.0
 70
    12
 71
     2
 72
     6
 73
     3
 74
     0
 42
0.0000000001
 43
0.0000000001
 40
0.0
 40
0.0
 40
0.0
 40
0.4780778606727947
 40
0.4780778606727947
 40
0.4780778606727947
 10
116.9275752517775
 20
433.0705349337017
 30
0.0
 41
1.0
 10
117.166319859444
 20
433.0825392777179
 30
0.0
 41
0.9999543021660559
 10
117.4052503402051
 20
433.0899768397068
 30
0.0
 41
1.0
  0
SPLINE
  5
63
330
1F
100
AcDbEntity
  8
Predefinito
100
AcDbSpline
210
0.0
220
0.0
230
1.0
 70
    12
 71
     3
 72
    12
 73
     8
 74
     0
 42
0.0000000001
 43
0.0000000001
 40
-0.2461395317110561
 40
-0.2461395317110561
 40
-0.2461395317110561
 40
-0.2461395317110561
 40
-0.240719008859411
 40
-0.240719008859411
 40
-0.1203356295947617
 40
-0.1203356295947617
 40
0.0
 40
0.0
 40
0.0
 40
0.0
 10
106.5457626316376
 20
430.3864783244716
 30
0.0
 41
1.0
 10
106.5333426547681
 20
430.3806668786974
 30
0.0
 41
1.0
 10
106.5232854507738
 20
430.3761137308323
 30
0.0
 41
1.0
 10
106.3455898165907
 20
430.3011283190712
 30
0.0
 41
1.0
 10
107.3857811562151
 20
430.8661985834872
 30
0.0
 41
1.0
 10
111.1289610883472
 20
432.2070429480354
 30
0.0
 41
1.0
 10
113.866446520453
 20
432.913254628767
 30
0.0
 41
1.0
 10
116.8843168026604
 20
433.0683221577919
 30
0.0
 41
1.0
  0
SPLINE
  5
64
330
1F
100
AcDbEntity
  8
Predefinito
100
AcDbSpline
210
0.0
220
0.0
230
1.0
 70
    24
 71
     2
 72
     6
 73
     3
 74
     0
 42
0.0000000001
 43
0.0000000001
 40
0.0
 40
0.0
 40
0.0
 40
5.447584013511843
 40
5.447584013511843
 40
5.447584013511843
 10
118.7609004758775
 20
482.8060249991061
 30
0.0
 10
121.4846924826334
 20
482.8060249991061
 30
0.0
 10
124.2084844893893
 20
482.8060249991061
 30
0.0
  0
SPLINE
  5
65
330
1F
100
AcDbEntity
  8
Predefinito
100
AcDbSpline
210
0.0
220
0.0
230
1.0
 70
    28
 71
     2
 72
     8
 73
     5
 74
     0
 42
0.0000000001
 43
0.0000000001
 40
-10.60287520586556
 40
-10.60287520586556
 40
-10.60287520586556
 40
-9.42477796076938
 40
-9.42477796076938
 40
0.0
 40
0.0
 40
0.0
 10
112.2664047368005
 20
482.8060249991061
 30
0.0
 41
0.9359296083845574
 10
112.2112077042542
 20
482.8060249991061
 30
0.0
 41
0.9633883476483185
 10
112.2566139860047
 20
482.8060249991061
 30
0.0
 41
1.0
 10
112.7515195240369
 20
482.8060249991061
 30
0.0
 41
0.707106781186548
 10
118.7322009576162
 20
482.8060249991061
 30
0.0
 41
1.0
  0
SPLINE
  5
66
330
1F
100
AcDbEntity
  8
Predefinito
100
AcDbSpline
210
0.0
220
0.0
230
1.0
 70
    24
 71
     2
 72
     6
 73
     3
 74
     0
 42
0.0000000001
 43
0.0000000001
 40
0.0
 40
0.0
 40
0.0
 40
10.77689543280808
 40
10.77689543280808
 40
10.77689543280808
 10
119.2214463841387
 20
440.3060249991061
 30
0.0
 10
124.6098941005427
 20
440.3060249991061
 30
0.0
 10
129.9983418169468
 20
440.3060249991061
 30
0.0
  0
SPLINE
  5
67
330
1F
100
AcDbEntity
  8
Predefinito
100
AcDbSpline
210
0.0
220
0.0
230
1.0
 70
    24
 71
     2
 72
     6
 73
     3
 74
     0
 42
0.0000000001
 43
0.0000000001
 40
0.0
 40
0.0
 40
0.0
 40
10.75115670793062
 40
10.75115670793062
 40
10.75115670793062
 10
119.2495479957695
 20
481.8060249991061
 30
0.0
 10
124.6251263497349
 20
481.8060249991061
 30
0.0
 10
130.0007047037002
 20
481.8060249991061
 30
0.0
  0
SPLINE
  5
68
330
1F
100
AcDbEntity
  8
Predefinito
100
AcDbSpline
210
0.0
220
0.0
230
1.0
 70
    28
 71
     2
 72
     8
 73
     5
 74
     0
 42
0.0000000001
 43
0.0000000001
 40
54.22092809625396
 40
54.22092809625396
 40
54.22092809625396
 40
55.3705705195201
 40
55.3705705195201
 40
73.8274273593601
 40
73.8274273593601
 40
73.8274273593601
 10
106.5015337355467
 20
481.8060249991059
 30
0.0
 41
0.9658751966217685
 10
106.4965396862715
 20
481.8060249991058
 30
0.0
 41
0.9818001048649432
 10
106.5388555897822
 20
481.8060249991061
 30
0.0
 41
1.0
 10
107.481192950647
 20
481.8060249991061
 30
0.0
 41
0.707106781186548
 10
119.1933447725075
 20
481.8060249991061
 30
0.0
 41
1.0
  0
SPLINE
  5
69
330
1F
100
AcDbEntity
  8
Predefinito
100
AcDbSpline
210
0.0
220
0.0
230
1.0
 70
    24
 71
     2
 72
     6
 73
     3
 74
     0
 42
0.0000000001
 43
0.0000000001
 40
0.0
 40
0.0
 40
0.0
 40
12.11583651533648
 40
12.11583651533648
 40
12.11583651533648
 10
119.1532453103434
 20
439.8060249991061
 30
0.0
 10
113.0953270526752
 20
439.8060249991061
 30
0.0
 10
107.037408795007
 20
439.806024999106
 30
0.0
  0
SPLINE
  5
6A
330
1F
100
AcDbEntity
  8
Predefinito
100
AcDbSpline
210
0.0
220
0.0
230
1.0
 70
    28
 71
     2
 72
     6
 73
     3
 74
     0
 42
0.0000000001
 43
0.0000000001
 40
-53.01437602829918
 40
-53.01437602829918
 40
-53.01437602829918
 40
-35.34305865891858
 40
-35.34305865891858
 40
-35.34305865891858
 10
129.4647697943507
 20
439.8060249991061
 30
0.0
 41
0.9999999999659026
 10
130.3669974891699
 20
439.8060249991061
 30
0.0
 41
0.7071091232614712
 10
119.1533721209187
 20
439.8060249991062
 30
0.0
 41
0.9999953159217058
  0
SPLINE
  5
6B
330
1F
100
AcDbEntity
  8
Predefinito
100
AcDbSpline
210
0.0
220
0.0
230
1.0
 70
    12
 71
     2
 72
     6
 73
     3
 74
     0
 42
0.0000000001
 43
0.0000000001
 40
0.0
 40
0.0
 40
0.0
 40
0.3120838455735901
 40
0.3120838455735901
 40
0.3120838455735901
 10
118.2765397533928
 20
433.0992786055185
 30
0.0
 41
1.0
 10
118.4325836617782
 20
433.0991759422889
 30
0.0
 41
0.9999805885585448
 10
118.5886141748151
 20
433.097128777088
 30
0.0
 41
1.0
  0
SPLINE
  5
6C
330
1F
100
AcDbEntity
  8
Predefinito
100
AcDbSpline
210
0.0
220
0.0
230
1.0
 70
    12
 71
     2
 72
     6
 73
     3
 74
     0
 42
0.0000000001
 43
0.0000000001
 40
0.0
 40
0.0
 40
0.0
 40
11.83887102003988
 40
11.83887102003988
 40
11.83887102003988
 10
118.5886141748151
 20
433.097128777088
 30
0.0
 41
1.0
 10
124.6088995795753
 20
433.0306065898396
 30
0.0
 41
0.974972178848769
 10
130.0051895571478
 20
430.3607159489866
 30
0.0
 41
1.0
  0
SPLINE
  5
6D
330
1F
100
AcDbEntity
  8
Predefinito
100
AcDbSpline
210
0.0
220
0.0
230
1.0
 70
    28
 71
     3
 72
    12
 73
     8
 74
     0
 42
0.0000000001
 43
0.0000000001
 40
-0.2631348840612202
 40
-0.2631348840612202
 40
-0.2631348840612202
 40
-0.2631348840612202
 40
-0.249999999999999
 40
-0.249999999999999
 40
-0.125
 40
-0.125
 40
-0.0000059206373052
 40
-0.0000059206373052
 40
-0.0000059206373052
 40
-0.0000059206373052
 10
106.461795401368
 20
439.3060249992988
 30
0.0
 41
1.0
 10
106.4344695382378
 20
439.3060249992939
 30
0.0
 41
1.0
 10
106.4207028648564
 20
439.306024999289
 30
0.0
 41
1.0
 10
106.4223123372672
 20
439.3060249992376
 30
0.0
 41
1.0
 10
107.7055992922933
 20
439.306024999191
 30
0.0
 41
1.0
 10
112.0735761096755
 20
439.3060249991253
 30
0.0
 41
1.0
 10
115.1277961281233
 20
439.3060249991061
 30
0.0
 41
1.0
 10
118.2505639630681
 20
439.3060249991061
 30
0.0
 41
1.0
  0
SPLINE
  5
6E
330
1F
100
AcDbEntity
  8
Predefinito
100
AcDbSpline
210
0.0
220
0.0
230
1.0
 70
    12
 71
     2
 72
     6
 73
     3
 74
     0
 42
0.0000000001
 43
0.0000000001
 40
0.0
 40
0.0
 40
0.0
 40
11.79111800762173
 40
11.79111800762173
 40
11.79111800762173
 10
118.2943771276648
 20
439.3060243874788
 30
0.0
 41
1.0
 10
124.1899361314757
 20
439.3060242321793
 30
0.0
 41
0.9999999999999987
 10
130.0854951352865
 20
439.3060246898506
 30
0.0
 41
1.0
  0
SPLINE
  5
6F
330
1F
100
AcDbEntity
  8
Predefinito
100
AcDbSpline
210
0.0
220
0.0
230
1.0
 70
    12
 71
     2
 72
     8
 73
     5
 74
     0
 42
0.0000000001
 43
0.0000000001
 40
0.0
 40
0.0
 40
0.0
 40
39.26990816987237
 40
39.26990816987237
 40
66.48139863951751
 40
66.48139863951751
 40
66.48139863951751
 10
118.2673814982124
 20
382.8046002680167
 30
0.0
 41
1.0
 10
143.2673814982124
 20
382.8046002680168
 30
0.0
 41
0.7071067811865495
 10
143.2673814982123
 20
407.8046002680168
 30
0.0
 41
1.0
 10
143.2673814982124
 20
422.9344482631739
 30
0.0
 41
0.8555263178569176
 10
129.8636455255032
 20
429.9524367449587
 30
0.0
 41
1.0
  0
SPLINE
  5
70
330
1F
100
AcDbEntity
  8
Predefinito
100
AcDbSpline
210
0.0
220
0.0
230
1.0
 70
    12
 71
     2
 72
     8
 73
     5
 74
     0
 42
0.0000000001
 43
0.0000000001
 40
0.0
 40
0.0
 40
0.0
 40
33.18296400696692
 40
33.18296400696692
 40
66.42799489822866
 40
66.42799489822866
 40
66.42799489822866
 10
106.6238328713963
 20
429.9276148766764
 30
0.0
 41
1.0
 10
89.32396629142544
 20
420.8225339767766
 30
0.0
 41
0.7877433810619726
 10
93.98985754321893
 20
401.8378733080959
 30
0.0
 41
1.0
 10
98.66769633742035
 20
382.8046002680317
 30
0.0
 41
0.7869781059209775
 10
118.2673814982124
 20
382.8046002680167
 30
0.0
 41
1.0
  0
SPLINE
  5
71
330
1F
100
AcDbEntity
  8
Predefinito
100
AcDbSpline
210
0.0
220
0.0
230
1.0
 70
    12
 71
     2
 72
     8
 73
     5
 74
     0
 42
0.0000000001
 43
0.0000000001
 40
0.0
 40
0.0
 40
0.0
 40
35.92219932456982
 40
35.92219932456982
 40
71.84439864913969
 40
71.84439864913969
 40
71.84439864913969
 10
118.2673814982124
 20
430.6733826249672
 30
0.0
 41
1.0
 10
95.39859914126191
 20
430.6733826249671
 30
0.0
 41
0.707106781186549
 10
95.39859914126187
 20
407.8046002680167
 30
0.0
 41
1.0
 10
95.39859914126198
 20
384.9358179110662
 30
0.0
 41
0.7071067811865519
 10
118.2673814982124
 20
384.935817911066
 30
0.0
 41
1.0
  0
SPLINE
  5
72
330
1F
100
AcDbEntity
  8
Predefinito
100
AcDbSpline
210
0.0
220
0.0
230
1.0
 70
    12
 71
     2
 72
     8
 73
     5
 74
     0
 42
0.0000000001
 43
0.0000000001
 40
0.0
 40
0.0
 40
0.0
 40
39.06367235835744
 40
39.06367235835744
 40
78.12734471671479
 40
78.12734471671479
 40
78.12734471671479
 10
118.2673814982124
 20
382.9359702158345
 30
0.0
 41
1.0
 10
93.39867529387918
 20
382.9358940636834
 30
0.0
 41
0.7071067811931776
 10
93.39859914126185
 20
407.8046002680167
 30
0.0
 41
1.0
 10
93.39867529387926
 20
432.6733064723499
 30
0.0
 41
0.7071067811931785
 10
118.2673814982124
 20
432.6732303201989
 30
0.0
 41
1.0
  0
SPLINE
  5
73
330
1F
100
AcDbEntity
  8
Predefinito
100
AcDbSpline
210
0.0
220
0.0
230
1.0
 70
    12
 71
     2
 72
     6
 73
     3
 74
     0
 42
0.0000000001
 43
0.0000000001
 40
0.0
 40
0.0
 40
0.0
 40
12.0497491497705
 40
12.0497491497705
 40
12.0497491497705
 10
118.2673760907749
 20
432.804600268016
 30
0.0
 41
1.0
 10
112.1230878729907
 20
432.8045989390223
 30
0.0
 41
0.9711009840118161
 10
106.6787929620068
 20
429.9564538188718
 30
0.0
 41
1.0
  0
SPLINE
  5
74
330
1F
100
AcDbEntity
  8
Predefinito
100
AcDbSpline
210
0.0
220
0.0
230
1.0
 70
    12
 71
     2
 72
     6
 73
     3
 74
     0
 42
0.0000000001
 43
0.0000000001
 40
0.0
 40
0.0
 40
0.0
 40
12.04975455721621
 40
12.04975455721621
 40
12.04975455721621
 10
129.8559700344253
 20
429.9564538188678
 30
0.0
 41
1.0
 10
124.4116725830344
 20
432.8046002680168
 30
0.0
 41
0.9711009582000314
 10
118.2673814982124
 20
432.8046002680167
 30
0.0
 41
1.0
  0
SPLINE
  5
75
330
1F
100
AcDbEntity
  8
Predefinito
100
AcDbSpline
210
0.0
220
0.0
230
1.0
 70
    12
 71
     2
 72
     8
 73
     5
 74
     0
 42
0.0000000001
 43
0.0000000001
 40
0.0
 40
0.0
 40
0.0
 40
35.92219932456985
 40
35.92219932456985
 40
71.84439864913975
 40
71.84439864913975
 40
71.84439864913975
 10
118.2673814982124
 20
384.9358179110661
 30
0.0
 41
1.0
 10
141.1361638551629
 20
384.9358179110661
 30
0.0
 41
0.70710678118655
 10
141.136163855163
 20
407.8046002680167
 30
0.0
 41
1.0
 10
141.136163855163
 20
430.6733826249673
 30
0.0
 41
0.7071067811865454
 10
118.2673814982124
 20
430.6733826249672
 30
0.0
 41
1.0
  0
SPLINE
  5
76
330
1F
100
AcDbEntity
  8
Predefinito
100
AcDbSpline
210
0.0
220
0.0
230
1.0
 70
    12
 71
     2
 72
     8
 73
     5
 74
     0
 42
0.0000000001
 43
0.0000000001
 40
0.0
 40
0.0
 40
0.0
 40
39.06367235835734
 40
39.06367235835734
 40
78.1273447167147
 40
78.1273447167147
 40
78.1273447167147
 10
118.2673814982124
 20
432.6732303201989
 30
0.0
 41
1.0
 10
143.1360877025456
 20
432.6733064723499
 30
0.0
 41
0.7071067811931778
 10
143.136163855163
 20
407.8046002680167
 30
0.0
 41
1.0
 10
143.1360877025455
 20
382.9358940636837
 30
0.0
 41
0.7071067811931833
 10
118.2673814982124
 20
382.9359702158345
 30
0.0
 41
1.0
  0
SPLINE
  5
77
330
1F
100
AcDbEntity
  8
Predefinito
100
AcDbSpline
210
0.0
220
0.0
230
1.0
 70
    24
 71
     2
 72
     6
 73
     3
 74
     0
 42
0.0000000001
 43
0.0000000001
 40
0.0
 40
0.0
 40
0.0
 40
12.16741830365275
 40
12.16741830365275
 40
12.16741830365275
 10
94.29437712530276
 20
439.2726916657728
 30
0.0
 10
100.3780862771291
 20
439.2726916657728
 30
0.0
 10
106.4617954289555
 20
439.2726916657727
 30
0.0
  0
SPLINE
  5
78
330
1F
100
AcDbEntity
  8
Predefinito
100
AcDbSpline
210
0.0
220
0.0
230
1.0
 70
    24
 71
     2
 72
     6
 73
     3
 74
     0
 42
0.0000000001
 43
0.0000000001
 40
0.0
 40
0.0
 40
0.0
 40
12.23089682199497
 40
12.23089682199497
 40
12.23089682199497
 10
130.0634803033078
 20
439.2726916657728
 30
0.0
 10
136.1789287143053
 20
439.2726916657728
 30
0.0
 10
142.2943771253028
 20
439.2726916657728
 30
0.0
  0
SPLINE
  5
79
330
1F
100
AcDbEntity
  8
Predefinito
100
AcDbSpline
210
0.0
220
0.0
230
1.0
 70
    24
 71
     2
 72
     6
 73
     3
 74
     0
 42
0.0000000001
 43
0.0000000001
 40
0.0
 40
0.0
 40
0.0
 40
43.00145929160185
 40
43.00145929160185
 40
43.00145929160185
 10
1634.070782471411
 20
482.8058471516139
 30
0.0
 10
1633.883168466051
 20
461.3059360753602
 30
0.0
 10
1633.695554460691
 20
439.8060249991065
 30
0.0
  0
SPLINE
  5
7A
330
1F
100
AcDbEntity
  8
Predefinito
100
AcDbSpline
210
0.0
220
0.0
230
1.0
 70
    24
 71
     2
 72
     6
 73
     3
 74
     0
 42
0.0000000001
 43
0.0000000001
 40
0.0
 40
0.0
 40
0.0
 40
43.00145966485467
 40
43.00145966485467
 40
43.00145966485467
 10
1397.862577480959
 20
439.8060249991065
 30
0.0
 10
1397.674963994115
 20
461.3059362665184
 30
0.0
 10
1397.487350507272
 20
482.8058475339303
 30
0.0
  0
SPLINE
  5
7B
330
1F
100
AcDbEntity
  8
Predefinito
100
AcDbSpline
210
0.0
220
0.0
230
1.0
 70
    24
 71
     2
 72
     6
 73
     3
 74
     0
 42
0.0000000001
 43
0.0000000001
 40
0.0
 40
0.0
 40
0.0
 40
589.9999999999998
 40
589.9999999999998
 40
589.9999999999998
 10
2048.756332544786
 20
382.8046002680171
 30
0.0
 10
1753.756332544786
 20
382.8046002680171
 30
0.0
 10
1458.756332544787
 20
382.8046002680171
 30
0.0
  0
SPLINE
  5
7C
330
1F
100
AcDbEntity
  8
Predefinito
100
AcDbSpline
210
0.0
220
0.0
230
1.0
 70
    24
 71
     2
 72
     6
 73
     3
 74
     0
 42
0.0000000001
 43
0.0000000001
 40
0.0
 40
0.0
 40
0.0
 40
589.9999999999973
 40
589.9999999999973
 40
589.9999999999973
 10
2638.756332544784
 20
382.8046002680171
 30
0.0
 10
2343.756332544785
 20
382.8046002680171
 30
0.0
 10
2048.756332544786
 20
382.8046002680171
 30
0.0
  0
SPLINE
  5
7D
330
1F
100
AcDbEntity
  8
Predefinito
100
AcDbSpline
210
0.0
220
0.0
230
1.0
 70
    24
 71
     2
 72
     6
 73
     3
 74
     0
 42
0.0000000001
 43
0.0000000001
 40
0.0
 40
0.0
 40
0.0
 40
16.10034988619282
 40
16.10034988619282
 40
16.10034988619282
 10
1458.256332544786
 20
432.8046002680171
 30
0.0
 10
1466.306507487883
 20
432.8046002680171
 30
0.0
 10
1474.356682430979
 20
432.8046002680171
 30
0.0
  0
SPLINE
  5
7E
330
1F
100
AcDbEntity
  8
Predefinito
100
AcDbSpline
210
0.0
220
0.0
230
1.0
 70
    24
 71
     2
 72
     6
 73
     3
 74
     0
 42
0.0000000001
 43
0.0000000001
 40
0.0
 40
0.0
 40
0.0
 40
0.5598191118662115
 40
0.5598191118662115
 40
0.5598191118662115
 10
1458.793829749632
 20
383.3139823166155
 30
0.0
 10
1458.51396282528
 20
383.3090972212854
 30
0.0
 10
1458.234095900928
 20
383.3042121259552
 30
0.0
  0
SPLINE
  5
7F
330
1F
100
AcDbEntity
  8
Predefinito
100
AcDbSpline
210
0.0
220
0.0
230
1.0
 70
    24
 71
     2
 72
     6
 73
     3
 74
     0
 42
0.0000000001
 43
0.0000000001
 40
0.0
 40
0.0
 40
0.0
 40
0.6786973032777228
 40
0.6786973032777228
 40
0.6786973032777228
 10
2592.510619603373
 20
440.2859364646272
 30
0.0
 10
2592.270663870612
 20
440.0459807318668
 30
0.0
 10
2592.030708137852
 20
439.8060249991065
 30
0.0
  0
SPLINE
  5
80
330
1F
100
AcDbEntity
  8
Predefinito
100
AcDbSpline
210
0.0
220
0.0
230
1.0
 70
    24
 71
     2
 72
     6
 73
     3
 74
     0
 42
0.0000000001
 43
0.0000000001
 40
0.0
 40
0.0
 40
0.0
 40
41.49999999999994
 40
41.49999999999994
 40
41.49999999999994
 10
2592.530708137852
 20
481.8060249991065
 30
0.0
 10
2592.530708137852
 20
461.0560249991065
 30
0.0
 10
2592.530708137852
 20
440.3060249991065
 30
0.0
  0
SPLINE
  5
81
330
1F
100
AcDbEntity
  8
Predefinito
100
AcDbSpline
210
0.0
220
0.0
230
1.0
 70
    24
 71
     2
 72
     6
 73
     3
 74
     0
 42
0.0000000001
 43
0.0000000001
 40
0.0
 40
0.0
 40
0.0
 40
1.0
 40
1.0
 40
1.0
 10
2586.780708137851
 20
482.8060249991065
 30
0.0
 10
2586.780708137851
 20
482.3060249991065
 30
0.0
 10
2586.780708137851
 20
481.8060249991065
 30
0.0
  0
SPLINE
  5
82
330
1F
100
AcDbEntity
  8
Predefinito
100
AcDbSpline
210
0.0
220
0.0
230
1.0
 70
    24
 71
     2
 72
     6
 73
     3
 74
     0
 42
0.0000000001
 43
0.0000000001
 40
0.0
 40
0.0
 40
0.0
 40
0.5000000001759872
 40
0.5000000001759872
 40
0.5000000001759872
 10
2590.278201604486
 20
439.8060249991065
 30
0.0
 10
2590.278201604486
 20
439.5560249990185
 30
0.0
 10
2590.278201604486
 20
439.3060249989305
 30
0.0
  0
SPLINE
  5
83
330
1F
100
AcDbEntity
  8
Predefinito
100
AcDbSpline
210
0.0
220
0.0
230
1.0
 70
     8
 71
     3
 72
    14
 73
    10
 74
     0
 42
0.0000000001
 43
0.0000000001
 40
0.0
 40
0.0
 40
0.0
 40
0.0
 40
3.375616699359733
 40
6.439014507966367
 40
12.24350029538043
 40
18.27702244293021
 40
22.04429146977255
 40
23.96991991703308
 40
24.26891995318678
 40
24.26891995318678
 40
24.26891995318678
 40
24.26891995318678
 10
2592.327124021802
 20
432.8191923686518
 30
0.0
 10
2591.302359780255
 20
432.3547247571071
 30
0.0
 10
2589.309008275579
 20
431.5520793687975
 30
0.0
 10
2585.391722160547
 20
430.391837481704
 30
0.0
 10
2580.420958914882
 20
429.8068371518632
 30
0.0
 10
2575.22817698449
 20
430.5722789388734
 30
0.0
 10
2571.529630238817
 20
431.8391602370454
 30
0.0
 10
2569.678643373621
 20
432.5993975006818
 30
0.0
 10
2569.015194754846
 20
432.9280434766865
 30
0.0
 10
2569.030416358289
 20
433.0747162130602
 30
0.0
  0
SPLINE
  5
84
330
1F
100
AcDbEntity
  8
Predefinito
100
AcDbSpline
210
0.0
220
0.0
230
1.0
 70
    24
 71
     2
 72
     6
 73
     3
 74
     0
 42
0.0000000001
 43
0.0000000001
 40
0.0
 40
0.0
 40
0.0
 40
0.678697303278366
 40
0.678697303278366
 40
0.678697303278366
 10
2060.510619603376
 20
440.2859364646267
 30
0.0
 10
2060.270663870615
 20
440.0459807318666
 30
0.0
 10
2060.030708137854
 20
439.8060249991065
 30
0.0
  0
SPLINE
  5
85
330
1F
100
AcDbEntity
  8
Predefinito
100
AcDbSpline
210
0.0
220
0.0
230
1.0
 70
    24
 71
     2
 72
     6
 73
     3
 74
     0
 42
0.0000000001
 43
0.0000000001
 40
0.0
 40
0.0
 40
0.0
 40
41.5
 40
41.5
 40
41.5
 10
2060.530708137854
 20
481.8060249991065
 30
0.0
 10
2060.530708137854
 20
461.0560249991065
 30
0.0
 10
2060.530708137854
 20
440.3060249991065
 30
0.0
  0
SPLINE
  5
86
330
1F
100
AcDbEntity
  8
Predefinito
100
AcDbSpline
210
0.0
220
0.0
230
1.0
 70
    24
 71
     2
 72
     6
 73
     3
 74
     0
 42
0.0000000001
 43
0.0000000001
 40
0.0
 40
0.0
 40
0.0
 40
1.0
 40
1.0
 40
1.0
 10
2054.780708137856
 20
482.8060249991065
 30
0.0
 10
2054.780708137856
 20
482.3060249991065
 30
0.0
 10
2054.780708137856
 20
481.8060249991065
 30
0.0
  0
SPLINE
  5
87
330
1F
100
AcDbEntity
  8
Predefinito
100
AcDbSpline
210
0.0
220
0.0
230
1.0
 70
    24
 71
     2
 72
     6
 73
     3
 74
     0
 42
0.0000000001
 43
0.0000000001
 40
0.0
 40
0.0
 40
0.0
 40
0.5000000001760441
 40
0.5000000001760441
 40
0.5000000001760441
 10
2058.278201604493
 20
439.8060249991065
 30
0.0
 10
2058.278201604493
 20
439.5560249990185
 30
0.0
 10
2058.278201604493
 20
439.3060249989305
 30
0.0
  0
SPLINE
  5
88
330
1F
100
AcDbEntity
  8
Predefinito
100
AcDbSpline
210
0.0
220
0.0
230
1.0
 70
     8
 71
     3
 72
    14
 73
    10
 74
     0
 42
0.0000000001
 43
0.0000000001
 40
0.0
 40
0.0
 40
0.0
 40
0.0
 40
3.375616699370013
 40
6.439014508014505
 40
12.2435002954306
 40
18.27702244297559
 40
22.04429146979893
 40
23.96991991701264
 40
24.26891995485969
 40
24.26891995485969
 40
24.26891995485969
 40
24.26891995485969
 10
2060.327124021805
 20
432.819192368652
 30
0.0
 10
2059.302359780258
 20
432.3547247570985
 30
0.0
 10
2057.309008275568
 20
431.5520793688012
 30
0.0
 10
2053.391722160502
 20
430.391837481676
 30
0.0
 10
2048.420958914858
 20
429.8068371518967
 30
0.0
 10
2043.228176984425
 20
430.5722789388324
 30
0.0
 10
2039.529630238858
 20
431.8391602371456
 30
0.0
 10
2037.678643373045
 20
432.5993975007754
 30
0.0
 10
2037.01519475389
 20
432.9280434772434
 30
0.0
 10
2037.030416358114
 20
433.0747162147258
 30
0.0
  0
SPLINE
  5
89
330
1F
100
AcDbEntity
  8
Predefinito
100
AcDbSpline
210
0.0
220
0.0
230
1.0
 70
    24
 71
     2
 72
     6
 73
     3
 74
     0
 42
0.0000000001
 43
0.0000000001
 40
0.0
 40
0.0
 40
0.0
 40
510.1308448809523
 40
510.1308448809523
 40
510.1308448809523
 10
1527.225662304159
 20
432.8046002680171
 30
0.0
 10
1782.291084744635
 20
432.8046002680171
 30
0.0
 10
2037.356507185111
 20
432.8046002680171
 30
0.0
  0
SPLINE
  5
8A
330
1F
100
AcDbEntity
  8
Predefinito
100
AcDbSpline
210
0.0
220
0.0
230
1.0
 70
    24
 71
     2
 72
     6
 73
     3
 74
     0
 42
0.0000000001
 43
0.0000000001
 40
0.0
 40
0.0
 40
0.0
 40
29.59964945553429
 40
29.59964945553429
 40
29.59964945553429
 10
1474.756332544787
 20
432.8046002680171
 30
0.0
 10
1489.556157272554
 20
432.8046002680171
 30
0.0
 10
1504.355982000321
 20
432.8046002680171
 30
0.0
  0
SPLINE
  5
8B
330
1F
100
AcDbEntity
  8
Predefinito
100
AcDbSpline
210
0.0
220
0.0
230
1.0
 70
    24
 71
     2
 72
     6
 73
     3
 74
     0
 42
0.0000000001
 43
0.0000000001
 40
0.0
 40
0.0
 40
0.0
 40
30.49564240133441
 40
30.49564240133441
 40
30.49564240133441
 10
2592.260690143449
 20
432.8046002680171
 30
0.0
 10
2607.508511344116
 20
432.8046002680171
 30
0.0
 10
2622.756332544784
 20
432.8046002680171
 30
0.0
  0
SPLINE
  5
8C
330
1F
100
AcDbEntity
  8
Predefinito
100
AcDbSpline
210
0.0
220
0.0
230
1.0
 70
    24
 71
     2
 72
     6
 73
     3
 74
     0
 42
0.0000000001
 43
0.0000000001
 40
0.0
 40
0.0
 40
0.0
 40
509.0958176918416
 40
509.0958176918416
 40
509.0958176918416
 10
2060.26068949328
 20
432.8046002680171
 30
0.0
 10
2314.808598339201
 20
432.8046002680171
 30
0.0
 10
2569.356507185122
 20
432.8046002680171
 30
0.0
  0
SPLINE
  5
8D
330
1F
100
AcDbEntity
  8
Predefinito
100
AcDbSpline
210
0.0
220
0.0
230
1.0
 70
    24
 71
     2
 72
     6
 73
     3
 74
     0
 42
0.0000000001
 43
0.0000000001
 40
0.0
 40
0.0
 40
0.0
 40
0.5516522315498393
 40
0.5516522315498393
 40
0.5516522315498393
 10
2639.270403552181
 20
383.3043546576697
 30
0.0
 10
2638.994619446059
 20
383.3091684871426
 30
0.0
 10
2638.718835339938
 20
383.3139823166155
 30
0.0
  0
SPLINE
  5
8E
330
1F
100
AcDbEntity
  8
Predefinito
100
AcDbSpline
210
0.0
220
0.0
230
1.0
 70
    24
 71
     2
 72
     6
 73
     3
 74
     0
 42
0.0000000001
 43
0.0000000001
 40
0.0
 40
0.0
 40
0.0
 40
16.10034988619827
 40
16.10034988619827
 40
16.10034988619827
 10
2623.155982658585
 20
432.8046002680171
 30
0.0
 10
2631.206157601684
 20
432.8046002680171
 30
0.0
 10
2639.256332544784
 20
432.8046002680171
 30
0.0
  0
SPLINE
  5
8F
330
1F
100
AcDbEntity
  8
Predefinito
100
AcDbSpline
210
0.0
220
0.0
230
1.0
 70
     8
 71
     3
 72
    13
 73
     9
 74
     0
 42
0.0000000001
 43
0.0000000001
 40
0.0
 40
0.0
 40
0.0
 40
0.0
 40
0.3091106035834504
 40
2.123931538970348
 40
5.979135443909442
 40
11.99958385306232
 40
17.72187128445675
 40
24.28350043327062
 40
24.28350043327062
 40
24.28350043327062
 40
24.28350043327062
 10
1527.53036553161
 20
433.0888629393941
 30
0.0
 10
1527.552325846948
 20
432.9360320974779
 30
0.0
 10
1526.92407671596
 20
432.6129625991636
 30
0.0
 10
1525.075213038354
 20
431.8571726924645
 30
0.0
 10
1521.39169484325
 20
430.5828064152266
 30
0.0
 10
1516.202480330172
 20
429.8115200986382
 30
0.0
 10
1510.094933618273
 20
430.5097038751946
 30
0.0
 10
1506.224774096447
 20
431.9208412021412
 30
0.0
 10
1504.232486617438
 20
432.8191923685391
 30
0.0
  0
SPLINE
  5
90
330
1F
100
AcDbEntity
  8
Predefinito
100
AcDbSpline
210
0.0
220
0.0
230
1.0
 70
    24
 71
     2
 72
     6
 73
     3
 74
     0
 42
0.0000000001
 43
0.0000000001
 40
0.0
 40
0.0
 40
0.0
 40
176.8587067011999
 40
176.8587067011999
 40
176.8587067011999
 10
1456.816530158637
 20
439.8060249991065
 30
0.0
 10
1545.245883509237
 20
439.8060249991065
 30
0.0
 10
1633.675236859837
 20
439.8060249991065
 30
0.0
  0
SPLINE
  5
91
330
1F
100
AcDbEntity
  8
Predefinito
100
AcDbSpline
210
0.0
220
0.0
230
1.0
 70
    28
 71
     3
 72
    11
 73
     7
 74
     0
 42
0.0000000001
 43
0.0000000001
 40
-125.7305615663956
 40
-125.7305615663956
 40
-125.7305615663956
 40
-125.7305615663956
 40
-92.6172928994347
 40
-44.4525384747642
 40
-22.226269237382
 40
0.0
 40
0.0
 40
0.0
 40
0.0
 10
1397.882851461555
 20
439.8060249991065
 30
0.0
 41
1.0
 10
1397.678708271701
 20
439.8060249991065
 30
0.0
 41
1.0
 10
1400.963065697874
 20
439.8060249991065
 30
0.0
 41
1.0
 10
1416.789340027877
 20
439.8060249991065
 30
0.0
 41
1.0
 10
1438.270740796416
 20
439.8060249991065
 30
0.0
 41
1.0
 10
1450.400595223467
 20
439.8060249991065
 30
0.0
 41
1.0
 10
1456.816530158637
 20
439.8060249991065
 30
0.0
 41
1.0
  0
SPLINE
  5
92
330
1F
100
AcDbEntity
  8
Predefinito
100
AcDbSpline
210
0.0
220
0.0
230
1.0
 70
    28
 71
     3
 72
    11
 73
     7
 74
     0
 42
0.0000000001
 43
0.0000000001
 40
-125.7305615663956
 40
-125.7305615663956
 40
-125.7305615663956
 40
-125.7305615663956
 40
-92.6172928994347
 40
-44.4525384747642
 40
-22.226269237382
 40
0.0
 40
0.0
 40
0.0
 40
0.0
 10
1397.507687454299
 20
482.8060249991065
 30
0.0
 41
1.0
 10
1397.302894648308
 20
482.8060249991065
 30
0.0
 41
1.0
 10
1400.59770342279
 20
482.8060249991065
 30
0.0
 41
1.0
 10
1416.474339477767
 20
482.8060249991065
 30
0.0
 41
1.0
 10
1438.024097484076
 20
482.8060249991065
 30
0.0
 41
1.0
 10
1450.192551039376
 20
482.8060249991065
 30
0.0
 41
1.0
 10
1456.628902501137
 20
482.8060249991065
 30
0.0
 41
1.0
  0
SPLINE
  5
93
330
1F
100
AcDbEntity
  8
Predefinito
100
AcDbSpline
210
0.0
220
0.0
230
1.0
 70
    24
 71
     2
 72
     6
 73
     3
 74
     0
 42
0.0000000001
 43
0.0000000001
 40
0.0
 40
0.0
 40
0.0
 40
177.4214992675231
 40
177.4214992675231
 40
177.4214992675231
 10
1456.628902501137
 20
482.8060249991065
 30
0.0
 10
1545.339652134898
 20
482.8060249991065
 30
0.0
 10
1634.05040176866
 20
482.8060249991065
 30
0.0
  0
SPLINE
  5
94
330
1F
100
AcDbEntity
  8
Predefinito
100
AcDbSpline
210
0.0
220
0.0
230
1.0
 70
    24
 71
     2
 72
     6
 73
     3
 74
     0
 42
0.0000000001
 43
0.0000000001
 40
0.0
 40
0.0
 40
0.0
 40
589.9887706675231
 40
589.9887706675231
 40
589.9887706675231
 10
1458.767561877263
 20
408.0546002680171
 30
0.0
 10
1753.761947211025
 20
408.0546002680171
 30
0.0
 10
2048.756332544786
 20
408.0546002680171
 30
0.0
  0
SPLINE
  5
95
330
1F
100
AcDbEntity
  8
Predefinito
100
AcDbSpline
210
0.0
220
0.0
230
1.0
 70
    24
 71
     2
 72
     6
 73
     3
 74
     0
 42
0.0000000001
 43
0.0000000001
 40
0.0
 40
0.0
 40
0.0
 40
589.9624999999999
 40
589.9624999999999
 40
589.9624999999999
 10
2048.756332544786
 20
407.554600268017
 30
0.0
 10
1753.775082544787
 20
407.554600268017
 30
0.0
 10
1458.793832544786
 20
407.554600268017
 30
0.0
  0
SPLINE
  5
96
330
1F
100
AcDbEntity
  8
Predefinito
100
AcDbSpline
210
0.0
220
0.0
230
1.0
 70
    24
 71
     2
 72
     6
 73
     3
 74
     0
 42
0.0000000001
 43
0.0000000001
 40
0.0
 40
0.0
 40
0.0
 40
590.0
 40
590.0
 40
590.0
 10
1458.756332544786
 20
429.4552353626279
 30
0.0
 10
1753.756332544786
 20
429.4552353626279
 30
0.0
 10
2048.756332544786
 20
429.4552353626279
 30
0.0
  0
SPLINE
  5
97
330
1F
100
AcDbEntity
  8
Predefinito
100
AcDbSpline
210
0.0
220
0.0
230
1.0
 70
    24
 71
     2
 72
     6
 73
     3
 74
     0
 42
0.0000000001
 43
0.0000000001
 40
0.0
 40
0.0
 40
0.0
 40
24.7421099717651
 40
24.7421099717651
 40
24.7421099717651
 10
1458.756332544786
 20
407.5467102397818
 30
0.0
 10
1458.756332544786
 20
395.1756552538992
 30
0.0
 10
1458.756332544787
 20
382.8046002680167
 30
0.0
  0
SPLINE
  5
98
330
1F
100
AcDbEntity
  8
Predefinito
100
AcDbSpline
210
0.0
220
0.0
230
1.0
 70
    24
 71
     2
 72
     6
 73
     3
 74
     0
 42
0.0000000001
 43
0.0000000001
 40
0.0
 40
0.0
 40
0.0
 40
0.5
 40
0.5
 40
0.5
 10
1458.756332544786
 20
408.0546002680171
 30
0.0
 10
1458.756332544786
 20
407.8046002680171
 30
0.0
 10
1458.756332544786
 20
407.5546002680171
 30
0.0
  0
SPLINE
  5
99
330
1F
100
AcDbEntity
  8
Predefinito
100
AcDbSpline
210
0.0
220
0.0
230
1.0
 70
    24
 71
     2
 72
     6
 73
     3
 74
     0
 42
0.0000000001
 43
0.0000000001
 40
0.0
 40
0.0
 40
0.0
 40
21.40030296873448
 40
21.40030296873448
 40
21.40030296873448
 10
1458.756332544786
 20
429.4552353626279
 30
0.0
 10
1458.756332544786
 20
418.7550838782607
 30
0.0
 10
1458.756332544786
 20
408.0549323938935
 30
0.0
  0
SPLINE
  5
9A
330
1F
100
AcDbEntity
  8
Predefinito
100
AcDbSpline
210
0.0
220
0.0
230
1.0
 70
    24
 71
     2
 72
     6
 73
     3
 74
     0
 42
0.0000000001
 43
0.0000000001
 40
0.0
 40
0.0
 40
0.0
 40
589.9624999999974
 40
589.9624999999974
 40
589.9624999999974
 10
2048.756332544786
 20
407.554600268017
 30
0.0
 10
2343.737582544785
 20
407.554600268017
 30
0.0
 10
2638.718832544784
 20
407.554600268017
 30
0.0
  0
SPLINE
  5
9B
330
1F
100
AcDbEntity
  8
Predefinito
100
AcDbSpline
210
0.0
220
0.0
230
1.0
 70
    24
 71
     2
 72
     6
 73
     3
 74
     0
 42
0.0000000001
 43
0.0000000001
 40
0.0
 40
0.0
 40
0.0
 40
589.9812499999971
 40
589.9812499999971
 40
589.9812499999971
 10
2638.737582544783
 20
408.0546002680171
 30
0.0
 10
2343.746957544785
 20
408.0546002680171
 30
0.0
 10
2048.756332544786
 20
408.0546002680171
 30
0.0
  0
SPLINE
  5
9C
330
1F
100
AcDbEntity
  8
Predefinito
100
AcDbSpline
210
0.0
220
0.0
230
1.0
 70
    24
 71
     2
 72
     6
 73
     3
 74
     0
 42
0.0000000001
 43
0.0000000001
 40
0.0
 40
0.0
 40
0.0
 40
589.9999999999973
 40
589.9999999999973
 40
589.9999999999973
 10
2048.756332544786
 20
429.4552353626279
 30
0.0
 10
2343.756332544785
 20
429.4552353626279
 30
0.0
 10
2638.756332544784
 20
429.4552353626279
 30
0.0
  0
SPLINE
  5
9D
330
1F
100
AcDbEntity
  8
Predefinito
100
AcDbSpline
210
0.0
220
0.0
230
1.0
 70
    24
 71
     2
 72
     6
 73
     3
 74
     0
 42
0.0000000001
 43
0.0000000001
 40
0.0
 40
0.0
 40
0.0
 40
21.40063509461089
 40
21.40063509461089
 40
21.40063509461089
 10
2638.756332544784
 20
408.0546002680171
 30
0.0
 10
2638.756332544784
 20
418.7549178153225
 30
0.0
 10
2638.756332544784
 20
429.4552353626279
 30
0.0
  0
SPLINE
  5
9E
330
1F
100
AcDbEntity
  8
Predefinito
100
AcDbSpline
210
0.0
220
0.0
230
1.0
 70
    24
 71
     2
 72
     6
 73
     3
 74
     0
 42
0.0000000001
 43
0.0000000001
 40
0.0
 40
0.0
 40
0.0
 40
0.5
 40
0.5
 40
0.5
 10
2638.756332544784
 20
407.5546002680171
 30
0.0
 10
2638.756332544784
 20
407.8046002680171
 30
0.0
 10
2638.756332544784
 20
408.0546002680171
 30
0.0
  0
SPLINE
  5
9F
330
1F
100
AcDbEntity
  8
Predefinito
100
AcDbSpline
210
0.0
220
0.0
230
1.0
 70
    24
 71
     2
 72
     6
 73
     3
 74
     0
 42
0.0000000001
 43
0.0000000001
 40
0.0
 40
0.0
 40
0.0
 40
24.74210997175607
 40
24.74210997175607
 40
24.74210997175607
 10
2638.756332544784
 20
382.8046002680167
 30
0.0
 10
2638.756332544784
 20
395.1756552538947
 30
0.0
 10
2638.756332544784
 20
407.5467102397727
 30
0.0
  0
SPLINE
  5
A0
330
1F
100
AcDbEntity
  8
Predefinito
100
AcDbSpline
210
0.0
220
0.0
230
1.0
 70
    24
 71
     2
 72
     6
 73
     3
 74
     0
 42
0.0000000001
 43
0.0000000001
 40
0.0
 40
0.0
 40
0.0
 40
49.7372601043644
 40
49.7372601043644
 40
49.7372601043644
 10
1450.738880138347
 20
382.9359702158349
 30
0.0
 10
1450.738880138347
 20
407.8046002680171
 30
0.0
 10
1450.738880138347
 20
432.6732303201993
 30
0.0
  0
SPLINE
  5
A1
330
1F
100
AcDbEntity
  8
Predefinito
100
AcDbSpline
210
0.0
220
0.0
230
1.0
 70
    24
 71
     2
 72
     6
 73
     3
 74
     0
 42
0.0000000001
 43
0.0000000001
 40
0.0
 40
0.0
 40
0.0
 40
2.803361042521942
 40
2.803361042521942
 40
2.803361042521942
 10
1458.256332544786
 20
432.759814861394
 30
0.0
 10
1458.256332544786
 20
431.3581343401331
 30
0.0
 10
1458.256332544786
 20
429.9564538188721
 30
0.0
  0
SPLINE
  5
A2
330
1F
100
AcDbEntity
  8
Predefinito
100
AcDbSpline
210
0.0
220
0.0
230
1.0
 70
    12
 71
     3
 72
    10
 73
     6
 74
     0
 42
0.0000000001
 43
0.0000000001
 40
77.05776141488309
 40
77.05776141488309
 40
77.05776141488309
 40
77.05776141488309
 40
78.59065407426637
 40
78.59065407426637
 40
90.85990368291894
 40
90.85990368291894
 40
90.85990368291894
 40
90.85990368291894
 10
1474.35902633952
 20
432.7625538840077
 30
0.0
 41
1.0
 10
1474.357466841003
 20
432.7906092690804
 30
0.0
 41
1.0
 10
1474.356685541245
 20
432.8045437628791
 30
0.0
 41
1.0
 10
1474.356657619903
 20
432.8050510182857
 30
0.0
 41
1.0
 10
1474.406487148473
 20
431.9164436263675
 30
0.0
 41
1.0
 10
1474.506171025957
 20
430.0143619346406
 30
0.0
 41
1.0
  0
SPLINE
  5
A3
330
1F
100
AcDbEntity
  8
Predefinito
100
AcDbSpline
210
0.0
220
0.0
230
1.0
 70
    12
 71
     2
 72
     8
 73
     5
 74
     0
 42
0.0000000001
 43
0.0000000001
 40
0.0
 40
0.0
 40
0.0
 40
1.565231165536494
 40
1.565231165536494
 40
3.130462331072988
 40
3.130462331072988
 40
3.130462331072988
 10
1448.756332544786
 20
430.6733826249676
 30
0.0
 41
1.0
 10
1448.750174577728
 20
431.4992148731309
 30
0.0
 41
0.9232828773515442
 10
1449.331600067836
 20
432.0857139968442
 30
0.0
 41
1.0
 10
1449.913025557946
 20
432.6722131205577
 30
0.0
 41
0.9232828773515442
 10
1450.738880138347
 20
432.6732303201992
 30
0.0
 41
1.0
  0
SPLINE
  5
A4
330
1F
100
AcDbEntity
  8
Predefinito
100
AcDbSpline
210
0.0
220
0.0
230
1.0
 70
    12
 71
     2
 72
     8
 73
     5
 74
     0
 42
0.0000000001
 43
0.0000000001
 40
0.0
 40
0.0
 40
0.0
 40
1.565231165536347
 40
1.565231165536347
 40
3.130462331072693
 40
3.130462331072693
 40
3.130462331072693
 10
1450.738880138347
 20
382.9359702158349
 30
0.0
 41
1.0
 10
1449.913025557946
 20
382.9369874154769
 30
0.0
 41
0.9232828773516076
 10
1449.331600067837
 20
383.52348653919
 30
0.0
 41
1.0
 10
1448.750174577728
 20
384.1099856629033
 30
0.0
 41
0.9232828773516076
 10
1448.756332544786
 20
384.9358179110665
 30
0.0
 41
1.0
  0
SPLINE
  5
A5
330
1F
100
AcDbEntity
  8
Predefinito
100
AcDbSpline
210
0.0
220
0.0
230
1.0
 70
    24
 71
     2
 72
     6
 73
     3
 74
     0
 42
0.0000000001
 43
0.0000000001
 40
0.0
 40
0.0
 40
0.0
 40
47.15185355085498
 40
47.15185355085498
 40
47.15185355085498
 10
1458.256332544786
 20
382.8046002680171
 30
0.0
 10
1458.256332544786
 20
406.3805270434446
 30
0.0
 10
1458.256332544786
 20
429.9564538188721
 30
0.0
  0
SPLINE
  5
A6
330
1F
100
AcDbEntity
  8
Predefinito
100
AcDbSpline
210
0.0
220
0.0
230
1.0
 70
    24
 71
     2
 72
     6
 73
     3
 74
     0
 42
0.0000000001
 43
0.0000000001
 40
0.0
 40
0.0
 40
0.0
 40
7.517817665091113
 40
7.517817665091113
 40
7.517817665091113
 10
1458.255550144044
 20
432.8045865953073
 30
0.0
 10
1454.497215141195
 20
432.7389084577533
 30
0.0
 10
1450.738880138347
 20
432.6732303201993
 30
0.0
  0
SPLINE
  5
A7
330
1F
100
AcDbEntity
  8
Predefinito
100
AcDbSpline
210
0.0
220
0.0
230
1.0
 70
    24
 71
     2
 72
     6
 73
     3
 74
     0
 42
0.0000000001
 43
0.0000000001
 40
0.0
 40
0.0
 40
0.0
 40
7.518600185292301
 40
7.518600185292301
 40
7.518600185292301
 10
1450.738880138347
 20
382.9359702158349
 30
0.0
 10
1454.497606341567
 20
382.870285241926
 30
0.0
 10
1458.256332544786
 20
382.8046002680171
 30
0.0
  0
SPLINE
  5
A8
330
1F
100
AcDbEntity
  8
Predefinito
100
AcDbSpline
210
0.0
220
0.0
230
1.0
 70
    24
 71
     2
 72
     6
 73
     3
 74
     0
 42
0.0000000001
 43
0.0000000001
 40
0.0
 40
0.0
 40
0.0
 40
16.25894298840922
 40
16.25894298840922
 40
16.25894298840922
 10
1474.515275533196
 20
429.7827294717529
 30
0.0
 10
1466.385804038991
 20
429.7827294717529
 30
0.0
 10
1458.256332544786
 20
429.7827294717529
 30
0.0
  0
SPLINE
  5
A9
330
1F
100
AcDbEntity
  8
Predefinito
100
AcDbSpline
210
0.0
220
0.0
230
1.0
 70
    24
 71
     2
 72
     6
 73
     3
 74
     0
 42
0.0000000001
 43
0.0000000001
 40
0.0
 40
0.0
 40
0.0
 40
16.24760916783341
 40
16.24760916783341
 40
16.24760916783341
 10
1458.256332544786
 20
429.9564538188721
 30
0.0
 10
1466.38013712866
 20
429.956427391879
 30
0.0
 10
1474.503941712534
 20
429.9564009648859
 30
0.0
  0
SPLINE
  5
AA
330
1F
100
AcDbEntity
  8
Predefinito
100
AcDbSpline
210
0.0
220
0.0
230
1.0
 70
    24
 71
     2
 72
     6
 73
     3
 74
     0
 42
0.0000000001
 43
0.0000000001
 40
0.0
 40
0.0
 40
0.0
 40
45.73756471390112
 40
45.73756471390112
 40
45.73756471390112
 10
1448.756332544786
 20
430.6733826249676
 30
0.0
 10
1448.756332544786
 20
407.804600268017
 30
0.0
 10
1448.756332544786
 20
384.9358179110665
 30
0.0
  0
SPLINE
  5
AB
330
1F
100
AcDbEntity
  8
Predefinito
100
AcDbSpline
210
0.0
220
0.0
230
1.0
 70
    12
 71
     2
 72
     6
 73
     3
 74
     0
 42
0.0000000001
 43
0.0000000001
 40
0.0
 40
0.0
 40
0.0
 40
0.1737784837066317
 40
0.1737784837066317
 40
0.1737784837066317
 10
1474.515275533196
 20
429.7827294717529
 30
0.0
 41
1.0
 10
1474.511713812675
 20
429.8695467555834
 30
0.0
 41
0.9999814956778408
 10
1474.50920863256
 20
429.9564009477525
 30
0.0
 41
1.0
  0
SPLINE
  5
AC
330
1F
100
AcDbEntity
  8
Predefinito
100
AcDbSpline
210
0.0
220
0.0
230
1.0
 70
    24
 71
     2
 72
     6
 73
     3
 74
     0
 42
0.0000000001
 43
0.0000000001
 40
0.0
 40
0.0
 40
0.0
 40
0.3281116315188634
 40
0.3281116315188634
 40
0.3281116315188634
 10
1474.535396448344
 20
429.4552353626279
 30
0.0
 10
1474.52533599077
 20
429.6189824171904
 30
0.0
 10
1474.515275533196
 20
429.7827294717529
 30
0.0
  0
SPLINE
  5
AD
330
1F
100
AcDbEntity
  8
Predefinito
100
AcDbSpline
210
0.0
220
0.0
230
1.0
 70
    24
 71
     2
 72
     6
 73
     3
 74
     0
 42
0.0000000001
 43
0.0000000001
 40
0.0
 40
0.0
 40
0.0
 40
0.5597984443111466
 40
0.5597984443111466
 40
0.5597984443111466
 10
1458.234110322563
 20
429.3287684991529
 30
0.0
 10
1458.513971433675
 20
429.3241497275973
 30
0.0
 10
1458.793832544786
 20
429.3195309560416
 30
0.0
  0
SPLINE
  5
AE
330
1F
100
AcDbEntity
  8
Predefinito
100
AcDbSpline
210
0.0
220
0.0
230
1.0
 70
    24
 71
     2
 72
     6
 73
     3
 74
     0
 42
0.0000000001
 43
0.0000000001
 40
0.0
 40
0.0
 40
0.0
 40
1.000000000893943
 40
1.000000000893943
 40
1.000000000893943
 10
2574.802349883691
 20
481.8060249991065
 30
0.0
 10
2574.802328741987
 20
482.3060249991065
 30
0.0
 10
2574.802307600283
 20
482.8060249991065
 30
0.0
  0
SPLINE
  5
AF
330
1F
100
AcDbEntity
  8
Predefinito
100
AcDbSpline
210
0.0
220
0.0
230
1.0
 70
    24
 71
     2
 72
     6
 73
     3
 74
     0
 42
0.0000000001
 43
0.0000000001
 40
0.0
 40
0.0
 40
0.0
 40
0.7043266768252614
 40
0.7043266768252614
 40
0.7043266768252614
 10
2569.070885206811
 20
440.3060249991065
 30
0.0
 10
2569.318915481015
 20
440.0560249991065
 30
0.0
 10
2569.566945755219
 20
439.8060249991065
 30
0.0
  0
SPLINE
  5
B0
330
1F
100
AcDbEntity
  8
Predefinito
100
AcDbSpline
210
0.0
220
0.0
230
1.0
 70
    24
 71
     2
 72
     6
 73
     3
 74
     0
 42
0.0000000001
 43
0.0000000001
 40
0.0
 40
0.0
 40
0.0
 40
23.4196458621509
 40
23.4196458621509
 40
23.4196458621509
 10
2569.070885206811
 20
440.3060249991065
 30
0.0
 10
2580.780708137886
 20
440.3060249991065
 30
0.0
 10
2592.490531068961
 20
440.3060249991065
 30
0.0
  0
SPLINE
  5
B1
330
1F
100
AcDbEntity
  8
Predefinito
100
AcDbSpline
210
0.0
220
0.0
230
1.0
 70
    24
 71
     2
 72
     6
 73
     3
 74
     0
 42
0.0000000001
 43
0.0000000001
 40
0.0
 40
0.0
 40
0.0
 40
6.206982978175328
 40
6.206982978175328
 40
6.206982978175328
 10
2592.533239702599
 20
433.0992786055189
 30
0.0
 10
2592.560336275468
 20
436.2026518023127
 30
0.0
 10
2592.587432848337
 20
439.3060249991065
 30
0.0
  0
SPLINE
  5
B2
330
1F
100
AcDbEntity
  8
Predefinito
100
AcDbSpline
210
0.0
220
0.0
230
1.0
 70
    12
 71
     2
 72
     6
 73
     3
 74
     0
 42
0.0000000001
 43
0.0000000001
 40
0.0
 40
0.0
 40
0.0
 40
0.0538136244151183
 40
0.0538136244151183
 40
0.0538136244151183
 10
2592.453581114514
 20
433.0683221577923
 30
0.0
 41
1.0
 10
2592.478157142732
 20
433.0792769882185
 30
0.0
 41
0.999986606065918
 10
2592.502845250207
 20
433.0899768397072
 30
0.0
 41
1.0
  0
SPLINE
  5
B3
330
1F
100
AcDbEntity
  8
Predefinito
100
AcDbSpline
210
0.0
220
0.0
230
1.0
 70
     8
 71
     3
 72
    14
 73
    10
 74
     0
 42
0.0000000001
 43
0.0000000001
 40
0.0
 40
0.0
 40
0.0
 40
0.0
 40
0.4696802503051605
 40
1.323549891172497
 40
3.142361850553026
 40
6.343392542976816
 40
11.93817181474572
 40
17.97225376156081
 40
24.20952513348791
 40
24.20952513348791
 40
24.20952513348791
 40
24.20952513348791
 10
2569.028150686785
 20
433.099079864713
 30
0.0
 10
2569.166030190686
 20
433.0252180537273
 30
0.0
 10
2569.570269231328
 20
432.8476599853191
 30
0.0
 10
2570.539356767771
 20
432.4503296549229
 30
0.0
 10
2572.378303835467
 20
431.776132380689
 30
0.0
 10
2575.772126139306
 20
430.76663384651
 30
0.0
 10
2580.707821404677
 20
430.1179554229846
 30
0.0
 10
2586.663257755431
 20
430.8783660104592
 30
0.0
 10
2590.543575684715
 20
432.2082087859179
 30
0.0
 10
2592.441432498309
 20
433.0629779448595
 30
0.0
  0
SPLINE
  5
B4
330
1F
100
AcDbEntity
  8
Predefinito
100
AcDbSpline
210
0.0
220
0.0
230
1.0
 70
    24
 71
     2
 72
     6
 73
     3
 74
     0
 42
0.0000000001
 43
0.0000000001
 40
0.0
 40
0.0
 40
0.0
 40
11.94680721217492
 40
11.94680721217492
 40
11.94680721217492
 10
2574.802307600283
 20
482.8060249991065
 30
0.0
 10
2580.77571120637
 20
482.8060249991065
 30
0.0
 10
2586.749114812458
 20
482.8060249991065
 30
0.0
  0
SPLINE
  5
B5
330
1F
100
AcDbEntity
  8
Predefinito
100
AcDbSpline
210
0.0
220
0.0
230
1.0
 70
    24
 71
     2
 72
     6
 73
     3
 74
     0
 42
0.0000000001
 43
0.0000000001
 40
0.0
 40
0.0
 40
0.0
 40
41.50000006534618
 40
41.50000006534618
 40
41.50000006534618
 10
2592.488202178075
 20
481.8060249991065
 30
0.0
 10
2592.489366623484
 20
461.0560249991065
 30
0.0
 10
2592.490531068894
 20
440.3060249991065
 30
0.0
  0
SPLINE
  5
B6
330
1F
100
AcDbEntity
  8
Predefinito
100
AcDbSpline
210
0.0
220
0.0
230
1.0
 70
    24
 71
     2
 72
     6
 73
     3
 74
     0
 42
0.0000000001
 43
0.0000000001
 40
0.0
 40
0.0
 40
0.0
 40
41.49999980396149
 40
41.49999980396149
 40
41.49999980396149
 10
2569.070885206811
 20
440.3060249991065
 30
0.0
 10
2569.072049652213
 20
461.0560248684142
 30
0.0
 10
2569.073214097615
 20
481.8060247377218
 30
0.0
  0
SPLINE
  5
B7
330
1F
100
AcDbEntity
  8
Predefinito
100
AcDbSpline
210
0.0
220
0.0
230
1.0
 70
    24
 71
     2
 72
     6
 73
     3
 74
     0
 42
0.0000000001
 43
0.0000000001
 40
0.0
 40
0.0
 40
0.0
 40
23.45694233149425
 40
23.45694233149425
 40
23.45694233149425
 10
2569.07321409763
 20
481.8060249991065
 30
0.0
 10
2580.801685263377
 20
481.8060249991065
 30
0.0
 10
2592.530156429124
 20
481.8060249991065
 30
0.0
  0
SPLINE
  5
B8
330
1F
100
AcDbEntity
  8
Predefinito
100
AcDbSpline
210
0.0
220
0.0
230
1.0
 70
    28
 71
     2
 72
     8
 73
     5
 74
     0
 42
0.0000000001
 43
0.0000000001
 40
-35.3429173528852
 40
-35.3429173528852
 40
-35.3429173528852
 40
-17.6714586764426
 40
-17.6714586764426
 40
0.0
 40
0.0
 40
0.0
 10
2591.994470520484
 20
439.8060249991065
 30
0.0
 41
1.0
 10
2592.896708419185
 20
439.8060249991065
 30
0.0
 41
0.707106781186548
 10
2581.682946036552
 20
439.8060249991065
 30
0.0
 41
1.0
 10
2570.469183653919
 20
439.8060249991065
 30
0.0
 41
0.707106781186548
 10
2569.566945755219
 20
439.8060249991065
 30
0.0
 41
1.0
  0
SPLINE
  5
B9
330
1F
100
AcDbEntity
  8
Predefinito
100
AcDbSpline
210
0.0
220
0.0
230
1.0
 70
    24
 71
     2
 72
     6
 73
     3
 74
     0
 42
0.0000000001
 43
0.0000000001
 40
0.0
 40
0.0
 40
0.0
 40
0.5000000001173817
 40
0.5000000001173817
 40
0.5000000001173817
 10
2571.311308792519
 20
439.8060249991065
 30
0.0
 10
2571.311308792519
 20
439.5560249990478
 30
0.0
 10
2571.311308792519
 20
439.3060249989891
 30
0.0
  0
SPLINE
  5
BA
330
1F
100
AcDbEntity
  8
Predefinito
100
AcDbSpline
210
0.0
220
0.0
230
1.0
 70
    12
 71
     2
 72
     6
 73
     3
 74
     0
 42
0.0000000001
 43
0.0000000001
 40
0.0
 40
0.0
 40
0.0
 40
0.3405780040316193
 40
0.3405780040316193
 40
0.3405780040316193
 10
2592.327490414047
 20
432.8193581649953
 30
0.0
 41
1.0
 10
2592.501798779529
 20
432.8985325899903
 30
0.0
 41
0.8421782131748287
 10
2592.502845250206
 20
433.0899768397072
 30
0.0
 41
1.0
  0
SPLINE
  5
BB
330
1F
100
AcDbEntity
  8
Predefinito
100
AcDbSpline
210
0.0
220
0.0
230
1.0
 70
    24
 71
     2
 72
     6
 73
     3
 74
     0
 42
0.0000000001
 43
0.0000000001
 40
0.0
 40
0.0
 40
0.0
 40
6.207181484318691
 40
6.207181484318691
 40
6.207181484318691
 10
2569.028150686785
 20
433.099079864713
 30
0.0
 10
2569.00106714254
 20
436.2025524320878
 30
0.0
 10
2568.973983598295
 20
439.3060249994627
 30
0.0
  0
SPLINE
  5
BC
330
1F
100
AcDbEntity
  8
Predefinito
100
AcDbSpline
210
0.0
220
0.0
230
1.0
 70
    24
 71
     2
 72
     6
 73
     3
 74
     0
 42
0.0000000001
 43
0.0000000001
 40
0.0
 40
0.0
 40
0.0
 40
23.61344925004187
 40
23.61344925004187
 40
23.61344925004187
 10
2568.973983598295
 20
439.3060249994627
 30
0.0
 10
2580.780708223316
 20
439.3060249992846
 30
0.0
 10
2592.587432848337
 20
439.3060249991065
 30
0.0
  0
SPLINE
  5
BD
330
1F
100
AcDbEntity
  8
Predefinito
100
AcDbSpline
210
0.0
220
0.0
230
1.0
 70
    24
 71
     2
 72
     6
 73
     3
 74
     0
 42
0.0000000001
 43
0.0000000001
 40
0.0
 40
0.0
 40
0.0
 40
1.000000000893943
 40
1.000000000893943
 40
1.000000000893943
 10
2042.802349883693
 20
481.8060249991065
 30
0.0
 10
2042.80232874199
 20
482.3060249991065
 30
0.0
 10
2042.802307600286
 20
482.8060249991065
 30
0.0
  0
SPLINE
  5
BE
330
1F
100
AcDbEntity
  8
Predefinito
100
AcDbSpline
210
0.0
220
0.0
230
1.0
 70
    24
 71
     2
 72
     6
 73
     3
 74
     0
 42
0.0000000001
 43
0.0000000001
 40
0.0
 40
0.0
 40
0.0
 40
0.7043266768259019
 40
0.7043266768259019
 40
0.7043266768259019
 10
2037.070885206817
 20
440.3060249991065
 30
0.0
 10
2037.318915481022
 20
440.0560249991065
 30
0.0
 10
2037.566945755226
 20
439.8060249991065
 30
0.0
  0
SPLINE
  5
BF
330
1F
100
AcDbEntity
  8
Predefinito
100
AcDbSpline
210
0.0
220
0.0
230
1.0
 70
    24
 71
     2
 72
     6
 73
     3
 74
     0
 42
0.0000000001
 43
0.0000000001
 40
0.0
 40
0.0
 40
0.0
 40
23.41964586214704
 40
23.41964586214704
 40
23.41964586214704
 10
2037.070885206817
 20
440.3060249991065
 30
0.0
 10
2048.78070813789
 20
440.3060249991065
 30
0.0
 10
2060.490531068964
 20
440.3060249991066
 30
0.0
  0
SPLINE
  5
C0
330
1F
100
AcDbEntity
  8
Predefinito
100
AcDbSpline
210
0.0
220
0.0
230
1.0
 70
    24
 71
     2
 72
     6
 73
     3
 74
     0
 42
0.0000000001
 43
0.0000000001
 40
0.0
 40
0.0
 40
0.0
 40
6.206982978175276
 40
6.206982978175276
 40
6.206982978175276
 10
2060.5332397026
 20
433.0992786055189
 30
0.0
 10
2060.56033627547
 20
436.2026518023126
 30
0.0
 10
2060.587432848339
 20
439.3060249991065
 30
0.0
  0
SPLINE
  5
C1
330
1F
100
AcDbEntity
  8
Predefinito
100
AcDbSpline
210
0.0
220
0.0
230
1.0
 70
    12
 71
     2
 72
     6
 73
     3
 74
     0
 42
0.0000000001
 43
0.0000000001
 40
0.0
 40
0.0
 40
0.0
 40
0.0538136244126403
 40
0.0538136244126403
 40
0.0538136244126403
 10
2060.453581114519
 20
433.0683221577922
 30
0.0
 41
1.0
 10
2060.478157142735
 20
433.0792769882178
 30
0.0
 41
0.9999866060660757
 10
2060.502845250208
 20
433.0899768397072
 30
0.0
 41
1.0
  0
SPLINE
  5
C2
330
1F
100
AcDbEntity
  8
Predefinito
100
AcDbSpline
210
0.0
220
0.0
230
1.0
 70
     8
 71
     3
 72
    14
 73
    10
 74
     0
 42
0.0000000001
 43
0.0000000001
 40
0.0
 40
0.0
 40
0.0
 40
0.0
 40
0.4696802503265602
 40
1.323549891189908
 40
3.142361850555781
 40
6.343392542973135
 40
11.93817181474347
 40
17.97225376155539
 40
24.20952513315427
 40
24.20952513315427
 40
24.20952513315427
 40
24.20952513315427
 10
2037.028150686792
 20
433.099079864713
 30
0.0
 10
2037.166030190705
 20
433.0252180537336
 30
0.0
 10
2037.570269231351
 20
432.8476599853215
 30
0.0
 10
2038.5393567678
 20
432.4503296549222
 30
0.0
 10
2040.378303835473
 20
431.7761323806859
 30
0.0
 10
2043.772126139314
 20
430.7666338465102
 30
0.0
 10
2048.707821404683
 20
430.1179554229865
 30
0.0
 10
2054.66325775533
 20
430.878366010443
 30
0.0
 10
2058.54357568451
 20
432.2082087858519
 30
0.0
 10
2060.441432498013
 20
433.0629779447269
 30
0.0
  0
SPLINE
  5
C3
330
1F
100
AcDbEntity
  8
Predefinito
100
AcDbSpline
210
0.0
220
0.0
230
1.0
 70
    24
 71
     2
 72
     6
 73
     3
 74
     0
 42
0.0000000001
 43
0.0000000001
 40
0.0
 40
0.0
 40
0.0
 40
11.94680721217674
 40
11.94680721217674
 40
11.94680721217674
 10
2042.802307600286
 20
482.8060249991065
 30
0.0
 10
2048.775711206375
 20
482.8060249991065
 30
0.0
 10
2054.749114812463
 20
482.8060249991065
 30
0.0
  0
SPLINE
  5
C4
330
1F
100
AcDbEntity
  8
Predefinito
100
AcDbSpline
210
0.0
220
0.0
230
1.0
 70
    24
 71
     2
 72
     6
 73
     3
 74
     0
 42
0.0000000001
 43
0.0000000001
 40
0.0
 40
0.0
 40
0.0
 40
41.50000006534618
 40
41.50000006534618
 40
41.50000006534618
 10
2060.488202178077
 20
481.8060249991065
 30
0.0
 10
2060.489366623487
 20
461.0560249991065
 30
0.0
 10
2060.490531068896
 20
440.3060249991065
 30
0.0
  0
SPLINE
  5
C5
330
1F
100
AcDbEntity
  8
Predefinito
100
AcDbSpline
210
0.0
220
0.0
230
1.0
 70
    24
 71
     2
 72
     6
 73
     3
 74
     0
 42
0.0000000001
 43
0.0000000001
 40
0.0
 40
0.0
 40
0.0
 40
41.49999980396149
 40
41.49999980396149
 40
41.49999980396149
 10
2037.070885206817
 20
440.3060249991065
 30
0.0
 10
2037.072049652219
 20
461.0560248684142
 30
0.0
 10
2037.073214097622
 20
481.8060247377218
 30
0.0
  0
SPLINE
  5
C6
330
1F
100
AcDbEntity
  8
Predefinito
100
AcDbSpline
210
0.0
220
0.0
230
1.0
 70
    24
 71
     2
 72
     6
 73
     3
 74
     0
 42
0.0000000001
 43
0.0000000001
 40
0.0
 40
0.0
 40
0.0
 40
23.45694233149106
 40
23.45694233149106
 40
23.45694233149106
 10
2037.073214097637
 20
481.8060249991065
 30
0.0
 10
2048.801685263382
 20
481.8060249991065
 30
0.0
 10
2060.530156429128
 20
481.8060249991065
 30
0.0
  0
SPLINE
  5
C7
330
1F
100
AcDbEntity
  8
Predefinito
100
AcDbSpline
210
0.0
220
0.0
230
1.0
 70
    28
 71
     2
 72
     8
 73
     5
 74
     0
 42
0.0000000001
 43
0.0000000001
 40
-35.3429173528852
 40
-35.3429173528852
 40
-35.3429173528852
 40
-17.6714586764426
 40
-17.6714586764426
 40
0.0
 40
0.0
 40
0.0
 10
2059.994470520487
 20
439.8060249991065
 30
0.0
 41
1.0
 10
2060.896708419187
 20
439.8060249991065
 30
0.0
 41
0.707106781186548
 10
2049.682946036557
 20
439.8060249991065
 30
0.0
 41
1.0
 10
2038.469183653926
 20
439.8060249991065
 30
0.0
 41
0.707106781186548
 10
2037.566945755226
 20
439.8060249991065
 30
0.0
 41
1.0
  0
SPLINE
  5
C8
330
1F
100
AcDbEntity
  8
Predefinito
100
AcDbSpline
210
0.0
220
0.0
230
1.0
 70
    24
 71
     2
 72
     6
 73
     3
 74
     0
 42
0.0000000001
 43
0.0000000001
 40
0.0
 40
0.0
 40
0.0
 40
0.5000000001173817
 40
0.5000000001173817
 40
0.5000000001173817
 10
2039.311308792526
 20
439.8060249991065
 30
0.0
 10
2039.311308792526
 20
439.5560249990478
 30
0.0
 10
2039.311308792526
 20
439.3060249989891
 30
0.0
  0
SPLINE
  5
C9
330
1F
100
AcDbEntity
  8
Predefinito
100
AcDbSpline
210
0.0
220
0.0
230
1.0
 70
    12
 71
     2
 72
     6
 73
     3
 74
     0
 42
0.0000000001
 43
0.0000000001
 40
0.0
 40
0.0
 40
0.0
 40
0.3405780040321248
 40
0.3405780040321248
 40
0.3405780040321248
 10
2060.327490414049
 20
432.8193581649951
 30
0.0
 41
1.0
 10
2060.501798779534
 20
432.8985325899893
 30
0.0
 41
0.8421782131689339
 10
2060.502845250208
 20
433.0899768397072
 30
0.0
 41
1.0
  0
SPLINE
  5
CA
330
1F
100
AcDbEntity
  8
Predefinito
100
AcDbSpline
210
0.0
220
0.0
230
1.0
 70
    24
 71
     2
 72
     6
 73
     3
 74
     0
 42
0.0000000001
 43
0.0000000001
 40
0.0
 40
0.0
 40
0.0
 40
6.207181484318655
 40
6.207181484318655
 40
6.207181484318655
 10
2037.028150686792
 20
433.099079864713
 30
0.0
 10
2037.001067142546
 20
436.2025524320878
 30
0.0
 10
2036.9739835983
 20
439.3060249994626
 30
0.0
  0
SPLINE
  5
CB
330
1F
100
AcDbEntity
  8
Predefinito
100
AcDbSpline
210
0.0
220
0.0
230
1.0
 70
    24
 71
     2
 72
     6
 73
     3
 74
     0
 42
0.0000000001
 43
0.0000000001
 40
0.0
 40
0.0
 40
0.0
 40
23.61344925003914
 40
23.61344925003914
 40
23.61344925003914
 10
2036.9739835983
 20
439.3060249994626
 30
0.0
 10
2048.780708223319
 20
439.3060249992845
 30
0.0
 10
2060.587432848339
 20
439.3060249991065
 30
0.0
  0
SPLINE
  5
CC
330
1F
100
AcDbEntity
  8
Predefinito
100
AcDbSpline
210
0.0
220
0.0
230
1.0
 70
    28
 71
     2
 72
     6
 73
     3
 74
     0
 42
0.0000000001
 43
0.0000000001
 40
-13.62579912151864
 40
-13.62579912151864
 40
-13.62579912151864
 40
0.0
 40
0.0
 40
0.0
 10
1474.756332544786
 20
432.7569481966705
 30
0.0
 41
0.9433593456089334
 10
1474.756332544786
 20
433.1891137182301
 30
0.0
 41
0.9352678235530667
 10
1474.756332544786
 20
429.9276146486483
 30
0.0
 41
1.0
  0
SPLINE
  5
CD
330
1F
100
AcDbEntity
  8
Predefinito
100
AcDbSpline
210
0.0
220
0.0
230
1.0
 70
    24
 71
     2
 72
     6
 73
     3
 74
     0
 42
0.0000000001
 43
0.0000000001
 40
0.0
 40
0.0
 40
0.0
 40
0.2956185834787723
 40
0.2956185834787723
 40
0.2956185834787723
 10
1474.753609461282
 20
429.4552353626279
 30
0.0
 10
1474.754971003034
 20
429.6030383833297
 30
0.0
 10
1474.756332544786
 20
429.7508414040314
 30
0.0
  0
SPLINE
  5
CE
330
1F
100
AcDbEntity
  8
Predefinito
100
AcDbSpline
210
0.0
220
0.0
230
1.0
 70
    24
 71
     2
 72
     6
 73
     3
 74
     0
 42
0.0000000001
 43
0.0000000001
 40
0.0
 40
0.0
 40
0.0
 40
574.0
 40
574.0
 40
574.0
 10
1474.756332544786
 20
429.9276146486483
 30
0.0
 10
1761.756332544786
 20
429.9276146486483
 30
0.0
 10
2048.756332544786
 20
429.9276146486483
 30
0.0
  0
SPLINE
  5
CF
330
1F
100
AcDbEntity
  8
Predefinito
100
AcDbSpline
210
0.0
220
0.0
230
1.0
 70
    24
 71
     2
 72
     6
 73
     3
 74
     0
 42
0.0000000001
 43
0.0000000001
 40
0.0
 40
0.0
 40
0.0
 40
0.1767732446169248
 40
0.1767732446169248
 40
0.1767732446169248
 10
1474.756332544786
 20
429.7508414040314
 30
0.0
 10
1474.756332544786
 20
429.8392280263399
 30
0.0
 10
1474.756332544786
 20
429.9276146486483
 30
0.0
  0
SPLINE
  5
D0
330
1F
100
AcDbEntity
  8
Predefinito
100
AcDbSpline
210
0.0
220
0.0
230
1.0
 70
    24
 71
     2
 72
     6
 73
     3
 74
     0
 42
0.0000000001
 43
0.0000000001
 40
0.0
 40
0.0
 40
0.0
 40
574.0
 40
574.0
 40
574.0
 10
2048.756332544786
 20
429.7508414040314
 30
0.0
 10
1761.756332544786
 20
429.7508414040314
 30
0.0
 10
1474.756332544786
 20
429.7508414040314
 30
0.0
  0
SPLINE
  5
D1
330
1F
100
AcDbEntity
  8
Predefinito
100
AcDbSpline
210
0.0
220
0.0
230
1.0
 70
    24
 71
     2
 72
     6
 73
     3
 74
     0
 42
0.0000000001
 43
0.0000000001
 40
0.0
 40
0.0
 40
0.0
 40
573.9999999999973
 40
573.9999999999973
 40
573.9999999999973
 10
2622.756332544784
 20
429.7508414040314
 30
0.0
 10
2335.756332544785
 20
429.7508414040314
 30
0.0
 10
2048.756332544786
 20
429.7508414040314
 30
0.0
  0
SPLINE
  5
D2
330
1F
100
AcDbEntity
  8
Predefinito
100
AcDbSpline
210
0.0
220
0.0
230
1.0
 70
    24
 71
     2
 72
     6
 73
     3
 74
     0
 42
0.0000000001
 43
0.0000000001
 40
0.0
 40
0.0
 40
0.0
 40
573.9999999999973
 40
573.9999999999973
 40
573.9999999999973
 10
2048.756332544786
 20
429.9276146486483
 30
0.0
 10
2335.756332544785
 20
429.9276146486483
 30
0.0
 10
2622.756332544784
 20
429.9276146486483
 30
0.0
  0
SPLINE
  5
D3
330
1F
100
AcDbEntity
  8
Predefinito
100
AcDbSpline
210
0.0
220
0.0
230
1.0
 70
    24
 71
     2
 72
     6
 73
     3
 74
     0
 42
0.0000000001
 43
0.0000000001
 40
0.0
 40
0.0
 40
0.0
 40
2.829333547987858
 40
2.829333547987858
 40
2.829333547987858
 10
2622.756332544784
 20
429.9276146486483
 30
0.0
 10
2622.756332544784
 20
431.3422814226423
 30
0.0
 10
2622.756332544784
 20
432.7569481966362
 30
0.0
  0
SPLINE
  5
D4
330
1F
100
AcDbEntity
  8
Predefinito
100
AcDbSpline
210
0.0
220
0.0
230
1.0
 70
    24
 71
     2
 72
     6
 73
     3
 74
     0
 42
0.0000000001
 43
0.0000000001
 40
0.0
 40
0.0
 40
0.0
 40
0.1767732446169248
 40
0.1767732446169248
 40
0.1767732446169248
 10
2622.756332544784
 20
429.7508414040314
 30
0.0
 10
2622.756332544784
 20
429.8392280263399
 30
0.0
 10
2622.756332544784
 20
429.9276146486483
 30
0.0
  0
SPLINE
  5
D5
330
1F
100
AcDbEntity
  8
Predefinito
100
AcDbSpline
210
0.0
220
0.0
230
1.0
 70
    24
 71
     2
 72
     6
 73
     3
 74
     0
 42
0.0000000001
 43
0.0000000001
 40
0.0
 40
0.0
 40
0.0
 40
0.2956185834787681
 40
0.2956185834787681
 40
0.2956185834787681
 10
2622.759055628288
 20
429.4552353626279
 30
0.0
 10
2622.757694086536
 20
429.6030383833297
 30
0.0
 10
2622.756332544784
 20
429.7508414040314
 30
0.0
  0
SPLINE
  5
D6
330
1F
100
AcDbEntity
  8
Predefinito
100
AcDbSpline
210
0.0
220
0.0
230
1.0
 70
    12
 71
     2
 72
     6
 73
     3
 74
     0
 42
0.0000000001
 43
0.0000000001
 40
0.0
 40
0.0
 40
0.0
 40
0.1737784837065457
 40
0.1737784837065457
 40
0.1737784837065457
 10
2623.003456457009
 20
429.9564009477525
 30
0.0
 41
1.0
 10
2623.000951276896
 20
429.8695467555835
 30
0.0
 41
0.9999814956777957
 10
2622.997389556374
 20
429.782729471753
 30
0.0
 41
1.0
  0
SPLINE
  5
D7
330
1F
100
AcDbEntity
  8
Predefinito
100
AcDbSpline
210
0.0
220
0.0
230
1.0
 70
    24
 71
     2
 72
     6
 73
     3
 74
     0
 42
0.0000000001
 43
0.0000000001
 40
0.0
 40
0.0
 40
0.0
 40
0.3281116315189201
 40
0.3281116315189201
 40
0.3281116315189201
 10
2622.977268641226
 20
429.4552353626279
 30
0.0
 10
2622.9873290988
 20
429.6189824171905
 30
0.0
 10
2622.997389556374
 20
429.782729471753
 30
0.0
  0
SPLINE
  5
D8
330
1F
100
AcDbEntity
  8
Predefinito
100
AcDbSpline
210
0.0
220
0.0
230
1.0
 70
    24
 71
     2
 72
     6
 73
     3
 74
     0
 42
0.0000000001
 43
0.0000000001
 40
0.0
 40
0.0
 40
0.0
 40
0.5597984443106919
 40
0.5597984443106919
 40
0.5597984443106919
 10
2639.278554767006
 20
429.3287684991529
 30
0.0
 10
2638.998693655894
 20
429.3241497275973
 30
0.0
 10
2638.718832544783
 20
429.3195309560416
 30
0.0
  0
SPLINE
  5
D9
330
1F
100
AcDbEntity
  8
Predefinito
100
AcDbSpline
210
0.0
220
0.0
230
1.0
 70
    24
 71
     2
 72
     6
 73
     3
 74
     0
 42
0.0000000001
 43
0.0000000001
 40
0.0
 40
0.0
 40
0.0
 40
16.25894298840922
 40
16.25894298840922
 40
16.25894298840922
 10
2622.997389556374
 20
429.782729471753
 30
0.0
 10
2631.126861050579
 20
429.782729471753
 30
0.0
 10
2639.256332544784
 20
429.7827294717529
 30
0.0
  0
SPLINE
  5
DA
330
1F
100
AcDbEntity
  8
Predefinito
100
AcDbSpline
210
0.0
220
0.0
230
1.0
 70
    24
 71
     2
 72
     6
 73
     3
 74
     0
 42
0.0000000001
 43
0.0000000001
 40
0.0
 40
0.0
 40
0.0
 40
47.15185355085498
 40
47.15185355085498
 40
47.15185355085498
 10
2639.256332544784
 20
429.9564538188721
 30
0.0
 10
2639.256332544784
 20
406.3805270434446
 30
0.0
 10
2639.256332544784
 20
382.8046002680171
 30
0.0
  0
SPLINE
  5
DB
330
1F
100
AcDbEntity
  8
Predefinito
100
AcDbSpline
210
0.0
220
0.0
230
1.0
 70
    24
 71
     2
 72
     6
 73
     3
 74
     0
 42
0.0000000001
 43
0.0000000001
 40
0.0
 40
0.0
 40
0.0
 40
45.73756471390112
 40
45.73756471390112
 40
45.73756471390112
 10
2648.756332544784
 20
430.6733826249676
 30
0.0
 10
2648.756332544784
 20
407.804600268017
 30
0.0
 10
2648.756332544784
 20
384.9358179110665
 30
0.0
  0
SPLINE
  5
DC
330
1F
100
AcDbEntity
  8
Predefinito
100
AcDbSpline
210
0.0
220
0.0
230
1.0
 70
    24
 71
     2
 72
     6
 73
     3
 74
     0
 42
0.0000000001
 43
0.0000000001
 40
0.0
 40
0.0
 40
0.0
 40
49.73726010436434
 40
49.73726010436434
 40
49.73726010436434
 10
2646.77378495122
 20
382.9359702158349
 30
0.0
 10
2646.77378495122
 20
407.8046002680171
 30
0.0
 10
2646.77378495122
 20
432.6732303201993
 30
0.0
  0
SPLINE
  5
DD
330
1F
100
AcDbEntity
  8
Predefinito
100
AcDbSpline
210
0.0
220
0.0
230
1.0
 70
    12
 71
     2
 72
     6
 73
     3
 74
     0
 42
0.0000000001
 43
0.0000000001
 40
0.0
 40
0.0
 40
0.0
 40
0.0580405299863275
 40
0.0580405299863275
 40
0.0580405299863275
 10
2623.003456457009
 20
429.9564009477525
 30
0.0
 41
1.0
 10
2623.00496795354
 20
429.9853818241057
 30
0.0
 41
0.9999999682159483
 10
2623.00649406361
 20
430.0143619345958
 30
0.0
 41
1.0
  0
SPLINE
  5
DE
330
1F
100
AcDbEntity
  8
Predefinito
100
AcDbSpline
210
0.0
220
0.0
230
1.0
 70
    24
 71
     2
 72
     6
 73
     3
 74
     0
 42
0.0000000001
 43
0.0000000001
 40
0.0
 40
0.0
 40
0.0
 40
16.25287608786089
 40
16.25287608786089
 40
16.25287608786089
 10
2639.256332544784
 20
429.9564538188721
 30
0.0
 10
2631.129894500896
 20
429.9564273833123
 30
0.0
 10
2623.003456457009
 20
429.9564009477525
 30
0.0
  0
SPLINE
  5
DF
330
1F
100
AcDbEntity
  8
Predefinito
100
AcDbSpline
210
0.0
220
0.0
230
1.0
 70
    24
 71
     2
 72
     6
 73
     3
 74
     0
 42
0.0000000001
 43
0.0000000001
 40
0.0
 40
0.0
 40
0.0
 40
2.84814644914502
 40
2.84814644914502
 40
2.84814644914502
 10
2639.256332544784
 20
432.8046002680171
 30
0.0
 10
2639.256332544784
 20
431.3805270434446
 30
0.0
 10
2639.256332544784
 20
429.9564538188721
 30
0.0
  0
SPLINE
  5
E0
330
1F
100
AcDbEntity
  8
Predefinito
100
AcDbSpline
210
0.0
220
0.0
230
1.0
 70
    12
 71
     2
 72
     6
 73
     3
 74
     0
 42
0.0000000001
 43
0.0000000001
 40
0.0
 40
0.0
 40
0.0
 40
2.75212937660905
 40
2.75212937660905
 40
2.75212937660905
 10
2623.00649406361
 20
430.0143619345958
 30
0.0
 41
1.0
 10
2623.078027999316
 20
431.3885670504551
 30
0.0
 41
0.9999988996846411
 10
2623.153638750045
 20
432.7625538840112
 30
0.0
 41
1.0
  0
SPLINE
  5
E1
330
1F
100
AcDbEntity
  8
Predefinito
100
AcDbSpline
210
0.0
220
0.0
230
1.0
 70
    24
 71
     2
 72
     6
 73
     3
 74
     0
 42
0.0000000001
 43
0.0000000001
 40
0.0
 40
0.0
 40
0.0
 40
7.518600185288893
 40
7.518600185288893
 40
7.518600185288893
 10
2639.256332544784
 20
432.8046002680171
 30
0.0
 10
2643.015058748002
 20
432.7389152941082
 30
0.0
 10
2646.77378495122
 20
432.6732303201993
 30
0.0
  0
SPLINE
  5
E2
330
1F
100
AcDbEntity
  8
Predefinito
100
AcDbSpline
210
0.0
220
0.0
230
1.0
 70
    24
 71
     2
 72
     6
 73
     3
 74
     0
 42
0.0000000001
 43
0.0000000001
 40
0.0
 40
0.0
 40
0.0
 40
7.518600185288891
 40
7.518600185288891
 40
7.518600185288891
 10
2646.77378495122
 20
382.9359702158349
 30
0.0
 10
2643.015058748002
 20
382.870285241926
 30
0.0
 10
2639.256332544784
 20
382.8046002680171
 30
0.0
  0
SPLINE
  5
E3
330
1F
100
AcDbEntity
  8
Predefinito
100
AcDbSpline
210
0.0
220
0.0
230
1.0
 70
    12
 71
     2
 72
     8
 73
     5
 74
     0
 42
0.0000000001
 43
0.0000000001
 40
0.0
 40
0.0
 40
0.0
 40
1.565231165537683
 40
1.565231165537683
 40
3.130462331075367
 40
3.130462331075367
 40
3.130462331075367
 10
2648.756332544784
 20
430.6733826249676
 30
0.0
 41
1.0
 10
2648.76249051184
 20
431.4992148731313
 30
0.0
 41
0.9232828773516357
 10
2648.181065021732
 20
432.0857139968448
 30
0.0
 41
1.0
 10
2647.599639531621
 20
432.6722131205578
 30
0.0
 41
0.9232828773516357
 10
2646.77378495122
 20
432.6732303201993
 30
0.0
 41
1.0
  0
SPLINE
  5
E4
330
1F
100
AcDbEntity
  8
Predefinito
100
AcDbSpline
210
0.0
220
0.0
230
1.0
 70
    12
 71
     2
 72
     8
 73
     5
 74
     0
 42
0.0000000001
 43
0.0000000001
 40
0.0
 40
0.0
 40
0.0
 40
1.565231165537517
 40
1.565231165537517
 40
3.130462331075035
 40
3.130462331075035
 40
3.130462331075035
 10
2646.77378495122
 20
382.9359702158349
 30
0.0
 41
1.0
 10
2647.599639531622
 20
382.9369874154763
 30
0.0
 41
0.9232828773516331
 10
2648.181065021731
 20
383.5234865391894
 30
0.0
 41
1.0
 10
2648.762490511841
 20
384.1099856629024
 30
0.0
 41
0.9232828773516331
 10
2648.756332544783
 20
384.9358179110665
 30
0.0
 41
1.0
  0
SPLINE
  5
E5
330
1F
100
AcDbEntity
  8
Predefinito
100
AcDbSpline
210
0.0
220
0.0
230
1.0
 70
    24
 71
     2
 72
     6
 73
     3
 74
     0
 42
0.0000000001
 43
0.0000000001
 40
0.0
 40
0.0
 40
0.0
 40
48.0
 40
48.0
 40
48.0
 10
1491.778902501137
 20
439.2726916657732
 30
0.0
 10
1515.778902501137
 20
439.2726916657732
 30
0.0
 10
1539.778902501137
 20
439.2726916657732
 30
0.0
  0
SPLINE
  5
E6
330
1F
100
AcDbEntity
  8
Predefinito
100
AcDbSpline
210
0.0
220
0.0
230
1.0
 70
    24
 71
     2
 72
     6
 73
     3
 74
     0
 42
0.0000000001
 43
0.0000000001
 40
0.0
 40
0.0
 40
0.0
 40
6.190316395200149
 40
6.190316395200149
 40
6.190316395200149
 10
1503.97232326669
 20
439.2893590510448
 30
0.0
 10
1503.999347101541
 20
436.1943188282818
 30
0.0
 10
1504.026370936392
 20
433.0992786055188
 30
0.0
  0
SPLINE
  5
E7
330
1F
100
AcDbEntity
  8
Predefinito
100
AcDbSpline
210
0.0
220
0.0
230
1.0
 70
    24
 71
     2
 72
     6
 73
     3
 74
     0
 42
0.0000000001
 43
0.0000000001
 40
0.0
 40
0.0
 40
0.0
 40
6.200378029574435
 40
6.200378029574435
 40
6.200378029574435
 10
1527.531459952207
 20
433.099079864713
 30
0.0
 10
1527.558513837253
 20
436.1991508340153
 30
0.0
 10
1527.5855677223
 20
439.2992218033177
 30
0.0
  0
SPLINE
  5
E8
330
1F
100
AcDbEntity
  8
Predefinito
100
AcDbSpline
210
0.0
220
0.0
230
1.0
 70
     8
 71
     3
 72
    11
 73
     7
 74
     0
 42
0.0000000001
 43
0.0000000001
 40
0.0
 40
0.0
 40
0.0
 40
0.0
 40
3.074179941566239
 40
6.249721565786716
 40
12.28457611887542
 40
24.19291722981897
 40
24.19291722981897
 40
24.19291722981897
 40
24.19291722981897
 10
1504.106029524473
 20
433.0683221577924
 30
0.0
 10
1505.038778676169
 20
432.6519697593726
 30
0.0
 10
1506.983917564873
 20
431.8727536568816
 30
0.0
 10
1510.90972806138
 20
430.7513554155229
 30
0.0
 10
1517.973248102122
 20
429.8443737050749
 30
0.0
 10
1523.891827088387
 20
431.485715041604
 30
0.0
 10
1527.505950062975
 20
433.0836255519226
 30
0.0
  0
SPLINE
  5
E9
330
1F
100
AcDbEntity
  8
Predefinito
100
AcDbSpline
210
0.0
220
0.0
230
1.0
 70
    12
 71
     2
 72
     6
 73
     3
 74
     0
 42
0.0000000001
 43
0.0000000001
 40
0.0
 40
0.0
 40
0.0
 40
0.0410914943897467
 40
0.0410914943897467
 40
0.0410914943897467
 10
1504.056765388785
 20
433.0899768397072
 30
0.0
 41
1.0
 10
1504.075620988505
 20
433.0818159498024
 30
0.0
 41
0.9999892741499091
 10
1504.094400184348
 20
433.0734807492506
 30
0.0
 41
1.0
  0
SPLINE
  5
EA
330
1F
100
AcDbEntity
  8
Predefinito
100
AcDbSpline
210
0.0
220
0.0
230
1.0
 70
    12
 71
     2
 72
     6
 73
     3
 74
     0
 42
0.0000000001
 43
0.0000000001
 40
0.0
 40
0.0
 40
0.0
 40
0.3082190078699679
 40
0.3082190078699679
 40
0.3082190078699679
 10
1504.058712627079
 20
433.0576914561866
 30
0.0
 41
1.0
 10
1504.077877959262
 20
432.8893848718427
 30
0.0
 41
0.8699886740313327
 10
1504.232120225203
 20
432.8193581648778
 30
0.0
 41
1.0
  0
SPLINE
  5
EB
330
1F
100
AcDbEntity
  8
Predefinito
100
AcDbSpline
210
0.0
220
0.0
230
1.0
 70
    24
 71
     2
 72
     6
 73
     3
 74
     0
 42
0.0000000001
 43
0.0000000001
 40
0.0
 40
0.0
 40
0.0
 40
0.5666666666666629
 40
0.5666666666666629
 40
0.5666666666666629
 10
1539.778902501137
 20
439.8393583324398
 30
0.0
 10
1539.778902501137
 20
439.5560249991065
 30
0.0
 10
1539.778902501137
 20
439.2726916657732
 30
0.0
  0
SPLINE
  5
EC
330
1F
100
AcDbEntity
  8
Predefinito
100
AcDbSpline
210
0.0
220
0.0
230
1.0
 70
    24
 71
     2
 72
     6
 73
     3
 74
     0
 42
0.0000000001
 43
0.0000000001
 40
0.0
 40
0.0
 40
0.0
 40
0.5666666666666629
 40
0.5666666666666629
 40
0.5666666666666629
 10
1491.778902501137
 20
439.2726916657732
 30
0.0
 10
1491.778902501137
 20
439.5560249991065
 30
0.0
 10
1491.778902501137
 20
439.8393583324398
 30
0.0
  0
SPLINE
  5
ED
330
1F
100
AcDbEntity
  8
Predefinito
100
AcDbSpline
210
0.0
220
0.0
230
1.0
 70
    24
 71
     2
 72
     6
 73
     3
 74
     0
 42
0.0000000001
 43
0.0000000001
 40
0.0
 40
0.0
 40
0.0
 40
0.5241330568042833
 40
0.5241330568042833
 40
0.5241330568042833
 10
2638.73239763205
 20
142.758236180303
 30
0.0
 10
2638.994424246451
 20
142.762809871865
 30
0.0
 10
2639.256450860851
 20
142.767383563427
 30
0.0
  0
SPLINE
  5
EE
330
1F
100
AcDbEntity
  8
Predefinito
100
AcDbSpline
210
0.0
220
0.0
230
1.0
 70
    24
 71
     2
 72
     6
 73
     3
 74
     0
 42
0.0000000001
 43
0.0000000001
 40
0.0
 40
0.0
 40
0.0
 40
0.5136753629788345
 40
0.5136753629788345
 40
0.5136753629788345
 10
2639.270791692994
 20
93.76712911284191
 30
0.0
 10
2639.013993129128
 20
93.77161154844248
 30
0.0
 10
2638.757194565261
 20
93.77609398404304
 30
0.0
  0
SPLINE
  5
EF
330
1F
100
AcDbEntity
  8
Predefinito
100
AcDbSpline
210
0.0
220
0.0
230
1.0
 70
    24
 71
     2
 72
     6
 73
     3
 74
     0
 42
0.0000000001
 43
0.0000000001
 40
0.0
 40
0.0
 40
0.0
 40
7.518597525661087
 40
7.518597525661087
 40
7.518597525661087
 10
2639.256332544784
 20
143.2673814982124
 30
0.0
 10
2643.015058748205
 20
143.2017726883594
 30
0.0
 10
2646.773784951627
 20
143.1361638785063
 30
0.0
  0
SPLINE
  5
F0
330
1F
100
AcDbEntity
  8
Predefinito
100
AcDbSpline
210
0.0
220
0.0
230
1.0
 70
    12
 71
     2
 72
     6
 73
     3
 74
     0
 42
0.0000000001
 43
0.0000000001
 40
0.0
 40
0.0
 40
0.0
 40
3.124243306327934
 40
3.124243306327934
 40
3.124243306327934
 10
2648.756332544783
 20
95.39859796874532
 30
0.0
 41
1.0
 10
2648.756574169486
 20
93.41573471496046
 30
0.0
 41
0.710099106464071
 10
2646.773784285486
 20
93.39867547994878
 30
0.0
 41
1.0
  0
SPLINE
  5
F1
330
1F
100
AcDbEntity
  8
Predefinito
100
AcDbSpline
210
0.0
220
0.0
230
1.0
 70
    24
 71
     2
 72
     6
 73
     3
 74
     0
 42
0.0000000001
 43
0.0000000001
 40
0.0
 40
0.0
 40
0.0
 40
7.518597233180347
 40
7.518597233180347
 40
7.518597233180347
 10
2646.773784951627
 20
93.39859911791861
 30
0.0
 10
2643.015058894423
 20
93.33299031061772
 30
0.0
 10
2639.25633283722
 20
93.26738150331683
 30
0.0
  0
SPLINE
  5
F2
330
1F
100
AcDbEntity
  8
Predefinito
100
AcDbSpline
210
0.0
220
0.0
230
1.0
 70
    12
 71
     2
 72
     6
 73
     3
 74
     0
 42
0.0000000001
 43
0.0000000001
 40
0.0
 40
0.0
 40
0.0
 40
3.124125821103278
 40
3.124125821103278
 40
3.124125821103278
 10
2646.773784262436
 20
143.1360862179323
 30
0.0
 41
1.0
 10
2648.756301332857
 20
143.1187578266867
 30
0.0
 41
0.7101957511135129
 10
2648.756332544783
 20
141.1361650276795
 30
0.0
 41
1.0
  0
SPLINE
  5
F3
330
1F
100
AcDbEntity
  8
Predefinito
100
AcDbSpline
210
0.0
220
0.0
230
1.0
 70
    12
 71
     2
 72
     8
 73
     5
 74
     0
 42
0.0000000001
 43
0.0000000001
 40
0.0
 40
0.0
 40
0.0
 40
185.8252054598353
 40
185.8252054598353
 40
371.6504109196705
 40
371.6504109196705
 40
371.6504109196705
 10
1574.928902501136
 20
220.7451823930012
 30
0.0
 41
1.0
 10
1472.478097233438
 20
279.8951823930004
 30
0.0
 41
0.7071067811865491
 10
1413.328097233438
 20
177.444377125302
 30
0.0
 41
1.0
 10
1354.178097233439
 20
74.99357185760364
 30
0.0
 41
0.7071067811865491
 10
1456.628902501137
 20
15.8435718576036
 30
0.0
 41
1.0
  0
SPLINE
  5
F4
330
1F
100
AcDbEntity
  8
Predefinito
100
AcDbSpline
210
0.0
220
0.0
230
1.0
 70
    12
 71
     2
 72
     8
 73
     5
 74
     0
 42
0.0000000001
 43
0.0000000001
 40
0.0
 40
0.0
 40
0.0
 40
185.82520545984
 40
185.82520545984
 40
371.6504109196799
 40
371.6504109196799
 40
371.6504109196799
 10
1456.628902501137
 20
15.84357185760325
 30
0.0
 41
1.0
 10
1559.079707768837
 20
-43.30642814240191
 30
0.0
 41
0.7071067811865362
 10
1618.229707768839
 20
59.14437712530037
 30
0.0
 41
1.0
 10
1677.37970776884
 20
161.5951823930027
 30
0.0
 41
0.7071067811865362
 10
1574.928902501136
 20
220.7451823930013
 30
0.0
 41
1.0
  0
SPLINE
  5
F5
330
1F
100
AcDbEntity
  8
Predefinito
100
AcDbSpline
210
0.0
220
0.0
230
1.0
 70
    24
 71
     2
 72
     6
 73
     3
 74
     0
 42
0.0000000001
 43
0.0000000001
 40
0.0
 40
0.0
 40
0.0
 40
417.3562314963538
 40
417.3562314963538
 40
417.3562314963538
 10
1631.400101048433
 20
93.26863152946758
 30
0.0
 10
1840.078216796609
 20
93.2686315294676
 30
0.0
 10
2048.756332544786
 20
93.2686315294676
 30
0.0
  0
SPLINE
  5
F6
330
1F
100
AcDbEntity
  8
Predefinito
100
AcDbSpline
210
0.0
220
0.0
230
1.0
 70
    24
 71
     2
 72
     6
 73
     3
 74
     0
 42
0.0000000001
 43
0.0000000001
 40
0.0
 40
0.0
 40
0.0
 40
417.3447484381168
 40
417.3447484381168
 40
417.3447484381168
 10
2048.756332544786
 20
143.2661314669645
 30
0.0
 10
1840.083958325728
 20
143.2661314669645
 30
0.0
 10
1631.41158410667
 20
143.2661314669645
 30
0.0
  0
SPLINE
  5
F7
330
1F
100
AcDbEntity
  8
Predefinito
100
AcDbSpline
210
0.0
220
0.0
230
1.0
 70
    24
 71
     2
 72
     6
 73
     3
 74
     0
 42
0.0000000001
 43
0.0000000001
 40
0.0
 40
0.0
 40
0.0
 40
415.3451749497701
 40
415.3451749497701
 40
415.3451749497701
 10
2048.756332544786
 20
130.7673814982144
 30
0.0
 10
1841.083745069901
 20
130.7673814982144
 30
0.0
 10
1633.411157595016
 20
130.7673814982144
 30
0.0
  0
SPLINE
  5
F8
330
1F
100
AcDbEntity
  8
Predefinito
100
AcDbSpline
210
0.0
220
0.0
230
1.0
 70
    24
 71
     2
 72
     6
 73
     3
 74
     0
 42
0.0000000001
 43
0.0000000001
 40
0.0
 40
0.0
 40
0.0
 40
415.3438870976256
 40
415.3438870976256
 40
415.3438870976256
 10
1633.412445447161
 20
105.7673814982162
 30
0.0
 10
1841.084388995974
 20
105.7673814982162
 30
0.0
 10
2048.756332544786
 20
105.7673814982163
 30
0.0
  0
SPLINE
  5
F9
330
1F
100
AcDbEntity
  8
Predefinito
100
AcDbSpline
210
0.0
220
0.0
230
1.0
 70
    24
 71
     2
 72
     6
 73
     3
 74
     0
 42
0.0000000001
 43
0.0000000001
 40
0.0
 40
0.0
 40
0.0
 40
589.9999999999973
 40
589.9999999999973
 40
589.9999999999973
 10
2048.756332544786
 20
143.2661314669645
 30
0.0
 10
2343.756332544785
 20
143.2661314669645
 30
0.0
 10
2638.756332544784
 20
143.2661314669645
 30
0.0
  0
SPLINE
  5
FA
330
1F
100
AcDbEntity
  8
Predefinito
100
AcDbSpline
210
0.0
220
0.0
230
1.0
 70
    24
 71
     2
 72
     6
 73
     3
 74
     0
 42
0.0000000001
 43
0.0000000001
 40
0.0
 40
0.0
 40
0.0
 40
589.9992704177421
 40
589.9992704177421
 40
589.9992704177421
 10
2048.756332544786
 20
106.0673814982162
 30
0.0
 10
2343.755967753657
 20
106.0673814982162
 30
0.0
 10
2638.755602962528
 20
106.0673814982162
 30
0.0
  0
SPLINE
  5
FB
330
1F
100
AcDbEntity
  8
Predefinito
100
AcDbSpline
210
0.0
220
0.0
230
1.0
 70
    24
 71
     2
 72
     6
 73
     3
 74
     0
 42
0.0000000001
 43
0.0000000001
 40
0.0
 40
0.0
 40
0.0
 40
589.9999999999973
 40
589.9999999999973
 40
589.9999999999973
 10
2638.756332544784
 20
93.26863152946758
 30
0.0
 10
2343.756332544785
 20
93.2686315294676
 30
0.0
 10
2048.756332544786
 20
93.2686315294676
 30
0.0
  0
SPLINE
  5
FC
330
1F
100
AcDbEntity
  8
Predefinito
100
AcDbSpline
210
0.0
220
0.0
230
1.0
 70
    24
 71
     2
 72
     6
 73
     3
 74
     0
 42
0.0000000001
 43
0.0000000001
 40
0.0
 40
0.0
 40
0.0
 40
589.9906381494475
 40
589.9906381494475
 40
589.9906381494475
 10
2048.756332544786
 20
105.7673814982163
 30
0.0
 10
2343.75165161951
 20
105.7673814982162
 30
0.0
 10
2638.746970694234
 20
105.7673814982162
 30
0.0
  0
SPLINE
  5
FD
330
1F
100
AcDbEntity
  8
Predefinito
100
AcDbSpline
210
0.0
220
0.0
230
1.0
 70
    24
 71
     2
 72
     6
 73
     3
 74
     0
 42
0.0000000001
 43
0.0000000001
 40
0.0
 40
0.0
 40
0.0
 40
589.9998324560693
 40
589.9998324560693
 40
589.9998324560693
 10
2638.756165000856
 20
130.4673814982149
 30
0.0
 10
2343.756248772821
 20
130.4673814982149
 30
0.0
 10
2048.756332544786
 20
130.4673814982149
 30
0.0
  0
SPLINE
  5
FE
330
1F
100
AcDbEntity
  8
Predefinito
100
AcDbSpline
210
0.0
220
0.0
230
1.0
 70
    24
 71
     2
 72
     6
 73
     3
 74
     0
 42
0.0000000001
 43
0.0000000001
 40
0.0
 40
0.0
 40
0.0
 40
589.9992099263027
 40
589.9992099263027
 40
589.9992099263027
 10
2048.756332544786
 20
130.7673814982144
 30
0.0
 10
2343.755937507938
 20
130.7673814982144
 30
0.0
 10
2638.755542471089
 20
130.7673814982144
 30
0.0
  0
SPLINE
  5
FF
330
1F
100
AcDbEntity
  8
Predefinito
100
AcDbSpline
210
0.0
220
0.0
230
1.0
 70
    24
 71
     2
 72
     6
 73
     3
 74
     0
 42
0.0000000001
 43
0.0000000001
 40
0.0
 40
0.0
 40
0.0
 40
0.2732072690626097
 40
0.2732072690626097
 40
0.2732072690626097
 10
2638.756332544784
 20
105.7673814982162
 30
0.0
 10
2638.756332544784
 20
105.9039851327475
 30
0.0
 10
2638.756332544784
 20
106.0405887672788
 30
0.0
  0
SPLINE
  5
100
330
1F
100
AcDbEntity
  8
Predefinito
100
AcDbSpline
210
0.0
220
0.0
230
1.0
 70
    24
 71
     2
 72
     6
 73
     3
 74
     0
 42
0.0000000001
 43
0.0000000001
 40
0.0
 40
0.0
 40
0.0
 40
12.47416303033583
 40
12.47416303033583
 40
12.47416303033583
 10
2638.756332544784
 20
93.26863152946758
 30
0.0
 10
2638.756332544784
 20
99.5057130446355
 30
0.0
 10
2638.756332544784
 20
105.7427945598034
 30
0.0
  0
SPLINE
  5
101
330
1F
100
AcDbEntity
  8
Predefinito
100
AcDbSpline
210
0.0
220
0.0
230
1.0
 70
    24
 71
     2
 72
     6
 73
     3
 74
     0
 42
0.0000000001
 43
0.0000000001
 40
0.0
 40
0.0
 40
0.0
 40
12.4987499687501
 40
12.4987499687501
 40
12.4987499687501
 10
2638.756332544785
 20
130.7673814982144
 30
0.0
 10
2638.756332544785
 20
137.0167564825895
 30
0.0
 10
2638.756332544784
 20
143.2661314669645
 30
0.0
  0
SPLINE
  5
102
330
1F
100
AcDbEntity
  8
Predefinito
100
AcDbSpline
210
0.0
220
0.0
230
1.0
 70
    24
 71
     2
 72
     6
 73
     3
 74
     0
 42
0.0000000001
 43
0.0000000001
 40
0.0
 40
0.0
 40
0.0
 40
0.2999951350752212
 40
0.2999951350752212
 40
0.2999951350752212
 10
2638.756332544786
 20
130.4673814982149
 30
0.0
 10
2638.756332544786
 20
130.6173790657525
 30
0.0
 10
2638.756332544786
 20
130.7673766332902
 30
0.0
  0
SPLINE
  5
103
330
1F
100
AcDbEntity
  8
Predefinito
100
AcDbSpline
210
0.0
220
0.0
230
1.0
 70
    12
 71
     2
 72
     8
 73
     5
 74
     0
 42
0.0000000001
 43
0.0000000001
 40
0.0
 40
0.0
 40
0.0
 40
9.389346396615439
 40
9.389346396615439
 40
18.82075542318365
 40
18.82075542318365
 40
18.82075542318365
 10
2586.759002966902
 20
118.7609004758774
 30
0.0
 41
1.0
 10
2586.25411226746
 20
124.713582190035
 30
0.0
 41
0.7076587497817324
 10
2580.300649268872
 20
124.217989077805
 30
0.0
 41
1.0
 10
2574.324153599377
 20
123.720466337724
 30
0.0
 41
0.7082515025374293
 10
2574.802307600282
 20
117.7423898815539
 30
0.0
 41
1.0
  0
SPLINE
  5
104
330
1F
100
AcDbEntity
  8
Predefinito
100
AcDbSpline
210
0.0
220
0.0
230
1.0
 70
    12
 71
     2
 72
    10
 73
     7
 74
     0
 42
0.0000000001
 43
0.0000000001
 40
0.0
 40
0.0
 40
0.0
 40
4.708813162698565
 40
4.708813162698565
 40
9.41762632539713
 40
9.41762632539713
 40
18.84902571929878
 40
18.84902571929878
 40
18.84902571929878
 10
2574.802348680771
 20
117.7418795714763
 30
0.0
 41
1.0
 10
2575.00058600038
 20
115.2658532022495
 30
0.0
 41
0.9235769058368473
 10
2576.894118594498
 20
113.6582030751994
 30
0.0
 41
1.0
 10
2578.787651188616
 20
112.0505529481493
 30
0.0
 41
0.9235769058368473
 10
2581.263038726896
 20
112.2566139860047
 30
0.0
 41
1.0
 10
2587.239528773114
 20
112.7541301405104
 30
0.0
 41
0.7082515066152578
 10
2586.76138140859
 20
118.7322009576161
 30
0.0
 41
1.0
  0
SPLINE
  5
105
330
1F
100
AcDbEntity
  8
Predefinito
100
AcDbSpline
210
0.0
220
0.0
230
1.0
 70
    12
 71
     2
 72
     8
 73
     5
 74
     0
 42
0.0000000001
 43
0.0000000001
 40
0.0
 40
0.0
 40
0.0
 40
18.4286588641145
 40
18.4286588641145
 40
36.85662861831692
 40
36.85662861831692
 40
36.85662861831692
 10
2592.488202178075
 20
119.2495479957695
 30
0.0
 41
1.0
 10
2591.492055048538
 20
130.9289797261362
 30
0.0
 41
0.707954739166785
 10
2579.810266370889
 20
129.9608640622177
 30
0.0
 41
1.0
 10
2568.129162784651
 20
128.9928051745134
 30
0.0
 41
0.7079754490436171
 10
2569.06850107026
 20
117.3093569426062
 30
0.0
 41
1.0
  0
SPLINE
  5
106
330
1F
100
AcDbEntity
  8
Predefinito
100
AcDbSpline
210
0.0
220
0.0
230
1.0
 70
    12
 71
     2
 72
     8
 73
     5
 74
     0
 42
0.0000000001
 43
0.0000000001
 40
0.0
 40
0.0
 40
0.0
 40
18.40046088838491
 40
18.40046088838491
 40
36.85626744347694
 40
36.85626744347694
 40
36.85626744347694
 10
2569.07321409763
 20
117.2524668275169
 30
0.0
 41
1.0
 10
2570.066973495851
 20
105.6010303040205
 30
0.0
 41
0.7088016778390891
 10
2581.723045498717
 20
106.5388555897821
 30
0.0
 41
1.0
 10
2593.43415046571
 20
107.4811087227066
 30
0.0
 41
0.7071383831811936
 10
2592.492944144631
 20
119.1922978670924
 30
0.0
 41
1.0
  0
SPLINE
  5
107
330
1F
100
AcDbEntity
  8
Predefinito
100
AcDbSpline
210
0.0
220
0.0
230
1.0
 70
    12
 71
     2
 72
     8
 73
     5
 74
     0
 42
0.0000000001
 43
0.0000000001
 40
0.0
 40
0.0
 40
0.0
 40
9.389346396617462
 40
9.389346396617462
 40
18.82075542318251
 40
18.82075542318251
 40
18.82075542318251
 10
2054.759002966906
 20
118.7609004758774
 30
0.0
 41
1.0
 10
2054.254112267464
 20
124.7135821900358
 30
0.0
 41
0.7076587497817929
 10
2048.300649268875
 20
124.2179890778054
 30
0.0
 41
1.0
 10
2042.324153599384
 20
123.7204663377191
 30
0.0
 41
0.7082515025379427
 10
2042.802307600287
 20
117.742389881554
 30
0.0
 41
1.0
  0
SPLINE
  5
108
330
1F
100
AcDbEntity
  8
Predefinito
100
AcDbSpline
210
0.0
220
0.0
230
1.0
 70
    12
 71
     2
 72
    10
 73
     7
 74
     0
 42
0.0000000001
 43
0.0000000001
 40
0.0
 40
0.0
 40
0.0
 40
4.708813162699332
 40
4.708813162699332
 40
9.417626325398665
 40
9.417626325398665
 40
18.84902571929841
 40
18.84902571929841
 40
18.84902571929841
 10
2042.802348680774
 20
117.7418795714764
 30
0.0
 41
1.0
 10
2043.000586000387
 20
115.2658532022498
 30
0.0
 41
0.9235769058370153
 10
2044.894118594506
 20
113.6582030752002
 30
0.0
 41
1.0
 10
2046.787651188625
 20
112.0505529481506
 30
0.0
 41
0.9235769058370153
 10
2049.263038726905
 20
112.2566139860046
 30
0.0
 41
1.0
 10
2055.23952877312
 20
112.7541301405125
 30
0.0
 41
0.7082515066154028
 10
2054.761381408596
 20
118.7322009576161
 30
0.0
 41
1.0
  0
SPLINE
  5
109
330
1F
100
AcDbEntity
  8
Predefinito
100
AcDbSpline
210
0.0
220
0.0
230
1.0
 70
    12
 71
     2
 72
     8
 73
     5
 74
     0
 42
0.0000000001
 43
0.0000000001
 40
0.0
 40
0.0
 40
0.0
 40
18.42865886410911
 40
18.42865886410911
 40
36.85662861831312
 40
36.85662861831312
 40
36.85662861831312
 10
2060.488202178077
 20
119.2495479957695
 30
0.0
 41
1.0
 10
2059.492055048541
 20
130.9289797261314
 30
0.0
 41
0.7079547391669018
 10
2047.810266370896
 20
129.9608640622178
 30
0.0
 41
1.0
 10
2036.129162784659
 20
128.9928051745137
 30
0.0
 41
0.7079754490436946
 10
2037.068501070265
 20
117.3093569426062
 30
0.0
 41
1.0
  0
SPLINE
  5
10A
330
1F
100
AcDbEntity
  8
Predefinito
100
AcDbSpline
210
0.0
220
0.0
230
1.0
 70
    12
 71
     2
 72
     8
 73
     5
 74
     0
 42
0.0000000001
 43
0.0000000001
 40
0.0
 40
0.0
 40
0.0
 40
18.40046088837915
 40
18.40046088837915
 40
36.85626744347299
 40
36.85626744347299
 40
36.85626744347299
 10
2037.073214097637
 20
117.2524668275169
 30
0.0
 41
1.0
 10
2038.066973495854
 20
105.6010303040238
 30
0.0
 41
0.7088016778390774
 10
2049.723045498717
 20
106.5388555897822
 30
0.0
 41
1.0
 10
2061.434150465709
 20
107.4811087227059
 30
0.0
 41
0.707138383181286
 10
2060.492944144634
 20
119.1922978670921
 30
0.0
 41
1.0
  0
SPLINE
  5
10B
330
1F
100
AcDbEntity
  8
Predefinito
100
AcDbSpline
210
0.0
220
0.0
230
1.0
 70
    24
 71
     2
 72
     6
 73
     3
 74
     0
 42
0.0000000001
 43
0.0000000001
 40
0.0
 40
0.0
 40
0.0
 40
15.97525498619907
 40
15.97525498619907
 40
15.97525498619907
 10
2638.756331955179
 20
130.0173814981528
 30
0.0
 10
2630.768704507991
 20
130.0165250869005
 30
0.0
 10
2622.781077060802
 20
130.0156686756482
 30
0.0
  0
SPLINE
  5
10C
330
1F
100
AcDbEntity
  8
Predefinito
100
AcDbSpline
210
0.0
220
0.0
230
1.0
 70
    24
 71
     2
 72
     6
 73
     3
 74
     0
 42
0.0000000001
 43
0.0000000001
 40
0.0
 40
0.0
 40
0.0
 40
40.73239014486853
 40
40.73239014486853
 40
40.73239014486853
 10
2582.023942399915
 20
130.0173814982161
 30
0.0
 10
2602.390137472349
 20
130.0173814982161
 30
0.0
 10
2622.756332544784
 20
130.0173814982161
 30
0.0
  0
SPLINE
  5
10D
330
1F
100
AcDbEntity
  8
Predefinito
100
AcDbSpline
210
0.0
220
0.0
230
1.0
 70
    24
 71
     2
 72
     6
 73
     3
 74
     0
 42
0.0000000001
 43
0.0000000001
 40
0.0
 40
0.0
 40
0.0
 40
15.88851243553537
 40
15.88851243553537
 40
15.88851243553537
 10
2622.830314594003
 20
106.5190890416722
 30
0.0
 10
2630.774570766109
 20
106.5182372805676
 30
0.0
 10
2638.718826938215
 20
106.5173855194631
 30
0.0
  0
SPLINE
  5
10E
330
1F
100
AcDbEntity
  8
Predefinito
100
AcDbSpline
210
0.0
220
0.0
230
1.0
 70
    24
 71
     2
 72
     6
 73
     3
 74
     0
 42
0.0000000001
 43
0.0000000001
 40
0.0
 40
0.0
 40
0.0
 40
0.0777840642972478
 40
0.0777840642972478
 40
0.0777840642972478
 10
2622.756332544784
 20
129.9109300043337
 30
0.0
 10
2622.756332544784
 20
129.9498220364823
 30
0.0
 10
2622.756332544784
 20
129.9887140686309
 30
0.0
  0
SPLINE
  5
10F
330
1F
100
AcDbEntity
  8
Predefinito
100
AcDbSpline
210
0.0
220
0.0
230
1.0
 70
    24
 71
     2
 72
     6
 73
     3
 74
     0
 42
0.0000000001
 43
0.0000000001
 40
0.0
 40
0.0
 40
0.0
 40
23.2870970127511
 40
23.2870970127511
 40
23.2870970127511
 10
2622.756332544784
 20
106.6238329915826
 30
0.0
 10
2622.756332544784
 20
118.2673814979581
 30
0.0
 10
2622.756332544784
 20
129.9109300043337
 30
0.0
  0
SPLINE
  5
110
330
1F
100
AcDbEntity
  8
Predefinito
100
AcDbSpline
210
0.0
220
0.0
230
1.0
 70
    24
 71
     2
 72
     6
 73
     3
 74
     0
 42
0.0000000001
 43
0.0000000001
 40
0.0
 40
0.0
 40
0.0
 40
0.1064514933669329
 40
0.1064514933669329
 40
0.1064514933669329
 10
2622.756332544784
 20
106.5173814982157
 30
0.0
 10
2622.756332544784
 20
106.5706072448991
 30
0.0
 10
2622.756332544784
 20
106.6238329915826
 30
0.0
  0
SPLINE
  5
111
330
1F
100
AcDbEntity
  8
Predefinito
100
AcDbSpline
210
0.0
220
0.0
230
1.0
 70
    24
 71
     2
 72
     6
 73
     3
 74
     0
 42
0.0000000001
 43
0.0000000001
 40
0.0
 40
0.0
 40
0.0
 40
0.5031839474703759
 40
0.5031839474703759
 40
0.5031839474703759
 10
2638.718832544783
 20
106.0405888413825
 30
0.0
 10
2638.718832544783
 20
106.2921808151177
 30
0.0
 10
2638.718832544784
 20
106.5437727888529
 30
0.0
  0
SPLINE
  5
112
330
1F
100
AcDbEntity
  8
Predefinito
100
AcDbSpline
210
0.0
220
0.0
230
1.0
 70
    24
 71
     2
 72
     6
 73
     3
 74
     0
 42
0.0000000001
 43
0.0000000001
 40
0.0
 40
0.0
 40
0.0
 40
0.4984320118696246
 40
0.4984320118696246
 40
0.4984320118696246
 10
2638.718832544783
 20
129.9689493630914
 30
0.0
 10
2638.718832544783
 20
130.2181653690262
 30
0.0
 10
2638.718832544783
 20
130.467381374961
 30
0.0
  0
SPLINE
  5
113
330
1F
100
AcDbEntity
  8
Predefinito
100
AcDbSpline
210
0.0
220
0.0
230
1.0
 70
    24
 71
     2
 72
     6
 73
     3
 74
     0
 42
0.0000000001
 43
0.0000000001
 40
0.0
 40
0.0
 40
0.0
 40
1.945077276886423
 40
1.945077276886423
 40
1.945077276886423
 10
2622.830314954068
 20
106.5224473154682
 30
0.0
 10
2622.842111540859
 20
107.4949144068421
 30
0.0
 10
2622.853908127651
 20
108.4673814982159
 30
0.0
  0
SPLINE
  5
114
330
1F
100
AcDbEntity
  8
Predefinito
100
AcDbSpline
210
0.0
220
0.0
230
1.0
 70
    12
 71
     2
 72
     6
 73
     3
 74
     0
 42
0.0000000001
 43
0.0000000001
 40
0.0
 40
0.0
 40
0.0
 40
0.1076037721552809
 40
0.1076037721552809
 40
0.1076037721552809
 10
2623.003456457009
 20
106.6787929620067
 30
0.0
 41
1.0
 10
2623.005685567685
 20
106.6248648849978
 30
0.0
 41
0.9952200932392222
 10
2622.997389556374
 20
106.571532131266
 30
0.0
 41
1.0
  0
SPLINE
  5
115
330
1F
100
AcDbEntity
  8
Predefinito
100
AcDbSpline
210
0.0
220
0.0
230
1.0
 70
    24
 71
     2
 72
     6
 73
     3
 74
     0
 42
0.0000000001
 43
0.0000000001
 40
0.0
 40
0.0
 40
0.0
 40
0.174135699607076
 40
0.174135699607076
 40
0.174135699607076
 10
2622.830314954068
 20
130.0123156809639
 30
0.0
 10
2622.913852255221
 20
129.9877732730656
 30
0.0
 10
2622.997389556374
 20
129.9632308651673
 30
0.0
  0
SPLINE
  5
116
330
1F
100
AcDbEntity
  8
Predefinito
100
AcDbSpline
210
0.0
220
0.0
230
1.0
 70
    24
 71
     2
 72
     6
 73
     3
 74
     0
 42
0.0000000001
 43
0.0000000001
 40
0.0
 40
0.0
 40
0.0
 40
1.945077276886423
 40
1.945077276886423
 40
1.945077276886423
 10
2622.853908127651
 20
128.0673814982162
 30
0.0
 10
2622.842111540859
 20
129.0398485895901
 30
0.0
 10
2622.830314954068
 20
130.0123156809639
 30
0.0
  0
SPLINE
  5
117
330
1F
100
AcDbEntity
  8
Predefinito
100
AcDbSpline
210
0.0
220
0.0
230
1.0
 70
    24
 71
     2
 72
     6
 73
     3
 74
     0
 42
0.0000000001
 43
0.0000000001
 40
0.0
 40
0.0
 40
0.0
 40
16.25590953809206
 40
16.25590953809206
 40
16.25590953809206
 10
2623.000423006692
 20
129.9632308651673
 30
0.0
 10
2631.128377775738
 20
129.9632308651673
 30
0.0
 10
2639.256332544784
 20
129.9632308651673
 30
0.0
  0
SPLINE
  5
118
330
1F
100
AcDbEntity
  8
Predefinito
100
AcDbSpline
210
0.0
220
0.0
230
1.0
 70
    12
 71
     2
 72
     6
 73
     3
 74
     0
 42
0.0000000001
 43
0.0000000001
 40
0.0
 40
0.0
 40
0.0
 40
0.0775296885768764
 40
0.0775296885768764
 40
0.0775296885768764
 10
2623.003456457009
 20
129.8559700344253
 30
0.0
 41
1.0
 10
2623.002437248654
 20
129.8947236102827
 30
0.0
 41
0.9999175207001371
 10
2623.000423006692
 20
129.9334382232436
 30
0.0
 41
1.0
  0
SPLINE
  5
119
330
1F
100
AcDbEntity
  8
Predefinito
100
AcDbSpline
210
0.0
220
0.0
230
1.0
 70
    24
 71
     2
 72
     6
 73
     3
 74
     0
 42
0.0000000001
 43
0.0000000001
 40
0.0
 40
0.0
 40
0.0
 40
0.1741356996074125
 40
0.1741356996074125
 40
0.1741356996074125
 10
2622.830314954068
 20
106.5224473154682
 30
0.0
 10
2622.913852255221
 20
106.5469897233671
 30
0.0
 10
2622.997389556374
 20
106.571532131266
 30
0.0
  0
SPLINE
  5
11A
330
1F
100
AcDbEntity
  8
Predefinito
100
AcDbSpline
210
0.0
220
0.0
230
1.0
 70
    24
 71
     2
 72
     6
 73
     3
 74
     0
 42
0.0000000001
 43
0.0000000001
 40
0.0
 40
0.0
 40
0.0
 40
16.25894298840922
 40
16.25894298840922
 40
16.25894298840922
 10
2622.997389556374
 20
106.571532131266
 30
0.0
 10
2631.126861050579
 20
106.571532131266
 30
0.0
 10
2639.256332544784
 20
106.571532131266
 30
0.0
  0
SPLINE
  5
11B
330
1F
100
AcDbEntity
  8
Predefinito
100
AcDbSpline
210
0.0
220
0.0
230
1.0
 70
    24
 71
     2
 72
     6
 73
     3
 74
     0
 42
0.0000000001
 43
0.0000000001
 40
0.0
 40
0.0
 40
0.0
 40
13.411411463787
 40
13.411411463787
 40
13.411411463787
 10
2639.256332544784
 20
143.2673814982123
 30
0.0
 10
2639.256332544784
 20
136.5616757663188
 30
0.0
 10
2639.256332544784
 20
129.8559700344253
 30
0.0
  0
SPLINE
  5
11C
330
1F
100
AcDbEntity
  8
Predefinito
100
AcDbSpline
210
0.0
220
0.0
230
1.0
 70
    24
 71
     2
 72
     6
 73
     3
 74
     0
 42
0.0000000001
 43
0.0000000001
 40
0.0
 40
0.0
 40
0.0
 40
13.41139470504093
 40
13.41139470504093
 40
13.41139470504093
 10
2639.256332544784
 20
106.6787929620068
 30
0.0
 10
2639.256332544784
 20
99.97309560948628
 30
0.0
 10
2639.256332544784
 20
93.26739825696582
 30
0.0
  0
SPLINE
  5
11D
330
1F
100
AcDbEntity
  8
Predefinito
100
AcDbSpline
210
0.0
220
0.0
230
1.0
 70
    24
 71
     2
 72
     6
 73
     3
 74
     0
 42
0.0000000001
 43
0.0000000001
 40
0.0
 40
0.0
 40
0.0
 40
22.86878235695056
 40
22.86878235695056
 40
22.86878235695056
 10
2648.756332544784
 20
118.2673814982124
 30
0.0
 10
2648.756332544784
 20
106.8329903197371
 30
0.0
 10
2648.756332544784
 20
95.39859914126185
 30
0.0
  0
SPLINE
  5
11E
330
1F
100
AcDbEntity
  8
Predefinito
100
AcDbSpline
210
0.0
220
0.0
230
1.0
 70
    24
 71
     2
 72
     6
 73
     3
 74
     0
 42
0.0000000001
 43
0.0000000001
 40
0.0
 40
0.0
 40
0.0
 40
24.86878235695056
 40
24.86878235695056
 40
24.86878235695056
 10
2646.77378495122
 20
93.39859914126185
 30
0.0
 10
2646.77378495122
 20
105.8329903197371
 30
0.0
 10
2646.77378495122
 20
118.2673814982124
 30
0.0
  0
SPLINE
  5
11F
330
1F
100
AcDbEntity
  8
Predefinito
100
AcDbSpline
210
0.0
220
0.0
230
1.0
 70
    12
 71
     2
 72
     6
 73
     3
 74
     0
 42
0.0000000001
 43
0.0000000001
 40
0.0
 40
0.0
 40
0.0
 40
0.1114139700903909
 40
0.1114139700903909
 40
0.1114139700903909
 10
2623.003456457009
 20
106.6787929620066
 30
0.0
 41
1.0
 10
2623.004977241427
 20
106.7344791847211
 30
0.0
 41
0.9999999993671599
 10
2623.00649406361
 20
106.7901655155026
 30
0.0
 41
1.0
  0
SPLINE
  5
120
330
1F
100
AcDbEntity
  8
Predefinito
100
AcDbSpline
210
0.0
220
0.0
230
1.0
 70
    24
 71
     2
 72
     6
 73
     3
 74
     0
 42
0.0000000001
 43
0.0000000001
 40
0.0
 40
0.0
 40
0.0
 40
16.25287608777489
 40
16.25287608777489
 40
16.25287608777489
 10
2639.256332544784
 20
106.6787929620068
 30
0.0
 10
2631.129894500896
 20
106.6787929620067
 30
0.0
 10
2623.003456457009
 20
106.6787929620067
 30
0.0
  0
SPLINE
  5
121
330
1F
100
AcDbEntity
  8
Predefinito
100
AcDbSpline
210
0.0
220
0.0
230
1.0
 70
    24
 71
     2
 72
     6
 73
     3
 74
     0
 42
0.0000000001
 43
0.0000000001
 40
0.0
 40
0.0
 40
0.0
 40
11.58858853620566
 40
11.58858853620566
 40
11.58858853620566
 10
2639.256332544784
 20
118.2673814982124
 30
0.0
 10
2639.256332544784
 20
112.4730872301096
 30
0.0
 10
2639.256332544784
 20
106.6787929620068
 30
0.0
  0
SPLINE
  5
122
330
1F
100
AcDbEntity
  8
Predefinito
100
AcDbSpline
210
0.0
220
0.0
230
1.0
 70
    24
 71
     2
 72
     6
 73
     3
 74
     0
 42
0.0000000001
 43
0.0000000001
 40
0.0
 40
0.0
 40
0.0
 40
11.58858853621291
 40
11.58858853621291
 40
11.58858853621291
 10
2639.256332544784
 20
129.8559700344253
 30
0.0
 10
2639.256332544784
 20
124.0616757663189
 30
0.0
 10
2639.256332544784
 20
118.2673814982124
 30
0.0
  0
SPLINE
  5
123
330
1F
100
AcDbEntity
  8
Predefinito
100
AcDbSpline
210
0.0
220
0.0
230
1.0
 70
    24
 71
     2
 72
     6
 73
     3
 74
     0
 42
0.0000000001
 43
0.0000000001
 40
0.0
 40
0.0
 40
0.0
 40
16.25287608777489
 40
16.25287608777489
 40
16.25287608777489
 10
2623.003456457009
 20
129.8559700344253
 30
0.0
 10
2631.129894500896
 20
129.8559700344253
 30
0.0
 10
2639.256332544784
 20
129.8559700344253
 30
0.0
  0
SPLINE
  5
124
330
1F
100
AcDbEntity
  8
Predefinito
100
AcDbSpline
210
0.0
220
0.0
230
1.0
 70
    12
 71
     2
 72
     6
 73
     3
 74
     0
 42
0.0000000001
 43
0.0000000001
 40
0.0
 40
0.0
 40
0.0
 40
0.1114139699557095
 40
0.1114139699557095
 40
0.1114139699557095
 10
2623.00649406361
 20
129.7445974810641
 30
0.0
 41
1.0
 10
2623.004977241427
 20
129.8002838117783
 30
0.0
 41
0.9999999993671599
 10
2623.003456457009
 20
129.8559700344253
 30
0.0
 41
1.0
  0
SPLINE
  5
125
330
1F
100
AcDbEntity
  8
Predefinito
100
AcDbSpline
210
0.0
220
0.0
230
1.0
 70
    12
 71
     2
 72
     6
 73
     3
 74
     0
 42
0.0000000001
 43
0.0000000001
 40
0.0
 40
0.0
 40
0.0
 40
22.95702795886481
 40
22.95702795886481
 40
22.95702795886481
 10
2623.00649406361
 20
106.7901655155026
 30
0.0
 41
1.0
 10
2623.305521982378
 20
118.2673814982833
 30
0.0
 41
0.9996607660284432
 10
2623.00649406361
 20
129.7445974810641
 30
0.0
 41
1.0
  0
SPLINE
  5
126
330
1F
100
AcDbEntity
  8
Predefinito
100
AcDbSpline
210
0.0
220
0.0
230
1.0
 70
    24
 71
     2
 72
     6
 73
     3
 74
     0
 42
0.0000000001
 43
0.0000000001
 40
0.0
 40
0.0
 40
0.0
 40
22.86878235695053
 40
22.86878235695053
 40
22.86878235695053
 10
2648.756332544784
 20
141.1361638551629
 30
0.0
 10
2648.756332544784
 20
129.7017726766877
 30
0.0
 10
2648.756332544784
 20
118.2673814982124
 30
0.0
  0
SPLINE
  5
127
330
1F
100
AcDbEntity
  8
Predefinito
100
AcDbSpline
210
0.0
220
0.0
230
1.0
 70
    24
 71
     2
 72
     6
 73
     3
 74
     0
 42
0.0000000001
 43
0.0000000001
 40
0.0
 40
0.0
 40
0.0
 40
24.86878235695053
 40
24.86878235695053
 40
24.86878235695053
 10
2646.77378495122
 20
118.2673814982124
 30
0.0
 10
2646.77378495122
 20
130.7017726766877
 30
0.0
 10
2646.77378495122
 20
143.1361638551629
 30
0.0
  0
SPLINE
  5
128
330
1F
100
AcDbEntity
  8
Predefinito
100
AcDbSpline
210
0.0
220
0.0
230
1.0
 70
    24
 71
     2
 72
     6
 73
     3
 74
     0
 42
0.0000000001
 43
0.0000000001
 40
0.0
 40
0.0
 40
0.0
 40
415.3138577581788
 40
415.3138577581788
 40
415.3138577581788
 10
2048.756332544786
 20
130.4673814982149
 30
0.0
 10
1841.099403665697
 20
130.4673814982149
 30
0.0
 10
1633.442474786608
 20
130.4673814982149
 30
0.0
  0
SPLINE
  5
129
330
1F
100
AcDbEntity
  8
Predefinito
100
AcDbSpline
210
0.0
220
0.0
230
1.0
 70
    24
 71
     2
 72
     6
 73
     3
 74
     0
 42
0.0000000001
 43
0.0000000001
 40
0.0
 40
0.0
 40
0.0
 40
415.3124765997898
 40
415.3124765997898
 40
415.3124765997898
 10
1633.443855944997
 20
106.0673814982162
 30
0.0
 10
1841.100094244891
 20
106.0673814982162
 30
0.0
 10
2048.756332544786
 20
106.0673814982162
 30
0.0
  0
VIEWPORT
  5
133
330
12F
100
AcDbEntity
 67
     1
  8
0
100
AcDbViewport
 10
6.0
 20
4.5
 30
0.0
 40
12.696
 41
9.522
 68
     1
 69
     1
 12
6.0
 22
4.5
 13
0.0
 23
0.0
 14
0.5
 24
0.5
 15
0.5
 25
0.5
 16
0.0
 26
0.0
 36
1.0
 17
0.0
 27
0.0
 37
0.0
 42
50.0
 43
0.0
 44
0.0
 45
9.522
 50
0.0
 51
0.0
 72
   100
 90
   557152
  1

281
     0
 71
     1
 74
     0
110
0.0
120
0.0
130
0.0
111
1.0
121
0.0
131
0.0
112
0.0
122
1.0
132
0.0
 79
     0
146
0.0
170
     0
  0
ENDSEC
  0
SECTION
  2
OBJECTS
  0
DICTIONARY
  5
C
330
0
100
AcDbDictionary
281
     1
  3
ACAD_GROUP
350
D
  3
ACAD_LAYOUT
350
1A
  3
ACAD_MLEADERSTYLE
350
159
  3
ACAD_MLINESTYLE
350
17
  3
ACAD_PLOTSETTINGS
350
19
  3
ACAD_PLOTSTYLENAME
350
E
  3
ACAD_SCALELIST
350
134
  3
ACAD_TABLESTYLE
350
158
  3
ACAD_VISUALSTYLE
350
2A
  3
AcDbVariableDictionary
350
156
  0
DICTIONARY
  5
D
102
{ACAD_REACTORS
330
C
102
}
330
C
100
AcDbDictionary
281
     1
  0
DICTIONARY
  5
1A
102
{ACAD_REACTORS
330
C
102
}
330
C
100
AcDbDictionary
281
     1
  3
Layout1
350
12B
  3
Layout2
350
130
  3
Model
350
22
  0
DICTIONARY
  5
159
102
{ACAD_REACTORS
330
C
102
}
330
C
100
AcDbDictionary
281
     1
  0
DICTIONARY
  5
17
102
{ACAD_REACTORS
330
C
102
}
330
C
100
AcDbDictionary
281
     1
  3
Standard
350
18
  0
DICTIONARY
  5
19
102
{ACAD_REACTORS
330
C
102
}
330
C
100
AcDbDictionary
281
     1
  0
ACDBDICTIONARYWDFLT
  5
E
102
{ACAD_REACTORS
330
C
102
}
330
C
100
AcDbDictionary
281
     1
  3
Normal
350
F
100
AcDbDictionaryWithDefault
340
F
  0
DICTIONARY
  5
134
102
{ACAD_REACTORS
330
C
102
}
330
C
100
AcDbDictionary
281
     1
  3
A0
350
135
  3
A1
350
136
  3
A2
350
137
  3
A3
350
138
  3
A4
350
139
  3
A5
350
13A
  3
A6
350
13B
  3
A7
350
13C
  3
A8
350
13D
  3
A9
350
13E
  3
B0
350
13F
  3
B1
350
140
  3
B2
350
141
  3
B3
350
142
  3
B4
350
143
  3
B5
350
144
  3
B6
350
145
  3
B7
350
146
  3
B8
350
147
  3
B9
350
148
  3
C0
350
149
  3
C1
350
14A
  3
C2
350
14B
  3
C3
350
14C
  3
C4
350
14D
  3
C5
350
14E
  3
C6
350
14F
  3
C7
350
150
  3
C8
350
151
  3
C9
350
152
  3
D0
350
153
  3
D1
350
154
  3
D2
350
155
  0
DICTIONARY
  5
158
102
{ACAD_REACTORS
330
C
102
}
330
C
100
AcDbDictionary
281
     1
  0
DICTIONARY
  5
2A
102
{ACAD_REACTORS
330
C
102
}
330
C
100
AcDbDictionary
281
     1
  3
2dWireframe
350
2F
  3
3D Hidden
350
31
  3
3dWireframe
350
30
  3
Basic
350
32
  3
Brighten
350
36
  3
ColorChange
350
3A
  3
Conceptual
350
34
  3
Dim
350
35
  3
Facepattern
350
39
  3
Flat
350
2B
  3
FlatWithEdges
350
2C
  3
Gouraud
350
2D
  3
GouraudWithEdges
350
2E
  3
Linepattern
350
38
  3
Realistic
350
33
  3
Thicken
350
37
  0
DICTIONARY
  5
156
102
{ACAD_REACTORS
330
C
102
}
330
C
100
AcDbDictionary
281
     1
  3
CANNOSCALE
350
157
  0
LAYOUT
  5
12B
102
{ACAD_REACTORS
330
1A
102
}
330
1A
100
AcDbPlotSettings
  1

  2
none_device
  4
Letter_(8.50_x_11.00_Inches)
  6

 40
6.35
 41
6.35
 42
6.35000508
 43
6.35000508
 44
215.9
 45
279.4
 46
0.0
 47
0.0
 48
0.0
 49
0.0
140
0.0
141
0.0
142
1.0
143
1.0
 70
   688
 72
     0
 73
     1
 74
     5
  7

 75
    16
 76
     0
 77
     2
 78
   300
147
1.0
148
0.0
149
0.0
100
AcDbLayout
  1
Layout1
 70
     1
 71
     1
 10
0.0
 20
0.0
 11
0.0
 21
0.0
 12
0.0
 22
0.0
 32
0.0
 14
0.0
 24
0.0
 34
0.0
 15
0.0
 25
0.0
 35
0.0
146
0.0
 13
0.0
 23
0.0
 33
0.0
 16
1.0
 26
0.0
 36
0.0
 17
0.0
 27
1.0
 37
0.0
 76
     0
330
12A
331
12E
  0
LAYOUT
  5
130
102
{ACAD_REACTORS
330
1A
102
}
330
1A
100
AcDbPlotSettings
  1

  2
none_device
  4
Letter_(8.50_x_11.00_Inches)
  6

 40
6.35
 41
6.35
 42
6.35000508
 43
6.35000508
 44
215.9
 45
279.4
 46
0.0
 47
0.0
 48
0.0
 49
0.0
140
0.0
141
0.0
142
1.0
143
1.0
 70
   688
 72
     0
 73
     1
 74
     5
  7

 75
    16
 76
     0
 77
     2
 78
   300
147
1.0
148
0.0
149
0.0
100
AcDbLayout
  1
Layout2
 70
     1
 71
     2
 10
0.0
 20
0.0
 11
0.0
 21
0.0
 12
0.0
 22
0.0
 32
0.0
 14
0.0
 24
0.0
 34
0.0
 15
0.0
 25
0.0
 35
0.0
146
0.0
 13
0.0
 23
0.0
 33
0.0
 16
1.0
 26
0.0
 36
0.0
 17
0.0
 27
1.0
 37
0.0
 76
     0
330
12F
331
133
  0
LAYOUT
  5
22
102
{ACAD_REACTORS
330
1A
102
}
330
1A
100
AcDbPlotSettings
  1

  2
none_device
  4

  6

 40
0.0
 41
0.0
 42
0.0
 43
0.0
 44
0.0
 45
0.0
 46
0.0
 47
0.0
 48
0.0
 49
0.0
140
0.0
141
0.0
142
1.0
143
1.0
 70
  1712
 72
     0
 73
     0
 74
     0
  7

 75
     0
 76
     0
 77
     2
 78
   300
147
1.0
148
0.0
149
0.0
100
AcDbLayout
  1
Model
 70
     1
 71
     0
 10
0.0
 20
0.0
 11
12.0
 21
9.0
 12
0.0
 22
0.0
 32
0.0
 14
0.0000015325927601
 24
0.121690139911482
 34
0.0
 15
2648.756332544784
 25
482.8060249991065
 35
0.0
146
0.0
 13
0.0
 23
0.0
 33
0.0
 16
1.0
 26
0.0
 36
0.0
 17
0.0
 27
1.0
 37
0.0
 76
     0
330
1F
331
29
  0
MLINESTYLE
  5
18
102
{ACAD_REACTORS
330
17
102
}
330
17
100
AcDbMlineStyle
  2
Standard
 70
     0
  3

 62
   256
 51
90.0
 52
90.0
 71
     2
 49
0.5
 62
   256
  6
BYLAYER
 49
-0.5
 62
   256
  6
BYLAYER
  0
ACDBPLACEHOLDER
  5
F
102
{ACAD_REACTORS
330
E
102
}
330
E
  0
SCALE
  5
135
102
{ACAD_REACTORS
330
134
102
}
330
134
100
AcDbScale
 70
     0
300
1:1
140
1.0
141
1.0
290
     1
  0
SCALE
  5
136
102
{ACAD_REACTORS
330
134
102
}
330
134
100
AcDbScale
 70
     0
300
1:2
140
1.0
141
2.0
290
     0
  0
SCALE
  5
137
102
{ACAD_REACTORS
330
134
102
}
330
134
100
AcDbScale
 70
     0
300
1:4
140
1.0
141
4.0
290
     0
  0
SCALE
  5
138
102
{ACAD_REACTORS
330
134
102
}
330
134
100
AcDbScale
 70
     0
300
1:5
140
1.0
141
5.0
290
     0
  0
SCALE
  5
139
102
{ACAD_REACTORS
330
134
102
}
330
134
100
AcDbScale
 70
     0
300
1:8
140
1.0
141
8.0
290
     0
  0
SCALE
  5
13A
102
{ACAD_REACTORS
330
134
102
}
330
134
100
AcDbScale
 70
     0
300
1:10
140
1.0
141
10.0
290
     0
  0
SCALE
  5
13B
102
{ACAD_REACTORS
330
134
102
}
330
134
100
AcDbScale
 70
     0
300
1:16
140
1.0
141
16.0
290
     0
  0
SCALE
  5
13C
102
{ACAD_REACTORS
330
134
102
}
330
134
100
AcDbScale
 70
     0
300
1:20
140
1.0
141
20.0
290
     0
  0
SCALE
  5
13D
102
{ACAD_REACTORS
330
134
102
}
330
134
100
AcDbScale
 70
     0
300
1:30
140
1.0
141
30.0
290
     0
  0
SCALE
  5
13E
102
{ACAD_REACTORS
330
134
102
}
330
134
100
AcDbScale
 70
     0
300
1:40
140
1.0
141
40.0
290
     0
  0
SCALE
  5
13F
102
{ACAD_REACTORS
330
134
102
}
330
134
100
AcDbScale
 70
     0
300
1:50
140
1.0
141
50.0
290
     0
  0
SCALE
  5
140
102
{ACAD_REACTORS
330
134
102
}
330
134
100
AcDbScale
 70
     0
300
1:100
140
1.0
141
100.0
290
     0
  0
SCALE
  5
141
102
{ACAD_REACTORS
330
134
102
}
330
134
100
AcDbScale
 70
     0
300
2:1
140
2.0
141
1.0
290
     0
  0
SCALE
  5
142
102
{ACAD_REACTORS
330
134
102
}
330
134
100
AcDbScale
 70
     0
300
4:1
140
4.0
141
1.0
290
     0
  0
SCALE
  5
143
102
{ACAD_REACTORS
330
134
102
}
330
134
100
AcDbScale
 70
     0
300
8:1
140
8.0
141
1.0
290
     0
  0
SCALE
  5
144
102
{ACAD_REACTORS
330
134
102
}
330
134
100
AcDbScale
 70
     0
300
10:1
140
10.0
141
1.0
290
     0
  0
SCALE
  5
145
102
{ACAD_REACTORS
330
134
102
}
330
134
100
AcDbScale
 70
     0
300
100:1
140
100.0
141
1.0
290
     0
  0
SCALE
  5
146
102
{ACAD_REACTORS
330
134
102
}
330
134
100
AcDbScale
 70
     0
300
1/128" = 1'-0"
140
0.0078125
141
12.0
290
     0
  0
SCALE
  5
147
102
{ACAD_REACTORS
330
134
102
}
330
134
100
AcDbScale
 70
     0
300
1/64" = 1'-0"
140
0.015625
141
12.0
290
     0
  0
SCALE
  5
148
102
{ACAD_REACTORS
330
134
102
}
330
134
100
AcDbScale
 70
     0
300
1/32" = 1'-0"
140
0.03125
141
12.0
290
     0
  0
SCALE
  5
149
102
{ACAD_REACTORS
330
134
102
}
330
134
100
AcDbScale
 70
     0
300
1/16" = 1'-0"
140
0.0625
141
12.0
290
     0
  0
SCALE
  5
14A
102
{ACAD_REACTORS
330
134
102
}
330
134
100
AcDbScale
 70
     0
300
3/32" = 1'-0"
140
0.09375
141
12.0
290
     0
  0
SCALE
  5
14B
102
{ACAD_REACTORS
330
134
102
}
330
134
100
AcDbScale
 70
     0
300
1/8" = 1'-0"
140
0.125
141
12.0
290
     0
  0
SCALE
  5
14C
102
{ACAD_REACTORS
330
134
102
}
330
134
100
AcDbScale
 70
     0
300
3/16" = 1'-0"
140
0.1875
141
12.0
290
     0
  0
SCALE
  5
14D
102
{ACAD_REACTORS
330
134
102
}
330
134
100
AcDbScale
 70
     0
300
1/4" = 1'-0"
140
0.25
141
12.0
290
     0
  0
SCALE
  5
14E
102
{ACAD_REACTORS
330
134
102
}
330
134
100
AcDbScale
 70
     0
300
3/8" = 1'-0"
140
0.375
141
12.0
290
     0
  0
SCALE
  5
14F
102
{ACAD_REACTORS
330
134
102
}
330
134
100
AcDbScale
 70
     0
300
1/2" = 1'-0"
140
0.5
141
12.0
290
     0
  0
SCALE
  5
150
102
{ACAD_REACTORS
330
134
102
}
330
134
100
AcDbScale
 70
     0
300
3/4" = 1'-0"
140
0.75
141
12.0
290
     0
  0
SCALE
  5
151
102
{ACAD_REACTORS
330
134
102
}
330
134
100
AcDbScale
 70
     0
300
1" = 1'-0"
140
1.0
141
12.0
290
     0
  0
SCALE
  5
152
102
{ACAD_REACTORS
330
134
102
}
330
134
100
AcDbScale
 70
     0
300
1-1/2" = 1'-0"
140
1.5
141
12.0
290
     0
  0
SCALE
  5
153
102
{ACAD_REACTORS
330
134
102
}
330
134
100
AcDbScale
 70
     0
300
3" = 1'-0"
140
3.0
141
12.0
290
     0
  0
SCALE
  5
154
102
{ACAD_REACTORS
330
134
102
}
330
134
100
AcDbScale
 70
     0
300
6" = 1'-0"
140
6.0
141
12.0
290
     0
  0
SCALE
  5
155
102
{ACAD_REACTORS
330
134
102
}
330
134
100
AcDbScale
 70
     0
300
1'-0" = 1'-0"
140
12.0
141
12.0
290
     0
  0
VISUALSTYLE
  5
2F
102
{ACAD_REACTORS
330
2A
102
}
330
2A
100
AcDbVisualStyle
  2
2dWireframe
 70
     4
 71
     0
 72
     2
 73
     0
 90
        0
 40
-0.6
 41
-30.0
 62
     5
 63
     7
421
 16777215
 74
     1
 91
        4
 64
     7
 65
   257
 75
     1
175
     1
 42
1.0
 92
        0
 66
   257
 43
1.0
 76
     1
 77
     6
 78
     2
 67
     7
 79
     5
170
     0
171
     0
290
     0
174
     0
 93
        1
 44
0.0
173
     0
291
     0
 45
0.0
1001
ACAD
1000
AcDbSavedByObjectVersion
1070
     0
  0
VISUALSTYLE
  5
31
102
{ACAD_REACTORS
330
2A
102
}
330
2A
100
AcDbVisualStyle
  2
3D Hidden
 70
     6
 71
     1
 72
     2
 73
     2
 90
        0
 40
-0.6
 41
-30.0
 62
     5
 63
     7
421
 16777215
 74
     2
 91
        2
 64
     7
 65
   257
 75
     2
175
     1
 42
40.0
 92
        0
 66
   257
 43
1.0
 76
     1
 77
     6
 78
     2
 67
     7
 79
     3
170
     0
171
     0
290
     0
174
     0
 93
        1
 44
0.0
173
     0
291
     0
 45
0.0
1001
ACAD
1000
AcDbSavedByObjectVersion
1070
     0
  0
VISUALSTYLE
  5
30
102
{ACAD_REACTORS
330
2A
102
}
330
2A
100
AcDbVisualStyle
  2
3dWireframe
 70
     5
 71
     0
 72
     2
 73
     0
 90
        0
 40
-0.6
 41
-30.0
 62
     5
 63
     7
421
 16777215
 74
     1
 91
        4
 64
     7
 65
   257
 75
     1
175
     1
 42
1.0
 92
        0
 66
   257
 43
1.0
 76
     1
 77
     6
 78
     2
 67
     7
 79
     5
170
     0
171
     0
290
     0
174
     0
 93
        1
 44
0.0
173
     0
291
     0
 45
0.0
1001
ACAD
1000
AcDbSavedByObjectVersion
1070
     0
  0
VISUALSTYLE
  5
32
102
{ACAD_REACTORS
330
2A
102
}
330
2A
100
AcDbVisualStyle
  2
Basic
 70
     7
 71
     1
 72
     0
 73
     1
 90
        0
 40
-0.6
 41
-30.0
 62
     5
 63
     7
421
 16777215
 74
     0
 91
        4
 64
     7
 65
   257
 75
     1
175
     1
 42
1.0
 92
        8
 66
     7
 43
1.0
 76
     1
 77
     6
 78
     2
 67
     7
 79
     5
170
     0
171
     0
290
     0
174
     0
 93
        1
 44
0.0
173
     0
291
     1
 45
0.0
1001
ACAD
1000
AcDbSavedByObjectVersion
1070
     0
  0
VISUALSTYLE
  5
36
102
{ACAD_REACTORS
330
2A
102
}
330
2A
100
AcDbVisualStyle
  2
Brighten
 70
    12
 71
     2
 72
     2
 73
     0
 90
        0
 40
-0.6
 41
-30.0
 62
     5
 63
     7
421
 16777215
 74
     1
 91
        4
 64
     7
 65
   257
 75
     1
175
     1
 42
1.0
 92
        8
 66
     7
 43
1.0
 76
     1
 77
     6
 78
     2
 67
     7
 79
     5
170
     0
171
     0
290
     0
174
     0
 93
        1
 44
50.0
173
     0
291
     1
 45
0.0
1001
ACAD
1000
AcDbSavedByObjectVersion
1070
     0
  0
VISUALSTYLE
  5
3A
102
{ACAD_REACTORS
330
2A
102
}
330
2A
100
AcDbVisualStyle
  2
ColorChange
 70
    16
 71
     2
 72
     2
 73
     3
 90
        0
 40
-0.6
 41
-30.0
 62
     5
 63
     8
421
  8421504
 74
     1
 91
        4
 64
     7
 65
   257
 75
     1
175
     1
 42
1.0
 92
        8
 66
     8
424
  8421504
 43
1.0
 76
     1
 77
     6
 78
     2
 67
     7
 79
     5
170
     0
171
     0
290
     0
174
     0
 93
        1
 44
0.0
173
     0
291
     1
 45
0.0
1001
ACAD
1000
AcDbSavedByObjectVersion
1070
     0
  0
VISUALSTYLE
  5
34
102
{ACAD_REACTORS
330
2A
102
}
330
2A
100
AcDbVisualStyle
  2
Conceptual
 70
     9
 71
     3
 72
     2
 73
     0
 90
        0
 40
-0.6
 41
-30.0
 62
     5
 63
     7
421
 16777215
 74
     2
 91
        2
 64
     7
 65
   257
 75
     1
175
     1
 42
40.0
 92
        8
 66
     7
 43
1.0
 76
     1
 77
     6
 78
     2
 67
     7
 79
     3
170
     0
171
     0
290
     0
174
     0
 93
        1
 44
0.0
173
     0
291
     0
 45
0.0
1001
ACAD
1000
AcDbSavedByObjectVersion
1070
     0
  0
VISUALSTYLE
  5
35
102
{ACAD_REACTORS
330
2A
102
}
330
2A
100
AcDbVisualStyle
  2
Dim
 70
    11
 71
     2
 72
     2
 73
     0
 90
        0
 40
-0.6
 41
-30.0
 62
     5
 63
     7
421
 16777215
 74
     1
 91
        4
 64
     7
 65
   257
 75
     1
175
     1
 42
1.0
 92
        8
 66
     7
 43
1.0
 76
     1
 77
     6
 78
     2
 67
     7
 79
     5
170
     0
171
     0
290
     0
174
     0
 93
        1
 44
-50.0
173
     0
291
     1
 45
0.0
1001
ACAD
1000
AcDbSavedByObjectVersion
1070
     0
  0
VISUALSTYLE
  5
39
102
{ACAD_REACTORS
330
2A
102
}
330
2A
100
AcDbVisualStyle
  2
Facepattern
 70
    15
 71
     2
 72
     2
 73
     0
 90
        0
 40
-0.6
 41
-30.0
 62
     5
 63
     7
421
 16777215
 74
     1
 91
        4
 64
     7
 65
   257
 75
     1
175
     1
 42
1.0
 92
        8
 66
     7
 43
1.0
 76
     1
 77
     6
 78
     2
 67
     7
 79
     5
170
     0
171
     0
290
     0
174
     0
 93
        1
 44
0.0
173
     0
291
     1
 45
0.0
1001
ACAD
1000
AcDbSavedByObjectVersion
1070
     0
  0
VISUALSTYLE
  5
2B
102
{ACAD_REACTORS
330
2A
102
}
330
2A
100
AcDbVisualStyle
  2
Flat
 70
     0
 71
     2
 72
     1
 73
     1
 90
        2
 40
-0.6
 41
30.0
 62
     5
 63
     7
421
 16777215
 74
     0
 91
        4
 64
     7
 65
   257
 75
     1
175
     1
 42
1.0
 92
        8
 66
     7
 43
1.0
 76
     1
 77
     6
 78
     2
 67
     7
 79
     5
170
     0
171
     0
290
     0
174
     0
 93
       13
 44
0.0
173
     0
291
     1
 45
0.0
1001
ACAD
1000
AcDbSavedByObjectVersion
1070
     0
  0
VISUALSTYLE
  5
2C
102
{ACAD_REACTORS
330
2A
102
}
330
2A
100
AcDbVisualStyle
  2
FlatWithEdges
 70
     1
 71
     2
 72
     1
 73
     1
 90
        2
 40
-0.6
 41
30.0
 62
     5
 63
     7
421
 16777215
 74
     1
 91
        4
 64
     7
 65
   257
 75
     1
175
     1
 42
1.0
 92
        0
 66
   257
 43
1.0
 76
     1
 77
     6
 78
     2
 67
     7
 79
     5
170
     0
171
     0
290
     0
174
     0
 93
       13
 44
0.0
173
     0
291
     1
 45
0.0
1001
ACAD
1000
AcDbSavedByObjectVersion
1070
     0
  0
VISUALSTYLE
  5
2D
102
{ACAD_REACTORS
330
2A
102
}
330
2A
100
AcDbVisualStyle
  2
Gouraud
 70
     2
 71
     2
 72
     2
 73
     1
 90
        2
 40
-0.6
 41
30.0
 62
     5
 63
     7
421
 16777215
 74
     0
 91
        4
 64
     7
 65
   257
 75
     1
175
     1
 42
1.0
 92
        0
 66
     7
 43
1.0
 76
     1
 77
     6
 78
     2
 67
     7
 79
     5
170
     0
171
     0
290
     0
174
     0
 93
       13
 44
0.0
173
     0
291
     1
 45
0.0
1001
ACAD
1000
AcDbSavedByObjectVersion
1070
     0
  0
VISUALSTYLE
  5
2E
102
{ACAD_REACTORS
330
2A
102
}
330
2A
100
AcDbVisualStyle
  2
GouraudWithEdges
 70
     3
 71
     2
 72
     2
 73
     1
 90
        2
 40
-0.6
 41
30.0
 62
     5
 63
     7
421
 16777215
 74
     1
 91
        4
 64
     7
 65
   257
 75
     1
175
     1
 42
1.0
 92
        0
 66
   257
 43
1.0
 76
     1
 77
     6
 78
     2
 67
     7
 79
     5
170
     0
171
     0
290
     0
174
     0
 93
       13
 44
0.0
173
     0
291
     1
 45
0.0
1001
ACAD
1000
AcDbSavedByObjectVersion
1070
     0
  0
VISUALSTYLE
  5
38
102
{ACAD_REACTORS
330
2A
102
}
330
2A
100
AcDbVisualStyle
  2
Linepattern
 70
    14
 71
     2
 72
     2
 73
     0
 90
        0
 40
-0.6
 41
-30.0
 62
     5
 63
     7
421
 16777215
 74
     1
 91
        4
 64
     7
 65
   257
 75
     7
175
     7
 42
1.0
 92
        8
 66
     7
 43
1.0
 76
     1
 77
     6
 78
     2
 67
     7
 79
     5
170
     0
171
     0
290
     0
174
     0
 93
        1
 44
0.0
173
     0
291
     1
 45
0.0
1001
ACAD
1000
AcDbSavedByObjectVersion
1070
     0
  0
VISUALSTYLE
  5
33
102
{ACAD_REACTORS
330
2A
102
}
330
2A
100
AcDbVisualStyle
  2
Realistic
 70
     8
 71
     2
 72
     2
 73
     0
 90
        0
 40
-0.6
 41
-30.0
 62
     5
 63
     7
421
 16777215
 74
     1
 91
        0
 64
     7
 65
   257
 75
     1
175
     1
 42
1.0
 92
        8
 66
     8
424
  7895160
 43
1.0
 76
     1
 77
     6
 78
     2
 67
     7
 79
     5
170
     0
171
     0
290
     0
174
     0
 93
       13
 44
0.0
173
     0
291
     0
 45
0.0
1001
ACAD
1000
AcDbSavedByObjectVersion
1070
     0
  0
VISUALSTYLE
  5
37
102
{ACAD_REACTORS
330
2A
102
}
330
2A
100
AcDbVisualStyle
  2
Thicken
 70
    13
 71
     2
 72
     2
 73
     0
 90
        0
 40
-0.6
 41
-30.0
 62
     5
 63
     7
421
 16777215
 74
     1
 91
        4
 64
     7
 65
   257
 75
     1
175
     1
 42
1.0
 92
       12
 66
     7
 43
1.0
 76
     1
 77
     6
 78
     2
 67
     7
 79
     5
170
     0
171
     0
290
     0
174
     0
 93
        1
 44
0.0
173
     0
291
     1
 45
0.0
1001
ACAD
1000
AcDbSavedByObjectVersion
1070
     0
  0
DICTIONARYVAR
  5
157
102
{ACAD_REACTORS
330
156
102
}
330
156
100
DictionaryVariables
280
     0
  1
1:1
  0
ENDSEC
  0
EOF
