  0
SECTION
  2
HEADER
  9
$ACADVER
  1
AC1018
  9
$ACADMAINTVER
 70
     0
  9
$DWGCODEPAGE
  3
ANSI_1252
  9
$INSBASE
 10
0.0
 20
0.0
 30
0.0
  9
$EXTMIN
 10
0.000365521823176
 20
0.001529866641583
 30
0.0
  9
$EXTMAX
 10
34.85330316047403
 20
116.4532918309033
 30
0.0
  9
$LIMMIN
 10
0.0
 20
0.0
  9
$LIMMAX
 10
12.0
 20
9.0
  9
$ORTHOMODE
 70
     0
  9
$REGENMODE
 70
     1
  9
$FILLMODE
 70
     1
  9
$QTEXTMODE
 70
     0
  9
$MIRRTEXT
 70
     1
  9
$LTSCALE
 40
1.0
  9
$ATTMODE
 70
     1
  9
$TEXTSIZE
 40
0.2
  9
$TRACEWID
 40
0.05
  9
$TEXTSTYLE
  7
Standard
  9
$CLAYER
  8
PREDEFINITO
  9
$CELTYPE
  6
ByLayer
  9
$CECOLOR
 62
   256
  9
$CELTSCALE
 40
1.0
  9
$DISPSILH
 70
     0
  9
$DIMSCALE
 40
1.0
  9
$DIMASZ
 40
0.18
  9
$DIMEXO
 40
0.0625
  9
$DIMDLI
 40
0.38
  9
$DIMRND
 40
0.0
  9
$DIMDLE
 40
0.0
  9
$DIMEXE
 40
0.18
  9
$DIMTP
 40
0.0
  9
$DIMTM
 40
0.0
  9
$DIMTXT
 40
0.18
  9
$DIMCEN
 40
0.09
  9
$DIMTSZ
 40
0.0
  9
$DIMTOL
 70
     0
  9
$DIMLIM
 70
     0
  9
$DIMTIH
 70
     1
  9
$DIMTOH
 70
     1
  9
$DIMSE1
 70
     0
  9
$DIMSE2
 70
     0
  9
$DIMTAD
 70
     0
  9
$DIMZIN
 70
     0
  9
$DIMBLK
  1

  9
$DIMASO
 70
     1
  9
$DIMSHO
 70
     1
  9
$DIMPOST
  1

  9
$DIMAPOST
  1

  9
$DIMALT
 70
     0
  9
$DIMALTD
 70
     2
  9
$DIMALTF
 40
25.4
  9
$DIMLFAC
 40
1.0
  9
$DIMTOFL
 70
     0
  9
$DIMTVP
 40
0.0
  9
$DIMTIX
 70
     0
  9
$DIMSOXD
 70
     0
  9
$DIMSAH
 70
     0
  9
$DIMBLK1
  1

  9
$DIMBLK2
  1

  9
$DIMSTYLE
  2
Standard
  9
$DIMCLRD
 70
     0
  9
$DIMCLRE
 70
     0
  9
$DIMCLRT
 70
     0
  9
$DIMTFAC
 40
1.0
  9
$DIMGAP
 40
0.09
  9
$DIMJUST
 70
     0
  9
$DIMSD1
 70
     0
  9
$DIMSD2
 70
     0
  9
$DIMTOLJ
 70
     1
  9
$DIMTZIN
 70
     0
  9
$DIMALTZ
 70
     0
  9
$DIMALTTZ
 70
     0
  9
$DIMUPT
 70
     0
  9
$DIMDEC
 70
     4
  9
$DIMTDEC
 70
     4
  9
$DIMALTU
 70
     2
  9
$DIMALTTD
 70
     2
  9
$DIMTXSTY
  7
Standard
  9
$DIMAUNIT
 70
     0
  9
$DIMADEC
 70
     0
  9
$DIMALTRND
 40
0.0
  9
$DIMAZIN
 70
     0
  9
$DIMDSEP
 70
    46
  9
$DIMATFIT
 70
     3
  9
$DIMFRAC
 70
     0
  9
$DIMLDRBLK
  1

  9
$DIMLUNIT
 70
     2
  9
$DIMLWD
 70
    -2
  9
$DIMLWE
 70
    -2
  9
$DIMTMOVE
 70
     0
  9
$LUNITS
 70
     2
  9
$LUPREC
 70
     3
  9
$SKETCHINC
 40
0.1
  9
$FILLETRAD
 40
0.5
  9
$AUNITS
 70
     0
  9
$AUPREC
 70
     0
  9
$MENU
  1
.
  9
$ELEVATION
 40
0.0
  9
$PELEVATION
 40
0.0
  9
$THICKNESS
 40
0.0
  9
$LIMCHECK
 70
     0
  9
$CHAMFERA
 40
0.5
  9
$CHAMFERB
 40
0.5
  9
$CHAMFERC
 40
1.0
  9
$CHAMFERD
 40
0.0
  9
$SKPOLY
 70
     0
  9
$TDCREATE
 40
2455861.621386238
  9
$TDUCREATE
 40
2455861.538052905
  9
$TDUPDATE
 40
2455861.62138625
  9
$TDUUPDATE
 40
2455861.538052917
  9
$TDINDWG
 40
0.0000000116
  9
$TDUSRTIMER
 40
0.0000000116
  9
$USRTIMER
 70
     1
  9
$ANGBASE
 50
0.0
  9
$ANGDIR
 70
     0
  9
$PDMODE
 70
     0
  9
$PDSIZE
 40
0.0
  9
$PLINEWID
 40
0.0
  9
$SPLFRAME
 70
     0
  9
$SPLINETYPE
 70
     6
  9
$SPLINESEGS
 70
     8
  9
$HANDSEED
  5
101
  9
$SURFTAB1
 70
     6
  9
$SURFTAB2
 70
     6
  9
$SURFTYPE
 70
     6
  9
$SURFU
 70
     6
  9
$SURFV
 70
     6
  9
$UCSBASE
  2

  9
$UCSNAME
  2

  9
$UCSORG
 10
0.0
 20
0.0
 30
0.0
  9
$UCSXDIR
 10
1.0
 20
0.0
 30
0.0
  9
$UCSYDIR
 10
0.0
 20
1.0
 30
0.0
  9
$UCSORTHOREF
  2

  9
$UCSORTHOVIEW
 70
     0
  9
$UCSORGTOP
 10
0.0
 20
0.0
 30
0.0
  9
$UCSORGBOTTOM
 10
0.0
 20
0.0
 30
0.0
  9
$UCSORGLEFT
 10
0.0
 20
0.0
 30
0.0
  9
$UCSORGRIGHT
 10
0.0
 20
0.0
 30
0.0
  9
$UCSORGFRONT
 10
0.0
 20
0.0
 30
0.0
  9
$UCSORGBACK
 10
0.0
 20
0.0
 30
0.0
  9
$PUCSBASE
  2

  9
$PUCSNAME
  2

  9
$PUCSORG
 10
0.0
 20
0.0
 30
0.0
  9
$PUCSXDIR
 10
1.0
 20
0.0
 30
0.0
  9
$PUCSYDIR
 10
0.0
 20
1.0
 30
0.0
  9
$PUCSORTHOREF
  2

  9
$PUCSORTHOVIEW
 70
     0
  9
$PUCSORGTOP
 10
0.0
 20
0.0
 30
0.0
  9
$PUCSORGBOTTOM
 10
0.0
 20
0.0
 30
0.0
  9
$PUCSORGLEFT
 10
0.0
 20
0.0
 30
0.0
  9
$PUCSORGRIGHT
 10
0.0
 20
0.0
 30
0.0
  9
$PUCSORGFRONT
 10
0.0
 20
0.0
 30
0.0
  9
$PUCSORGBACK
 10
0.0
 20
0.0
 30
0.0
  9
$USERI1
 70
     0
  9
$USERI2
 70
     0
  9
$USERI3
 70
     0
  9
$USERI4
 70
     0
  9
$USERI5
 70
     0
  9
$USERR1
 40
0.0
  9
$USERR2
 40
0.0
  9
$USERR3
 40
0.0
  9
$USERR4
 40
0.0
  9
$USERR5
 40
0.0
  9
$WORLDVIEW
 70
     1
  9
$SHADEDGE
 70
     3
  9
$SHADEDIF
 70
    70
  9
$TILEMODE
 70
     1
  9
$MAXACTVP
 70
    64
  9
$PINSBASE
 10
0.0
 20
0.0
 30
0.0
  9
$PLIMCHECK
 70
     0
  9
$PEXTMIN
 10
1.000000000000000E+20
 20
1.000000000000000E+20
 30
1.000000000000000E+20
  9
$PEXTMAX
 10
-1.000000000000000E+20
 20
-1.000000000000000E+20
 30
-1.000000000000000E+20
  9
$PLIMMIN
 10
0.0
 20
0.0
  9
$PLIMMAX
 10
12.0
 20
9.0
  9
$UNITMODE
 70
     0
  9
$VISRETAIN
 70
     1
  9
$PLINEGEN
 70
     0
  9
$PSLTSCALE
 70
     1
  9
$TREEDEPTH
 70
  3020
  9
$CMLSTYLE
  2
Standard
  9
$CMLJUST
 70
     0
  9
$CMLSCALE
 40
1.0
  9
$PROXYGRAPHICS
 70
     1
  9
$MEASUREMENT
 70
     0
  9
$CELWEIGHT
370
    -1
  9
$ENDCAPS
280
     0
  9
$JOINSTYLE
280
     0
  9
$LWDISPLAY
290
     0
  9
$INSUNITS
 70
     4
  9
$HYPERLINKBASE
  1

  9
$STYLESHEET
  1

  9
$XEDIT
290
     1
  9
$CEPSNTYPE
380
     0
  9
$PSTYLEMODE
290
     1
  9
$FINGERPRINTGUID
  2
{FA17CB97-3EF9-495C-B666-15938D711719}
  9
$VERSIONGUID
  2
{FAEB1C32-E019-11D5-929B-00C0DF256EC4}
  9
$EXTNAMES
290
     1
  9
$PSVPSCALE
 40
0.0
  9
$OLESTARTUP
290
     0
  9
$SORTENTS
280
   127
  9
$INDEXCTL
280
     0
  9
$HIDETEXT
280
     1
  9
$XCLIPFRAME
290
     0
  9
$HALOGAP
280
     0
  9
$OBSCOLOR
 70
   257
  9
$OBSLTYPE
280
     0
  9
$INTERSECTIONDISPLAY
280
     0
  9
$INTERSECTIONCOLOR
 70
   257
  9
$DIMASSOC
280
     2
  9
$PROJECTNAME
  1

  0
ENDSEC
  0
SECTION
  2
CLASSES
  0
CLASS
  1
ACDBDICTIONARYWDFLT
  2
AcDbDictionaryWithDefault
  3
ObjectDBX Classes
 90
        0
 91
        3
280
     0
281
     0
  0
CLASS
  1
VISUALSTYLE
  2
AcDbVisualStyle
  3
ObjectDBX Classes
 90
     4095
 91
        3
280
     0
281
     0
  0
CLASS
  1
SCALE
  2
AcDbScale
  3
ObjectDBX Classes
 90
     1153
 91
        3
280
     0
281
     0
  0
ENDSEC
  0
SECTION
  2
TABLES
  0
TABLE
  2
VPORT
  5
8
330
0
100
AcDbSymbolTable
 70
     1
  0
VPORT
  5
29
330
8
100
AcDbSymbolTableRecord
100
AcDbViewportTableRecord
  2
*Active
 70
     0
 10
0.0
 20
0.0
 11
1.0
 21
1.0
 12
0.0
 22
0.0
 13
0.0
 23
0.0
 14
0.5
 24
0.5
 15
0.5
 25
0.5
 16
0.0
 26
0.0
 36
1.0
 17
17.4268343411486
 27
58.22741084877246
 37
0.0
 40
118.780797203547
 41
0.2992907711378981
 42
50.0
 43
0.0
 44
0.0
 50
0.0
 51
0.0
 71
     0
 72
   100
 73
     1
 74
     3
 75
     0
 76
     0
 77
     0
 78
     0
281
     0
 65
     1
110
0.0
120
0.0
130
0.0
111
1.0
121
0.0
131
0.0
112
0.0
122
1.0
132
0.0
 79
     0
146
0.0
  0
ENDTAB
  0
TABLE
  2
LTYPE
  5
5
330
0
100
AcDbSymbolTable
 70
     1
  0
LTYPE
  5
14
330
5
100
AcDbSymbolTableRecord
100
AcDbLinetypeTableRecord
  2
ByBlock
 70
     0
  3

 72
    65
 73
     0
 40
0.0
  0
LTYPE
  5
15
330
5
100
AcDbSymbolTableRecord
100
AcDbLinetypeTableRecord
  2
ByLayer
 70
     0
  3

 72
    65
 73
     0
 40
0.0
  0
LTYPE
  5
16
330
5
100
AcDbSymbolTableRecord
100
AcDbLinetypeTableRecord
  2
Continuous
 70
     0
  3
Solid line
 72
    65
 73
     0
 40
0.0
  0
ENDTAB
  0
TABLE
  2
LAYER
  5
2
330
0
100
AcDbSymbolTable
 70
     3
  0
LAYER
  5
10
330
2
100
AcDbSymbolTableRecord
100
AcDbLayerTableRecord
  2
0
 70
     0
 62
     7
  6
Continuous
370
    -3
390
F
  0
LAYER
  5
5D
330
2
100
AcDbSymbolTableRecord
100
AcDbLayerTableRecord
  2
PREDEFINITO
 70
     0
 62
     7
  6
Continuous
370
    -3
390
F
  0
LAYER
  5
67
330
2
100
AcDbSymbolTableRecord
100
AcDbLayerTableRecord
  2
LINEE VISIBILI 2D
 70
     0
 62
     7
  6
Continuous
370
    -3
390
F
  0
ENDTAB
  0
TABLE
  2
STYLE
  5
3
330
0
100
AcDbSymbolTable
 70
     1
  0
STYLE
  5
11
330
3
100
AcDbSymbolTableRecord
100
AcDbTextStyleTableRecord
  2
Standard
 70
     0
 40
0.0
 41
1.0
 50
0.0
 71
     0
 42
0.2
  3
txt
  4

  0
ENDTAB
  0
TABLE
  2
VIEW
  5
6
330
0
100
AcDbSymbolTable
 70
     0
  0
ENDTAB
  0
TABLE
  2
UCS
  5
7
330
0
100
AcDbSymbolTable
 70
     0
  0
ENDTAB
  0
TABLE
  2
APPID
  5
9
330
0
100
AcDbSymbolTable
 70
     1
  0
APPID
  5
12
330
9
100
AcDbSymbolTableRecord
100
AcDbRegAppTableRecord
  2
ACAD
 70
     0
  0
ENDTAB
  0
TABLE
  2
DIMSTYLE
  5
A
330
0
100
AcDbSymbolTable
 70
     1
100
AcDbDimStyleTable
  0
DIMSTYLE
105
27
330
A
100
AcDbSymbolTableRecord
100
AcDbDimStyleTableRecord
  2
Standard
 70
     0
340
11
  0
ENDTAB
  0
TABLE
  2
BLOCK_RECORD
  5
1
330
0
100
AcDbSymbolTable
 70
     1
  0
BLOCK_RECORD
  5
1F
330
1
100
AcDbSymbolTableRecord
100
AcDbBlockTableRecord
  2
*Model_Space
340
22
  0
BLOCK_RECORD
  5
1B
330
1
100
AcDbSymbolTableRecord
100
AcDbBlockTableRecord
  2
*Paper_Space
340
1E
  0
BLOCK_RECORD
  5
23
330
1
100
AcDbSymbolTableRecord
100
AcDbBlockTableRecord
  2
*Paper_Space0
340
26
  0
ENDTAB
  0
ENDSEC
  0
SECTION
  2
BLOCKS
  0
BLOCK
  5
20
330
1F
100
AcDbEntity
  8
0
100
AcDbBlockBegin
  2
*Model_Space
 70
     0
 10
0.0
 20
0.0
 30
0.0
  3
*Model_Space
  1

  0
ENDBLK
  5
21
330
1F
100
AcDbEntity
  8
0
100
AcDbBlockEnd
  0
BLOCK
  5
1C
330
1B
100
AcDbEntity
 67
     1
  8
0
100
AcDbBlockBegin
  2
*Paper_Space
 70
     0
 10
0.0
 20
0.0
 30
0.0
  3
*Paper_Space
  1

  0
ENDBLK
  5
1D
330
1B
100
AcDbEntity
 67
     1
  8
0
100
AcDbBlockEnd
  0
BLOCK
  5
24
330
23
100
AcDbEntity
  8
0
100
AcDbBlockBegin
  2
*Paper_Space0
 70
     0
 10
0.0
 20
0.0
 30
0.0
  3
*Paper_Space0
  1

  0
ENDBLK
  5
25
330
23
100
AcDbEntity
  8
0
100
AcDbBlockEnd
  0
ENDSEC
  0
SECTION
  2
ENTITIES
  0
POLYLINE
  5
5E
330
1F
100
AcDbEntity
  8
PREDEFINITO
100
AcDb2dPolyline
 66
     1
 10
0.0
 20
0.0
 30
0.0
  0
VERTEX
  5
60
330
5E
100
AcDbEntity
  8
PREDEFINITO
100
AcDbVertex
100
AcDb2dVertex
 10
28.79600659674494
 20
10.31800745373092
 30
0.0
  0
VERTEX
  5
61
330
5E
100
AcDbEntity
  8
PREDEFINITO
100
AcDbVertex
100
AcDb2dVertex
 10
28.79600659674494
 20
7.794504539130716
 30
0.0
  0
SEQEND
  5
5F
330
5E
100
AcDbEntity
  8
PREDEFINITO
  0
POLYLINE
  5
62
330
1F
100
AcDbEntity
  8
PREDEFINITO
100
AcDb2dPolyline
 66
     1
 10
0.0
 20
0.0
 30
0.0
  0
VERTEX
  5
64
330
62
100
AcDbEntity
  8
PREDEFINITO
100
AcDbVertex
100
AcDb2dVertex
 10
27.88552661081158
 20
10.33976273400234
 30
0.0
  0
VERTEX
  5
65
330
62
100
AcDbEntity
  8
PREDEFINITO
100
AcDbVertex
100
AcDb2dVertex
 10
27.88552661081158
 20
7.805891599657849
 30
0.0
  0
SEQEND
  5
63
330
62
100
AcDbEntity
  8
PREDEFINITO
  0
SPLINE
  5
66
330
1F
100
AcDbEntity
  8
PREDEFINITO
100
AcDbSpline
210
0.0
220
0.0
230
1.0
 70
    15
 71
     2
 72
    12
 73
     9
 74
     0
 42
0.0000000001
 43
0.0000000001
 40
0.0
 40
0.0
 40
0.0
 40
1.783890753126214
 40
1.783890753126214
 40
3.567781506252427
 40
3.567781506252427
 40
5.351672259378641
 40
5.351672259378641
 40
7.135563012504854
 40
7.135563012504854
 40
7.135563012504854
 10
30.56803179905093
 20
5.591927257115183
 30
0.0
 41
1.0
 10
30.56803179905093
 20
7.846810537121293
 30
0.0
 41
0.7071067811865476
 10
28.31314851904482
 20
7.846810537121292
 30
0.0
 41
1.0
 10
26.05826523903871
 20
7.846810537121293
 30
0.0
 41
0.7071067811865476
 10
26.05826523903871
 20
5.591927257115183
 30
0.0
 41
1.0
 10
26.05826523903871
 20
3.337043977109073
 30
0.0
 41
0.7071067811865476
 10
28.31314851904482
 20
3.337043977109073
 30
0.0
 41
1.0
 10
30.56803179905093
 20
3.337043977109073
 30
0.0
 41
0.7071067811865476
 10
30.56803179905093
 20
5.591927257115183
 30
0.0
 41
1.0
  0
SPLINE
  5
68
330
1F
100
AcDbEntity
  8
LINEE VISIBILI 2D
100
AcDbSpline
210
0.0
220
0.0
230
1.0
 70
    12
 71
     2
 72
    16
 73
    13
 74
     0
 42
0.0000000001
 43
0.0000000001
 40
0.0
 40
0.0
 40
0.0
 40
0.1942094660737797
 40
0.1942094660737797
 40
1.496867987856125
 40
1.496867987856125
 40
2.80056110634842
 40
2.80056110634842
 40
4.104302587496353
 40
4.104302587496353
 40
5.416513990236794
 40
5.416513990236794
 40
5.456880958823526
 40
5.456880958823526
 40
5.456880958823526
 10
25.6175889882634
 20
8.029208240857653
 30
0.0
 41
1.0
 10
25.5790961980061
 20
7.940036494892432
 30
0.0
 41
0.9996846772185833
 10
25.54512886453594
 20
7.849044652196478
 30
0.0
 41
1.0
 10
25.31786423295097
 20
7.233039465254311
 30
0.0
 41
0.9880228850543077
 10
25.28925368480095
 20
6.577072210245596
 30
0.0
 41
1.0
 10
25.25797845564779
 20
5.92087668489467
 30
0.0
 41
0.9884096198259276
 10
25.42507030692887
 20
5.285541324093288
 30
0.0
 41
1.0
 10
25.5945189984933
 20
4.650812831272636
 30
0.0
 41
0.9884260732320793
 10
25.94652026500655
 20
4.096116313305966
 30
0.0
 41
1.0
 10
26.30220128080004
 20
3.540280780460495
 30
0.0
 41
0.9914075870851585
 10
26.78987729218912
 20
3.095720061902129
 30
0.0
 41
1.0
 10
26.80472612428867
 20
3.08204934035242
 30
0.0
 41
0.9999937327182413
 10
26.81967138353616
 20
3.068484102852256
 30
0.0
 41
1.0
  0
SPLINE
  5
69
330
1F
100
AcDbEntity
  8
LINEE VISIBILI 2D
100
AcDbSpline
210
0.0
220
0.0
230
1.0
 70
    12
 71
     2
 72
    18
 73
    15
 74
     0
 42
0.0000000001
 43
0.0000000001
 40
0.0
 40
0.0
 40
0.0
 40
0.0350947264643896
 40
0.0350947264643896
 40
1.339185494010399
 40
1.339185494010399
 40
2.634830957088748
 40
2.634830957088748
 40
3.930312590785879
 40
3.930312590785879
 40
4.578576069096671
 40
4.578576069096671
 40
5.225019425538873
 40
5.225019425538873
 40
5.456937774506673
 40
5.456937774506673
 40
5.456937774506673
 10
29.75138650695302
 20
3.068481444284501
 30
0.0
 41
1.0
 10
29.76437977646436
 20
3.080274952939633
 30
0.0
 41
0.999995268311721
 10
29.77730024068346
 20
3.092148179264278
 30
0.0
 41
1.0
 10
30.26230148100685
 20
3.533493323910867
 30
0.0
 41
0.9915410075248823
 10
30.61736304313557
 20
4.084803605800346
 30
0.0
 41
1.0
 10
30.96879952651491
 20
4.634938135240091
 30
0.0
 41
0.9885889391355352
 10
31.14043507591975
 20
5.264776876913249
 30
0.0
 41
1.0
 10
31.30974103797675
 20
5.895187540590995
 30
0.0
 41
0.9885294759310546
 10
31.28308824969485
 20
6.547392832307846
 30
0.0
 41
1.0
 10
31.27029222177748
 20
6.871875871362149
 30
0.0
 41
0.9972146359315924
 10
31.20937004035073
 20
7.190845256687108
 30
0.0
 41
1.0
 10
31.14885111876749
 20
7.50903961226865
 30
0.0
 41
0.9968688889153763
 10
31.03892585846424
 20
7.813714233694217
 30
0.0
 41
1.0
 10
30.99941721693442
 20
7.922772267408811
 30
0.0
 41
0.9995508531741389
 10
30.95344593409846
 20
8.029267472125458
 30
0.0
 41
1.0
  0
SPLINE
  5
6A
330
1F
100
AcDbEntity
  8
LINEE VISIBILI 2D
100
AcDbSpline
210
0.0
220
0.0
230
1.0
 70
    12
 71
     2
 72
     6
 73
     3
 74
     0
 42
0.0000000001
 43
0.0000000001
 40
0.0298687577247108
 40
0.0298687577247108
 40
0.0298687577247108
 40
1.078923525182191
 40
1.078923525182191
 40
1.078923525182191
 10
30.70322050609557
 20
9.043053230138824
 30
0.0
 41
0.9992004408398444
 10
30.91421909379246
 20
8.557327083663498
 30
0.0
 41
0.9855591050083556
 10
30.95347188035936
 20
8.029208240857653
 30
0.0
 41
1.0
  0
SPLINE
  5
6B
330
1F
100
AcDbEntity
  8
LINEE VISIBILI 2D
100
AcDbSpline
210
0.0
220
0.0
230
1.0
 70
     8
 71
     3
 72
    13
 73
     9
 74
     0
 42
0.0000000001
 43
0.0000000001
 40
-1.125262935491662
 40
-1.125262935491662
 40
-1.125262935491662
 40
-1.125262935491662
 40
-1.036101068717428
 40
-0.9418699364554116
 40
-0.6497605860295669
 40
-0.3734439604161155
 40
-0.1782298389673339
 40
0.0
 40
0.0
 40
0.0
 40
0.0
 10
30.95347188035936
 20
8.029208240857653
 30
0.0
 10
30.96602165038408
 20
8.05551496899564
 30
0.0
 10
31.00254652856574
 20
8.107492055054943
 30
0.0
 10
31.01928101430549
 20
8.267148359327093
 30
0.0
 10
30.9838607801088
 20
8.486857789893193
 30
0.0
 10
30.89663029720781
 20
8.726682946655387
 30
0.0
 10
30.78725517967972
 20
8.914892717378226
 30
0.0
 10
30.72076884281373
 20
9.019362334790138
 30
0.0
 10
30.68571430077001
 20
9.067693877173355
 30
0.0
  0
SPLINE
  5
6C
330
1F
100
AcDbEntity
  8
LINEE VISIBILI 2D
100
AcDbSpline
210
0.0
220
0.0
230
1.0
 70
     8
 71
     3
 72
    13
 73
     9
 74
     0
 42
0.0000000001
 43
0.0000000001
 40
0.0
 40
0.0
 40
0.0
 40
0.0
 40
1.0
 40
2.0
 40
3.0
 40
4.0
 40
5.0
 40
6.0
 40
6.0
 40
6.0
 40
6.0
 10
30.68571430077001
 20
9.067693877173355
 30
0.0
 10
30.6337577232899
 20
9.143222967302982
 30
0.0
 10
30.53567800856637
 20
9.254676274385874
 30
0.0
 10
30.32898890453815
 20
9.45776495679889
 30
0.0
 10
30.15272873158937
 20
9.608522980896247
 30
0.0
 10
29.86421156950279
 20
9.823043922366576
 30
0.0
 10
29.67417298350695
 20
9.946101613403638
 30
0.0
 10
29.5086680172641
 20
10.04273865756077
 30
0.0
 10
29.34285213340099
 20
10.13029244743077
 30
0.0
  0
SPLINE
  5
6D
330
1F
100
AcDbEntity
  8
LINEE VISIBILI 2D
100
AcDbSpline
210
0.0
220
0.0
230
1.0
 70
    12
 71
     2
 72
     6
 73
     3
 74
     0
 42
0.0000000001
 43
0.0000000001
 40
-0.1245264389707924
 40
-0.1245264389707924
 40
-0.1245264389707924
 40
0.0
 40
0.0
 40
0.0
 10
29.34285213340099
 20
10.13029244743077
 30
0.0
 41
1.0
 10
29.28580925896362
 20
10.15524884783908
 30
0.0
 41
0.9999994303036633
 10
29.22881979256733
 20
10.18032696908615
 30
0.0
 41
1.0
  0
SPLINE
  5
6E
330
1F
100
AcDbEntity
  8
LINEE VISIBILI 2D
100
AcDbSpline
210
0.0
220
0.0
230
1.0
 70
    24
 71
     2
 72
     6
 73
     3
 74
     0
 42
0.0000000001
 43
0.0000000001
 40
0.0
 40
0.0
 40
0.0
 40
1.570724398924208
 40
1.570724398924208
 40
1.570724398924208
 10
25.79442564091441
 20
11.85243647633087
 30
0.0
 10
25.8233839703539
 20
12.63732025436089
 30
0.0
 10
25.85234229979339
 20
13.4222040323909
 30
0.0
  0
SPLINE
  5
6F
330
1F
100
AcDbEntity
  8
LINEE VISIBILI 2D
100
AcDbSpline
210
0.0
220
0.0
230
1.0
 70
    28
 71
     3
 72
     8
 73
     4
 74
     0
 42
0.0000000001
 43
0.0000000001
 40
46.04468490020263
 40
46.04468490020263
 40
46.04468490020263
 40
46.04468490020263
 40
105.244994057606
 40
105.244994057606
 40
105.244994057606
 40
105.244994057606
 10
25.85234229979339
 20
13.4222040323909
 30
0.0
 41
1.0
 10
25.82690079973523
 20
13.42220403239106
 30
0.0
 41
1.0
 10
25.9580989074235
 20
13.42220403239109
 30
0.0
 41
1.0
 10
26.24593662285834
 20
13.42220403239101
 30
0.0
 41
1.0
  0
SPLINE
  5
70
330
1F
100
AcDbEntity
  8
LINEE VISIBILI 2D
100
AcDbSpline
210
0.0
220
0.0
230
1.0
 70
    24
 71
     2
 72
     6
 73
     3
 74
     0
 42
0.0000000001
 43
0.0000000001
 40
0.0
 40
0.0
 40
0.0
 40
1.264392788438364
 40
1.264392788438364
 40
1.264392788438364
 10
26.24593662285834
 20
13.42220403239101
 30
0.0
 10
26.87813301707752
 20
13.42220403239104
 30
0.0
 10
27.51032941129671
 20
13.42220403239107
 30
0.0
  0
SPLINE
  5
71
330
1F
100
AcDbEntity
  8
LINEE VISIBILI 2D
100
AcDbSpline
210
0.0
220
0.0
230
1.0
 70
    24
 71
     2
 72
     6
 73
     3
 74
     0
 42
0.0000000001
 43
0.0000000001
 40
0.0
 40
0.0
 40
0.0
 40
0.7752009936377178
 40
0.7752009936377178
 40
0.7752009936377178
 10
27.51032941129671
 20
13.42220403239107
 30
0.0
 10
27.89792990811556
 20
13.42220403239107
 30
0.0
 10
28.28553040493442
 20
13.42220403239107
 30
0.0
  0
SPLINE
  5
72
330
1F
100
AcDbEntity
  8
LINEE VISIBILI 2D
100
AcDbSpline
210
0.0
220
0.0
230
1.0
 70
    24
 71
     2
 72
     6
 73
     3
 74
     0
 42
0.0000000001
 43
0.0000000001
 40
0.0
 40
0.0
 40
0.0
 40
0.7752009936377178
 40
0.7752009936377178
 40
0.7752009936377178
 10
28.28553040493442
 20
13.42220403239107
 30
0.0
 10
28.67313090175328
 20
13.42220403239107
 30
0.0
 10
29.06073139857214
 20
13.42220403239107
 30
0.0
  0
SPLINE
  5
73
330
1F
100
AcDbEntity
  8
LINEE VISIBILI 2D
100
AcDbSpline
210
0.0
220
0.0
230
1.0
 70
    24
 71
     2
 72
     6
 73
     3
 74
     0
 42
0.0000000001
 43
0.0000000001
 40
0.0
 40
0.0
 40
0.0
 40
1.264392788438364
 40
1.264392788438364
 40
1.264392788438364
 10
29.06073139857214
 20
13.42220403239107
 30
0.0
 10
29.69292779279132
 20
13.42220403239104
 30
0.0
 10
30.32512418701051
 20
13.42220403239101
 30
0.0
  0
SPLINE
  5
74
330
1F
100
AcDbEntity
  8
LINEE VISIBILI 2D
100
AcDbSpline
210
0.0
220
0.0
230
1.0
 70
    24
 71
     2
 72
     6
 73
     3
 74
     0
 42
0.0000000001
 43
0.0000000001
 40
0.0
 40
0.0
 40
0.0
 40
0.3904951551668496
 40
0.3904951551668496
 40
0.3904951551668496
 10
30.32512418701051
 20
13.42220403239101
 30
0.0
 10
30.521921348543
 20
13.42220403239097
 30
0.0
 10
30.7187185100755
 20
13.42220403239092
 30
0.0
  0
SPLINE
  5
75
330
1F
100
AcDbEntity
  8
LINEE VISIBILI 2D
100
AcDbSpline
210
0.0
220
0.0
230
1.0
 70
    24
 71
     2
 72
     6
 73
     3
 74
     0
 42
0.0000000001
 43
0.0000000001
 40
0.0
 40
0.0
 40
0.0
 40
1.57072439892441
 40
1.57072439892441
 40
1.57072439892441
 10
30.7187185100755
 20
13.42220403239092
 30
0.0
 10
30.74767683951497
 20
12.63732025436079
 30
0.0
 10
30.77663516895444
 20
11.85243647633067
 30
0.0
  0
SPLINE
  5
76
330
1F
100
AcDbEntity
  8
LINEE VISIBILI 2D
100
AcDbSpline
210
0.0
220
0.0
230
1.0
 70
    24
 71
     2
 72
     6
 73
     3
 74
     0
 42
0.0000000001
 43
0.0000000001
 40
0.0
 40
0.0
 40
0.0
 40
1.53866448320191
 40
1.53866448320191
 40
1.53866448320191
 10
28.31053040497363
 20
2.4221986693513
 30
0.0
 10
28.97858071761722
 20
2.804118501501931
 30
0.0
 10
29.6466310302608
 20
3.186038333652563
 30
0.0
  0
SPLINE
  5
77
330
1F
100
AcDbEntity
  8
LINEE VISIBILI 2D
100
AcDbSpline
210
0.0
220
0.0
230
1.0
 70
    28
 71
     3
 72
     8
 73
     4
 74
     0
 42
0.0000000001
 43
0.0000000001
 40
-0.625
 40
-0.625
 40
-0.625
 40
-0.625
 40
0.0
 40
0.0
 40
0.0
 40
0.0
 10
29.6466310302608
 20
3.186038333652563
 30
0.0
 41
1.0
 10
29.63563213626163
 20
3.205088976885904
 30
0.0
 41
1.0
 10
29.65213047725997
 20
3.176513012035964
 30
0.0
 41
1.0
 10
29.69612605325581
 20
3.100310439102731
 30
0.0
 41
1.0
  0
SPLINE
  5
78
330
1F
100
AcDbEntity
  8
LINEE VISIBILI 2D
100
AcDbSpline
210
0.0
220
0.0
230
1.0
 70
    24
 71
     2
 72
     6
 73
     3
 74
     0
 42
0.0000000001
 43
0.0000000001
 40
0.0
 40
0.0
 40
0.0
 40
0.0153353315692296
 40
0.0153353315692296
 40
0.0153353315692296
 10
29.69612605325581
 20
3.100310439102731
 30
0.0
 10
29.69996008204899
 20
3.093670158852804
 30
0.0
 10
29.70379411084218
 20
3.087029878602877
 30
0.0
  0
SPLINE
  5
79
330
1F
100
AcDbEntity
  8
LINEE VISIBILI 2D
100
AcDbSpline
210
0.0
220
0.0
230
1.0
 70
    12
 71
     3
 72
     8
 73
     4
 74
     0
 42
0.0000000001
 43
0.0000000001
 40
-0.999999999994729
 40
-0.999999999994729
 40
-0.999999999994729
 40
-0.999999999994729
 40
0.0
 40
0.0
 40
0.0
 40
0.0
 10
29.70379411084218
 20
3.087029878602877
 30
0.0
 41
1.0
 10
29.76640113601844
 20
2.98055532351442
 30
0.0
 41
1.0
 10
30.79632057134657
 20
3.319418722439735
 30
0.0
 41
1.0
 10
32.75427194259066
 20
4.125925818225138
 30
0.0
 41
1.0
  0
SPLINE
  5
7A
330
1F
100
AcDbEntity
  8
LINEE VISIBILI 2D
100
AcDbSpline
210
0.0
220
0.0
230
1.0
 70
    12
 71
     3
 72
     8
 73
     4
 74
     0
 42
0.0000000001
 43
0.0000000001
 40
0.0
 40
0.0
 40
0.0
 40
0.0
 40
1.0
 40
1.0
 40
1.0
 40
1.0
 10
32.75427194259066
 20
4.125925818225138
 30
0.0
 41
1.0
 10
32.80460598040688
 20
4.146659645411006
 30
0.0
 41
1.0
 10
32.7608224963105
 20
4.110121242933033
 30
0.0
 41
1.0
 10
32.64193594518662
 20
4.039386138720831
 30
0.0
 41
1.0
  0
SPLINE
  5
7B
330
1F
100
AcDbEntity
  8
LINEE VISIBILI 2D
100
AcDbSpline
210
0.0
220
0.0
230
1.0
 70
    12
 71
     2
 72
     6
 73
     3
 74
     0
 42
0.0000000001
 43
0.0000000001
 40
0.0
 40
0.0
 40
0.0
 40
4.896232417091855
 40
4.896232417091855
 40
4.896232417091855
 10
32.64193594518662
 20
4.039386138720831
 30
0.0
 41
1.0
 10
30.53807316989987
 20
2.787508477376279
 30
0.0
 41
0.9999795669249947
 10
28.41837708927717
 20
1.562631021463385
 30
0.0
 41
1.0
  0
SPLINE
  5
7C
330
1F
100
AcDbEntity
  8
LINEE VISIBILI 2D
100
AcDbSpline
210
0.0
220
0.0
230
1.0
 70
    24
 71
     2
 72
     6
 73
     3
 74
     0
 42
0.0000000001
 43
0.0000000001
 40
0.0
 40
0.0
 40
0.0
 40
0.1245972287157362
 40
0.1245972287157362
 40
0.1245972287157362
 10
28.41837708927717
 20
1.562631021463385
 30
0.0
 10
28.36442490108693
 20
1.531481723872655
 30
0.0
 10
28.31047271289669
 20
1.500332426281926
 30
0.0
  0
SPLINE
  5
7D
330
1F
100
AcDbEntity
  8
LINEE VISIBILI 2D
100
AcDbSpline
210
0.0
220
0.0
230
1.0
 70
    12
 71
     2
 72
     6
 73
     3
 74
     0
 42
0.0000000001
 43
0.0000000001
 40
0.0
 40
0.0
 40
0.0
 40
0.0261168723936924
 40
0.0261168723936924
 40
0.0261168723936924
 10
28.31047271289669
 20
1.500332426281926
 30
0.0
 41
1.0
 10
28.2988819177279
 20
1.49370481961231
 30
0.0
 41
0.9673611467125027
 10
28.28553040493481
 20
1.493610887202634
 30
0.0
 41
1.0
  0
SPLINE
  5
7E
330
1F
100
AcDbEntity
  8
LINEE VISIBILI 2D
100
AcDbSpline
210
0.0
220
0.0
230
1.0
 70
    12
 71
     2
 72
     6
 73
     3
 74
     0
 42
0.0000000001
 43
0.0000000001
 40
0.0
 40
0.0
 40
0.0
 40
0.0261168723951911
 40
0.0261168723951911
 40
0.0261168723951911
 10
28.28553040493481
 20
1.493610887202634
 30
0.0
 41
1.0
 10
28.27217889214087
 20
1.493704819611166
 30
0.0
 41
0.9673611467037455
 10
28.26058809697123
 20
1.50033242628101
 30
0.0
 41
1.0
  0
SPLINE
  5
7F
330
1F
100
AcDbEntity
  8
LINEE VISIBILI 2D
100
AcDbSpline
210
0.0
220
0.0
230
1.0
 70
    24
 71
     2
 72
     6
 73
     3
 74
     0
 42
0.0000000001
 43
0.0000000001
 40
0.0
 40
0.0
 40
0.0
 40
0.1245972287149809
 40
0.1245972287149809
 40
0.1245972287149809
 10
28.26058809697123
 20
1.50033242628101
 30
0.0
 10
28.20663590878132
 20
1.531481723871549
 30
0.0
 10
28.1526837205914
 20
1.562631021462089
 30
0.0
  0
SPLINE
  5
80
330
1F
100
AcDbEntity
  8
LINEE VISIBILI 2D
100
AcDbSpline
210
0.0
220
0.0
230
1.0
 70
    12
 71
     2
 72
     6
 73
     3
 74
     0
 42
0.0000000001
 43
0.0000000001
 40
0.0
 40
0.0
 40
0.0
 40
4.89623241709221
 40
4.89623241709221
 40
4.89623241709221
 10
28.1526837205914
 20
1.562631021462089
 30
0.0
 41
1.0
 10
26.03298763996856
 20
2.787508477375127
 30
0.0
 41
0.9999795669249946
 10
23.92912486468165
 20
4.039386138719756
 30
0.0
 41
1.0
  0
SPLINE
  5
81
330
1F
100
AcDbEntity
  8
LINEE VISIBILI 2D
100
AcDbSpline
210
0.0
220
0.0
230
1.0
 70
    12
 71
     3
 72
     8
 73
     4
 74
     0
 42
0.0000000001
 43
0.0000000001
 40
0.0
 40
0.0
 40
0.0
 40
0.0
 40
1.0
 40
1.0
 40
1.0
 40
1.0
 10
23.92912486468165
 20
4.039386138719756
 30
0.0
 41
1.0
 10
23.81024567941367
 20
4.110116860395973
 30
0.0
 41
1.0
 10
23.7664579479013
 20
4.146658360881016
 30
0.0
 41
1.0
 10
23.8167888674498
 20
4.125925818135549
 30
0.0
 41
1.0
  0
SPLINE
  5
82
330
1F
100
AcDbEntity
  8
LINEE VISIBILI 2D
100
AcDbSpline
210
0.0
220
0.0
230
1.0
 70
    12
 71
     3
 72
     8
 73
     4
 74
     0
 42
0.0000000001
 43
0.0000000001
 40
-1.0
 40
-1.0
 40
-1.0
 40
-1.0
 40
-0.000000000002869
 40
-0.000000000002869
 40
-0.000000000002869
 40
-0.000000000002869
 10
23.8167888674498
 20
4.125925818135549
 30
0.0
 41
1.0
 10
25.77463062875944
 20
3.319463880820617
 30
0.0
 41
1.0
 10
26.80466312045905
 20
2.98056131440994
 30
0.0
 41
1.0
 10
26.86726660107564
 20
3.087029935155496
 30
0.0
 41
1.0
  0
SPLINE
  5
83
330
1F
100
AcDbEntity
  8
LINEE VISIBILI 2D
100
AcDbSpline
210
0.0
220
0.0
230
1.0
 70
    24
 71
     2
 72
     6
 73
     3
 74
     0
 42
0.0000000001
 43
0.0000000001
 40
0.0
 40
0.0
 40
0.0
 40
0.0153353315720365
 40
0.0153353315720365
 40
0.0153353315720365
 10
26.86726660107564
 20
3.087029935155496
 30
0.0
 10
26.87110067884423
 20
3.093670187128913
 30
0.0
 10
26.87493475661282
 20
3.10031043910233
 30
0.0
  0
SPLINE
  5
84
330
1F
100
AcDbEntity
  8
LINEE VISIBILI 2D
100
AcDbSpline
210
0.0
220
0.0
230
1.0
 70
    24
 71
     2
 72
     6
 73
     3
 74
     0
 42
0.0000000001
 43
0.0000000001
 40
0.0
 40
0.0
 40
0.0
 40
0.0989900459910829
 40
0.0989900459910829
 40
0.0989900459910829
 10
26.87493475661282
 20
3.10031043910233
 30
0.0
 10
26.90057679183384
 20
3.144547530685043
 30
0.0
 10
26.92621882705486
 20
3.188784622267756
 30
0.0
  0
SPLINE
  5
85
330
1F
100
AcDbEntity
  8
LINEE VISIBILI 2D
100
AcDbSpline
210
0.0
220
0.0
230
1.0
 70
    24
 71
     2
 72
     6
 73
     3
 74
     0
 42
0.0000000001
 43
0.0000000001
 40
0.0
 40
0.0
 40
0.0
 40
1.53866448320179
 40
1.53866448320179
 40
1.53866448320179
 10
26.92621882705486
 20
3.188784622267756
 30
0.0
 10
27.59337461597498
 20
2.805491645809551
 30
0.0
 10
28.2605304048951
 20
2.422198669351347
 30
0.0
  0
SPLINE
  5
86
330
1F
100
AcDbEntity
  8
LINEE VISIBILI 2D
100
AcDbSpline
210
0.0
220
0.0
230
1.0
 70
    12
 71
     2
 72
     6
 73
     3
 74
     0
 42
0.0000000001
 43
0.0000000001
 40
0.0
 40
0.0
 40
0.0
 40
0.0522541558449709
 40
0.0522541558449709
 40
0.0522541558449709
 10
28.2605304048951
 20
2.422198669351347
 30
0.0
 41
1.0
 10
28.28553040493436
 20
2.408145670918853
 30
0.0
 41
0.8717170671948402
 10
28.31053040497363
 20
2.4221986693513
 30
0.0
 41
1.0
  0
SPLINE
  5
87
330
1F
100
AcDbEntity
  8
LINEE VISIBILI 2D
100
AcDbSpline
210
0.0
220
0.0
230
1.0
 70
    12
 71
     2
 72
     6
 73
     3
 74
     0
 42
0.0000000001
 43
0.0000000001
 40
0.0
 40
0.0
 40
0.0
 40
0.1245177095676413
 40
0.1245177095676413
 40
0.1245177095676413
 10
29.34284469321703
 20
10.13028898491788
 30
0.0
 41
1.0
 10
29.28580597020462
 20
10.15524395990816
 30
0.0
 41
0.999999670939206
 10
29.22880781154625
 20
10.18029144699187
 30
0.0
 41
1.0
  0
SPLINE
  5
88
330
1F
100
AcDbEntity
  8
LINEE VISIBILI 2D
100
AcDbSpline
210
0.0
220
0.0
230
1.0
 70
    12
 71
     2
 72
     6
 73
     3
 74
     0
 42
0.0000000001
 43
0.0000000001
 40
0.0
 40
0.0
 40
0.0
 40
0.5674123682965742
 40
0.5674123682965742
 40
0.5674123682965742
 10
29.22880781154625
 20
10.18029144699187
 30
0.0
 41
1.0
 10
28.96627134162543
 20
10.2910236118669
 30
0.0
 41
0.9935522570938343
 10
28.68553746702198
 20
10.33976273400234
 30
0.0
 41
1.0
  0
SPLINE
  5
89
330
1F
100
AcDbEntity
  8
LINEE VISIBILI 2D
100
AcDbSpline
210
0.0
220
0.0
230
1.0
 70
    12
 71
     2
 72
     6
 73
     3
 74
     0
 42
0.0000000001
 43
0.0000000001
 40
0.0
 40
0.0
 40
0.0
 40
0.3463229255394065
 40
0.3463229255394065
 40
0.3463229255394065
 10
28.68553746702198
 20
10.33976273400234
 30
0.0
 41
1.0
 10
28.51420197409353
 20
10.36678466105973
 30
0.0
 41
0.9974784303067512
 10
28.34076660377826
 20
10.36927624740992
 30
0.0
 41
1.0
  0
SPLINE
  5
8A
330
1F
100
AcDbEntity
  8
LINEE VISIBILI 2D
100
AcDbSpline
210
0.0
220
0.0
230
1.0
 70
    12
 71
     2
 72
     8
 73
     5
 74
     0
 42
0.0000000001
 43
0.0000000001
 40
0.0
 40
0.0
 40
0.0
 40
0.0552362236810267
 40
0.0552362236810267
 40
0.1104333922851439
 40
0.1104333922851439
 40
0.1104333922851439
 10
28.34076660377826
 20
10.36927624740992
 30
0.0
 41
1.0
 10
28.31314851904482
 20
10.36928207445447
 30
0.0
 41
1.0
 10
28.28553043431138
 20
10.36928790149901
 30
0.0
 41
1.0
 10
28.25792201849479
 20
10.36929080244563
 30
0.0
 41
1.0
 10
28.2303136026782
 20
10.36929370339225
 30
0.0
 41
1.0
  0
SPLINE
  5
8B
330
1F
100
AcDbEntity
  8
LINEE VISIBILI 2D
100
AcDbSpline
210
0.0
220
0.0
230
1.0
 70
    12
 71
     2
 72
     6
 73
     3
 74
     0
 42
0.0000000001
 43
0.0000000001
 40
-0.3463352744125021
 40
-0.3463352744125021
 40
-0.3463352744125021
 40
0.0
 40
0.0
 40
0.0
 10
28.2303136026782
 20
10.36929370339225
 30
0.0
 41
1.0
 10
28.05683804019288
 20
10.36701265500093
 30
0.0
 41
0.9973802372937177
 10
27.88552661081158
 20
10.33972661771587
 30
0.0
 41
1.0
  0
SPLINE
  5
8C
330
1F
100
AcDbEntity
  8
LINEE VISIBILI 2D
100
AcDbSpline
210
0.0
220
0.0
230
1.0
 70
    12
 71
     2
 72
     6
 73
     3
 74
     0
 42
0.0000000001
 43
0.0000000001
 40
0.0
 40
0.0
 40
0.0
 40
0.5673527324610333
 40
0.5673527324610333
 40
0.5673527324610333
 10
27.88552661081158
 20
10.33972661771587
 30
0.0
 41
1.0
 10
27.60499428269922
 20
10.29032529028473
 30
0.0
 41
0.9938370790377896
 10
27.34224107605543
 20
10.18032696908615
 30
0.0
 41
1.0
  0
SPLINE
  5
8D
330
1F
100
AcDbEntity
  8
LINEE VISIBILI 2D
100
AcDbSpline
210
0.0
220
0.0
230
1.0
 70
    12
 71
     2
 72
     6
 73
     3
 74
     0
 42
0.0000000001
 43
0.0000000001
 40
0.0
 40
0.0
 40
0.0
 40
0.1245264389707924
 40
0.1245264389707924
 40
0.1245264389707924
 10
27.34224107605543
 20
10.18032696908615
 30
0.0
 41
1.0
 10
27.28525160965913
 20
10.15524884783908
 30
0.0
 41
0.9999994303036633
 10
27.22820873522177
 20
10.13029244743077
 30
0.0
 41
1.0
  0
SPLINE
  5
8E
330
1F
100
AcDbEntity
  8
LINEE VISIBILI 2D
100
AcDbSpline
210
0.0
220
0.0
230
1.0
 70
     8
 71
     3
 72
    13
 73
     9
 74
     0
 42
0.0000000001
 43
0.0000000001
 40
-6.0
 40
-6.0
 40
-6.0
 40
-6.0
 40
-5.0
 40
-4.0
 40
-3.0
 40
-2.0
 40
-1.0
 40
0.0
 40
0.0
 40
0.0
 40
0.0
 10
27.22820873522177
 20
10.13029244743077
 30
0.0
 10
27.06239285135866
 20
10.04273865756077
 30
0.0
 10
26.89688788511581
 20
9.946101613403638
 30
0.0
 10
26.70684929911997
 20
9.823043922366576
 30
0.0
 10
26.41833213703339
 20
9.608522980896247
 30
0.0
 10
26.24207196408461
 20
9.45776495679889
 30
0.0
 10
26.03538286005639
 20
9.254676274385874
 30
0.0
 10
25.93730314533286
 20
9.143222967302982
 30
0.0
 10
25.88534656785275
 20
9.067693877173355
 30
0.0
  0
SPLINE
  5
8F
330
1F
100
AcDbEntity
  8
LINEE VISIBILI 2D
100
AcDbSpline
210
0.0
220
0.0
230
1.0
 70
     8
 71
     3
 72
    13
 73
     9
 74
     0
 42
0.0000000001
 43
0.0000000001
 40
0.0
 40
0.0
 40
0.0
 40
0.0
 40
0.1782298389673339
 40
0.3734439604161155
 40
0.6497605860295669
 40
0.9418699364554116
 40
1.036101068717428
 40
1.125262935491662
 40
1.125262935491662
 40
1.125262935491662
 40
1.125262935491662
 10
25.88534656785275
 20
9.067693877173355
 30
0.0
 10
25.85029202580903
 20
9.019362334790138
 30
0.0
 10
25.78380568894304
 20
8.914892717378226
 30
0.0
 10
25.67443057141494
 20
8.726682946655387
 30
0.0
 10
25.58720008851396
 20
8.486857789893193
 30
0.0
 10
25.55177985431727
 20
8.267148359327093
 30
0.0
 10
25.56851434005702
 20
8.107492055054943
 30
0.0
 10
25.60503921823868
 20
8.05551496899564
 30
0.0
 10
25.6175889882634
 20
8.029208240857653
 30
0.0
  0
SPLINE
  5
90
330
1F
100
AcDbEntity
  8
LINEE VISIBILI 2D
100
AcDbSpline
210
0.0
220
0.0
230
1.0
 70
    12
 71
     2
 72
     6
 73
     3
 74
     0
 42
0.0000000001
 43
0.0000000001
 40
-1.078923525182191
 40
-1.078923525182191
 40
-1.078923525182191
 40
-0.0298687577247108
 40
-0.0298687577247108
 40
-0.0298687577247108
 10
25.6175889882634
 20
8.029208240857653
 30
0.0
 41
1.0
 10
25.6568417748303
 20
8.557327083663498
 30
0.0
 41
0.9855591050083556
 10
25.86784036252719
 20
9.043053230138824
 30
0.0
 41
0.9992004408398444
  0
SPLINE
  5
91
330
1F
100
AcDbEntity
  8
LINEE VISIBILI 2D
100
AcDbSpline
210
0.0
220
0.0
230
1.0
 70
     8
 71
     3
 72
    24
 73
    20
 74
     0
 42
0.0000000001
 43
0.0000000001
 40
0.0
 40
0.0
 40
0.0
 40
0.0
 40
1.322076246531511
 40
2.685613468064185
 40
5.107109726247113
 40
6.504319214115913
 40
7.322296128364994
 40
8.5252088631887
 40
9.755766441546339
 40
13.16775841676331
 40
14.77712924810455
 40
16.24671886882383
 40
17.53461460822875
 40
18.10228181008927
 40
18.67899347387954
 40
19.15199901179751
 40
19.54494215822488
 40
19.88930006764077
 40
20.99202582519914
 40
20.99202582519914
 40
20.99202582519914
 40
20.99202582519914
 10
28.22878047953356
 20
12.26706432362629
 30
0.0
 10
27.78823296075597
 20
12.25906631701593
 30
0.0
 10
26.89504157447152
 20
12.16297548210354
 30
0.0
 10
25.24389862994904
 20
11.73632905539537
 30
0.0
 10
23.70104223492532
 20
10.89071781854853
 30
0.0
 10
22.68607500380986
 20
9.697988709969183
 30
0.0
 10
22.16260755596215
 20
8.684090662858642
 30
0.0
 10
21.84217412407025
 20
7.642162701455366
 30
0.0
 10
21.60555531954226
 20
5.702856390073592
 30
0.0
 10
21.9612769754574
 20
3.600179804644828
 30
0.0
 10
22.98585148586054
 20
1.679659424603849
 30
0.0
 10
23.98184838767621
 20
0.5974282086983648
 30
0.0
 10
24.97379861648179
 20
0.0574422621395435
 30
0.0
 10
25.7942204112019
 20
-0.0258038380137372
 30
0.0
 10
26.32752478478571
 20
0.0740601377569228
 30
0.0
 10
26.7662623833097
 20
0.2777521868253957
 30
0.0
 10
27.08326564990912
 20
0.5307190086223602
 30
0.0
 10
27.52224383841023
 20
0.9619362889776917
 30
0.0
 10
27.72604956162286
 20
1.420844402188339
 30
0.0
 10
27.75840981389853
 20
1.790783763530488
 30
0.0
  0
SPLINE
  5
92
330
1F
100
AcDbEntity
  8
LINEE VISIBILI 2D
100
AcDbSpline
210
0.0
220
0.0
230
1.0
 70
     8
 71
     3
 72
    19
 73
    15
 74
     0
 42
0.0000000001
 43
0.0000000001
 40
-19.95823074912219
 40
-19.95823074912219
 40
-19.95823074912219
 40
-19.95823074912219
 40
-18.91866340527651
 40
-17.81218263747635
 40
-16.76766525199453
 40
-15.51608094050314
 40
-14.20778203465131
 40
-12.70652353773119
 40
-9.387529069469464
 40
-7.076421046497666
 40
-4.855329901096394
 40
-2.631368528436708
 40
-1.316089122359632
 40
0.0
 40
0.0
 40
0.0
 40
0.0
 10
27.75840981389853
 20
1.790783763530488
 30
0.0
 10
27.70160887892181
 20
1.444791438612516
 30
0.0
 10
27.35083690216089
 20
0.8002369738113627
 30
0.0
 10
26.42987476005651
 20
0.183293981434565
 30
0.0
 10
25.24960660796093
 20
0.1939273352771137
 30
0.0
 10
24.18194761618438
 20
0.8032980308381079
 30
0.0
 10
23.26150055131712
 20
1.80331859799574
 30
0.0
 10
22.26869701606902
 20
3.611855551275108
 30
0.0
 10
21.84247480443504
 20
5.994907925537396
 30
0.0
 10
22.30674214132955
 20
8.614449600232138
 30
0.0
 10
23.62331133856947
 20
10.51867372318232
 30
0.0
 10
25.35416880207182
 20
11.45048238448528
 30
0.0
 10
26.91200176750993
 20
11.86511637619026
 30
0.0
 10
27.79278318657818
 20
11.96388392991575
 30
0.0
 10
28.2292250221982
 20
11.97095800675359
 30
0.0
  0
SPLINE
  5
93
330
1F
100
AcDbEntity
  8
LINEE VISIBILI 2D
100
AcDbSpline
210
0.0
220
0.0
230
1.0
 70
    12
 71
     2
 72
     6
 73
     3
 74
     0
 42
0.0000000001
 43
0.0000000001
 40
-0.0563073944574647
 40
-0.0563073944574647
 40
-0.0563073944574647
 40
0.0
 40
0.0
 40
0.0
 10
28.2292250221982
 20
11.97095800675359
 30
0.0
 41
1.0
 10
28.25737623355325
 20
11.97136120303647
 30
0.0
 41
0.9999793403479692
 10
28.28553031164939
 20
11.97140246279776
 30
0.0
 41
1.0
  0
SPLINE
  5
94
330
1F
100
AcDbEntity
  8
LINEE VISIBILI 2D
100
AcDbSpline
210
0.0
220
0.0
230
1.0
 70
    12
 71
     2
 72
     6
 73
     3
 74
     0
 42
0.0000000001
 43
0.0000000001
 40
-0.0563077895792681
 40
-0.0563077895792681
 40
-0.0563077895792681
 40
0.0
 40
0.0
 40
0.0
 10
28.28553031164939
 20
11.97140246279776
 30
0.0
 41
1.0
 10
28.31368474275455
 20
11.97139925081419
 30
0.0
 41
0.9999726597604195
 10
28.3418360240788
 20
11.97097967085388
 30
0.0
 41
1.0
  0
SPLINE
  5
95
330
1F
100
AcDbEntity
  8
LINEE VISIBILI 2D
100
AcDbSpline
210
0.0
220
0.0
230
1.0
 70
     8
 71
     3
 72
    19
 73
    15
 74
     0
 42
0.0000000001
 43
0.0000000001
 40
-19.95861912063882
 40
-19.95861912063882
 40
-19.95861912063882
 40
-19.95861912063882
 40
-18.63962178745761
 40
-17.3215537559101
 40
-15.09402396585585
 40
-12.87366867773128
 40
-10.56350886731634
 40
-7.244913724858746
 40
-5.743740299710577
 40
-4.435559890929534
 40
-3.184821541900603
 40
-2.141503979333073
 40
-1.036937285418674
 40
0.0
 40
0.0
 40
0.0
 40
0.0
 10
28.3418360240788
 20
11.97097967085388
 30
0.0
 10
28.7792085560942
 20
11.96427182365454
 30
0.0
 10
29.66173508235312
 20
11.86451856011031
 30
0.0
 10
31.22217937189768
 20
11.4487566176677
 30
0.0
 10
32.95372899509674
 20
10.51397286688799
 30
0.0
 10
34.26677184240619
 20
8.606999110014074
 30
0.0
 10
34.72835538756534
 20
5.988308469202686
 30
0.0
 10
34.30134720656736
 20
3.60612849223024
 30
0.0
 10
33.30692697481078
 20
1.798874050573948
 30
0.0
 10
32.3855316841349
 20
0.8004580089065769
 30
0.0
 10
31.3177540913859
 20
0.1929259403814626
 30
0.0
 10
30.1390458352346
 20
0.1843683731355339
 30
0.0
 10
29.22036912954098
 20
0.80053555143128
 30
0.0
 10
28.87030043179855
 20
1.443551894253283
 30
0.0
 10
28.80705049478079
 20
1.787538563463332
 30
0.0
  0
SPLINE
  5
96
330
1F
100
AcDbEntity
  8
LINEE VISIBILI 2D
100
AcDbSpline
210
0.0
220
0.0
230
1.0
 70
     8
 71
     3
 72
    22
 73
    18
 74
     0
 42
0.0000000001
 43
0.0000000001
 40
0.0
 40
0.0
 40
0.0
 40
0.0
 40
1.102725757559482
 40
1.447083666975359
 40
1.84002681340271
 40
2.313032351320647
 40
2.889744015110879
 40
3.457411216971389
 40
4.745306956376178
 40
6.214896577095396
 40
7.824267408436602
 40
11.23625938365351
 40
13.66972969683483
 40
15.88491609895271
 40
18.30641235713561
 40
19.66994957866827
 40
20.99202633115629
 40
20.99202633115629
 40
20.99202633115629
 40
20.99202633115629
 10
28.80705049478079
 20
1.787538563463332
 30
0.0
 10
28.8450174701232
 20
1.420851009885179
 30
0.0
 10
29.04880168732064
 20
0.9619200570720043
 30
0.0
 10
29.48649273810899
 20
0.5284275354556343
 30
0.0
 10
29.80681674415197
 20
0.2816401441683041
 30
0.0
 10
30.23973420195236
 20
0.0673497711404605
 30
0.0
 10
30.78068752650061
 20
-0.0205149161651783
 30
0.0
 10
31.59319672141601
 20
0.0537268723471505
 30
0.0
 10
32.59335166801546
 20
0.599816981768698
 30
0.0
 10
33.58202302511027
 20
1.67864681602389
 30
0.0
 10
34.6126649456092
 20
3.600959475452326
 30
0.0
 10
35.03067886370234
 20
6.104615888027126
 30
0.0
 10
34.51376201705561
 20
8.78293594127407
 30
0.0
 10
33.12787899862076
 20
10.76459381874612
 30
0.0
 10
31.32060392369356
 20
11.73303669567904
 30
0.0
 10
29.67603589731861
 20
12.16297574025732
 30
0.0
 10
28.78282043896791
 20
12.25904076785333
 30
0.0
 10
28.34228089564541
 20
12.26711120128511
 30
0.0
  0
SPLINE
  5
97
330
1F
100
AcDbEntity
  8
LINEE VISIBILI 2D
100
AcDbSpline
210
0.0
220
0.0
230
1.0
 70
    12
 71
     2
 72
     6
 73
     3
 74
     0
 42
0.0000000001
 43
0.0000000001
 40
0.0
 40
0.0
 40
0.0
 40
0.0567515988922735
 40
0.0567515988922735
 40
0.0567515988922735
 10
28.34228089564541
 20
12.26711120128511
 30
0.0
 41
1.0
 10
28.31390636652433
 20
12.2673918572024
 30
0.0
 41
0.9999937812581153
 10
28.28553056366377
 20
12.2674723718293
 30
0.0
 41
1.0
  0
SPLINE
  5
98
330
1F
100
AcDbEntity
  8
LINEE VISIBILI 2D
100
AcDbSpline
210
0.0
220
0.0
230
1.0
 70
    12
 71
     2
 72
     6
 73
     3
 74
     0
 42
0.0000000001
 43
0.0000000001
 40
0.0
 40
0.0
 40
0.0
 40
0.0567516310422237
 40
0.0567516310422237
 40
0.0567516310422237
 10
28.28553056366377
 20
12.2674723718293
 30
0.0
 41
1.0
 10
28.25715492845411
 20
12.26735084044084
 30
0.0
 41
0.9999957740398498
 10
28.22878047953356
 20
12.26706432362629
 30
0.0
 41
1.0
  0
SPLINE
  5
99
330
1F
100
AcDbEntity
  8
LINEE VISIBILI 2D
100
AcDbSpline
210
0.0
220
0.0
230
1.0
 70
    24
 71
     2
 72
     6
 73
     3
 74
     0
 42
0.0000000001
 43
0.0000000001
 40
0.0
 40
0.0
 40
0.0
 40
0.0007612639098401
 40
0.0007612639098401
 40
0.0007612639098401
 10
21.73050333416609
 20
115.9365613040594
 30
0.0
 10
21.73040373796742
 20
115.936928674829
 30
0.0
 10
21.73030414176875
 20
115.9372960455985
 30
0.0
  0
SPLINE
  5
9A
330
1F
100
AcDbEntity
  8
LINEE VISIBILI 2D
100
AcDbSpline
210
0.0
220
0.0
230
1.0
 70
    24
 71
     2
 72
     6
 73
     3
 74
     0
 42
0.0000000001
 43
0.0000000001
 40
0.0
 40
0.0
 40
0.0
 40
0.0007602191148407
 40
0.0007602191148407
 40
0.0007602191148407
 10
21.73036744777312
 20
62.89065056081382
 30
0.0
 10
21.73046695807662
 20
62.89101741361146
 30
0.0
 10
21.73056646838012
 20
62.8913842664091
 30
0.0
  0
SPLINE
  5
9B
330
1F
100
AcDbEntity
  8
LINEE VISIBILI 2D
100
AcDbSpline
210
0.0
220
0.0
230
1.0
 70
    24
 71
     2
 72
     6
 73
     3
 74
     0
 42
0.0000000001
 43
0.0000000001
 40
0.0
 40
0.0
 40
0.0
 40
0.0007606964280234
 40
0.0007606964280234
 40
0.0007606964280234
 10
34.84069349318562
 20
115.9373125471817
 30
0.0
 10
34.84059392040386
 20
115.9369454640508
 30
0.0
 10
34.84049434762211
 20
115.9365783809198
 30
0.0
  0
SPLINE
  5
9C
330
1F
100
AcDbEntity
  8
LINEE VISIBILI 2D
100
AcDbSpline
210
0.0
220
0.0
230
1.0
 70
    24
 71
     2
 72
     6
 73
     3
 74
     0
 42
0.0000000001
 43
0.0000000001
 40
0.0
 40
0.0
 40
0.0
 40
0.0007608119824756
 40
0.0007608119824756
 40
0.0007608119824756
 10
34.84055763982698
 20
62.8914013661381
 30
0.0
 10
34.84065717690004
 20
62.8910342134597
 30
0.0
 10
34.84075671397309
 20
62.8906670607813
 30
0.0
  0
SPLINE
  5
9D
330
1F
100
AcDbEntity
  8
LINEE VISIBILI 2D
100
AcDbSpline
210
0.0
220
0.0
230
1.0
 70
    12
 71
     2
 72
     6
 73
     3
 74
     0
 42
0.0000000001
 43
0.0000000001
 40
0.0
 40
0.0
 40
0.0
 40
0.0637328564779914
 40
0.0637328564779914
 40
0.0637328564779914
 10
10.66353244377542
 20
78.61328421645179
 30
0.0
 41
1.0
 10
10.64754318973091
 20
78.58204764333726
 30
0.0
 41
0.8676933291338689
 10
10.66640264757105
 20
78.5524554045775
 30
0.0
 41
1.0
  0
SPLINE
  5
9E
330
1F
100
AcDbEntity
  8
LINEE VISIBILI 2D
100
AcDbSpline
210
0.0
220
0.0
230
1.0
 70
     8
 71
     3
 72
    13
 73
     9
 74
     0
 42
0.0000000001
 43
0.0000000001
 40
0.0
 40
0.0
 40
0.0
 40
0.0
 40
0.8513229521355072
 40
1.733692060061875
 40
4.092300992621568
 40
6.868885401019111
 40
8.583341167439414
 40
10.26553545647752
 40
10.26553545647752
 40
10.26553545647752
 40
10.26553545647752
 10
2.003444920923819
 20
114.6538584492909
 30
0.0
 10
2.235011823387595
 20
114.8183541930231
 30
0.0
 10
2.731250409588194
 20
115.1160842079682
 30
0.0
 10
3.990143836075904
 20
115.6522717442286
 30
0.0
 10
5.949358331015591
 20
116.114720876042
 30
0.0
 10
8.221827097535469
 20
116.3564368470577
 30
0.0
 10
10.27800929510227
 20
116.4468475608705
 30
0.0
 10
11.41034510481581
 20
116.4595816683593
 30
0.0
 10
11.97118602745739
 20
116.4459346368827
 30
0.0
  0
SPLINE
  5
9F
330
1F
100
AcDbEntity
  8
LINEE VISIBILI 2D
100
AcDbSpline
210
0.0
220
0.0
230
1.0
 70
    12
 71
     2
 72
     6
 73
     3
 74
     0
 42
0.0000000001
 43
0.0000000001
 40
0.0
 40
0.0
 40
0.0
 40
0.2647297894678688
 40
0.2647297894678688
 40
0.2647297894678688
 10
11.97118602745739
 20
116.4459346368827
 30
0.0
 41
1.0
 10
12.10205115672211
 20
116.4247174487951
 30
0.0
 41
0.9999999999999876
 10
12.23270993607771
 20
116.4035337583413
 30
0.0
 41
1.0
  0
SPLINE
  5
A0
330
1F
100
AcDbEntity
  8
LINEE VISIBILI 2D
100
AcDbSpline
210
0.0
220
0.0
230
1.0
 70
     8
 71
     3
 72
    12
 73
     8
 74
     0
 42
0.0000000001
 43
0.0000000001
 40
-10.26551811782288
 40
-10.26551811782288
 40
-10.26551811782288
 40
-10.26551811782288
 40
-8.529956218262793
 40
-6.169278052849898
 40
-3.392991700577537
 40
-1.679520121224118
 40
0.0
 40
0.0
 40
0.0
 40
0.0
 10
2.003451627653395
 20
64.17411444295192
 30
0.0
 10
2.474434800653874
 20
63.83634970019283
 30
0.0
 10
3.714502718136976
 20
63.23977763699084
 30
0.0
 10
5.952647054652377
 20
62.71309227840853
 30
0.0
 10
8.225142922567208
 20
62.47107902474863
 30
0.0
 10
10.2801459581921
 20
62.3811817273906
 30
0.0
 10
11.41120147903128
 20
62.36835419978254
 30
0.0
 10
11.97096884532007
 20
62.38199361612328
 30
0.0
  0
SPLINE
  5
A1
330
1F
100
AcDbEntity
  8
LINEE VISIBILI 2D
100
AcDbSpline
210
0.0
220
0.0
230
1.0
 70
    12
 71
     2
 72
     6
 73
     3
 74
     0
 42
0.0000000001
 43
0.0000000001
 40
0.0
 40
0.0
 40
0.0
 40
0.2279804625781754
 40
0.2279804625781754
 40
0.2279804625781754
 10
11.97096884532007
 20
62.38199361612328
 30
0.0
 41
1.0
 10
12.08349696973661
 20
62.4002365252247
 30
0.0
 41
0.9999999999999004
 10
12.19601792555085
 20
62.41847953294813
 30
0.0
 41
1.0
  0
SPLINE
  5
A2
330
1F
100
AcDbEntity
  8
LINEE VISIBILI 2D
100
AcDbSpline
210
0.0
220
0.0
230
1.0
 70
    12
 71
     2
 72
     6
 73
     3
 74
     0
 42
0.0000000001
 43
0.0000000001
 40
-0.1748638207477285
 40
-0.1748638207477285
 40
-0.1748638207477285
 40
0.0
 40
0.0
 40
0.0
 10
34.38432239793044
 20
62.53537081636237
 30
0.0
 41
1.0
 10
34.46857827136787
 20
62.55872619065219
 30
0.0
 41
0.9999816765533989
 10
34.55311217679235
 20
62.58106014356339
 30
0.0
 41
1.0
  0
SPLINE
  5
A3
330
1F
100
AcDbEntity
  8
LINEE VISIBILI 2D
100
AcDbSpline
210
0.0
220
0.0
230
1.0
 70
    12
 71
     3
 72
    12
 73
     8
 74
     0
 42
0.0000000001
 43
0.0000000001
 40
81.49147874710476
 40
81.49147874710476
 40
81.49147874710476
 40
81.49147874710476
 40
86.13439447136757
 40
92.7601181925261
 40
99.38584191368459
 40
106.0115656348432
 40
107.2918784720016
 40
107.2918784720016
 40
107.2918784720016
 40
107.2918784720016
 10
34.55311217679235
 20
62.58106014356339
 30
0.0
 41
1.0
 10
34.59728253046903
 20
62.59273204645277
 30
0.0
 41
1.0
 10
34.69202915273366
 20
62.62366415626823
 30
0.0
 41
1.0
 10
34.79573906703348
 20
62.68398833530357
 30
0.0
 41
1.0
 10
34.85352433174832
 20
62.76591766492669
 30
0.0
 41
1.0
 10
34.8563950002071
 20
62.83908975737717
 30
0.0
 41
1.0
 10
34.84585525120432
 20
62.88407877851719
 30
0.0
 41
1.0
 10
34.84373079388162
 20
62.89187313449717
 30
0.0
 41
1.0
  0
SPLINE
  5
A4
330
1F
100
AcDbEntity
  8
LINEE VISIBILI 2D
100
AcDbSpline
210
0.0
220
0.0
230
1.0
 70
     8
 71
     3
 72
    20
 73
    16
 74
     0
 42
0.0000000001
 43
0.0000000001
 40
0.0
 40
0.0
 40
0.0
 40
0.0
 40
0.1992768307780937
 40
0.4966237171980665
 40
0.8020099955626782
 40
2.228063672220948
 40
3.268610173040773
 40
5.20452841073639
 40
7.543702175875841
 40
10.25125557065527
 40
11.81463481382578
 40
13.29621573111083
 40
16.55448350939235
 40
20.60945367170696
 40
28.10041392999065
 40
28.10041392999065
 40
28.10041392999065
 40
28.10041392999065
 10
34.84373079388162
 20
62.89187313449717
 30
0.0
 10
34.82568989016537
 20
62.95694251884856
 30
0.0
 10
34.74086042252979
 20
63.09987972157923
 30
0.0
 10
34.57196300313618
 20
63.30793063185553
 30
0.0
 10
34.10380852063656
 20
63.79570786587146
 30
0.0
 10
33.44831896576494
 20
64.44771802724749
 30
0.0
 10
32.48399158496472
 20
65.55478135783068
 30
0.0
 10
31.47388998800114
 20
67.01806508918862
 30
0.0
 10
30.5059831759296
 20
69.14371493829779
 30
0.0
 10
29.86725641837119
 20
71.25584382747975
 30
0.0
 10
29.48844457020055
 20
73.1369533255714
 30
0.0
 10
29.14699690864272
 20
75.21021476745115
 30
0.0
 10
28.89560072851183
 20
78.1341314699044
 30
0.0
 10
28.79157971450502
 20
83.06824153573459
 30
0.0
 10
28.79303084513711
 20
86.917035116491
 30
0.0
 10
28.79298357859128
 20
89.41398108202833
 30
0.0
  0
SPLINE
  5
A5
330
1F
100
AcDbEntity
  8
LINEE VISIBILI 2D
100
AcDbSpline
210
0.0
220
0.0
230
1.0
 70
     8
 71
     3
 72
    20
 73
    16
 74
     0
 42
0.0000000001
 43
0.0000000001
 40
0.0
 40
0.0
 40
0.0
 40
0.0
 40
7.490960258283554
 40
11.54593042059816
 40
14.80419819887968
 40
16.28577911616468
 40
17.8491583593352
 40
20.5567117541146
 40
22.89588551925405
 40
24.83180375694964
 40
25.87235025776951
 40
27.29840393442781
 40
27.6037902127925
 40
27.90113709921248
 40
28.10041408411468
 40
28.10041408411468
 40
28.10041408411468
 40
28.10041408411468
 10
28.79298357859128
 20
89.41398108202833
 30
0.0
 10
28.79303084513696
 20
91.9109270475653
 30
0.0
 10
28.79157971450518
 20
95.7597206283224
 30
0.0
 10
28.89560072851162
 20
100.6938306941511
 30
0.0
 10
29.14699690864297
 20
103.6177473966064
 30
0.0
 10
29.4884445701998
 20
105.6910088384828
 30
0.0
 10
29.86725641837248
 20
107.5721183365807
 30
0.0
 10
30.50598317592646
 20
109.6842472257499
 30
0.0
 10
31.47388998800573
 20
111.8098970748823
 30
0.0
 10
32.4839915849558
 20
113.2731808061998
 30
0.0
 10
33.44831896578302
 20
114.3802441368636
 30
0.0
 10
34.10380852059816
 20
115.0322542980718
 30
0.0
 10
34.5719630031942
 20
115.5200315323726
 30
0.0
 10
34.74086045476366
 20
115.7280824818701
 30
0.0
 10
34.82568994333172
 20
115.8710197349112
 30
0.0
 10
34.84373082930433
 20
115.9360891588726
 30
0.0
  0
SPLINE
  5
A6
330
1F
100
AcDbEntity
  8
LINEE VISIBILI 2D
100
AcDbSpline
210
0.0
220
0.0
230
1.0
 70
    12
 71
     3
 72
    12
 73
     8
 74
     0
 42
0.0000000001
 43
0.0000000001
 40
-107.291872174148
 40
-107.291872174148
 40
-107.291872174148
 40
-107.291872174148
 40
-106.0115656605214
 40
-99.38584193989773
 40
-92.7601182192742
 40
-86.13439449865065
 40
-81.49147877476454
 40
-81.49147877476454
 40
-81.49147877476454
 40
-81.49147877476454
 10
34.84373082930433
 20
115.9360891588726
 30
0.0
 41
1.0
 10
34.84585526806396
 20
115.9438834575059
 30
0.0
 41
1.0
 10
34.85639499895773
 20
115.98887243852
 30
0.0
 41
1.0
 10
34.8535243317481
 20
116.06204449913
 30
0.0
 41
1.0
 10
34.79573906703328
 20
116.1439738287531
 30
0.0
 41
1.0
 10
34.6920291527335
 20
116.2042980077885
 30
0.0
 41
1.0
 10
34.59728253046891
 20
116.2352301176039
 30
0.0
 41
1.0
 10
34.55311217679225
 20
116.2469020204933
 30
0.0
 41
1.0
  0
SPLINE
  5
A7
330
1F
100
AcDbEntity
  8
LINEE VISIBILI 2D
100
AcDbSpline
210
0.0
220
0.0
230
1.0
 70
    12
 71
     2
 72
     6
 73
     3
 74
     0
 42
0.0000000001
 43
0.0000000001
 40
-0.1748634978420989
 40
-0.1748634978420989
 40
-0.1748634978420989
 40
0.0
 40
0.0
 40
0.0
 10
34.55311217679225
 20
116.2469020204933
 30
0.0
 41
1.0
 10
34.46857817781574
 20
116.2692350086755
 30
0.0
 41
0.9999815825134569
 10
34.38432292386071
 20
116.2925920338182
 30
0.0
 41
1.0
  0
SPLINE
  5
A8
330
1F
100
AcDbEntity
  8
LINEE VISIBILI 2D
100
AcDbSpline
210
0.0
220
0.0
230
1.0
 70
    12
 71
     2
 72
     6
 73
     3
 74
     0
 42
0.0000000001
 43
0.0000000001
 40
-0.1748580811907003
 40
-0.1748580811907003
 40
-0.1748580811907003
 40
0.0
 40
0.0
 40
0.0
 10
22.18673288101908
 20
116.2925898142519
 30
0.0
 41
1.0
 10
22.10247976375136
 20
116.2692352405975
 30
0.0
 41
0.9999816777851889
 10
22.01794863307661
 20
116.2469020204933
 30
0.0
 41
1.0
  0
SPLINE
  5
A9
330
1F
100
AcDbEntity
  8
LINEE VISIBILI 2D
100
AcDbSpline
210
0.0
220
0.0
230
1.0
 70
    12
 71
     3
 72
    12
 73
     8
 74
     0
 42
0.0000000001
 43
0.0000000001
 40
81.49147375453039
 40
81.49147375453039
 40
81.49147375453039
 40
81.49147375453039
 40
86.13438954646534
 40
92.76011336419057
 40
99.38583718191578
 40
106.0115609996411
 40
107.2918237578495
 40
107.2918237578495
 40
107.2918237578495
 40
107.2918237578495
 10
22.01794863307661
 20
116.2469020204933
 30
0.0
 41
1.0
 10
21.97377827939987
 20
116.2352301176039
 30
0.0
 41
1.0
 10
21.87903165713521
 20
116.2042980077884
 30
0.0
 41
1.0
 10
21.77532174283537
 20
116.1439738287531
 30
0.0
 41
1.0
 10
21.71753647812053
 20
116.0620444991299
 30
0.0
 41
1.0
 10
21.71466581955824
 20
115.988872658937
 30
0.0
 41
1.0
 10
21.72520542509207
 20
115.9438839556966
 30
0.0
 41
1.0
 10
21.72732983782886
 20
115.9360896813748
 30
0.0
 41
1.0
  0
SPLINE
  5
AA
330
1F
100
AcDbEntity
  8
LINEE VISIBILI 2D
100
AcDbSpline
210
0.0
220
0.0
230
1.0
 70
     8
 71
     3
 72
    20
 73
    16
 74
     0
 42
0.0000000001
 43
0.0000000001
 40
0.0
 40
0.0
 40
0.0
 40
0.0
 40
0.199277278835883
 40
0.4966241652558371
 40
0.8020104436204312
 40
2.228064120278714
 40
3.268610621098546
 40
5.204528858794164
 40
7.543702623933624
 40
10.25125601871303
 40
11.81463526188355
 40
13.29621617916856
 40
16.55448395745015
 40
20.60945411976479
 40
28.10041437607389
 40
28.10041437607389
 40
28.10041437607389
 40
28.10041437607389
 10
21.72732983782886
 20
115.9360896813748
 30
0.0
 10
21.74537076514743
 20
115.8710199059865
 30
0.0
 10
21.83020029361724
 20
115.7280825569968
 30
0.0
 10
21.99909780658103
 20
115.5200315326995
 30
0.0
 10
22.4672522893018
 20
115.0322542978556
 30
0.0
 10
23.12274184412103
 20
114.380244136968
 30
0.0
 10
24.08706922481813
 20
113.2731808061506
 30
0.0
 10
25.09717082207145
 20
111.8098970749104
 30
0.0
 10
26.06507763354765
 20
109.6842472257337
 30
0.0
 10
26.70380439224241
 20
107.5721183365878
 30
0.0
 10
27.08261623845388
 20
105.6910088384795
 30
0.0
 10
27.42406390409077
 20
103.6177473966065
 30
0.0
 10
27.67546007612827
 20
100.6938306941545
 30
0.0
 10
27.7794811083436
 20
95.75972062897215
 30
0.0
 10
27.7780299378933
 20
91.91092704889971
 30
0.0
 10
27.77807727528843
 20
89.41398108398195
 30
0.0
  0
SPLINE
  5
AB
330
1F
100
AcDbEntity
  8
LINEE VISIBILI 2D
100
AcDbSpline
210
0.0
220
0.0
230
1.0
 70
     8
 71
     3
 72
    20
 73
    16
 74
     0
 42
0.0000000001
 43
0.0000000001
 40
0.0
 40
0.0
 40
0.0
 40
0.0
 40
7.490960260216297
 40
11.54593042253096
 40
14.80419820081242
 40
16.28577911809745
 40
17.84915836126796
 40
20.55671175604738
 40
22.89588552118679
 40
24.83180375888244
 40
25.87235025970229
 40
27.2984039363606
 40
27.60379021472524
 40
27.90113710114524
 40
28.10041361501316
 40
28.10041361501316
 40
28.10041361501316
 40
28.10041361501316
 10
27.77807727528843
 20
89.41398108398195
 30
0.0
 10
27.77802993789309
 20
86.91703511776038
 30
0.0
 10
27.77948110837107
 20
83.06824153638945
 30
0.0
 10
27.67546007612787
 20
78.1341314698998
 30
0.0
 10
27.42406390409255
 20
75.21021476745587
 30
0.0
 10
27.08261623845035
 20
73.13695332556617
 30
0.0
 10
26.70380439224916
 20
71.25584382748887
 30
0.0
 10
26.06507763353351
 20
69.14371493827983
 30
0.0
 10
25.09717082209604
 20
67.01806508921918
 30
0.0
 10
24.08706922477527
 20
65.55478135777747
 30
0.0
 10
23.12274184421218
 20
64.44771802736025
 30
0.0
 10
22.46725228911327
 20
63.79570786563852
 30
0.0
 10
21.99909780687085
 20
63.30793063220813
 30
0.0
 10
21.83020045360571
 20
63.09987980257844
 30
0.0
 10
21.74537102903072
 20
62.95694270329646
 30
0.0
 10
21.72733016813107
 20
62.89187369141823
 30
0.0
  0
SPLINE
  5
AC
330
1F
100
AcDbEntity
  8
LINEE VISIBILI 2D
100
AcDbSpline
210
0.0
220
0.0
230
1.0
 70
    12
 71
     3
 72
    12
 73
     8
 74
     0
 42
0.0000000001
 43
0.0000000001
 40
-107.29192616106
 40
-107.29192616106
 40
-107.29192616106
 40
-107.29192616106
 40
-106.0115668715295
 40
-99.38584317613518
 40
-92.76011948074098
 40
-86.13439578534677
 40
-81.4914800791363
 40
-81.4914800791363
 40
-81.4914800791363
 40
-81.4914800791363
 10
21.72733016813107
 20
62.89187369141823
 30
0.0
 41
1.0
 10
21.72520568253223
 20
62.88407930724517
 30
0.0
 41
1.0
 10
21.71466580048456
 20
62.83908999130488
 30
0.0
 41
1.0
 10
21.71753647812074
 20
62.76591766492667
 30
0.0
 41
1.0
 10
21.77532174283555
 20
62.68398833530355
 30
0.0
 41
1.0
 10
21.87903165713537
 20
62.62366415626818
 30
0.0
 41
1.0
 10
21.9737782794
 20
62.59273204645272
 30
0.0
 41
1.0
 10
22.0179486330767
 20
62.58106014356334
 30
0.0
 41
1.0
  0
SPLINE
  5
AD
330
1F
100
AcDbEntity
  8
LINEE VISIBILI 2D
100
AcDbSpline
210
0.0
220
0.0
230
1.0
 70
    12
 71
     2
 72
     6
 73
     3
 74
     0
 42
0.0000000001
 43
0.0000000001
 40
-0.1748576992206038
 40
-0.1748576992206038
 40
-0.1748576992206038
 40
0.0
 40
0.0
 40
0.0
 10
22.0179486330767
 20
62.58106014356334
 30
0.0
 41
1.0
 10
22.10247982876075
 20
62.55872789577342
 30
0.0
 41
0.9999815837563827
 10
22.18673229818334
 20
62.53537167950439
 30
0.0
 41
1.0
  0
SPLINE
  5
AE
330
1F
100
AcDbEntity
  8
LINEE VISIBILI 2D
100
AcDbSpline
210
0.0
220
0.0
230
1.0
 70
     8
 71
     3
 72
    12
 73
     8
 74
     0
 42
0.0000000001
 43
0.0000000001
 40
0.0
 40
0.0
 40
0.0
 40
0.0
 40
3.16031138756234
 40
6.339554917935588
 40
12.80918285784292
 40
19.49424609922201
 40
26.76253540025782
 40
26.76253540025782
 40
26.76253540025782
 40
26.76253540025782
 10
21.74038981457565
 20
62.92762727408538
 30
0.0
 10
22.01540918866978
 20
63.94441166015241
 30
0.0
 10
22.53050863488918
 20
65.99454794643741
 30
0.0
 10
23.41382642281964
 20
70.17218847019002
 30
0.0
 10
24.26164253719399
 20
75.55437312473666
 30
0.0
 10
24.84292810101319
 20
82.3404278975245
 30
0.0
 10
24.97876016351607
 20
86.9912571473862
 30
0.0
 10
24.98452351535178
 20
89.41398076712218
 30
0.0
  0
SPLINE
  5
AF
330
1F
100
AcDbEntity
  8
LINEE VISIBILI 2D
100
AcDbSpline
210
0.0
220
0.0
230
1.0
 70
     8
 71
     3
 72
    11
 73
     7
 74
     0
 42
0.0000000001
 43
0.0000000001
 40
0.0
 40
0.0
 40
0.0
 40
0.0
 40
3.551114109519053
 40
7.268443947519499
 40
13.95257946214877
 40
26.76253429722816
 40
26.76253429722816
 40
26.76253429722816
 40
26.76253429722816
 10
24.98452351535178
 20
89.41398076712218
 30
0.0
 10
24.98688442573177
 20
90.59786702448241
 30
0.0
 10
24.94079822262449
 20
93.02017780272874
 30
0.0
 10
24.74450649170105
 20
97.66754276467313
 30
0.0
 10
24.07682285800582
 20
105.3793261924704
 30
0.0
 10
22.85543838047869
 20
111.7782174887821
 30
0.0
 10
21.74032191431505
 20
115.9003163475407
 30
0.0
  0
SPLINE
  5
B0
330
1F
100
AcDbEntity
  8
LINEE VISIBILI 2D
100
AcDbSpline
210
0.0
220
0.0
230
1.0
 70
     8
 71
     3
 72
    12
 73
     8
 74
     0
 42
0.0000000001
 43
0.0000000001
 40
0.0
 40
0.0
 40
0.0
 40
0.0
 40
3.160290605306166
 40
6.339516862891556
 40
12.80910968422552
 40
19.49413672257772
 40
26.76253606323944
 40
26.76253606323944
 40
26.76253606323944
 40
26.76253606323944
 10
34.83067087920839
 20
115.9003349213998
 30
0.0
 10
34.55565332857361
 20
114.8835572189372
 30
0.0
 10
34.04055671178868
 20
112.8334333070249
 30
0.0
 10
33.15724263916999
 20
108.6558169406938
 30
0.0
 10
32.30942785771462
 20
103.2736620244482
 30
0.0
 10
31.7281350296633
 20
96.48759494194768
 30
0.0
 10
31.59230105789468
 20
91.83674102052434
 30
0.0
 10
31.58653738253879
 20
89.41398074170593
 30
0.0
  0
SPLINE
  5
B1
330
1F
100
AcDbEntity
  8
LINEE VISIBILI 2D
100
AcDbSpline
210
0.0
220
0.0
230
1.0
 70
     8
 71
     3
 72
    11
 73
     7
 74
     0
 42
0.0000000001
 43
0.0000000001
 40
0.0
 40
0.0
 40
0.0
 40
0.0
 40
3.550983969690392
 40
7.268333927032421
 40
13.95250560237405
 40
26.76253358854144
 40
26.76253358854144
 40
26.76253358854144
 40
26.76253358854144
 10
31.58653738253879
 20
89.41398074170593
 30
0.0
 10
31.58417651828541
 20
88.230137873776
 30
0.0
 10
31.63026066218813
 20
85.80786374388867
 30
0.0
 10
31.82654744103993
 20
81.16052322260883
 30
0.0
 10
32.49422765640211
 20
73.44869615657963
 30
0.0
 10
33.71561632927814
 20
67.04976829010128
 30
0.0
 10
34.83073917603909
 20
62.92764589243191
 30
0.0
  0
SPLINE
  5
B2
330
1F
100
AcDbEntity
  8
LINEE VISIBILI 2D
100
AcDbSpline
210
0.0
220
0.0
230
1.0
 70
     8
 71
     3
 72
    19
 73
    15
 74
     0
 42
0.0000000001
 43
0.0000000001
 40
0.0
 40
0.0
 40
0.0
 40
0.0
 40
1.236148840147893
 40
2.380101309322008
 40
3.544447124405858
 40
4.946344874282195
 40
6.068101803714385
 40
7.435164347336101
 40
8.22558263232031
 40
13.6719454482081
 40
16.92909461868847
 40
19.21147907227098
 40
22.0810918854002
 40
26.12469961064786
 40
26.12469961064786
 40
26.12469961064786
 40
26.12469961064786
 10
2.075221954712401
 20
64.13539488252815
 30
0.0
 10
1.725821999948878
 20
64.35415484940926
 30
0.0
 10
1.100041035855139
 20
64.85178052104237
 30
0.0
 10
0.4184964068821609
 20
65.83643047419939
 30
0.0
 10
0.0576168389221191
 20
67.03087056560638
 30
0.0
 10
-0.0235359879260159
 20
68.2627851858305
 30
0.0
 10
0.041061225122934
 20
69.55800505637947
 30
0.0
 10
0.1492233359522753
 20
70.64654127894494
 30
0.0
 10
0.5187873394129449
 20
73.15391642232154
 30
0.0
 10
1.064188485436699
 20
76.27215372704414
 30
0.0
 10
1.507961932746996
 20
79.90827178259963
 30
0.0
 10
1.721605753390537
 20
82.70357138153713
 30
0.0
 10
1.916722265843456
 20
85.76238646688448
 30
0.0
 10
1.99986033758833
 20
88.0660203371932
 30
0.0
 10
2.000354525424804
 20
89.41398108202833
 30
0.0
  0
SPLINE
  5
B3
330
1F
100
AcDbEntity
  8
LINEE VISIBILI 2D
100
AcDbSpline
210
0.0
220
0.0
230
1.0
 70
     8
 71
     3
 72
    19
 73
    15
 74
     0
 42
0.0000000001
 43
0.0000000001
 40
0.0
 40
0.0
 40
0.0
 40
0.0
 40
4.043607725247615
 40
6.913220538376765
 40
9.195604991959353
 40
12.45275416243955
 40
17.8991169783274
 40
18.68953526331159
 40
20.0565978069333
 40
21.17835473636553
 40
22.58025248624187
 40
23.74459830132567
 40
24.88855077049977
 40
26.12456642180183
 40
26.12456642180183
 40
26.12456642180183
 40
26.12456642180183
 10
2.000354525424804
 20
89.41398108202833
 30
0.0
 10
1.999860337434294
 20
90.7619418269473
 30
0.0
 10
1.916722266132382
 20
93.06557569701533
 30
0.0
 10
1.721605753113939
 20
96.12439078267016
 30
0.0
 10
1.507961933185848
 20
98.91969038121873
 30
0.0
 10
1.064188484404534
 20
102.5558084375728
 30
0.0
 10
0.5187873410336413
 20
105.6740457408555
 30
0.0
 10
0.1492233342107412
 20
108.1814208860569
 30
0.0
 10
0.0410612312968696
 20
109.269957104326
 30
0.0
 10
-0.023535999611297
 20
110.565176984571
 30
0.0
 10
0.0576168613647794
 20
111.7970915862427
 30
0.0
 10
0.4184963669826897
 20
112.9915317117012
 30
0.0
 10
1.100015513496587
 20
113.9761445936246
 30
0.0
 10
1.725751824132586
 20
114.4737517067771
 30
0.0
 10
2.075109153031975
 20
114.6924964641542
 30
0.0
  0
SPLINE
  5
B4
330
1F
100
AcDbEntity
  8
LINEE VISIBILI 2D
100
AcDbSpline
210
0.0
220
0.0
230
1.0
 70
    24
 71
     2
 72
     6
 73
     3
 74
     0
 42
0.0000000001
 43
0.0000000001
 40
-0.0004281242905096
 40
-0.0004281242905096
 40
-0.0004281242905096
 40
0.0
 40
0.0
 40
0.0
 10
34.55138700434743
 20
116.0151593440185
 30
0.0
 10
34.55144323711484
 20
116.0153660418819
 30
0.0
 10
34.55149946988226
 20
116.0155727397452
 30
0.0
  0
SPLINE
  5
B5
330
1F
100
AcDbEntity
  8
LINEE VISIBILI 2D
100
AcDbSpline
210
0.0
220
0.0
230
1.0
 70
    12
 71
     3
 72
    12
 73
     8
 74
     0
 42
0.0000000001
 43
0.0000000001
 40
0.7646005496762447
 40
0.7646005496762447
 40
0.7646005496762447
 40
0.7646005496762447
 40
0.8795380455154215
 40
0.8795380455154215
 40
0.9413496071361327
 40
0.9413496071361327
 40
1.0
 40
1.0
 40
1.0
 40
1.0
 10
34.55149946988226
 20
116.0155727397452
 30
0.0
 41
1.0
 10
34.62868327758116
 20
116.2980065006039
 30
0.0
 41
1.0
 10
34.25934868546766
 20
116.3972118320022
 30
0.0
 41
1.0
 10
32.51076977584087
 20
116.4516037606754
 30
0.0
 41
1.0
 10
31.74292346700701
 20
116.4544639550395
 30
0.0
 41
1.0
 10
30.14393990075851
 20
116.4521681895193
 30
0.0
 41
1.0
 10
29.17236263266835
 20
116.4456894541972
 30
0.0
 41
1.0
 10
28.34183602407882
 20
116.4459680934971
 30
0.0
 41
1.0
  0
SPLINE
  5
B6
330
1F
100
AcDbEntity
  8
LINEE VISIBILI 2D
100
AcDbSpline
210
0.0
220
0.0
230
1.0
 70
    12
 71
     2
 72
     6
 73
     3
 74
     0
 42
0.0000000001
 43
0.0000000001
 40
0.0
 40
0.0
 40
0.0
 40
0.05630573683207
 40
0.05630573683207
 40
0.05630573683207
 10
28.34183602407882
 20
116.4459680934971
 30
0.0
 41
1.0
 10
28.31368315692393
 20
116.4459571306291
 30
0.0
 41
0.9999999534669539
 10
28.28553028832036
 20
116.4459633448037
 30
0.0
 41
1.0
  0
SPLINE
  5
B7
330
1F
100
AcDbEntity
  8
LINEE VISIBILI 2D
100
AcDbSpline
210
0.0
220
0.0
230
1.0
 70
    12
 71
     2
 72
     6
 73
     3
 74
     0
 42
0.0000000001
 43
0.0000000001
 40
0.0
 40
0.0
 40
0.0
 40
0.0563052811834662
 40
0.0563052811834662
 40
0.0563052811834662
 10
28.28553028832036
 20
116.4459633448037
 30
0.0
 41
1.0
 10
28.25737764721306
 20
116.4459589395971
 30
0.0
 41
0.9999999541667253
 10
28.22922500859959
 20
116.4459715816502
 30
0.0
 41
1.0
  0
SPLINE
  5
B8
330
1F
100
AcDbEntity
  8
LINEE VISIBILI 2D
100
AcDbSpline
210
0.0
220
0.0
230
1.0
 70
    12
 71
     3
 72
    12
 73
     8
 74
     0
 42
0.0000000001
 43
0.0000000001
 40
0.0
 40
0.0
 40
0.0
 40
0.0
 40
0.0587187083073854
 40
0.0587187083073854
 40
0.1204015361215451
 40
0.1204015361215451
 40
0.235611052980383
 40
0.235611052980383
 40
0.235611052980383
 40
0.235611052980383
 10
28.22922500859959
 20
116.4459715816502
 30
0.0
 41
1.0
 10
27.39763175684194
 20
116.4458345664181
 30
0.0
 41
1.0
 10
26.4336476414682
 20
116.4522058935509
 30
0.0
 41
1.0
 10
24.83430025808885
 20
116.4544325863569
 30
0.0
 41
1.0
 10
24.06696006452796
 20
116.4516090980934
 30
0.0
 41
1.0
 10
22.31274732789374
 20
116.3976229040325
 30
0.0
 41
1.0
 10
21.94212596050808
 20
116.2987423521946
 30
0.0
 41
1.0
 10
22.01984405545734
 20
116.0156108454023
 30
0.0
 41
1.0
  0
SPLINE
  5
B9
330
1F
100
AcDbEntity
  8
LINEE VISIBILI 2D
100
AcDbSpline
210
0.0
220
0.0
230
1.0
 70
    24
 71
     2
 72
     6
 73
     3
 74
     0
 42
0.0000000001
 43
0.0000000001
 40
-0.0003911966002738
 40
-0.0003911966002738
 40
-0.0003911966002738
 40
0.0
 40
0.0
 40
0.0
 10
22.01984405545734
 20
116.0156108454023
 30
0.0
 10
22.01989560490391
 20
116.0154220323183
 30
0.0
 10
22.01994715435047
 20
116.0152332192344
 30
0.0
  0
SPLINE
  5
BA
330
1F
100
AcDbEntity
  8
LINEE VISIBILI 2D
100
AcDbSpline
210
0.0
220
0.0
230
1.0
 70
     8
 71
     3
 72
    20
 73
    16
 74
     0
 42
0.0000000001
 43
0.0000000001
 40
0.0
 40
0.0
 40
0.0
 40
0.0
 40
0.1960681389161243
 40
0.4281845783059949
 40
0.7261264915653264
 40
1.685793304787679
 40
2.212425294788417
 40
3.316201360734592
 40
5.233796425701977
 40
7.63986911182097
 40
10.47030933523651
 40
16.42143966441229
 40
19.85885329012583
 40
23.84379921801846
 40
28.10059475525498
 40
28.10059475525498
 40
28.10059475525498
 40
28.10059475525498
 10
22.01994715435047
 20
116.0152332192344
 30
0.0
 10
22.03771504665639
 20
115.9520260269451
 30
0.0
 10
22.10933678692608
 20
115.8271303100527
 30
0.0
 10
22.26065362233318
 20
115.6381257226587
 30
0.0
 10
22.5986459476136
 20
115.2739402194263
 30
0.0
 10
23.01522408486979
 20
114.8498352760443
 30
0.0
 10
23.59848061544649
 20
114.2125030785956
 30
0.0
 10
24.36602092150444
 20
113.3129377437519
 30
0.0
 10
25.36789034921294
 20
111.7974432416486
 30
0.0
 10
26.32000024931677
 20
109.603575340978
 30
0.0
 10
27.30011657659171
 20
105.9952415172839
 30
0.0
 10
27.72194420179395
 20
101.9299794608358
 30
0.0
 10
27.77712014321015
 20
97.4736719048533
 30
0.0
 10
27.78618141388807
 20
93.57977478711126
 30
0.0
 10
27.79104089246402
 20
90.83310442631945
 30
0.0
 10
27.79057750223521
 20
89.41398093724456
 30
0.0
  0
SPLINE
  5
BB
330
1F
100
AcDbEntity
  8
LINEE VISIBILI 2D
100
AcDbSpline
210
0.0
220
0.0
230
1.0
 70
     8
 71
     3
 72
    20
 73
    16
 74
     0
 42
0.0000000001
 43
0.0000000001
 40
0.0
 40
0.0
 40
0.0
 40
0.0
 40
4.25669657955767
 40
8.238876307990925
 40
11.67559927499929
 40
17.63057861437421
 40
20.45724287354838
 40
22.86386611101772
 40
24.78263671274361
 40
25.88675926831083
 40
26.41327909787818
 40
27.37301597234363
 40
27.67111303804934
 40
27.9034400183727
 40
28.10057492585079
 40
28.10057492585079
 40
28.10057492585079
 40
28.10057492585079
 10
27.79057750223521
 20
89.41398093724456
 30
0.0
 10
27.79103336695809
 20
87.99488901493977
 30
0.0
 10
27.7862008771267
 20
85.24917791086081
 30
0.0
 10
27.77709501529371
 20
81.35645989440978
 30
0.0
 10
27.72205595771556
 20
76.90003261181863
 30
0.0
 10
27.30055911752108
 20
72.83492408851454
 30
0.0
 10
26.32057222602373
 20
69.2263571082634
 30
0.0
 10
25.36921007392343
 20
67.03292197137733
 30
0.0
 10
24.36727612417564
 20
65.51663051184387
 30
0.0
 10
23.59951832851891
 20
64.61662835208372
 30
0.0
 10
23.01623384999784
 20
63.97918528704148
 30
0.0
 10
22.59964314415937
 20
63.55504065822831
 30
0.0
 10
22.26149143177273
 20
63.19080337469859
 30
0.0
 10
22.1097903887716
 20
63.00150416384829
 30
0.0
 10
22.03783245201271
 20
62.87630106406944
 30
0.0
 10
22.0199524548092
 20
62.812751715677
 30
0.0
  0
SPLINE
  5
BC
330
1F
100
AcDbEntity
  8
LINEE VISIBILI 2D
100
AcDbSpline
210
0.0
220
0.0
230
1.0
 70
    24
 71
     2
 72
     6
 73
     3
 74
     0
 42
0.0000000001
 43
0.0000000001
 40
-0.0004147458452544
 40
-0.0004147458452544
 40
-0.0004147458452544
 40
0.0
 40
0.0
 40
0.0
 10
22.0199524548092
 20
62.812751715677
 30
0.0
 10
22.01986604112032
 20
62.81256050880357
 30
0.0
 10
22.01977962743145
 20
62.81236930193015
 30
0.0
  0
SPLINE
  5
BD
330
1F
100
AcDbEntity
  8
LINEE VISIBILI 2D
100
AcDbSpline
210
0.0
220
0.0
230
1.0
 70
    12
 71
     3
 72
    12
 73
     8
 74
     0
 42
0.0000000001
 43
0.0000000001
 40
-0.2355891206159839
 40
-0.2355891206159839
 40
-0.2355891206159839
 40
-0.2355891206159839
 40
-0.1204749251740275
 40
-0.1204749251740275
 40
-0.0587557658709287
 40
-0.0587557658709287
 40
0.0
 40
0.0
 40
0.0
 40
0.0
 10
22.01977962743145
 20
62.81236930193015
 30
0.0
 41
1.0
 10
21.94218431040904
 20
62.52943700807464
 30
0.0
 41
1.0
 10
22.31229937536858
 20
62.43044836061561
 30
0.0
 41
1.0
 10
24.0647829310031
 20
62.37636821231843
 30
0.0
 41
1.0
 10
24.83235699317236
 20
62.37353201672506
 30
0.0
 41
1.0
 10
26.43253910285943
 20
62.37574858952794
 30
0.0
 41
1.0
 10
27.39711636737087
 20
62.38212710251287
 30
0.0
 41
1.0
 10
28.22922498154103
 20
62.38199109658761
 30
0.0
 41
1.0
  0
SPLINE
  5
BE
330
1F
100
AcDbEntity
  8
LINEE VISIBILI 2D
100
AcDbSpline
210
0.0
220
0.0
230
1.0
 70
    12
 71
     2
 72
     6
 73
     3
 74
     0
 42
0.0000000001
 43
0.0000000001
 40
0.0
 40
0.0
 40
0.0
 40
0.0563053546451569
 40
0.0563053546451569
 40
0.0563053546451569
 10
28.22922498154103
 20
62.38199109658761
 30
0.0
 41
1.0
 10
28.25737765720088
 20
62.38200276202619
 30
0.0
 41
0.9999999598190585
 10
28.2855303349498
 20
62.38199846592613
 30
0.0
 41
1.0
  0
SPLINE
  5
BF
330
1F
100
AcDbEntity
  8
LINEE VISIBILI 2D
100
AcDbSpline
210
0.0
220
0.0
230
1.0
 70
    12
 71
     2
 72
     6
 73
     3
 74
     0
 42
0.0000000001
 43
0.0000000001
 40
0.0
 40
0.0
 40
0.0
 40
0.0563056586428041
 40
0.0563056586428041
 40
0.0563056586428041
 10
28.2855303349498
 20
62.38199846592613
 30
0.0
 41
1.0
 10
28.31368316448668
 20
62.38200487032741
 30
0.0
 41
0.9999999497063657
 10
28.34183599242231
 20
62.3819934171095
 30
0.0
 41
1.0
  0
SPLINE
  5
C0
330
1F
100
AcDbEntity
  8
LINEE VISIBILI 2D
100
AcDbSpline
210
0.0
220
0.0
230
1.0
 70
    12
 71
     3
 72
    12
 73
     8
 74
     0
 42
0.0000000001
 43
0.0000000001
 40
-1.0
 40
-1.0
 40
-1.0
 40
-1.0
 40
-0.9414034313927789
 40
-0.9414034313927789
 40
-0.8796450102734736
 40
-0.8796450102734736
 40
-0.7645919231088554
 40
-0.7645919231088554
 40
-0.7645919231088554
 40
-0.7645919231088554
 10
28.34183599242231
 20
62.3819934171095
 30
0.0
 41
1.0
 10
29.17168255908652
 20
62.38227191160342
 30
0.0
 41
1.0
 10
30.14247739316064
 20
62.37580268914877
 30
0.0
 41
1.0
 10
31.74036056883681
 20
62.37349360249616
 30
0.0
 41
1.0
 10
32.5078866851722
 20
62.37633667014946
 30
0.0
 41
1.0
 10
34.25874949001521
 20
62.43060390109534
 30
0.0
 41
1.0
 10
34.62876424292796
 20
62.52967464631332
 30
0.0
 41
1.0
 10
34.55149892233209
 20
62.81238845336374
 30
0.0
 41
1.0
  0
SPLINE
  5
C1
330
1F
100
AcDbEntity
  8
LINEE VISIBILI 2D
100
AcDbSpline
210
0.0
220
0.0
230
1.0
 70
    24
 71
     2
 72
     6
 73
     3
 74
     0
 42
0.0000000001
 43
0.0000000001
 40
-0.000406033174876
 40
-0.000406033174876
 40
-0.000406033174876
 40
0.0
 40
0.0
 40
0.0
 10
34.55149892233209
 20
62.81238845336374
 30
0.0
 10
34.55144559442657
 20
62.81258447924091
 30
0.0
 10
34.55139226652104
 20
62.81278050511809
 30
0.0
  0
SPLINE
  5
C2
330
1F
100
AcDbEntity
  8
LINEE VISIBILI 2D
100
AcDbSpline
210
0.0
220
0.0
230
1.0
 70
     8
 71
     3
 72
    19
 73
    15
 74
     0
 42
0.0000000001
 43
0.0000000001
 40
0.0
 40
0.0
 40
0.0
 40
0.0
 40
0.1964893070216766
 40
0.4286152728025727
 40
0.7265176715224125
 40
2.212841066390595
 40
3.317501194167064
 40
5.237043845708549
 40
7.644792156162042
 40
10.47492501743696
 40
16.42503771223402
 40
19.86148381149626
 40
23.84516718156027
 40
28.10077739238666
 40
28.10077739238666
 40
28.10077739238666
 40
28.10077739238666
 10
34.55139226652104
 20
62.81278050511809
 30
0.0
 10
34.53379736618418
 20
62.87632556556208
 30
0.0
 10
34.46124964333857
 20
63.00033917262007
 30
0.0
 10
34.31171510729465
 20
63.19161204455056
 30
0.0
 10
33.84999000821166
 20
63.67957065769217
 30
0.0
 10
33.17879627501577
 20
64.3712402158358
 30
0.0
 10
32.20457188807589
 20
65.51670932634045
 30
0.0
 10
31.20145471126534
 20
67.0328453734514
 30
0.0
 10
30.24987113087647
 20
69.22841326465995
 30
0.0
 10
29.27009015449906
 20
72.83676605667884
 30
0.0
 10
28.84916107240154
 20
76.9014768369084
 30
0.0
 10
28.79390166225685
 20
81.35660833132059
 30
0.0
 10
28.78489226807942
 20
85.24942299202345
 30
0.0
 10
28.7800122720402
 20
87.99524022403266
 30
0.0
 10
28.78048447917337
 20
89.41398093724459
 30
0.0
  0
SPLINE
  5
C3
330
1F
100
AcDbEntity
  8
LINEE VISIBILI 2D
100
AcDbSpline
210
0.0
220
0.0
230
1.0
 70
     8
 71
     3
 72
    20
 73
    16
 74
     0
 42
0.0000000001
 43
0.0000000001
 40
0.0
 40
0.0
 40
0.0
 40
0.0
 40
4.255510707901268
 40
8.236429464992211
 40
11.67218557091948
 40
17.6261455653786
 40
20.45250361495238
 40
22.8591524322325
 40
24.77831906268591
 40
25.88356273499347
 40
26.41099127517716
 40
27.37210149807612
 40
27.67055813458952
 40
27.90316534054653
 40
28.10075764957445
 40
28.10075764957445
 40
28.10075764957445
 40
28.10075764957445
 10
28.78048447917337
 20
89.41398093724459
 30
0.0
 10
28.7800300294202
 20
90.83267767439368
 30
0.0
 10
28.7848522514845
 20
93.57757279839181
 30
0.0
 10
28.79395240556006
 20
97.4691537206121
 30
0.0
 10
28.84899967962293
 20
101.9244950879007
 30
0.0
 10
29.26973846535692
 20
105.988885398713
 30
0.0
 10
30.2490186943757
 20
109.5972095575863
 30
0.0
 10
31.19971349814519
 20
111.7909370042157
 30
0.0
 10
32.20128887714271
 20
113.3081037418671
 30
0.0
 10
32.96951497390538
 20
114.2087779757179
 30
0.0
 10
33.55366695602807
 20
114.846968817029
 30
0.0
 10
33.97087613136263
 20
115.2717345191312
 30
0.0
 10
34.30954086873565
 20
115.6364147240691
 30
0.0
 10
34.46145352075473
 20
115.826011531747
 30
0.0
 10
34.53352071643908
 20
115.9514444356464
 30
0.0
 10
34.55138700434743
 20
116.0151593440185
 30
0.0
  0
SPLINE
  5
C4
330
1F
100
AcDbEntity
  8
LINEE VISIBILI 2D
100
AcDbSpline
210
0.0
220
0.0
230
1.0
 70
    12
 71
     2
 72
     6
 73
     3
 74
     0
 42
0.0000000001
 43
0.0000000001
 40
0.0
 40
0.0
 40
0.0
 40
3.352568129927373
 40
3.352568129927373
 40
3.352568129927373
 10
31.7523828374801
 20
112.6042099222634
 30
0.0
 41
1.0
 10
30.09884859980357
 20
112.9040557731255
 30
0.0
 41
0.9962404077081856
 10
28.41837708927716
 20
112.9139810820282
 30
0.0
 41
1.0
  0
SPLINE
  5
C5
330
1F
100
AcDbEntity
  8
LINEE VISIBILI 2D
100
AcDbSpline
210
0.0
220
0.0
230
1.0
 70
    24
 71
     2
 72
     6
 73
     3
 74
     0
 42
0.0000000001
 43
0.0000000001
 40
0.0
 40
0.0
 40
0.0
 40
0.1079043763804677
 40
0.1079043763804677
 40
0.1079043763804677
 10
28.41837708927716
 20
112.9139810820282
 30
0.0
 10
28.36442490108693
 20
112.9139810827817
 30
0.0
 10
28.31047271289669
 20
112.9139810835351
 30
0.0
  0
SPLINE
  5
C6
330
1F
100
AcDbEntity
  8
LINEE VISIBILI 2D
100
AcDbSpline
210
0.0
220
0.0
230
1.0
 70
    12
 71
     2
 72
     6
 73
     3
 74
     0
 42
0.0000000001
 43
0.0000000001
 40
0.0
 40
0.0
 40
0.0
 40
0.0249477184065228
 40
0.0249477184065228
 40
0.0249477184065228
 10
28.31047271289669
 20
112.9139810835351
 30
0.0
 41
1.0
 10
28.29799754892754
 20
112.9139863258353
 30
0.0
 41
0.9998429913551622
 10
28.28553040493391
 20
112.9144336111819
 30
0.0
 41
1.0
  0
SPLINE
  5
C7
330
1F
100
AcDbEntity
  8
LINEE VISIBILI 2D
100
AcDbSpline
210
0.0
220
0.0
230
1.0
 70
    12
 71
     2
 72
     6
 73
     3
 74
     0
 42
0.0000000001
 43
0.0000000001
 40
0.0
 40
0.0
 40
0.0
 40
0.024947718406416
 40
0.024947718406416
 40
0.024947718406416
 10
28.28553040493391
 20
112.9144336111819
 30
0.0
 41
1.0
 10
28.27306326094033
 20
112.9139863258359
 30
0.0
 41
0.9998429913559846
 10
28.26058809697123
 20
112.9139810835352
 30
0.0
 41
1.0
  0
SPLINE
  5
C8
330
1F
100
AcDbEntity
  8
LINEE VISIBILI 2D
100
AcDbSpline
210
0.0
220
0.0
230
1.0
 70
    24
 71
     2
 72
     6
 73
     3
 74
     0
 42
0.0000000001
 43
0.0000000001
 40
0.0
 40
0.0
 40
0.0
 40
0.1079043763798211
 40
0.1079043763798211
 40
0.1079043763798211
 10
28.26058809697123
 20
112.9139810835352
 30
0.0
 10
28.20663590878132
 20
112.9139810827818
 30
0.0
 10
28.15268372059141
 20
112.9139810820284
 30
0.0
  0
SPLINE
  5
C9
330
1F
100
AcDbEntity
  8
LINEE VISIBILI 2D
100
AcDbSpline
210
0.0
220
0.0
230
1.0
 70
    12
 71
     2
 72
     6
 73
     3
 74
     0
 42
0.0000000001
 43
0.0000000001
 40
0.0
 40
0.0
 40
0.0
 40
3.352551448243453
 40
3.352551448243453
 40
3.352551448243453
 10
28.15268372059141
 20
112.9139810820284
 30
0.0
 41
1.0
 10
26.47222061411827
 20
112.9040558185269
 30
0.0
 41
0.996240445330754
 10
24.81869438607861
 20
112.6042128992211
 30
0.0
 41
1.0
  0
SPLINE
  5
CA
330
1F
100
AcDbEntity
  8
PREDEFINITO
100
AcDbSpline
210
0.0
220
0.0
230
1.0
 70
    12
 71
     2
 72
     6
 73
     3
 74
     0
 42
0.0000000001
 43
0.0000000001
 40
0.0
 40
0.0
 40
0.0
 40
2.470558064899859
 40
2.470558064899859
 40
2.470558064899859
 10
10.66404740157842
 20
100.2138154223304
 30
0.0
 41
1.0
 10
10.6092082384029
 20
98.9797351035572
 30
0.0
 41
0.9999767626713302
 10
10.5711997083133
 20
97.74502180945143
 30
0.0
 41
1.0
  0
SPLINE
  5
CB
330
1F
100
AcDbEntity
  8
PREDEFINITO
100
AcDbSpline
210
0.0
220
0.0
230
1.0
 70
    12
 71
     2
 72
     6
 73
     3
 74
     0
 42
0.0000000001
 43
0.0000000001
 40
0.0
 40
0.0
 40
0.0
 40
0.0438294025281931
 40
0.0438294025281931
 40
0.0438294025281931
 10
10.5711997083133
 20
97.74502180945143
 30
0.0
 41
1.0
 10
10.57052297101021
 20
97.72311576874365
 30
0.0
 41
0.9998774884913668
 10
10.57052133064343
 20
97.70119484811565
 30
0.0
 41
1.0
  0
SPLINE
  5
CC
330
1F
100
AcDbEntity
  8
PREDEFINITO
100
AcDbSpline
210
0.0
220
0.0
230
1.0
 70
    12
 71
     2
 72
     6
 73
     3
 74
     0
 42
0.0000000001
 43
0.0000000001
 40
0.0
 40
0.0
 40
0.0
 40
2.126850328056491
 40
2.126850328056491
 40
2.126850328056491
 10
10.57052133064343
 20
97.70119484811565
 30
0.0
 41
1.0
 10
10.57111068568284
 20
96.37165560578728
 30
0.0
 41
0.7251213900591371
 10
11.90057907076074
 20
96.30356463714949
 30
0.0
 41
1.0
  0
SPLINE
  5
CD
330
1F
100
AcDbEntity
  8
PREDEFINITO
100
AcDbSpline
210
0.0
220
0.0
230
1.0
 70
    12
 71
     2
 72
     6
 73
     3
 74
     0
 42
0.0000000001
 43
0.0000000001
 40
0.0
 40
0.0
 40
0.0
 40
0.0194151401893152
 40
0.0194151401893152
 40
0.0194151401893152
 10
11.90057907076074
 20
96.30356463714949
 30
0.0
 41
1.0
 10
11.91194915409152
 20
96.30300761753882
 30
0.0
 41
0.9999759600469941
 10
11.92165096608556
 20
96.30266882280611
 30
0.0
 41
1.0
  0
SPLINE
  5
CE
330
1F
100
AcDbEntity
  8
PREDEFINITO
100
AcDbSpline
210
0.0
220
0.0
230
1.0
 70
    24
 71
     2
 72
     6
 73
     3
 74
     0
 42
0.0000000001
 43
0.0000000001
 40
0.0
 40
0.0
 40
0.0
 40
1.501467719872162
 40
1.501467719872162
 40
1.501467719872162
 10
11.92165096608556
 20
96.30266882280611
 30
0.0
 10
12.67192749923831
 20
96.2764685889368
 30
0.0
 10
13.42220403239107
 20
96.25026835506748
 30
0.0
  0
SPLINE
  5
CF
330
1F
100
AcDbEntity
  8
PREDEFINITO
100
AcDbSpline
210
0.0
220
0.0
230
1.0
 70
    24
 71
     2
 72
     6
 73
     3
 74
     0
 42
0.0000000001
 43
0.0000000001
 40
0.0
 40
0.0
 40
0.0
 40
0.0625321466397963
 40
0.0625321466397963
 40
0.0625321466397963
 10
13.42220403239107
 20
96.25026835506748
 30
0.0
 10
13.42220403239107
 20
96.21900228174758
 30
0.0
 10
13.42220403239107
 20
96.18773620842768
 30
0.0
  0
SPLINE
  5
D0
330
1F
100
AcDbEntity
  8
PREDEFINITO
100
AcDbSpline
210
0.0
220
0.0
230
1.0
 70
    24
 71
     2
 72
     6
 73
     3
 74
     0
 42
0.0000000001
 43
0.0000000001
 40
0.0
 40
0.0
 40
0.0
 40
1.531495013118061
 40
1.531495013118061
 40
1.531495013118061
 10
13.42220403239107
 20
96.18773620842768
 30
0.0
 10
13.42220403239104
 20
95.42198870186866
 30
0.0
 10
13.42220403239102
 20
94.65624119530962
 30
0.0
  0
SPLINE
  5
D1
330
1F
100
AcDbEntity
  8
PREDEFINITO
100
AcDbSpline
210
0.0
220
0.0
230
1.0
 70
    24
 71
     2
 72
     6
 73
     3
 74
     0
 42
0.0000000001
 43
0.0000000001
 40
0.0
 40
0.0
 40
0.0
 40
10.48452022656564
 40
10.48452022656564
 40
10.48452022656564
 10
13.42220403239102
 20
94.65624119530962
 30
0.0
 10
13.42220403239091
 20
89.4139810820268
 30
0.0
 10
13.4222040323908
 20
84.17172096874398
 30
0.0
  0
SPLINE
  5
D2
330
1F
100
AcDbEntity
  8
PREDEFINITO
100
AcDbSpline
210
0.0
220
0.0
230
1.0
 70
    24
 71
     2
 72
     6
 73
     3
 74
     0
 42
0.0000000001
 43
0.0000000001
 40
0.0
 40
0.0
 40
0.0
 40
1.531495013229559
 40
1.531495013229559
 40
1.531495013229559
 10
13.4222040323908
 20
84.17172096874398
 30
0.0
 10
13.42220403239079
 20
83.4059734621292
 30
0.0
 10
13.42220403239077
 20
82.64022595551442
 30
0.0
  0
SPLINE
  5
D3
330
1F
100
AcDbEntity
  8
PREDEFINITO
100
AcDbSpline
210
0.0
220
0.0
230
1.0
 70
    24
 71
     2
 72
     6
 73
     3
 74
     0
 42
0.0000000001
 43
0.0000000001
 40
0.0
 40
0.0
 40
0.0
 40
0.0625321465253279
 40
0.0625321465253279
 40
0.0625321465253279
 10
13.42220403239077
 20
82.64022595551442
 30
0.0
 10
13.42220403239077
 20
82.60895988225175
 30
0.0
 10
13.42220403239077
 20
82.5776938089891
 30
0.0
  0
SPLINE
  5
D4
330
1F
100
AcDbEntity
  8
PREDEFINITO
100
AcDbSpline
210
0.0
220
0.0
230
1.0
 70
    24
 71
     2
 72
     6
 73
     3
 74
     0
 42
0.0000000001
 43
0.0000000001
 40
0.0
 40
0.0
 40
0.0
 40
1.501467719871661
 40
1.501467719871661
 40
1.501467719871661
 10
13.42220403239077
 20
82.5776938089891
 30
0.0
 10
12.67192749923826
 20
82.55149357511982
 30
0.0
 10
11.92165096608574
 20
82.52529334125056
 30
0.0
  0
SPLINE
  5
D5
330
1F
100
AcDbEntity
  8
PREDEFINITO
100
AcDbSpline
210
0.0
220
0.0
230
1.0
 70
    12
 71
     2
 72
     6
 73
     3
 74
     0
 42
0.0000000001
 43
0.0000000001
 40
0.0
 40
0.0
 40
0.0
 40
2.149930628411989
 40
2.149930628411989
 40
2.149930628411989
 10
11.92165096608574
 20
82.52529334125056
 30
0.0
 41
1.0
 10
10.57081571015587
 20
82.4781189650724
 30
0.0
 41
0.719418833464259
 10
10.57052131009718
 20
81.1259509832328
 30
0.0
 41
1.0
  0
SPLINE
  5
D6
330
1F
100
AcDbEntity
  8
PREDEFINITO
100
AcDbSpline
210
0.0
220
0.0
230
1.0
 70
    12
 71
     2
 72
     6
 73
     3
 74
     0
 42
0.0000000001
 43
0.0000000001
 40
0.0
 40
0.0
 40
0.0
 40
0.0425082102505058
 40
0.0425082102505058
 40
0.0425082102505058
 10
10.57052131009718
 20
81.1259509832328
 30
0.0
 41
1.0
 10
10.5705433737491
 20
81.10418595719199
 30
0.0
 41
0.9998847630026664
 10
10.57119970831348
 20
81.08294035460935
 30
0.0
 41
1.0
  0
SPLINE
  5
D7
330
1F
100
AcDbEntity
  8
PREDEFINITO
100
AcDbSpline
210
0.0
220
0.0
230
1.0
 70
    12
 71
     2
 72
     6
 73
     3
 74
     0
 42
0.0000000001
 43
0.0000000001
 40
0.0
 40
0.0
 40
0.0
 40
2.470558064904057
 40
2.470558064904057
 40
2.470558064904057
 10
10.57119970831348
 20
81.08294035460935
 30
0.0
 41
1.0
 10
10.60920823840272
 20
79.84822706050146
 30
0.0
 41
0.9999767626713288
 10
10.66404740157841
 20
78.61414674172619
 30
0.0
 41
1.0
  0
SPLINE
  5
D8
330
1F
100
AcDbEntity
  8
PREDEFINITO
100
AcDbSpline
210
0.0
220
0.0
230
1.0
 70
    12
 71
     2
 72
     6
 73
     3
 74
     0
 42
0.0000000001
 43
0.0000000001
 40
-0.2512113238982949
 40
-0.2512113238982949
 40
-0.2512113238982949
 40
0.0
 40
0.0
 40
0.0
 10
10.66404740157841
 20
78.61414674172619
 30
0.0
 41
1.0
 10
10.54663669753623
 20
78.66030283144839
 30
0.0
 41
0.9934542504262582
 10
10.44276595689816
 20
78.73190260296634
 30
0.0
 41
1.0
  0
SPLINE
  5
D9
330
1F
100
AcDbEntity
  8
PREDEFINITO
100
AcDbSpline
210
0.0
220
0.0
230
1.0
 70
    12
 71
     2
 72
     6
 73
     3
 74
     0
 42
0.0000000001
 43
0.0000000001
 40
-0.1896346954318779
 40
-0.1896346954318779
 40
-0.1896346954318779
 40
0.0
 40
0.0
 40
0.0
 10
10.44276595689816
 20
78.73190260296634
 30
0.0
 41
1.0
 10
10.36264143632436
 20
78.7827366313478
 30
0.0
 41
0.9988581510398824
 10
10.28773425237496
 20
78.84098567452826
 30
0.0
 41
1.0
  0
SPLINE
  5
DA
330
1F
100
AcDbEntity
  8
PREDEFINITO
100
AcDbSpline
210
0.0
220
0.0
230
1.0
 70
    12
 71
     2
 72
     6
 73
     3
 74
     0
 42
0.0000000001
 43
0.0000000001
 40
-0.2324945031912082
 40
-0.2324945031912082
 40
-0.2324945031912082
 40
0.0
 40
0.0
 40
0.0
 10
10.28773425237496
 20
78.84098567452826
 30
0.0
 41
1.0
 10
10.19585109700217
 20
78.91236716120913
 30
0.0
 41
0.9986477625508332
 10
10.11187637712256
 20
78.99290334750556
 30
0.0
 41
1.0
  0
SPLINE
  5
DB
330
1F
100
AcDbEntity
  8
PREDEFINITO
100
AcDbSpline
210
0.0
220
0.0
230
1.0
 70
    12
 71
     2
 72
     6
 73
     3
 74
     0
 42
0.0000000001
 43
0.0000000001
 40
-0.5746117845404167
 40
-0.5746117845404167
 40
-0.5746117845404167
 40
0.0
 40
0.0
 40
0.0
 10
10.11187637712256
 20
78.99290334750556
 30
0.0
 41
1.0
 10
9.904628523373235
 20
79.19351167375767
 30
0.0
 41
0.9941328445016254
 10
9.745373607622398
 20
79.43399711043642
 30
0.0
 41
1.0
  0
SPLINE
  5
DC
330
1F
100
AcDbEntity
  8
PREDEFINITO
100
AcDbSpline
210
0.0
220
0.0
230
1.0
 70
    12
 71
     3
 72
    12
 73
     8
 74
     0
 42
0.0000000001
 43
0.0000000001
 40
-1.0
 40
-1.0
 40
-1.0
 40
-1.0
 40
-0.7705758499909273
 40
-0.7705758499909273
 40
-0.5152097894742206
 40
-0.5152097894742206
 40
-0.0000019348536008
 40
-0.0000019348536008
 40
-0.0000019348536008
 40
-0.0000019348536008
 10
9.745373607622398
 20
79.43399711043642
 30
0.0
 41
1.0
 10
9.388445039417498
 20
79.96548481489926
 30
0.0
 41
1.0
 10
9.133912853219577
 20
80.75832607951196
 30
0.0
 41
1.0
 10
8.823684187259225
 20
82.19879204454492
 30
0.0
 41
1.0
 10
8.740640169780143
 20
82.96150806756214
 30
0.0
 41
1.0
 10
8.560784026196586
 20
85.29374638473689
 30
0.0
 41
1.0
 10
8.547373665698522
 20
86.85247181773262
 30
0.0
 41
1.0
 10
8.532346345824102
 20
88.41387240753609
 30
0.0
 41
1.0
  0
POLYLINE
  5
DD
330
1F
100
AcDbEntity
  8
PREDEFINITO
100
AcDb2dPolyline
 66
     1
 10
0.0
 20
0.0
 30
0.0
  0
VERTEX
  5
DF
330
DD
100
AcDbEntity
  8
PREDEFINITO
100
AcDbVertex
100
AcDb2dVertex
 10
8.532346345824102
 20
88.41387240753609
 30
0.0
  0
VERTEX
  5
E0
330
DD
100
AcDbEntity
  8
PREDEFINITO
100
AcDbVertex
100
AcDb2dVertex
 10
8.520310841406257
 20
89.41398108528992
 30
0.0
  0
SEQEND
  5
DE
330
DD
100
AcDbEntity
  8
PREDEFINITO
  0
SPLINE
  5
E1
330
1F
100
AcDbEntity
  8
PREDEFINITO
100
AcDbSpline
210
0.0
220
0.0
230
1.0
 70
    12
 71
     2
 72
     6
 73
     3
 74
     0
 42
0.0000000001
 43
0.0000000001
 40
0.0
 40
0.0
 40
0.0
 40
0.6628871955601632
 40
0.6628871955601632
 40
0.6628871955601632
 10
8.520310841406257
 20
89.41398108528992
 30
0.0
 41
1.0
 10
8.518437169006646
 20
89.74546084066745
 30
0.0
 41
0.9998124320784666
 10
8.529402372569987
 20
90.07676448263987
 30
0.0
 41
1.0
  0
SPLINE
  5
E2
330
1F
100
AcDbEntity
  8
PREDEFINITO
100
AcDbSpline
210
0.0
220
0.0
230
1.0
 70
    12
 71
     2
 72
     6
 73
     3
 74
     0
 42
0.0000000001
 43
0.0000000001
 40
-0.3373381207948621
 40
-0.3373381207948621
 40
-0.3373381207948621
 40
0.0
 40
0.0
 40
0.0
 10
8.529402372569987
 20
90.07676448263987
 30
0.0
 41
1.0
 10
8.530890885663116
 20
90.24542697534713
 30
0.0
 41
0.9999999951994366
 10
8.532346345824141
 20
90.41408975652058
 30
0.0
 41
1.0
  0
SPLINE
  5
E3
330
1F
100
AcDbEntity
  8
PREDEFINITO
100
AcDbSpline
210
0.0
220
0.0
230
1.0
 70
    12
 71
     3
 72
    12
 73
     8
 74
     0
 42
0.0000000001
 43
0.0000000001
 40
0.0000019348536008
 40
0.0000019348536008
 40
0.0000019348536008
 40
0.0000019348536008
 40
0.5153522640621936
 40
0.5153522640621936
 40
0.7706591591525155
 40
0.7706591591525155
 40
1.0
 40
1.0
 40
1.0
 40
1.0
 10
8.532346345824141
 20
90.41408975652058
 30
0.0
 41
1.0
 10
8.547378228242813
 20
91.97596441351672
 30
0.0
 41
1.0
 10
8.560796712889875
 20
93.53516021652224
 30
0.0
 41
1.0
 10
8.740766952627595
 20
95.86771121221716
 30
0.0
 41
1.0
 10
8.823849379045079
 20
96.63025796620909
 30
0.0
 41
1.0
 10
9.134119723793184
 20
98.07030807383205
 30
0.0
 41
1.0
 10
9.388580130150736
 20
98.8626785072426
 30
0.0
 41
1.0
 10
9.745373607615598
 20
99.39396505361873
 30
0.0
 41
1.0
  0
SPLINE
  5
E4
330
1F
100
AcDbEntity
  8
PREDEFINITO
100
AcDbSpline
210
0.0
220
0.0
230
1.0
 70
    12
 71
     2
 72
     6
 73
     3
 74
     0
 42
0.0000000001
 43
0.0000000001
 40
-0.5746117845458851
 40
-0.5746117845458851
 40
-0.5746117845458851
 40
0.0
 40
0.0
 40
0.0
 10
9.745373607615598
 20
99.39396505361873
 30
0.0
 41
1.0
 10
9.904628523369617
 20
99.63445049029869
 30
0.0
 41
0.9941328445015578
 10
10.11187637712255
 20
99.83505881655103
 30
0.0
 41
1.0
  0
SPLINE
  5
E5
330
1F
100
AcDbEntity
  8
PREDEFINITO
100
AcDbSpline
210
0.0
220
0.0
230
1.0
 70
    12
 71
     2
 72
     6
 73
     3
 74
     0
 42
0.0000000001
 43
0.0000000001
 40
-0.2324945031911897
 40
-0.2324945031911897
 40
-0.2324945031911897
 40
0.0
 40
0.0
 40
0.0
 10
10.11187637712255
 20
99.83505881655103
 30
0.0
 41
1.0
 10
10.19585109700213
 20
99.91559500284748
 30
0.0
 41
0.9986477625508161
 10
10.28773425237494
 20
99.98697648952832
 30
0.0
 41
1.0
  0
SPLINE
  5
E6
330
1F
100
AcDbEntity
  8
PREDEFINITO
100
AcDbSpline
210
0.0
220
0.0
230
1.0
 70
    12
 71
     2
 72
     6
 73
     3
 74
     0
 42
0.0000000001
 43
0.0000000001
 40
-0.1896346954319029
 40
-0.1896346954319029
 40
-0.1896346954319029
 40
0.0
 40
0.0
 40
0.0
 10
10.28773425237494
 20
99.98697648952832
 30
0.0
 41
1.0
 10
10.36264143632436
 20
100.0452255327087
 30
0.0
 41
0.9988581510398918
 10
10.44276595689816
 20
100.0960595610902
 30
0.0
 41
1.0
  0
SPLINE
  5
E7
330
1F
100
AcDbEntity
  8
PREDEFINITO
100
AcDbSpline
210
0.0
220
0.0
230
1.0
 70
    12
 71
     2
 72
     6
 73
     3
 74
     0
 42
0.0000000001
 43
0.0000000001
 40
-0.2513357966893627
 40
-0.2513357966893627
 40
-0.2513357966893627
 40
0.0
 40
0.0
 40
0.0
 10
10.44276595689816
 20
100.0960595610902
 30
0.0
 41
1.0
 10
10.5471580176922
 20
100.166674897691
 30
0.0
 41
0.9947783938583704
 10
10.66370317055789
 20
100.2146483892313
 30
0.0
 41
0.9999938057308501
  0
SPLINE
  5
E8
330
1F
100
AcDbEntity
  8
PREDEFINITO
100
AcDbSpline
210
0.0
220
0.0
230
1.0
 70
    12
 71
     2
 72
     6
 73
     3
 74
     0
 42
0.0000000001
 43
0.0000000001
 40
-0.0608004020807048
 40
-0.0608004020807048
 40
-0.0608004020807048
 40
0.0
 40
0.0
 40
0.0
 10
10.66370317055789
 20
100.2146483892313
 30
0.0
 41
0.9999999999910361
 10
10.6651796516217
 20
100.2449904209428
 30
0.0
 41
0.9999999939724326
 10
10.66680587087797
 20
100.275324457363
 30
0.0
 41
1.0
  0
SPLINE
  5
E9
330
1F
100
AcDbEntity
  8
PREDEFINITO
100
AcDbSpline
210
0.0
220
0.0
230
1.0
 70
     8
 71
     3
 72
    12
 73
     8
 74
     0
 42
0.0000000001
 43
0.0000000001
 40
-10.38461241862004
 40
-10.38461241862004
 40
-10.38461241862004
 40
-10.38461241862004
 40
-8.563733363370162
 40
-6.310536942012388
 40
-3.538979241080407
 40
-1.937396387053064
 40
0.0
 40
0.0
 40
0.0
 40
0.0
 10
2.127695584450485
 20
64.1028460281982
 30
0.0
 10
2.646254997316258
 20
63.78574530653396
 30
0.0
 10
3.905214724853932
 20
63.2563474724888
 30
0.0
 10
6.140134175291436
 20
62.76644911713635
 30
0.0
 10
8.340272369771542
 20
62.54945601950396
 30
0.0
 10
10.44160417472665
 20
62.45093201296245
 30
0.0
 10
11.62137503505438
 20
62.43508170348171
 30
0.0
 10
12.2672989370207
 20
62.43003613459496
 30
0.0
  0
SPLINE
  5
EA
330
1F
100
AcDbEntity
  8
PREDEFINITO
100
AcDbSpline
210
0.0
220
0.0
230
1.0
 70
    12
 71
     2
 72
    14
 73
    11
 74
     0
 42
0.0000000001
 43
0.0000000001
 40
-16.21088041302786
 40
-16.21088041302786
 40
-16.21088041302786
 40
-14.67146117029431
 40
-14.67146117029431
 40
-12.96950641256626
 40
-12.96950641256626
 40
-9.565367572705293
 40
-9.565367572705293
 40
-2.756552451895356
 40
-2.756552451895356
 40
0.0
 40
0.0
 40
0.0
 10
12.2672989370207
 20
62.43003613459496
 30
0.0
 41
0.9999999999977869
 10
12.14465056515751
 20
63.18992089214919
 30
0.0
 41
0.9999815976515115
 10
12.03104233358459
 20
63.95120966864895
 30
0.0
 41
1.0
 10
11.90588466061769
 20
64.79294682189686
 30
0.0
 41
0.9999757791353251
 10
11.79245575528563
 20
65.63634457011268
 30
0.0
 41
1.0
 10
11.56581376618198
 20
67.323354729521
 30
0.0
 41
0.999914683071436
 10
11.38331819895462
 20
69.01570966779904
 30
0.0
 41
1.0
 10
11.01972567495427
 20
72.40125487966414
 30
0.0
 41
0.9997331467405683
 10
10.81289536040321
 20
75.79998068885709
 30
0.0
 41
1.0
 10
10.72846961703909
 20
77.17570019817686
 30
0.0
 41
0.9999658341605964
 10
10.66679865426682
 20
78.55262741731968
 30
0.0
 41
1.0
  0
SPLINE
  5
EB
330
1F
100
AcDbEntity
  8
PREDEFINITO
100
AcDbSpline
210
0.0
220
0.0
230
1.0
 70
    12
 71
     2
 72
     6
 73
     3
 74
     0
 42
0.0000000001
 43
0.0000000001
 40
0.0
 40
0.0
 40
0.0
 40
0.2522450874634704
 40
0.2522450874634704
 40
0.2522450874634704
 10
10.66679865426682
 20
78.55262741731968
 30
0.0
 41
1.0
 10
10.55050398581601
 20
78.60238448599588
 30
0.0
 41
0.9956250502304237
 10
10.44549777170083
 20
78.67291044825885
 30
0.0
 41
1.0
  0
SPLINE
  5
EC
330
1F
100
AcDbEntity
  8
PREDEFINITO
100
AcDbSpline
210
0.0
220
0.0
230
1.0
 70
    12
 71
     2
 72
     6
 73
     3
 74
     0
 42
0.0000000001
 43
0.0000000001
 40
0.0
 40
0.0
 40
0.0
 40
0.1924288258667531
 40
0.1924288258667531
 40
0.1924288258667531
 10
10.44549777170083
 20
78.67291044825885
 30
0.0
 41
1.0
 10
10.36434029501292
 20
78.72470775757894
 30
0.0
 41
0.9990060950243456
 10
10.28811832297753
 20
78.78352704405839
 30
0.0
 41
1.0
  0
SPLINE
  5
ED
330
1F
100
AcDbEntity
  8
PREDEFINITO
100
AcDbSpline
210
0.0
220
0.0
230
1.0
 70
    12
 71
     2
 72
     6
 73
     3
 74
     0
 42
0.0000000001
 43
0.0000000001
 40
0.0
 40
0.0
 40
0.0
 40
0.2363771637244081
 40
0.2363771637244081
 40
0.2363771637244081
 10
10.28811832297753
 20
78.78352704405839
 30
0.0
 41
1.0
 10
10.19473960116053
 20
78.85613599325426
 30
0.0
 41
0.9987615206131243
 10
10.10815123575114
 20
78.9385113955484
 30
0.0
 41
1.0
  0
SPLINE
  5
EE
330
1F
100
AcDbEntity
  8
PREDEFINITO
100
AcDbSpline
210
0.0
220
0.0
230
1.0
 70
    12
 71
     2
 72
     6
 73
     3
 74
     0
 42
0.0000000001
 43
0.0000000001
 40
0.0
 40
0.0
 40
0.0
 40
0.5963137728056834
 40
0.5963137728056834
 40
0.5963137728056834
 10
10.10815123575114
 20
78.9385113955484
 30
0.0
 41
1.0
 10
9.891867218243213
 20
79.14719216604621
 30
0.0
 41
0.9941947137288646
 10
9.725923322072369
 20
79.39629753227369
 30
0.0
 41
1.0
  0
SPLINE
  5
EF
330
1F
100
AcDbEntity
  8
PREDEFINITO
100
AcDbSpline
210
0.0
220
0.0
230
1.0
 70
    12
 71
     3
 72
    12
 73
     8
 74
     0
 42
0.0000000001
 43
0.0000000001
 40
0.0
 40
0.0
 40
0.0
 40
0.0
 40
0.2067046476788675
 40
0.2067046476788675
 40
0.4639627799930039
 40
0.4639627799930039
 40
1.0
 40
1.0
 40
1.0
 40
1.0
 10
9.725923322072369
 20
79.39629753227369
 30
0.0
 41
1.0
 10
9.402438577599149
 20
79.87471814369373
 30
0.0
 41
1.0
 10
9.165432425396432
 20
80.51326723104691
 30
0.0
 41
1.0
 10
8.81834325738037
 20
81.90355404466237
 30
0.0
 41
1.0
 10
8.722930943201114
 20
82.67992452066743
 30
0.0
 41
1.0
 10
8.510930645803903
 20
85.11769687093874
 30
0.0
 41
1.0
 10
8.497394201162003
 20
86.76394430741408
 30
0.0
 41
1.0
 10
8.481028760754718
 20
88.41377621231527
 30
0.0
 41
1.0
  0
SPLINE
  5
F0
330
1F
100
AcDbEntity
  8
PREDEFINITO
100
AcDbSpline
210
0.0
220
0.0
230
1.0
 70
    12
 71
     2
 72
     6
 73
     3
 74
     0
 42
0.0000000001
 43
0.0000000001
 40
-0.984584500886076
 40
-0.984584500886076
 40
-0.984584500886076
 40
0.0
 40
0.0
 40
0.0
 10
8.481028760754718
 20
88.41377621231527
 30
0.0
 41
1.0
 10
8.476133861841486
 20
88.90604800079076
 30
0.0
 41
0.9999881973386369
 10
8.4760219059763
 20
89.40616260969117
 30
0.0
 41
1.0
  0
SPLINE
  5
F1
330
1F
100
AcDbEntity
  8
PREDEFINITO
100
AcDbSpline
210
0.0
220
0.0
230
1.0
 70
    12
 71
     2
 72
     6
 73
     3
 74
     0
 42
0.0000000001
 43
0.0000000001
 40
0.0
 40
0.0
 40
0.0
 40
0.0159689213514565
 40
0.0159689213514565
 40
0.0159689213514565
 10
8.4760219059763
 20
89.40616260969115
 30
0.0
 41
0.9689518026712264
 10
8.477421799279162
 20
89.40212821349179
 30
0.0
 41
0.9689518026712448
 10
8.476022558860107
 20
89.39834411226825
 30
0.0
 41
1.0
  0
POLYLINE
  5
F2
330
1F
100
AcDbEntity
  8
PREDEFINITO
100
AcDb2dPolyline
 66
     1
 10
0.0
 20
0.0
 30
0.0
  0
VERTEX
  5
F4
330
F2
100
AcDbEntity
  8
PREDEFINITO
100
AcDbVertex
100
AcDb2dVertex
 10
8.476022558860107
 20
89.39834411226825
 30
0.0
  0
VERTEX
  5
F5
330
F2
100
AcDbEntity
  8
PREDEFINITO
100
AcDbVertex
100
AcDb2dVertex
 10
8.481025210538519
 20
90.4141860588949
 30
0.0
  0
SEQEND
  5
F3
330
F2
100
AcDbEntity
  8
PREDEFINITO
  0
SPLINE
  5
F6
330
1F
100
AcDbEntity
  8
PREDEFINITO
100
AcDbSpline
210
0.0
220
0.0
230
1.0
 70
     8
 71
     3
 72
    15
 73
    11
 74
     0
 42
0.0000000001
 43
0.0000000001
 40
0.0
 40
0.0
 40
0.0
 40
0.0
 40
2.437023398192491
 40
4.31317346916736
 40
5.874081919776262
 40
7.107534655029355
 40
8.151429344526868
 40
9.016640323429748
 40
9.832748620775417
 40
10.48123304068759
 40
10.48123304068759
 40
10.48123304068759
 40
10.48123304068759
 10
8.481025210538519
 20
90.4141860588949
 30
0.0
 10
8.488791957742412
 20
91.2265244189147
 30
0.0
 10
8.505965865379927
 20
92.66409973784306
 30
0.0
 10
8.587001094195124
 20
94.6209552763391
 30
0.0
 10
8.725348506897355
 20
96.17202161067762
 30
0.0
 10
8.931346771207396
 20
97.43639775355553
 30
0.0
 10
9.213345942674513
 20
98.44693686489059
 30
0.0
 10
9.590290469136542
 20
99.27832030363112
 30
0.0
 10
10.06767428925397
 20
99.89857067021771
 30
0.0
 10
10.4678043912563
 20
100.1901324583164
 30
0.0
 10
10.66679865518771
 20
100.2753347465801
 30
0.0
  0
SPLINE
  5
F7
330
1F
100
AcDbEntity
  8
PREDEFINITO
100
AcDbSpline
210
0.0
220
0.0
230
1.0
 70
    12
 71
     2
 72
    14
 73
    11
 74
     0
 42
0.0000000001
 43
0.0000000001
 40
-16.21088049331889
 40
-16.21088049331889
 40
-16.21088049331889
 40
-13.45432575232607
 40
-13.45432575232607
 40
-6.645510731750857
 40
-6.645510731750857
 40
-3.2413727343227
 40
-3.2413727343227
 40
-1.539418631258288
 40
-1.539418631258288
 40
0.0
 40
0.0
 40
0.0
 10
10.66679865518771
 20
100.2753347465801
 30
0.0
 41
1.0
 10
10.72846966791891
 20
101.6522631096657
 30
0.0
 41
0.999965834098067
 10
10.81289550095979
 20
103.0279837606688
 30
0.0
 41
1.0
 10
11.01972586213843
 20
106.4267095178271
 30
0.0
 41
0.9997331467268172
 10
11.38331843434378
 20
109.8122546751265
 30
0.0
 41
1.0
 10
11.565813983954
 20
111.5046091920786
 30
0.0
 41
0.9999146831068285
 10
11.7924559352985
 20
113.1916189319931
 30
0.0
 41
1.0
 10
11.90588480619372
 20
114.0350163547955
 30
0.0
 41
0.9999757791528036
 10
12.03104243596981
 20
114.8767531837694
 30
0.0
 41
1.0
 10
12.14465671881826
 20
115.6380406727138
 30
0.0
 41
0.9999817433390942
 10
12.26728703009987
 20
116.3979279568314
 30
0.0
 41
0.9999999999979161
  0
SPLINE
  5
F8
330
1F
100
AcDbEntity
  8
PREDEFINITO
100
AcDbSpline
210
0.0
220
0.0
230
1.0
 70
     8
 71
     3
 72
    12
 73
     8
 74
     0
 42
0.0000000001
 43
0.0000000001
 40
-10.3846129798964
 40
-10.3846129798964
 40
-10.3846129798964
 40
-10.3846129798964
 40
-6.845633175881733
 40
-4.074075474949748
 40
-1.820879053592015
 40
-0.8623528415350223
 40
0.0
 40
0.0
 40
0.0
 40
0.0
 10
12.26728703009987
 20
116.3979279568314
 30
0.0
 10
11.08757639061022
 20
116.390378157354
 30
0.0
 10
8.983508229912772
 20
116.3432851728347
 30
0.0
 10
6.140186323315814
 20
116.0608566456244
 30
0.0
 10
4.186661304137417
 20
115.6336419673151
 30
0.0
 10
2.912893132987052
 20
115.1541685015929
 30
0.0
 10
2.373069674024159
 20
114.8752309318027
 30
0.0
 10
2.127695585863821
 20
114.7251161367247
 30
0.0
  0
SPLINE
  5
F9
330
1F
100
AcDbEntity
  8
LINEE VISIBILI 2D
100
AcDbSpline
210
0.0
220
0.0
230
1.0
 70
    12
 71
     2
 72
     6
 73
     3
 74
     0
 42
0.0000000001
 43
0.0000000001
 40
0.0
 40
0.0
 40
0.0
 40
3.352550015199035
 40
3.352550015199035
 40
3.352550015199035
 10
24.81869579610185
 20
66.22374900909965
 30
0.0
 41
1.0
 10
26.47222133607143
 20
65.92390634162942
 30
0.0
 41
0.9962404485627193
 10
28.1526837205922
 20
65.91398108202831
 30
0.0
 41
1.0
  0
SPLINE
  5
FA
330
1F
100
AcDbEntity
  8
LINEE VISIBILI 2D
100
AcDbSpline
210
0.0
220
0.0
230
1.0
 70
    24
 71
     2
 72
     6
 73
     3
 74
     0
 42
0.0000000001
 43
0.0000000001
 40
0.0
 40
0.0
 40
0.0
 40
0.107904409555495
 40
0.107904409555495
 40
0.107904409555495
 10
28.1526837205922
 20
65.91398108202831
 30
0.0
 10
28.20663592536995
 20
65.91398107901725
 30
0.0
 10
28.2605881301477
 20
65.91398107600617
 30
0.0
  0
SPLINE
  5
FB
330
1F
100
AcDbEntity
  8
LINEE VISIBILI 2D
100
AcDbSpline
210
0.0
220
0.0
230
1.0
 70
    12
 71
     2
 72
     6
 73
     3
 74
     0
 42
0.0000000001
 43
0.0000000001
 40
0.0
 40
0.0
 40
0.0
 40
0.0249476853258556
 40
0.0249476853258556
 40
0.0249476853258556
 10
28.2605881301477
 20
65.91398107600617
 30
0.0
 41
1.0
 10
28.27306327747503
 20
65.91397582033602
 30
0.0
 41
0.9998430026707964
 10
28.28553040493481
 20
65.9135285381405
 30
0.0
 41
1.0
  0
SPLINE
  5
FC
330
1F
100
AcDbEntity
  8
LINEE VISIBILI 2D
100
AcDbSpline
210
0.0
220
0.0
230
1.0
 70
    12
 71
     2
 72
     6
 73
     3
 74
     0
 42
0.0000000001
 43
0.0000000001
 40
0.0
 40
0.0
 40
0.0
 40
0.0249476853259702
 40
0.0249476853259702
 40
0.0249476853259702
 10
28.28553040493481
 20
65.9135285381405
 30
0.0
 41
1.0
 10
28.29799753239432
 20
65.91397582034982
 30
0.0
 41
0.9998430026512845
 10
28.31047267972188
 20
65.91398107600628
 30
0.0
 41
1.0
  0
SPLINE
  5
FD
330
1F
100
AcDbEntity
  8
LINEE VISIBILI 2D
100
AcDbSpline
210
0.0
220
0.0
230
1.0
 70
    24
 71
     2
 72
     6
 73
     3
 74
     0
 42
0.0000000001
 43
0.0000000001
 40
0.0
 40
0.0
 40
0.0
 40
0.1079044095555661
 40
0.1079044095555661
 40
0.1079044095555661
 10
28.31047267972188
 20
65.91398107600628
 30
0.0
 10
28.36442488449966
 20
65.91398107901728
 30
0.0
 10
28.41837708927745
 20
65.91398108202829
 30
0.0
  0
SPLINE
  5
FE
330
1F
100
AcDbEntity
  8
LINEE VISIBILI 2D
100
AcDbSpline
210
0.0
220
0.0
230
1.0
 70
    12
 71
     2
 72
     6
 73
     3
 74
     0
 42
0.0000000001
 43
0.0000000001
 40
0.0
 40
0.0
 40
0.0
 40
3.352569410996065
 40
3.352569410996065
 40
3.352569410996065
 10
28.41837708927745
 20
65.91398108202829
 30
0.0
 41
1.0
 10
30.09884924519253
 20
65.92390639441777
 30
0.0
 41
0.9962404048189543
 10
31.75238409796837
 20
66.22375247040927
 30
0.0
 41
1.0
  0
ENDSEC
  0
SECTION
  2
OBJECTS
  0
DICTIONARY
  5
C
330
0
100
AcDbDictionary
281
     1
  3
ACAD_GROUP
350
D
  3
ACAD_LAYOUT
350
1A
  3
ACAD_MLEADERSTYLE
350
100
  3
ACAD_MLINESTYLE
350
17
  3
ACAD_PLOTSETTINGS
350
19
  3
ACAD_PLOTSTYLENAME
350
E
  3
ACAD_SCALELIST
350
3B
  3
ACAD_TABLESTYLE
350
FF
  3
ACAD_VISUALSTYLE
350
2A
  0
DICTIONARY
  5
D
102
{ACAD_REACTORS
330
C
102
}
330
C
100
AcDbDictionary
281
     1
  0
DICTIONARY
  5
1A
102
{ACAD_REACTORS
330
C
102
}
330
C
100
AcDbDictionary
281
     1
  3
Layout1
350
1E
  3
Layout2
350
26
  3
Model
350
22
  0
DICTIONARY
  5
100
102
{ACAD_REACTORS
330
C
102
}
330
C
100
AcDbDictionary
281
     1
  0
DICTIONARY
  5
17
102
{ACAD_REACTORS
330
C
102
}
330
C
100
AcDbDictionary
281
     1
  3
Standard
350
18
  0
DICTIONARY
  5
19
102
{ACAD_REACTORS
330
C
102
}
330
C
100
AcDbDictionary
281
     1
  0
ACDBDICTIONARYWDFLT
  5
E
102
{ACAD_REACTORS
330
C
102
}
330
C
100
AcDbDictionary
281
     1
  3
Normal
350
F
100
AcDbDictionaryWithDefault
340
F
  0
DICTIONARY
  5
3B
102
{ACAD_REACTORS
330
C
102
}
330
C
100
AcDbDictionary
281
     1
  3
A0
350
3C
  3
A1
350
3D
  3
A2
350
3E
  3
A3
350
3F
  3
A4
350
40
  3
A5
350
41
  3
A6
350
42
  3
A7
350
43
  3
A8
350
44
  3
A9
350
45
  3
B0
350
46
  3
B1
350
47
  3
B2
350
48
  3
B3
350
49
  3
B4
350
4A
  3
B5
350
4B
  3
B6
350
4C
  3
B7
350
4D
  3
B8
350
4E
  3
B9
350
4F
  3
C0
350
50
  3
C1
350
51
  3
C2
350
52
  3
C3
350
53
  3
C4
350
54
  3
C5
350
55
  3
C6
350
56
  3
C7
350
57
  3
C8
350
58
  3
C9
350
59
  3
D0
350
5A
  3
D1
350
5B
  3
D2
350
5C
  0
DICTIONARY
  5
FF
102
{ACAD_REACTORS
330
C
102
}
330
C
100
AcDbDictionary
281
     1
  0
DICTIONARY
  5
2A
102
{ACAD_REACTORS
330
C
102
}
330
C
100
AcDbDictionary
281
     1
  3
2dWireframe
350
2F
  3
3D Hidden
350
31
  3
3dWireframe
350
30
  3
Basic
350
32
  3
Brighten
350
36
  3
ColorChange
350
3A
  3
Conceptual
350
34
  3
Dim
350
35
  3
Facepattern
350
39
  3
Flat
350
2B
  3
FlatWithEdges
350
2C
  3
Gouraud
350
2D
  3
GouraudWithEdges
350
2E
  3
Linepattern
350
38
  3
Realistic
350
33
  3
Thicken
350
37
  0
LAYOUT
  5
1E
102
{ACAD_REACTORS
330
1A
102
}
330
1A
100
AcDbPlotSettings
  1

  2
none_device
  4

  6

 40
0.0
 41
0.0
 42
0.0
 43
0.0
 44
0.0
 45
0.0
 46
0.0
 47
0.0
 48
0.0
 49
0.0
140
0.0
141
0.0
142
1.0
143
1.0
 70
   688
 72
     0
 73
     0
 74
     5
  7

 75
    16
 76
     0
 77
     2
 78
   300
147
1.0
148
0.0
149
0.0
100
AcDbLayout
  1
Layout1
 70
     1
 71
     1
 10
0.0
 20
0.0
 11
12.0
 21
9.0
 12
0.0
 22
0.0
 32
0.0
 14
1.000000000000000E+20
 24
1.000000000000000E+20
 34
1.000000000000000E+20
 15
-1.000000000000000E+20
 25
-1.000000000000000E+20
 35
-1.000000000000000E+20
146
0.0
 13
0.0
 23
0.0
 33
0.0
 16
1.0
 26
0.0
 36
0.0
 17
0.0
 27
1.0
 37
0.0
 76
     0
330
1B
  0
LAYOUT
  5
26
102
{ACAD_REACTORS
330
1A
102
}
330
1A
100
AcDbPlotSettings
  1

  2
none_device
  4

  6

 40
0.0
 41
0.0
 42
0.0
 43
0.0
 44
0.0
 45
0.0
 46
0.0
 47
0.0
 48
0.0
 49
0.0
140
0.0
141
0.0
142
1.0
143
1.0
 70
   688
 72
     0
 73
     0
 74
     5
  7

 75
    16
 76
     0
 77
     2
 78
   300
147
1.0
148
0.0
149
0.0
100
AcDbLayout
  1
Layout2
 70
     1
 71
     2
 10
0.0
 20
0.0
 11
0.0
 21
0.0
 12
0.0
 22
0.0
 32
0.0
 14
0.0
 24
0.0
 34
0.0
 15
0.0
 25
0.0
 35
0.0
146
0.0
 13
0.0
 23
0.0
 33
0.0
 16
1.0
 26
0.0
 36
0.0
 17
0.0
 27
1.0
 37
0.0
 76
     0
330
23
  0
LAYOUT
  5
22
102
{ACAD_REACTORS
330
1A
102
}
330
1A
100
AcDbPlotSettings
  1

  2
none_device
  4

  6

 40
0.0
 41
0.0
 42
0.0
 43
0.0
 44
0.0
 45
0.0
 46
0.0
 47
0.0
 48
0.0
 49
0.0
140
0.0
141
0.0
142
1.0
143
1.0
 70
  1712
 72
     0
 73
     0
 74
     0
  7

 75
     0
 76
     0
 77
     2
 78
   300
147
1.0
148
0.0
149
0.0
100
AcDbLayout
  1
Model
 70
     1
 71
     0
 10
0.0
 20
0.0
 11
12.0
 21
9.0
 12
0.0
 22
0.0
 32
0.0
 14
0.000365521823176
 24
0.001529866641583
 34
0.0
 15
34.85330316047403
 25
116.4532918309033
 35
0.0
146
0.0
 13
0.0
 23
0.0
 33
0.0
 16
1.0
 26
0.0
 36
0.0
 17
0.0
 27
1.0
 37
0.0
 76
     0
330
1F
331
29
  0
MLINESTYLE
  5
18
102
{ACAD_REACTORS
330
17
102
}
330
17
100
AcDbMlineStyle
  2
Standard
 70
     0
  3

 62
   256
 51
90.0
 52
90.0
 71
     2
 49
0.5
 62
   256
  6
BYLAYER
 49
-0.5
 62
   256
  6
BYLAYER
  0
ACDBPLACEHOLDER
  5
F
102
{ACAD_REACTORS
330
E
102
}
330
E
  0
SCALE
  5
3C
102
{ACAD_REACTORS
330
3B
102
}
330
3B
100
AcDbScale
 70
     0
300
1:1
140
1.0
141
1.0
290
     1
  0
SCALE
  5
3D
102
{ACAD_REACTORS
330
3B
102
}
330
3B
100
AcDbScale
 70
     0
300
1:2
140
1.0
141
2.0
290
     0
  0
SCALE
  5
3E
102
{ACAD_REACTORS
330
3B
102
}
330
3B
100
AcDbScale
 70
     0
300
1:4
140
1.0
141
4.0
290
     0
  0
SCALE
  5
3F
102
{ACAD_REACTORS
330
3B
102
}
330
3B
100
AcDbScale
 70
     0
300
1:5
140
1.0
141
5.0
290
     0
  0
SCALE
  5
40
102
{ACAD_REACTORS
330
3B
102
}
330
3B
100
AcDbScale
 70
     0
300
1:8
140
1.0
141
8.0
290
     0
  0
SCALE
  5
41
102
{ACAD_REACTORS
330
3B
102
}
330
3B
100
AcDbScale
 70
     0
300
1:10
140
1.0
141
10.0
290
     0
  0
SCALE
  5
42
102
{ACAD_REACTORS
330
3B
102
}
330
3B
100
AcDbScale
 70
     0
300
1:16
140
1.0
141
16.0
290
     0
  0
SCALE
  5
43
102
{ACAD_REACTORS
330
3B
102
}
330
3B
100
AcDbScale
 70
     0
300
1:20
140
1.0
141
20.0
290
     0
  0
SCALE
  5
44
102
{ACAD_REACTORS
330
3B
102
}
330
3B
100
AcDbScale
 70
     0
300
1:30
140
1.0
141
30.0
290
     0
  0
SCALE
  5
45
102
{ACAD_REACTORS
330
3B
102
}
330
3B
100
AcDbScale
 70
     0
300
1:40
140
1.0
141
40.0
290
     0
  0
SCALE
  5
46
102
{ACAD_REACTORS
330
3B
102
}
330
3B
100
AcDbScale
 70
     0
300
1:50
140
1.0
141
50.0
290
     0
  0
SCALE
  5
47
102
{ACAD_REACTORS
330
3B
102
}
330
3B
100
AcDbScale
 70
     0
300
1:100
140
1.0
141
100.0
290
     0
  0
SCALE
  5
48
102
{ACAD_REACTORS
330
3B
102
}
330
3B
100
AcDbScale
 70
     0
300
2:1
140
2.0
141
1.0
290
     0
  0
SCALE
  5
49
102
{ACAD_REACTORS
330
3B
102
}
330
3B
100
AcDbScale
 70
     0
300
4:1
140
4.0
141
1.0
290
     0
  0
SCALE
  5
4A
102
{ACAD_REACTORS
330
3B
102
}
330
3B
100
AcDbScale
 70
     0
300
8:1
140
8.0
141
1.0
290
     0
  0
SCALE
  5
4B
102
{ACAD_REACTORS
330
3B
102
}
330
3B
100
AcDbScale
 70
     0
300
10:1
140
10.0
141
1.0
290
     0
  0
SCALE
  5
4C
102
{ACAD_REACTORS
330
3B
102
}
330
3B
100
AcDbScale
 70
     0
300
100:1
140
100.0
141
1.0
290
     0
  0
SCALE
  5
4D
102
{ACAD_REACTORS
330
3B
102
}
330
3B
100
AcDbScale
 70
     0
300
1/128" = 1'-0"
140
0.0078125
141
12.0
290
     0
  0
SCALE
  5
4E
102
{ACAD_REACTORS
330
3B
102
}
330
3B
100
AcDbScale
 70
     0
300
1/64" = 1'-0"
140
0.015625
141
12.0
290
     0
  0
SCALE
  5
4F
102
{ACAD_REACTORS
330
3B
102
}
330
3B
100
AcDbScale
 70
     0
300
1/32" = 1'-0"
140
0.03125
141
12.0
290
     0
  0
SCALE
  5
50
102
{ACAD_REACTORS
330
3B
102
}
330
3B
100
AcDbScale
 70
     0
300
1/16" = 1'-0"
140
0.0625
141
12.0
290
     0
  0
SCALE
  5
51
102
{ACAD_REACTORS
330
3B
102
}
330
3B
100
AcDbScale
 70
     0
300
3/32" = 1'-0"
140
0.09375
141
12.0
290
     0
  0
SCALE
  5
52
102
{ACAD_REACTORS
330
3B
102
}
330
3B
100
AcDbScale
 70
     0
300
1/8" = 1'-0"
140
0.125
141
12.0
290
     0
  0
SCALE
  5
53
102
{ACAD_REACTORS
330
3B
102
}
330
3B
100
AcDbScale
 70
     0
300
3/16" = 1'-0"
140
0.1875
141
12.0
290
     0
  0
SCALE
  5
54
102
{ACAD_REACTORS
330
3B
102
}
330
3B
100
AcDbScale
 70
     0
300
1/4" = 1'-0"
140
0.25
141
12.0
290
     0
  0
SCALE
  5
55
102
{ACAD_REACTORS
330
3B
102
}
330
3B
100
AcDbScale
 70
     0
300
3/8" = 1'-0"
140
0.375
141
12.0
290
     0
  0
SCALE
  5
56
102
{ACAD_REACTORS
330
3B
102
}
330
3B
100
AcDbScale
 70
     0
300
1/2" = 1'-0"
140
0.5
141
12.0
290
     0
  0
SCALE
  5
57
102
{ACAD_REACTORS
330
3B
102
}
330
3B
100
AcDbScale
 70
     0
300
3/4" = 1'-0"
140
0.75
141
12.0
290
     0
  0
SCALE
  5
58
102
{ACAD_REACTORS
330
3B
102
}
330
3B
100
AcDbScale
 70
     0
300
1" = 1'-0"
140
1.0
141
12.0
290
     0
  0
SCALE
  5
59
102
{ACAD_REACTORS
330
3B
102
}
330
3B
100
AcDbScale
 70
     0
300
1-1/2" = 1'-0"
140
1.5
141
12.0
290
     0
  0
SCALE
  5
5A
102
{ACAD_REACTORS
330
3B
102
}
330
3B
100
AcDbScale
 70
     0
300
3" = 1'-0"
140
3.0
141
12.0
290
     0
  0
SCALE
  5
5B
102
{ACAD_REACTORS
330
3B
102
}
330
3B
100
AcDbScale
 70
     0
300
6" = 1'-0"
140
6.0
141
12.0
290
     0
  0
SCALE
  5
5C
102
{ACAD_REACTORS
330
3B
102
}
330
3B
100
AcDbScale
 70
     0
300
1'-0" = 1'-0"
140
12.0
141
12.0
290
     0
  0
VISUALSTYLE
  5
2F
102
{ACAD_REACTORS
330
2A
102
}
330
2A
100
AcDbVisualStyle
  2
2dWireframe
 70
     4
 71
     0
 72
     2
 73
     0
 90
        0
 40
-0.6
 41
-30.0
 62
     5
 63
     7
421
 16777215
 74
     1
 91
        4
 64
     7
 65
   257
 75
     1
175
     1
 42
1.0
 92
        0
 66
   257
 43
1.0
 76
     1
 77
     6
 78
     2
 67
     7
 79
     5
170
     0
171
     0
290
     0
174
     0
 93
        1
 44
0.0
173
     0
291
     0
 45
0.0
1001
ACAD
1000
AcDbSavedByObjectVersion
1070
     0
  0
VISUALSTYLE
  5
31
102
{ACAD_REACTORS
330
2A
102
}
330
2A
100
AcDbVisualStyle
  2
3D Hidden
 70
     6
 71
     1
 72
     2
 73
     2
 90
        0
 40
-0.6
 41
-30.0
 62
     5
 63
     7
421
 16777215
 74
     2
 91
        2
 64
     7
 65
   257
 75
     2
175
     1
 42
40.0
 92
        0
 66
   257
 43
1.0
 76
     1
 77
     6
 78
     2
 67
     7
 79
     3
170
     0
171
     0
290
     0
174
     0
 93
        1
 44
0.0
173
     0
291
     0
 45
0.0
1001
ACAD
1000
AcDbSavedByObjectVersion
1070
     0
  0
VISUALSTYLE
  5
30
102
{ACAD_REACTORS
330
2A
102
}
330
2A
100
AcDbVisualStyle
  2
3dWireframe
 70
     5
 71
     0
 72
     2
 73
     0
 90
        0
 40
-0.6
 41
-30.0
 62
     5
 63
     7
421
 16777215
 74
     1
 91
        4
 64
     7
 65
   257
 75
     1
175
     1
 42
1.0
 92
        0
 66
   257
 43
1.0
 76
     1
 77
     6
 78
     2
 67
     7
 79
     5
170
     0
171
     0
290
     0
174
     0
 93
        1
 44
0.0
173
     0
291
     0
 45
0.0
1001
ACAD
1000
AcDbSavedByObjectVersion
1070
     0
  0
VISUALSTYLE
  5
32
102
{ACAD_REACTORS
330
2A
102
}
330
2A
100
AcDbVisualStyle
  2
Basic
 70
     7
 71
     1
 72
     0
 73
     1
 90
        0
 40
-0.6
 41
-30.0
 62
     5
 63
     7
421
 16777215
 74
     0
 91
        4
 64
     7
 65
   257
 75
     1
175
     1
 42
1.0
 92
        8
 66
     7
 43
1.0
 76
     1
 77
     6
 78
     2
 67
     7
 79
     5
170
     0
171
     0
290
     0
174
     0
 93
        1
 44
0.0
173
     0
291
     1
 45
0.0
1001
ACAD
1000
AcDbSavedByObjectVersion
1070
     0
  0
VISUALSTYLE
  5
36
102
{ACAD_REACTORS
330
2A
102
}
330
2A
100
AcDbVisualStyle
  2
Brighten
 70
    12
 71
     2
 72
     2
 73
     0
 90
        0
 40
-0.6
 41
-30.0
 62
     5
 63
     7
421
 16777215
 74
     1
 91
        4
 64
     7
 65
   257
 75
     1
175
     1
 42
1.0
 92
        8
 66
     7
 43
1.0
 76
     1
 77
     6
 78
     2
 67
     7
 79
     5
170
     0
171
     0
290
     0
174
     0
 93
        1
 44
50.0
173
     0
291
     1
 45
0.0
1001
ACAD
1000
AcDbSavedByObjectVersion
1070
     0
  0
VISUALSTYLE
  5
3A
102
{ACAD_REACTORS
330
2A
102
}
330
2A
100
AcDbVisualStyle
  2
ColorChange
 70
    16
 71
     2
 72
     2
 73
     3
 90
        0
 40
-0.6
 41
-30.0
 62
     5
 63
     8
421
  8421504
 74
     1
 91
        4
 64
     7
 65
   257
 75
     1
175
     1
 42
1.0
 92
        8
 66
     8
424
  8421504
 43
1.0
 76
     1
 77
     6
 78
     2
 67
     7
 79
     5
170
     0
171
     0
290
     0
174
     0
 93
        1
 44
0.0
173
     0
291
     1
 45
0.0
1001
ACAD
1000
AcDbSavedByObjectVersion
1070
     0
  0
VISUALSTYLE
  5
34
102
{ACAD_REACTORS
330
2A
102
}
330
2A
100
AcDbVisualStyle
  2
Conceptual
 70
     9
 71
     3
 72
     2
 73
     0
 90
        0
 40
-0.6
 41
-30.0
 62
     5
 63
     7
421
 16777215
 74
     2
 91
        2
 64
     7
 65
   257
 75
     1
175
     1
 42
40.0
 92
        8
 66
     7
 43
1.0
 76
     1
 77
     6
 78
     2
 67
     7
 79
     3
170
     0
171
     0
290
     0
174
     0
 93
        1
 44
0.0
173
     0
291
     0
 45
0.0
1001
ACAD
1000
AcDbSavedByObjectVersion
1070
     0
  0
VISUALSTYLE
  5
35
102
{ACAD_REACTORS
330
2A
102
}
330
2A
100
AcDbVisualStyle
  2
Dim
 70
    11
 71
     2
 72
     2
 73
     0
 90
        0
 40
-0.6
 41
-30.0
 62
     5
 63
     7
421
 16777215
 74
     1
 91
        4
 64
     7
 65
   257
 75
     1
175
     1
 42
1.0
 92
        8
 66
     7
 43
1.0
 76
     1
 77
     6
 78
     2
 67
     7
 79
     5
170
     0
171
     0
290
     0
174
     0
 93
        1
 44
-50.0
173
     0
291
     1
 45
0.0
1001
ACAD
1000
AcDbSavedByObjectVersion
1070
     0
  0
VISUALSTYLE
  5
39
102
{ACAD_REACTORS
330
2A
102
}
330
2A
100
AcDbVisualStyle
  2
Facepattern
 70
    15
 71
     2
 72
     2
 73
     0
 90
        0
 40
-0.6
 41
-30.0
 62
     5
 63
     7
421
 16777215
 74
     1
 91
        4
 64
     7
 65
   257
 75
     1
175
     1
 42
1.0
 92
        8
 66
     7
 43
1.0
 76
     1
 77
     6
 78
     2
 67
     7
 79
     5
170
     0
171
     0
290
     0
174
     0
 93
        1
 44
0.0
173
     0
291
     1
 45
0.0
1001
ACAD
1000
AcDbSavedByObjectVersion
1070
     0
  0
VISUALSTYLE
  5
2B
102
{ACAD_REACTORS
330
2A
102
}
330
2A
100
AcDbVisualStyle
  2
Flat
 70
     0
 71
     2
 72
     1
 73
     1
 90
        2
 40
-0.6
 41
30.0
 62
     5
 63
     7
421
 16777215
 74
     0
 91
        4
 64
     7
 65
   257
 75
     1
175
     1
 42
1.0
 92
        8
 66
     7
 43
1.0
 76
     1
 77
     6
 78
     2
 67
     7
 79
     5
170
     0
171
     0
290
     0
174
     0
 93
       13
 44
0.0
173
     0
291
     1
 45
0.0
1001
ACAD
1000
AcDbSavedByObjectVersion
1070
     0
  0
VISUALSTYLE
  5
2C
102
{ACAD_REACTORS
330
2A
102
}
330
2A
100
AcDbVisualStyle
  2
FlatWithEdges
 70
     1
 71
     2
 72
     1
 73
     1
 90
        2
 40
-0.6
 41
30.0
 62
     5
 63
     7
421
 16777215
 74
     1
 91
        4
 64
     7
 65
   257
 75
     1
175
     1
 42
1.0
 92
        0
 66
   257
 43
1.0
 76
     1
 77
     6
 78
     2
 67
     7
 79
     5
170
     0
171
     0
290
     0
174
     0
 93
       13
 44
0.0
173
     0
291
     1
 45
0.0
1001
ACAD
1000
AcDbSavedByObjectVersion
1070
     0
  0
VISUALSTYLE
  5
2D
102
{ACAD_REACTORS
330
2A
102
}
330
2A
100
AcDbVisualStyle
  2
Gouraud
 70
     2
 71
     2
 72
     2
 73
     1
 90
        2
 40
-0.6
 41
30.0
 62
     5
 63
     7
421
 16777215
 74
     0
 91
        4
 64
     7
 65
   257
 75
     1
175
     1
 42
1.0
 92
        0
 66
     7
 43
1.0
 76
     1
 77
     6
 78
     2
 67
     7
 79
     5
170
     0
171
     0
290
     0
174
     0
 93
       13
 44
0.0
173
     0
291
     1
 45
0.0
1001
ACAD
1000
AcDbSavedByObjectVersion
1070
     0
  0
VISUALSTYLE
  5
2E
102
{ACAD_REACTORS
330
2A
102
}
330
2A
100
AcDbVisualStyle
  2
GouraudWithEdges
 70
     3
 71
     2
 72
     2
 73
     1
 90
        2
 40
-0.6
 41
30.0
 62
     5
 63
     7
421
 16777215
 74
     1
 91
        4
 64
     7
 65
   257
 75
     1
175
     1
 42
1.0
 92
        0
 66
   257
 43
1.0
 76
     1
 77
     6
 78
     2
 67
     7
 79
     5
170
     0
171
     0
290
     0
174
     0
 93
       13
 44
0.0
173
     0
291
     1
 45
0.0
1001
ACAD
1000
AcDbSavedByObjectVersion
1070
     0
  0
VISUALSTYLE
  5
38
102
{ACAD_REACTORS
330
2A
102
}
330
2A
100
AcDbVisualStyle
  2
Linepattern
 70
    14
 71
     2
 72
     2
 73
     0
 90
        0
 40
-0.6
 41
-30.0
 62
     5
 63
     7
421
 16777215
 74
     1
 91
        4
 64
     7
 65
   257
 75
     7
175
     7
 42
1.0
 92
        8
 66
     7
 43
1.0
 76
     1
 77
     6
 78
     2
 67
     7
 79
     5
170
     0
171
     0
290
     0
174
     0
 93
        1
 44
0.0
173
     0
291
     1
 45
0.0
1001
ACAD
1000
AcDbSavedByObjectVersion
1070
     0
  0
VISUALSTYLE
  5
33
102
{ACAD_REACTORS
330
2A
102
}
330
2A
100
AcDbVisualStyle
  2
Realistic
 70
     8
 71
     2
 72
     2
 73
     0
 90
        0
 40
-0.6
 41
-30.0
 62
     5
 63
     7
421
 16777215
 74
     1
 91
        0
 64
     7
 65
   257
 75
     1
175
     1
 42
1.0
 92
        8
 66
     8
424
  7895160
 43
1.0
 76
     1
 77
     6
 78
     2
 67
     7
 79
     5
170
     0
171
     0
290
     0
174
     0
 93
       13
 44
0.0
173
     0
291
     0
 45
0.0
1001
ACAD
1000
AcDbSavedByObjectVersion
1070
     0
  0
VISUALSTYLE
  5
37
102
{ACAD_REACTORS
330
2A
102
}
330
2A
100
AcDbVisualStyle
  2
Thicken
 70
    13
 71
     2
 72
     2
 73
     0
 90
        0
 40
-0.6
 41
-30.0
 62
     5
 63
     7
421
 16777215
 74
     1
 91
        4
 64
     7
 65
   257
 75
     1
175
     1
 42
1.0
 92
       12
 66
     7
 43
1.0
 76
     1
 77
     6
 78
     2
 67
     7
 79
     5
170
     0
171
     0
290
     0
174
     0
 93
        1
 44
0.0
173
     0
291
     1
 45
0.0
1001
ACAD
1000
AcDbSavedByObjectVersion
1070
     0
  0
ENDSEC
  0
EOF
