  0
SECTION
  2
HEADER
  9
$ACADVER
  1
AC1018
  9
$ACADMAINTVER
 70
     0
  9
$DWGCODEPAGE
  3
ANSI_1252
  9
$INSBASE
 10
0.0
 20
0.0
 30
0.0
  9
$EXTMIN
 10
665.0366778127664
 20
-0.0000000321888081
 30
0.0
  9
$EXTMAX
 10
1270.469283069943
 20
615.4419767351412
 30
0.0
  9
$LIMMIN
 10
0.0
 20
0.0
  9
$LIMMAX
 10
12.0
 20
9.0
  9
$ORTHOMODE
 70
     0
  9
$REGENMODE
 70
     1
  9
$FILLMODE
 70
     1
  9
$QTEXTMODE
 70
     0
  9
$MIRRTEXT
 70
     1
  9
$LTSCALE
 40
1.0
  9
$ATTMODE
 70
     1
  9
$TEXTSIZE
 40
0.2
  9
$TRACEWID
 40
0.05
  9
$TEXTSTYLE
  7
Standard
  9
$CLAYER
  8
Predefinito
  9
$CELTYPE
  6
ByLayer
  9
$CECOLOR
 62
   256
  9
$CELTSCALE
 40
1.0
  9
$DISPSILH
 70
     0
  9
$DIMSCALE
 40
1.0
  9
$DIMASZ
 40
0.18
  9
$DIMEXO
 40
0.0625
  9
$DIMDLI
 40
0.38
  9
$DIMRND
 40
0.0
  9
$DIMDLE
 40
0.0
  9
$DIMEXE
 40
0.18
  9
$DIMTP
 40
0.0
  9
$DIMTM
 40
0.0
  9
$DIMTXT
 40
0.18
  9
$DIMCEN
 40
0.09
  9
$DIMTSZ
 40
0.0
  9
$DIMTOL
 70
     0
  9
$DIMLIM
 70
     0
  9
$DIMTIH
 70
     1
  9
$DIMTOH
 70
     1
  9
$DIMSE1
 70
     0
  9
$DIMSE2
 70
     0
  9
$DIMTAD
 70
     0
  9
$DIMZIN
 70
     0
  9
$DIMBLK
  1

  9
$DIMASO
 70
     1
  9
$DIMSHO
 70
     1
  9
$DIMPOST
  1

  9
$DIMAPOST
  1

  9
$DIMALT
 70
     0
  9
$DIMALTD
 70
     2
  9
$DIMALTF
 40
25.4
  9
$DIMLFAC
 40
1.0
  9
$DIMTOFL
 70
     0
  9
$DIMTVP
 40
0.0
  9
$DIMTIX
 70
     0
  9
$DIMSOXD
 70
     0
  9
$DIMSAH
 70
     0
  9
$DIMBLK1
  1

  9
$DIMBLK2
  1

  9
$DIMSTYLE
  2
Standard
  9
$DIMCLRD
 70
     0
  9
$DIMCLRE
 70
     0
  9
$DIMCLRT
 70
     0
  9
$DIMTFAC
 40
1.0
  9
$DIMGAP
 40
0.09
  9
$DIMJUST
 70
     0
  9
$DIMSD1
 70
     0
  9
$DIMSD2
 70
     0
  9
$DIMTOLJ
 70
     1
  9
$DIMTZIN
 70
     0
  9
$DIMALTZ
 70
     0
  9
$DIMALTTZ
 70
     0
  9
$DIMUPT
 70
     0
  9
$DIMDEC
 70
     4
  9
$DIMTDEC
 70
     4
  9
$DIMALTU
 70
     2
  9
$DIMALTTD
 70
     2
  9
$DIMTXSTY
  7
Standard
  9
$DIMAUNIT
 70
     0
  9
$DIMADEC
 70
     0
  9
$DIMALTRND
 40
0.0
  9
$DIMAZIN
 70
     0
  9
$DIMDSEP
 70
    46
  9
$DIMATFIT
 70
     3
  9
$DIMFRAC
 70
     0
  9
$DIMLDRBLK
  1

  9
$DIMLUNIT
 70
     2
  9
$DIMLWD
 70
    -2
  9
$DIMLWE
 70
    -2
  9
$DIMTMOVE
 70
     2
  9
$LUNITS
 70
     2
  9
$LUPREC
 70
     3
  9
$SKETCHINC
 40
0.1
  9
$FILLETRAD
 40
0.5
  9
$AUNITS
 70
     0
  9
$AUPREC
 70
     0
  9
$MENU
  1
.
  9
$ELEVATION
 40
0.0
  9
$PELEVATION
 40
0.0
  9
$THICKNESS
 40
0.0
  9
$LIMCHECK
 70
     0
  9
$CHAMFERA
 40
0.5
  9
$CHAMFERB
 40
0.5
  9
$CHAMFERC
 40
1.0
  9
$CHAMFERD
 40
0.0
  9
$SKPOLY
 70
     0
  9
$TDCREATE
 40
2458127.395217396
  9
$TDUCREATE
 40
2458127.353550729
  9
$TDUPDATE
 40
2458127.395217407
  9
$TDUUPDATE
 40
2458127.353550741
  9
$TDINDWG
 40
0.0000000116
  9
$TDUSRTIMER
 40
0.0000000116
  9
$USRTIMER
 70
     1
  9
$ANGBASE
 50
0.0
  9
$ANGDIR
 70
     0
  9
$PDMODE
 70
     0
  9
$PDSIZE
 40
0.0
  9
$PLINEWID
 40
0.0
  9
$SPLFRAME
 70
     0
  9
$SPLINETYPE
 70
     6
  9
$SPLINESEGS
 70
     8
  9
$HANDSEED
  5
18B
  9
$SURFTAB1
 70
     6
  9
$SURFTAB2
 70
     6
  9
$SURFTYPE
 70
     6
  9
$SURFU
 70
     6
  9
$SURFV
 70
     6
  9
$UCSBASE
  2

  9
$UCSNAME
  2

  9
$UCSORG
 10
0.0
 20
0.0
 30
0.0
  9
$UCSXDIR
 10
1.0
 20
0.0
 30
0.0
  9
$UCSYDIR
 10
0.0
 20
1.0
 30
0.0
  9
$UCSORTHOREF
  2

  9
$UCSORTHOVIEW
 70
     0
  9
$UCSORGTOP
 10
0.0
 20
0.0
 30
0.0
  9
$UCSORGBOTTOM
 10
0.0
 20
0.0
 30
0.0
  9
$UCSORGLEFT
 10
0.0
 20
0.0
 30
0.0
  9
$UCSORGRIGHT
 10
0.0
 20
0.0
 30
0.0
  9
$UCSORGFRONT
 10
0.0
 20
0.0
 30
0.0
  9
$UCSORGBACK
 10
0.0
 20
0.0
 30
0.0
  9
$PUCSBASE
  2

  9
$PUCSNAME
  2

  9
$PUCSORG
 10
0.0
 20
0.0
 30
0.0
  9
$PUCSXDIR
 10
1.0
 20
0.0
 30
0.0
  9
$PUCSYDIR
 10
0.0
 20
1.0
 30
0.0
  9
$PUCSORTHOREF
  2

  9
$PUCSORTHOVIEW
 70
     0
  9
$PUCSORGTOP
 10
0.0
 20
0.0
 30
0.0
  9
$PUCSORGBOTTOM
 10
0.0
 20
0.0
 30
0.0
  9
$PUCSORGLEFT
 10
0.0
 20
0.0
 30
0.0
  9
$PUCSORGRIGHT
 10
0.0
 20
0.0
 30
0.0
  9
$PUCSORGFRONT
 10
0.0
 20
0.0
 30
0.0
  9
$PUCSORGBACK
 10
0.0
 20
0.0
 30
0.0
  9
$USERI1
 70
     0
  9
$USERI2
 70
     0
  9
$USERI3
 70
     0
  9
$USERI4
 70
     0
  9
$USERI5
 70
     0
  9
$USERR1
 40
0.0
  9
$USERR2
 40
0.0
  9
$USERR3
 40
0.0
  9
$USERR4
 40
0.0
  9
$USERR5
 40
0.0
  9
$WORLDVIEW
 70
     1
  9
$SHADEDGE
 70
     3
  9
$SHADEDIF
 70
    70
  9
$TILEMODE
 70
     0
  9
$MAXACTVP
 70
    64
  9
$PINSBASE
 10
0.0
 20
0.0
 30
0.0
  9
$PLIMCHECK
 70
     0
  9
$PEXTMIN
 10
0.0
 20
0.0
 30
0.0
  9
$PEXTMAX
 10
0.0
 20
0.0
 30
0.0
  9
$PLIMMIN
 10
0.0
 20
0.0
  9
$PLIMMAX
 10
12.0
 20
9.0
  9
$UNITMODE
 70
     0
  9
$VISRETAIN
 70
     1
  9
$PLINEGEN
 70
     0
  9
$PSLTSCALE
 70
     1
  9
$TREEDEPTH
 70
  3020
  9
$CMLSTYLE
  2
Standard
  9
$CMLJUST
 70
     0
  9
$CMLSCALE
 40
1.0
  9
$PROXYGRAPHICS
 70
     1
  9
$MEASUREMENT
 70
     0
  9
$CELWEIGHT
370
    -1
  9
$ENDCAPS
280
     0
  9
$JOINSTYLE
280
     0
  9
$LWDISPLAY
290
     0
  9
$INSUNITS
 70
     4
  9
$HYPERLINKBASE
  1

  9
$STYLESHEET
  1

  9
$XEDIT
290
     1
  9
$CEPSNTYPE
380
     0
  9
$PSTYLEMODE
290
     1
  9
$FINGERPRINTGUID
  2
{2A99F3FF-6E6D-408B-981B-20CE0406B6CC}
  9
$VERSIONGUID
  2
{FAEB1C32-E019-11D5-929B-00C0DF256EC4}
  9
$EXTNAMES
290
     1
  9
$PSVPSCALE
 40
0.0
  9
$OLESTARTUP
290
     0
  9
$SORTENTS
280
   127
  9
$INDEXCTL
280
     0
  9
$HIDETEXT
280
     1
  9
$XCLIPFRAME
290
     0
  9
$HALOGAP
280
     0
  9
$OBSCOLOR
 70
   257
  9
$OBSLTYPE
280
     0
  9
$INTERSECTIONDISPLAY
280
     0
  9
$INTERSECTIONCOLOR
 70
   257
  9
$DIMASSOC
280
     2
  9
$PROJECTNAME
  1

  0
ENDSEC
  0
SECTION
  2
CLASSES
  0
CLASS
  1
ACDBDICTIONARYWDFLT
  2
AcDbDictionaryWithDefault
  3
ObjectDBX Classes
 90
        0
 91
        4
280
     0
281
     0
  0
CLASS
  1
VISUALSTYLE
  2
AcDbVisualStyle
  3
ObjectDBX Classes
 90
     4095
 91
        4
280
     0
281
     0
  0
CLASS
  1
SCALE
  2
AcDbScale
  3
ObjectDBX Classes
 90
     1153
 91
        4
280
     0
281
     0
  0
CLASS
  1
DICTIONARYVAR
  2
AcDbDictionaryVar
  3
ObjectDBX Classes
 90
        0
 91
        4
280
     0
281
     0
  0
ENDSEC
  0
SECTION
  2
TABLES
  0
TABLE
  2
VPORT
  5
8
330
0
100
AcDbSymbolTable
 70
     1
  0
VPORT
  5
29
330
8
100
AcDbSymbolTableRecord
100
AcDbViewportTableRecord
  2
*Active
 70
     0
 10
0.0
 20
0.0
 11
1.0
 21
1.0
 12
967.7529804413547
 22
307.7209883514762
 13
0.0
 23
0.0
 14
0.5
 24
0.5
 15
0.5
 25
0.5
 16
0.0
 26
0.0
 36
1.0
 17
0.0
 27
0.0
 37
0.0
 40
627.7508163026766
 41
0.983736287273207
 42
50.0
 43
0.0
 44
0.0
 50
0.0
 51
0.0
 71
     0
 72
   100
 73
     1
 74
     3
 75
     0
 76
     0
 77
     0
 78
     0
281
     0
 65
     1
110
0.0
120
0.0
130
0.0
111
1.0
121
0.0
131
0.0
112
0.0
122
1.0
132
0.0
 79
     0
146
0.0
  0
ENDTAB
  0
TABLE
  2
LTYPE
  5
5
330
0
100
AcDbSymbolTable
 70
     1
  0
LTYPE
  5
14
330
5
100
AcDbSymbolTableRecord
100
AcDbLinetypeTableRecord
  2
ByBlock
 70
     0
  3

 72
    65
 73
     0
 40
0.0
  0
LTYPE
  5
15
330
5
100
AcDbSymbolTableRecord
100
AcDbLinetypeTableRecord
  2
ByLayer
 70
     0
  3

 72
    65
 73
     0
 40
0.0
  0
LTYPE
  5
16
330
5
100
AcDbSymbolTableRecord
100
AcDbLinetypeTableRecord
  2
Continuous
 70
     0
  3
Solid line
 72
    65
 73
     0
 40
0.0
  0
ENDTAB
  0
TABLE
  2
LAYER
  5
2
330
0
100
AcDbSymbolTable
 70
     2
  0
LAYER
  5
10
330
2
100
AcDbSymbolTableRecord
100
AcDbLayerTableRecord
  2
0
 70
     0
 62
     7
  6
Continuous
370
    -3
390
F
  0
LAYER
  5
3B
330
2
100
AcDbSymbolTableRecord
100
AcDbLayerTableRecord
  2
Predefinito
 70
     0
 62
     7
  6
Continuous
370
    -3
390
F
  0
ENDTAB
  0
TABLE
  2
STYLE
  5
3
330
0
100
AcDbSymbolTable
 70
     1
  0
STYLE
  5
11
330
3
100
AcDbSymbolTableRecord
100
AcDbTextStyleTableRecord
  2
Standard
 70
     0
 40
0.0
 41
1.0
 50
0.0
 71
     0
 42
0.2
  3
txt
  4

  0
ENDTAB
  0
TABLE
  2
VIEW
  5
6
330
0
100
AcDbSymbolTable
 70
     0
  0
ENDTAB
  0
TABLE
  2
UCS
  5
7
330
0
100
AcDbSymbolTable
 70
     0
  0
ENDTAB
  0
TABLE
  2
APPID
  5
9
330
0
100
AcDbSymbolTable
 70
     1
  0
APPID
  5
12
330
9
100
AcDbSymbolTableRecord
100
AcDbRegAppTableRecord
  2
ACAD
 70
     0
  0
ENDTAB
  0
TABLE
  2
DIMSTYLE
  5
A
330
0
100
AcDbSymbolTable
 70
     1
100
AcDbDimStyleTable
  0
DIMSTYLE
105
27
330
A
100
AcDbSymbolTableRecord
100
AcDbDimStyleTableRecord
  2
Standard
 70
     0
340
11
  0
ENDTAB
  0
TABLE
  2
BLOCK_RECORD
  5
1
330
0
100
AcDbSymbolTable
 70
     3
  0
BLOCK_RECORD
  5
1F
330
1
100
AcDbSymbolTableRecord
100
AcDbBlockTableRecord
  2
*Model_Space
340
22
  0
BLOCK_RECORD
  5
160
330
1
100
AcDbSymbolTableRecord
100
AcDbBlockTableRecord
  2
*Paper_Space
340
161
  0
BLOCK_RECORD
  5
23
330
1
100
AcDbSymbolTableRecord
100
AcDbBlockTableRecord
  2
*Paper_Space0
340
26
  0
BLOCK_RECORD
  5
1B
330
1
100
AcDbSymbolTableRecord
100
AcDbBlockTableRecord
  2
*Paper_Space1
340
1E
  0
BLOCK_RECORD
  5
15B
330
1
100
AcDbSymbolTableRecord
100
AcDbBlockTableRecord
  2
*Paper_Space2
340
15C
  0
ENDTAB
  0
ENDSEC
  0
SECTION
  2
BLOCKS
  0
BLOCK
  5
20
330
1F
100
AcDbEntity
  8
0
100
AcDbBlockBegin
  2
*Model_Space
 70
     0
 10
0.0
 20
0.0
 30
0.0
  3
*Model_Space
  1

  0
ENDBLK
  5
21
330
1F
100
AcDbEntity
  8
0
100
AcDbBlockEnd
  0
BLOCK
  5
162
330
160
100
AcDbEntity
 67
     1
  8
0
100
AcDbBlockBegin
  2
*Paper_Space
 70
     0
 10
0.0
 20
0.0
 30
0.0
  3
*Paper_Space
  1

  0
ENDBLK
  5
163
330
160
100
AcDbEntity
 67
     1
  8
0
100
AcDbBlockEnd
  0
BLOCK
  5
24
330
23
100
AcDbEntity
  8
0
100
AcDbBlockBegin
  2
*Paper_Space0
 70
     0
 10
0.0
 20
0.0
 30
0.0
  3
*Paper_Space0
  1

  0
ENDBLK
  5
25
330
23
100
AcDbEntity
  8
0
100
AcDbBlockEnd
  0
BLOCK
  5
1C
330
1B
100
AcDbEntity
  8
0
100
AcDbBlockBegin
  2
*Paper_Space1
 70
     0
 10
0.0
 20
0.0
 30
0.0
  3
*Paper_Space1
  1

  0
ENDBLK
  5
1D
330
1B
100
AcDbEntity
  8
0
100
AcDbBlockEnd
  0
BLOCK
  5
15D
330
15B
100
AcDbEntity
  8
0
100
AcDbBlockBegin
  2
*Paper_Space2
 70
     0
 10
0.0
 20
0.0
 30
0.0
  3
*Paper_Space2
  1

  0
VIEWPORT
  5
15F
330
15B
100
AcDbEntity
  8
0
100
AcDbViewport
 10
6.0
 20
4.5
 30
0.0
 40
12.696
 41
9.522
 68
     1
 69
     1
 12
6.0
 22
4.5
 13
0.0
 23
0.0
 14
0.5
 24
0.5
 15
0.5
 25
0.5
 16
0.0
 26
0.0
 36
1.0
 17
0.0
 27
0.0
 37
0.0
 42
50.0
 43
0.0
 44
0.0
 45
9.522
 50
0.0
 51
0.0
 72
   100
 90
   557152
  1

281
     0
 71
     1
 74
     0
110
0.0
120
0.0
130
0.0
111
1.0
121
0.0
131
0.0
112
0.0
122
1.0
132
0.0
 79
     0
146
0.0
170
     0
  0
ENDBLK
  5
15E
330
15B
100
AcDbEntity
  8
0
100
AcDbBlockEnd
  0
ENDSEC
  0
SECTION
  2
ENTITIES
  0
SPLINE
  5
3C
330
1F
100
AcDbEntity
  8
Predefinito
100
AcDbSpline
210
0.0
220
0.0
230
1.0
 70
    12
 71
     2
 72
     6
 73
     3
 74
     0
 42
0.0000000001
 43
0.0000000001
 40
0.0
 40
0.0
 40
0.0
 40
10.06939174853353
 40
10.06939174853353
 40
10.06939174853353
 10
1204.75531152749
 20
508.2623896168889
 30
0.0
 41
1.0
 10
1204.626176784187
 20
501.8938007011852
 30
0.0
 41
0.7133028279800848
 10
1198.256301508973
 20
501.9108164991278
 30
0.0
 41
1.0
  0
SPLINE
  5
3D
330
1F
100
AcDbEntity
  8
Predefinito
100
AcDbSpline
210
0.0
220
0.0
230
1.0
 70
    12
 71
     2
 72
     6
 73
     3
 74
     0
 42
0.0000000001
 43
0.0000000001
 40
0.0
 40
0.0
 40
0.0
 40
10.06939174853096
 40
10.06939174853096
 40
10.06939174853096
 10
1198.256301508973
 20
509.3372562157799
 30
0.0
 41
1.0
 10
1204.626176784186
 20
509.3202404178363
 30
0.0
 41
0.7133028279800314
 10
1204.755311527488
 20
515.6888293335389
 30
0.0
 41
1.0
  0
SPLINE
  5
3E
330
1F
100
AcDbEntity
  8
Predefinito
100
AcDbSpline
210
0.0
220
0.0
230
1.0
 70
    12
 71
     2
 72
     6
 73
     3
 74
     0
 42
0.0000000001
 43
0.0000000001
 40
0.0
 40
0.0
 40
0.0
 40
10.06939174853132
 40
10.06939174853132
 40
10.06939174853132
 10
1186.183254612398
 20
515.6888293335389
 30
0.0
 41
1.0
 10
1186.312389355701
 20
509.3202404178357
 30
0.0
 41
0.7133028279799646
 10
1192.682264630913
 20
509.33725621578
 30
0.0
 41
1.0
  0
SPLINE
  5
3F
330
1F
100
AcDbEntity
  8
Predefinito
100
AcDbSpline
210
0.0
220
0.0
230
1.0
 70
    12
 71
     2
 72
     8
 73
     5
 74
     0
 42
0.0000000001
 43
0.0000000001
 40
0.0
 40
0.0
 40
0.0
 40
2.821718865657482
 40
2.821718865657482
 40
5.643437731314981
 40
5.643437731314981
 40
5.643437731314981
 10
1198.256301508973
 20
509.3372562157799
 30
0.0
 41
1.0
 10
1196.892914685986
 20
509.7710916997567
 30
0.0
 41
0.9792796762939892
 10
1195.469283069943
 20
509.6285789703106
 30
0.0
 41
1.0
 10
1194.0456514539
 20
509.7710916997568
 30
0.0
 41
0.9792796762939779
 10
1192.682264630913
 20
509.3372562157799
 30
0.0
 41
1.0
  0
SPLINE
  5
40
330
1F
100
AcDbEntity
  8
Predefinito
100
AcDbSpline
210
0.0
220
0.0
230
1.0
 70
    12
 71
     2
 72
     6
 73
     3
 74
     0
 42
0.0000000001
 43
0.0000000001
 40
0.0
 40
0.0
 40
0.0
 40
10.06939174853344
 40
10.06939174853344
 40
10.06939174853344
 10
1192.682264630913
 20
501.9108164991278
 30
0.0
 41
1.0
 10
1186.3123893557
 20
501.8938007011851
 30
0.0
 41
0.7133028279800786
 10
1186.183254612397
 20
508.2623896168889
 30
0.0
 41
1.0
  0
SPLINE
  5
41
330
1F
100
AcDbEntity
  8
Predefinito
100
AcDbSpline
210
0.0
220
0.0
230
1.0
 70
    24
 71
     2
 72
     6
 73
     3
 74
     0
 42
0.0000000001
 43
0.0000000001
 40
0.0
 40
0.0
 40
0.0
 40
5.574036878060042
 40
5.574036878060042
 40
5.574036878060042
 10
1192.682264630913
 20
501.9108164991278
 30
0.0
 10
1195.469283069943
 20
501.9108164991278
 30
0.0
 10
1198.256301508973
 20
501.9108164991278
 30
0.0
  0
SPLINE
  5
42
330
1F
100
AcDbEntity
  8
Predefinito
100
AcDbSpline
210
0.0
220
0.0
230
1.0
 70
    12
 71
     2
 72
     6
 73
     3
 74
     0
 42
0.0000000001
 43
0.0000000001
 40
0.0
 40
0.0
 40
0.0
 40
1.058313700216613
 40
1.058313700216613
 40
1.058313700216613
 10
1208.489202369657
 20
531.1912315060418
 30
0.0
 41
1.0
 10
1209.016418985183
 20
531.1458756029593
 30
0.0
 41
0.9999797895644474
 10
1209.543016272428
 20
531.0938197224236
 30
0.0
 41
1.0
  0
SPLINE
  5
43
330
1F
100
AcDbEntity
  8
Predefinito
100
AcDbSpline
210
0.0
220
0.0
230
1.0
 70
    24
 71
     2
 72
     6
 73
     3
 74
     0
 42
0.0000000001
 43
0.0000000001
 40
0.0
 40
0.0
 40
0.0
 40
1.300000000000011
 40
1.300000000000011
 40
1.300000000000011
 10
1118.969283069943
 20
468.1568527775371
 30
0.0
 10
1119.619283069943
 20
468.1568527775371
 30
0.0
 10
1120.269283069943
 20
468.1568527775371
 30
0.0
  0
SPLINE
  5
44
330
1F
100
AcDbEntity
  8
Predefinito
100
AcDbSpline
210
0.0
220
0.0
230
1.0
 70
    24
 71
     2
 72
     6
 73
     3
 74
     0
 42
0.0000000001
 43
0.0000000001
 40
0.0
 40
0.0
 40
0.0
 40
1.300000000000011
 40
1.300000000000011
 40
1.300000000000011
 10
1120.269283069943
 20
454.1568527775371
 30
0.0
 10
1119.619283069943
 20
454.1568527775371
 30
0.0
 10
1118.969283069943
 20
454.1568527775371
 30
0.0
  0
SPLINE
  5
45
330
1F
100
AcDbEntity
  8
Predefinito
100
AcDbSpline
210
0.0
220
0.0
230
1.0
 70
    24
 71
     2
 72
     6
 73
     3
 74
     0
 42
0.0000000001
 43
0.0000000001
 40
0.0
 40
0.0
 40
0.0
 40
0.6244725707722784
 40
0.6244725707722784
 40
0.6244725707722784
 10
1118.910851859401
 20
454.215283988079
 30
0.0
 10
1118.690067464672
 20
454.4360683828081
 30
0.0
 10
1118.469283069943
 20
454.6568527775371
 30
0.0
  0
SPLINE
  5
46
330
1F
100
AcDbEntity
  8
Predefinito
100
AcDbSpline
210
0.0
220
0.0
230
1.0
 70
    24
 71
     2
 72
     6
 73
     3
 74
     0
 42
0.0000000001
 43
0.0000000001
 40
0.0
 40
0.0
 40
0.0
 40
0.2002085020603337
 40
0.2002085020603337
 40
0.2002085020603337
 10
1120.327714280485
 20
468.0984215669951
 30
0.0
 10
1120.398498675214
 20
468.0276371722661
 30
0.0
 10
1120.469283069943
 20
467.9568527775371
 30
0.0
  0
SPLINE
  5
47
330
1F
100
AcDbEntity
  8
Predefinito
100
AcDbSpline
210
0.0
220
0.0
230
1.0
 70
    24
 71
     2
 72
     6
 73
     3
 74
     0
 42
0.0000000001
 43
0.0000000001
 40
0.0
 40
0.0
 40
0.0
 40
64.68584855733593
 40
64.68584855733593
 40
64.68584855733593
 10
1205.283434512607
 20
468.1568527775371
 30
0.0
 10
1237.626358791275
 20
468.1568527775371
 30
0.0
 10
1269.969283069943
 20
468.1568527775371
 30
0.0
  0
SPLINE
  5
48
330
1F
100
AcDbEntity
  8
Predefinito
100
AcDbSpline
210
0.0
220
0.0
230
1.0
 70
    24
 71
     2
 72
     6
 73
     3
 74
     0
 42
0.0000000001
 43
0.0000000001
 40
0.0
 40
0.0
 40
0.0
 40
64.98584696082924
 40
64.98584696082924
 40
64.98584696082924
 10
1120.669283069943
 20
468.1568527775371
 30
0.0
 10
1153.162206550358
 20
468.1568527775371
 30
0.0
 10
1185.655130030772
 20
468.1568527775371
 30
0.0
  0
SPLINE
  5
49
330
1F
100
AcDbEntity
  8
Predefinito
100
AcDbSpline
210
0.0
220
0.0
230
1.0
 70
    24
 71
     2
 72
     6
 73
     3
 74
     0
 42
0.0000000001
 43
0.0000000001
 40
0.0
 40
0.0
 40
0.0
 40
121.9443368907872
 40
121.9443368907872
 40
121.9443368907872
 10
1242.61361996073
 20
454.1568527775371
 30
0.0
 10
1181.641451515337
 20
454.1568527775371
 30
0.0
 10
1120.669283069943
 20
454.1568527775371
 30
0.0
  0
SPLINE
  5
4A
330
1F
100
AcDbEntity
  8
Predefinito
100
AcDbSpline
210
0.0
220
0.0
230
1.0
 70
    24
 71
     2
 72
     6
 73
     3
 74
     0
 42
0.0000000001
 43
0.0000000001
 40
0.0
 40
0.0
 40
0.0
 40
22.06861047382563
 40
22.06861047382563
 40
22.06861047382563
 10
1269.969283069943
 20
454.1568527775371
 30
0.0
 10
1258.93497783303
 20
454.1568527775371
 30
0.0
 10
1247.900672596118
 20
454.1568527775371
 30
0.0
  0
SPLINE
  5
4B
330
1F
100
AcDbEntity
  8
Predefinito
100
AcDbSpline
210
0.0
220
0.0
230
1.0
 70
    24
 71
     2
 72
     6
 73
     3
 74
     0
 42
0.0000000001
 43
0.0000000001
 40
0.0
 40
0.0
 40
0.0
 40
0.6244725707722784
 40
0.6244725707722784
 40
0.6244725707722784
 10
1270.469283069943
 20
454.6568527775371
 30
0.0
 10
1270.248498675214
 20
454.4360683828081
 30
0.0
 10
1270.027714280485
 20
454.215283988079
 30
0.0
  0
SPLINE
  5
4C
330
1F
100
AcDbEntity
  8
Predefinito
100
AcDbSpline
210
0.0
220
0.0
230
1.0
 70
    24
 71
     2
 72
     6
 73
     3
 74
     0
 42
0.0000000001
 43
0.0000000001
 40
0.0
 40
0.0
 40
0.0
 40
0.2002085020603337
 40
0.2002085020603337
 40
0.2002085020603337
 10
1120.469283069943
 20
467.9568527775371
 30
0.0
 10
1120.540067464672
 20
468.0276371722661
 30
0.0
 10
1120.610851859401
 20
468.0984215669951
 30
0.0
  0
SPLINE
  5
4D
330
1F
100
AcDbEntity
  8
Predefinito
100
AcDbSpline
210
0.0
220
0.0
230
1.0
 70
    24
 71
     2
 72
     6
 73
     3
 74
     0
 42
0.0000000001
 43
0.0000000001
 40
0.0
 40
0.0
 40
0.0
 40
21.07859873131223
 40
21.07859873131223
 40
21.07859873131223
 10
1245.442400883689
 20
453.5470677667519
 30
0.0
 10
1235.139755661788
 20
455.7679532997263
 30
0.0
 10
1224.837110439888
 20
457.9888388327007
 30
0.0
  0
SPLINE
  5
4E
330
1F
100
AcDbEntity
  8
Predefinito
100
AcDbSpline
210
0.0
220
0.0
230
1.0
 70
    24
 71
     2
 72
     6
 73
     3
 74
     0
 42
0.0000000001
 43
0.0000000001
 40
0.0
 40
0.0
 40
0.0
 40
20.59134719061735
 40
20.59134719061735
 40
20.59134719061735
 10
1226.115701617766
 20
463.8510412325286
 30
0.0
 10
1236.180191551377
 20
461.6814935475508
 30
0.0
 10
1246.244681484987
 20
459.511945862573
 30
0.0
  0
SPLINE
  5
4F
330
1F
100
AcDbEntity
  8
Predefinito
100
AcDbSpline
210
0.0
220
0.0
230
1.0
 70
    12
 71
     2
 72
     6
 73
     3
 74
     0
 42
0.0000000001
 43
0.0000000001
 40
0.0
 40
0.0
 40
0.0
 40
0.650711300540091
 40
0.650711300540091
 40
0.650711300540091
 10
1204.785573361077
 20
471.5536162301786
 30
0.0
 41
1.0
 10
1204.863602472544
 20
471.181383116193
 30
0.0
 41
0.7966602348952794
 10
1205.243096258002
 20
471.1562733535121
 30
0.0
 41
1.0
  0
SPLINE
  5
50
330
1F
100
AcDbEntity
  8
Predefinito
100
AcDbSpline
210
0.0
220
0.0
230
1.0
 70
    12
 71
     2
 72
     6
 73
     3
 74
     0
 42
0.0000000001
 43
0.0000000001
 40
0.0
 40
0.0
 40
0.0
 40
0.4999045827189256
 40
0.4999045827189256
 40
0.4999045827189256
 10
1185.695508459076
 20
471.1562758005568
 30
0.0
 41
1.0
 10
1185.966505555174
 20
471.1775789140441
 30
0.0
 41
0.8835197011950323
 10
1186.100960991479
 20
471.4138308651156
 30
0.0
 41
1.0
  0
SPLINE
  5
51
330
1F
100
AcDbEntity
  8
Predefinito
100
AcDbSpline
210
0.0
220
0.0
230
1.0
 70
    24
 71
     2
 72
     6
 73
     3
 74
     0
 42
0.0000000001
 43
0.0000000001
 40
0.0
 40
0.0
 40
0.0
 40
0.8473305095835759
 40
0.8473305095835759
 40
0.8473305095835759
 10
1187.980552665621
 20
489.1568527775373
 30
0.0
 10
1187.888802940092
 20
489.570463991098
 30
0.0
 10
1187.797053214563
 20
489.9840752046587
 30
0.0
  0
SPLINE
  5
52
330
1F
100
AcDbEntity
  8
Predefinito
100
AcDbSpline
210
0.0
220
0.0
230
1.0
 70
    24
 71
     2
 72
     6
 73
     3
 74
     0
 42
0.0000000001
 43
0.0000000001
 40
0.0
 40
0.0
 40
0.0
 40
0.8473305095834095
 40
0.8473305095834095
 40
0.8473305095834095
 10
1203.141512925323
 20
489.9840752046587
 30
0.0
 10
1203.049763199794
 20
489.5704639910981
 30
0.0
 10
1202.958013474265
 20
489.1568527775374
 30
0.0
  0
SPLINE
  5
53
330
1F
100
AcDbEntity
  8
Predefinito
100
AcDbSpline
210
0.0
220
0.0
230
1.0
 70
    12
 71
     2
 72
     6
 73
     3
 74
     0
 42
0.0000000001
 43
0.0000000001
 40
0.0
 40
0.0
 40
0.0
 40
0.1759289093107354
 40
0.1759289093107354
 40
0.1759289093107354
 10
1187.797053214564
 20
489.9840752046589
 30
0.0
 41
1.0
 10
1187.778003629677
 20
490.0699782061278
 30
0.0
 41
0.9995672625078839
 10
1187.764038631008
 20
490.1568527775389
 30
0.0
 41
1.0
  0
SPLINE
  5
54
330
1F
100
AcDbEntity
  8
Predefinito
100
AcDbSpline
210
0.0
220
0.0
230
1.0
 70
    12
 71
     2
 72
     6
 73
     3
 74
     0
 42
0.0000000001
 43
0.0000000001
 40
0.0
 40
0.0
 40
0.0
 40
0.175928909310675
 40
0.175928909310675
 40
0.175928909310675
 10
1203.174527508879
 20
490.1568527775389
 30
0.0
 41
1.0
 10
1203.160562510209
 20
490.0699782061282
 30
0.0
 41
0.9995672625079611
 10
1203.141512925322
 20
489.9840752046589
 30
0.0
 41
1.0
  0
SPLINE
  5
55
330
1F
100
AcDbEntity
  8
Predefinito
100
AcDbSpline
210
0.0
220
0.0
230
1.0
 70
    12
 71
     2
 72
     6
 73
     3
 74
     0
 42
0.0000000001
 43
0.0000000001
 40
0.0
 40
0.0
 40
0.0
 40
0.5988000181388423
 40
0.5988000181388423
 40
0.5988000181388423
 10
1204.738257123345
 20
504.4429059335619
 30
0.0
 41
1.0
 10
1204.731782568756
 20
504.1435759173879
 30
0.0
 41
0.9999998911561278
 10
1204.725587333872
 20
503.8442399898673
 30
0.0
 41
1.0
  0
SPLINE
  5
56
330
1F
100
AcDbEntity
  8
Predefinito
100
AcDbSpline
210
0.0
220
0.0
230
1.0
 70
    12
 71
     2
 72
     8
 73
     5
 74
     0
 42
0.0000000001
 43
0.0000000001
 40
0.0
 40
0.0
 40
0.0
 40
60.18205406680394
 40
60.18205406680394
 40
120.3641081336079
 40
120.3641081336079
 40
120.3641081336079
 10
1175.21657083942
 20
530.2570774849682
 30
0.0
 41
1.0
 10
1143.465545726264
 20
546.2592481025828
 30
0.0
 41
0.7846348041143626
 10
1151.689638691128
 20
580.8505960832093
 30
0.0
 41
1.0
 10
1159.913731655991
 20
615.4419440638359
 30
0.0
 41
0.7846348041143626
 10
1195.469280592978
 20
615.4419767351387
 30
0.0
 41
1.0
  0
SPLINE
  5
57
330
1F
100
AcDbEntity
  8
Predefinito
100
AcDbSpline
210
0.0
220
0.0
230
1.0
 70
    12
 71
     2
 72
     8
 73
     5
 74
     0
 42
0.0000000001
 43
0.0000000001
 40
0.0
 40
0.0
 40
0.0
 40
60.18216322836272
 40
60.18216322836272
 40
120.3643264567254
 40
120.3643264567254
 40
120.3643264567254
 10
1195.469285546909
 20
615.4419767351388
 30
0.0
 41
1.0
 10
1231.024932406452
 20
615.4420667774419
 30
0.0
 41
0.7846337637618971
 10
1239.249051311274
 20
580.8506243118843
 30
0.0
 41
1.0
 10
1247.473170216097
 20
546.2591818463268
 30
0.0
 41
0.7846337637618971
 10
1215.722005473856
 20
530.2570707006136
 30
0.0
 41
1.0
  0
SPLINE
  5
58
330
1F
100
AcDbEntity
  8
Predefinito
100
AcDbSpline
210
0.0
220
0.0
230
1.0
 70
    24
 71
     2
 72
     6
 73
     3
 74
     0
 42
0.0000000001
 43
0.0000000001
 40
0.0
 40
0.0
 40
0.0
 40
0.6980366469442743
 40
0.6980366469442743
 40
0.6980366469442743
 10
1186.469283069943
 20
524.5515698947322
 30
0.0
 10
1186.469283069943
 20
524.9005882182043
 30
0.0
 10
1186.469283069943
 20
525.2496065416765
 30
0.0
  0
SPLINE
  5
59
330
1F
100
AcDbEntity
  8
Predefinito
100
AcDbSpline
210
0.0
220
0.0
230
1.0
 70
    24
 71
     2
 72
     6
 73
     3
 74
     0
 42
0.0000000001
 43
0.0000000001
 40
0.0
 40
0.0
 40
0.0
 40
0.6849663766014373
 40
0.6849663766014373
 40
0.6849663766014373
 10
1204.469283069943
 20
525.2365362719726
 30
0.0
 10
1204.469283069943
 20
524.8940530836719
 30
0.0
 10
1204.469283069943
 20
524.5515698953711
 30
0.0
  0
SPLINE
  5
5A
330
1F
100
AcDbEntity
  8
Predefinito
100
AcDbSpline
210
0.0
220
0.0
230
1.0
 70
    24
 71
     2
 72
     6
 73
     3
 74
     0
 42
0.0000000001
 43
0.0000000001
 40
0.0
 40
0.0
 40
0.0
 40
0.1549894256938842
 40
0.1549894256938842
 40
0.1549894256938842
 10
1174.969283069943
 20
529.7216013077023
 30
0.0
 10
1174.969283069943
 20
529.7990960205492
 30
0.0
 10
1174.969283069943
 20
529.8765907333961
 30
0.0
  0
SPLINE
  5
5B
330
1F
100
AcDbEntity
  8
Predefinito
100
AcDbSpline
210
0.0
220
0.0
230
1.0
 70
    24
 71
     2
 72
     6
 73
     3
 74
     0
 42
0.0000000001
 43
0.0000000001
 40
0.0
 40
0.0
 40
0.0
 40
0.1771373872666118
 40
0.1771373872666118
 40
0.1771373872666118
 10
1215.969283069943
 20
529.853034715598
 30
0.0
 10
1215.969283069943
 20
529.7644660219647
 30
0.0
 10
1215.969283069943
 20
529.6758973283314
 30
0.0
  0
SPLINE
  5
5C
330
1F
100
AcDbEntity
  8
Predefinito
100
AcDbSpline
210
0.0
220
0.0
230
1.0
 70
    12
 71
     2
 72
     6
 73
     3
 74
     0
 42
0.0000000001
 43
0.0000000001
 40
0.0
 40
0.0
 40
0.0
 40
11.80452404064036
 40
11.80452404064036
 40
11.80452404064036
 10
1186.469283069943
 20
525.0206165179827
 30
0.0
 41
1.0
 10
1180.66122309116
 20
526.2637786797094
 30
0.0
 41
0.990593741336914
 10
1175.407681831578
 20
529.0349367609758
 30
0.0
 41
1.0
  0
SPLINE
  5
5D
330
1F
100
AcDbEntity
  8
Predefinito
100
AcDbSpline
210
0.0
220
0.0
230
1.0
 70
    12
 71
     2
 72
     6
 73
     3
 74
     0
 42
0.0000000001
 43
0.0000000001
 40
0.0
 40
0.0
 40
0.0
 40
11.79822746027111
 40
11.79822746027111
 40
11.79822746027111
 10
1215.525307182262
 20
529.0320712956247
 30
0.0
 41
1.0
 10
1210.274225921485
 20
526.263112660141
 30
0.0
 41
0.9906021665433766
 10
1204.46928306994
 20
525.0206856712979
 30
0.0
 41
1.0
  0
SPLINE
  5
5E
330
1F
100
AcDbEntity
  8
Predefinito
100
AcDbSpline
210
0.0
220
0.0
230
1.0
 70
    24
 71
     2
 72
     6
 73
     3
 74
     0
 42
0.0000000001
 43
0.0000000001
 40
0.0
 40
0.0
 40
0.0
 40
13.0
 40
13.0
 40
13.0
 10
1118.469283069943
 20
454.6568527775371
 30
0.0
 10
1118.469283069943
 20
461.1568527775371
 30
0.0
 10
1118.469283069943
 20
467.6568527775371
 30
0.0
  0
SPLINE
  5
5F
330
1F
100
AcDbEntity
  8
Predefinito
100
AcDbSpline
210
0.0
220
0.0
230
1.0
 70
    24
 71
     2
 72
     6
 73
     3
 74
     0
 42
0.0000000001
 43
0.0000000001
 40
0.0
 40
0.0
 40
0.0
 40
0.624472570772198
 40
0.624472570772198
 40
0.624472570772198
 10
1118.469283069943
 20
467.6568527775371
 30
0.0
 10
1118.690067464672
 20
467.8776371722661
 30
0.0
 10
1118.910851859401
 20
468.0984215669951
 30
0.0
  0
SPLINE
  5
60
330
1F
100
AcDbEntity
  8
Predefinito
100
AcDbSpline
210
0.0
220
0.0
230
1.0
 70
    24
 71
     2
 72
     6
 73
     3
 74
     0
 42
0.0000000001
 43
0.0000000001
 40
0.0
 40
0.0
 40
0.0
 40
14.0
 40
14.0
 40
14.0
 10
1118.969283069943
 20
454.1568527775371
 30
0.0
 10
1118.969283069943
 20
461.1568527775371
 30
0.0
 10
1118.969283069943
 20
468.1568527775371
 30
0.0
  0
SPLINE
  5
61
330
1F
100
AcDbEntity
  8
Predefinito
100
AcDbSpline
210
0.0
220
0.0
230
1.0
 70
    24
 71
     2
 72
     6
 73
     3
 74
     0
 42
0.0000000001
 43
0.0000000001
 40
0.0
 40
0.0
 40
0.0
 40
13.91235318471075
 40
13.91235318471075
 40
13.91235318471075
 10
1120.269283069943
 20
468.1568527775371
 30
0.0
 10
1120.269283069943
 20
461.2006761851817
 30
0.0
 10
1120.269283069943
 20
454.2444995928263
 30
0.0
  0
SPLINE
  5
62
330
1F
100
AcDbEntity
  8
Predefinito
100
AcDbSpline
210
0.0
220
0.0
230
1.0
 70
    24
 71
     2
 72
     6
 73
     3
 74
     0
 42
0.0000000001
 43
0.0000000001
 40
0.0
 40
0.0
 40
0.0
 40
0.282842712474603
 40
0.282842712474603
 40
0.282842712474603
 10
1120.469283069943
 20
454.3568527775371
 30
0.0
 10
1120.369283069943
 20
454.2568527775371
 30
0.0
 10
1120.269283069943
 20
454.1568527775371
 30
0.0
  0
SPLINE
  5
63
330
1F
100
AcDbEntity
  8
Predefinito
100
AcDbSpline
210
0.0
220
0.0
230
1.0
 70
    12
 71
     2
 72
     8
 73
     5
 74
     0
 42
0.0000000001
 43
0.0000000001
 40
0.0
 40
0.0
 40
0.0
 40
0.002621946109893
 40
0.002621946109893
 40
0.6015861561653628
 40
0.6015861561653628
 40
0.6015861561653628
 10
1225.384484606268
 20
457.6803217904471
 30
0.0
 41
1.0
 10
1225.385795578869
 20
457.680320595067
 30
0.0
 41
0.999999896070329
 10
1225.387106552014
 20
457.6803205950739
 30
0.0
 41
1.0
 10
1225.68765485938
 20
457.6804269575484
 30
0.0
 41
0.9946871056087929
 10
1225.981811225634
 20
457.7420818727313
 30
0.0
 41
1.0
  0
SPLINE
  5
64
330
1F
100
AcDbEntity
  8
Predefinito
100
AcDbSpline
210
0.0
220
0.0
230
1.0
 70
    12
 71
     2
 72
     6
 73
     3
 74
     0
 42
0.0000000001
 43
0.0000000001
 40
0.0
 40
0.0
 40
0.0
 40
0.6626027053224136
 40
0.6626027053224136
 40
0.6626027053224136
 10
1227.246156485912
 20
463.607355187904
 30
0.0
 41
1.0
 10
1226.977544723627
 20
463.8037472962665
 30
0.0
 41
0.9934852787797324
 10
1226.671439600134
 20
463.9342148877852
 30
0.0
 41
1.0
  0
SPLINE
  5
65
330
1F
100
AcDbEntity
  8
Predefinito
100
AcDbSpline
210
0.0
220
0.0
230
1.0
 70
    24
 71
     2
 72
     6
 73
     3
 74
     0
 42
0.0000000001
 43
0.0000000001
 40
0.0
 40
0.0
 40
0.0
 40
13.0
 40
13.0
 40
13.0
 10
1270.469283069943
 20
454.6568527775371
 30
0.0
 10
1270.469283069943
 20
461.1568527775371
 30
0.0
 10
1270.469283069943
 20
467.6568527775371
 30
0.0
  0
SPLINE
  5
66
330
1F
100
AcDbEntity
  8
Predefinito
100
AcDbSpline
210
0.0
220
0.0
230
1.0
 70
    24
 71
     2
 72
     6
 73
     3
 74
     0
 42
0.0000000001
 43
0.0000000001
 40
0.0
 40
0.0
 40
0.0
 40
0.6244725707721578
 40
0.6244725707721578
 40
0.6244725707721578
 10
1270.469283069943
 20
467.6568527775371
 30
0.0
 10
1270.248498675214
 20
467.8776371722661
 30
0.0
 10
1270.027714280485
 20
468.0984215669951
 30
0.0
  0
SPLINE
  5
67
330
1F
100
AcDbEntity
  8
Predefinito
100
AcDbSpline
210
0.0
220
0.0
230
1.0
 70
    24
 71
     2
 72
     6
 73
     3
 74
     0
 42
0.0000000001
 43
0.0000000001
 40
0.0
 40
0.0
 40
0.0
 40
7.0
 40
7.0
 40
7.0
 10
1269.969283069943
 20
461.1568527775371
 30
0.0
 10
1269.969283069943
 20
457.6568527775371
 30
0.0
 10
1269.969283069943
 20
454.1568527775371
 30
0.0
  0
SPLINE
  5
68
330
1F
100
AcDbEntity
  8
Predefinito
100
AcDbSpline
210
0.0
220
0.0
230
1.0
 70
    24
 71
     2
 72
     6
 73
     3
 74
     0
 42
0.0000000001
 43
0.0000000001
 40
0.0
 40
0.0
 40
0.0
 40
7.0
 40
7.0
 40
7.0
 10
1269.969283069943
 20
461.1568527775371
 30
0.0
 10
1269.969283069943
 20
464.6568527775371
 30
0.0
 10
1269.969283069943
 20
468.1568527775371
 30
0.0
  0
SPLINE
  5
69
330
1F
100
AcDbEntity
  8
Predefinito
100
AcDbSpline
210
0.0
220
0.0
230
1.0
 70
    24
 71
     2
 72
     6
 73
     3
 74
     0
 42
0.0000000001
 43
0.0000000001
 40
0.0
 40
0.0
 40
0.0
 40
7.0
 40
7.0
 40
7.0
 10
1120.669283069943
 20
468.1568527775371
 30
0.0
 10
1120.669283069943
 20
464.6568527775371
 30
0.0
 10
1120.669283069943
 20
461.1568527775371
 30
0.0
  0
SPLINE
  5
6A
330
1F
100
AcDbEntity
  8
Predefinito
100
AcDbSpline
210
0.0
220
0.0
230
1.0
 70
    24
 71
     2
 72
     6
 73
     3
 74
     0
 42
0.0000000001
 43
0.0000000001
 40
0.0
 40
0.0
 40
0.0
 40
7.0
 40
7.0
 40
7.0
 10
1120.669283069943
 20
454.1568527775371
 30
0.0
 10
1120.669283069943
 20
457.6568527775371
 30
0.0
 10
1120.669283069943
 20
461.1568527775371
 30
0.0
  0
SPLINE
  5
6B
330
1F
100
AcDbEntity
  8
Predefinito
100
AcDbSpline
210
0.0
220
0.0
230
1.0
 70
    24
 71
     2
 72
     6
 73
     3
 74
     0
 42
0.0000000001
 43
0.0000000001
 40
0.0
 40
0.0
 40
0.0
 40
13.60000000000002
 40
13.60000000000002
 40
13.60000000000002
 10
1120.469283069943
 20
454.3568527775371
 30
0.0
 10
1120.469283069943
 20
461.1568527775371
 30
0.0
 10
1120.469283069943
 20
467.9568527775371
 30
0.0
  0
SPLINE
  5
6C
330
1F
100
AcDbEntity
  8
Predefinito
100
AcDbSpline
210
0.0
220
0.0
230
1.0
 70
    24
 71
     2
 72
     6
 73
     3
 74
     0
 42
0.0000000001
 43
0.0000000001
 40
0.0
 40
0.0
 40
0.0
 40
0.2002085020602533
 40
0.2002085020602533
 40
0.2002085020602533
 10
1120.469283069943
 20
454.3568527775371
 30
0.0
 10
1120.540067464672
 20
454.2860683828081
 30
0.0
 10
1120.610851859401
 20
454.2152839880791
 30
0.0
  0
SPLINE
  5
6D
330
1F
100
AcDbEntity
  8
Predefinito
100
AcDbSpline
210
0.0
220
0.0
230
1.0
 70
     8
 71
     3
 72
    11
 73
     7
 74
     0
 42
0.0000000001
 43
0.0000000001
 40
0.0
 40
0.0
 40
0.0
 40
0.0
 40
0.9124816915225218
 40
1.809651711253029
 40
3.582639953455037
 40
7.288261376698498
 40
7.288261376698498
 40
7.288261376698498
 40
7.288261376698498
 10
1223.369925783509
 20
460.7159264725892
 30
0.0
 10
1223.371505402332
 20
461.0172775201831
 30
0.0
 10
1223.474270189548
 20
461.6262417974128
 30
0.0
 10
1223.913160295297
 20
462.7259640465327
 30
0.0
 10
1225.567830198948
 20
464.2827158143688
 30
0.0
 10
1227.643986079548
 20
463.9472221901411
 30
0.0
 10
1228.668880009258
 20
463.3006663694447
 30
0.0
  0
SPLINE
  5
6E
330
1F
100
AcDbEntity
  8
Predefinito
100
AcDbSpline
210
0.0
220
0.0
230
1.0
 70
    12
 71
     2
 72
     8
 73
     5
 74
     0
 42
0.0000000001
 43
0.0000000001
 40
0.0
 40
0.0
 40
0.0
 40
2.855689599044686
 40
2.855689599044686
 40
5.711379198089372
 40
5.711379198089372
 40
5.711379198089372
 10
1227.109592904267
 20
457.4989720732298
 30
0.0
 41
1.0
 10
1225.605627906937
 20
457.1730141136239
 30
0.0
 41
0.8952003255180034
 10
1224.438999648533
 20
458.1765766733658
 30
0.0
 41
1.0
 10
1223.272371390129
 20
459.1801392331074
 30
0.0
 41
0.8952003255180034
 10
1223.369925783509
 20
460.7159264725892
 30
0.0
 41
1.0
  0
SPLINE
  5
6F
330
1F
100
AcDbEntity
  8
Predefinito
100
AcDbSpline
210
0.0
220
0.0
230
1.0
 70
    12
 71
     2
 72
     8
 73
     5
 74
     0
 42
0.0000000001
 43
0.0000000001
 40
0.0
 40
0.0
 40
0.0
 40
3.674048432935923
 40
3.674048432935923
 40
7.348096865871845
 40
7.348096865871845
 40
7.348096865871845
 10
1227.845383998792
 20
457.3403615649411
 30
0.0
 41
1.0
 10
1225.959877335335
 20
456.5633956821846
 30
0.0
 41
0.8576366925344102
 10
1224.386296591465
 20
457.8605676073478
 30
0.0
 41
1.0
 10
1222.812715847594
 20
459.1577395325106
 30
0.0
 41
0.8576366925344102
 10
1223.215653294158
 20
461.1568525295841
 30
0.0
 41
1.0
  0
SPLINE
  5
70
330
1F
100
AcDbEntity
  8
Predefinito
100
AcDbSpline
210
0.0
220
0.0
230
1.0
 70
     8
 71
     3
 72
    11
 73
     7
 74
     0
 42
0.0000000001
 43
0.0000000001
 40
0.0
 40
0.0
 40
0.0
 40
0.0
 40
0.9598653326476956
 40
1.98058648303035
 40
3.869777052267549
 40
7.949673119876738
 40
7.949673119876738
 40
7.949673119876738
 40
7.949673119876738
 10
1223.215653294158
 20
461.1568525295841
 30
0.0
 10
1223.228646189873
 20
461.48348586389
 30
0.0
 10
1223.415954959451
 20
462.1156457312105
 30
0.0
 10
1224.031970194542
 20
463.2602290891048
 30
0.0
 10
1226.038423980179
 20
464.6861001714875
 30
0.0
 10
1228.257343986159
 20
464.0589353275108
 30
0.0
 10
1229.260562647791
 20
463.1731205331398
 30
0.0
  0
SPLINE
  5
71
330
1F
100
AcDbEntity
  8
Predefinito
100
AcDbSpline
210
0.0
220
0.0
230
1.0
 70
    12
 71
     2
 72
     8
 73
     5
 74
     0
 42
0.0000000001
 43
0.0000000001
 40
0.0
 40
0.0
 40
0.0
 40
3.052997655307446
 40
3.052997655307446
 40
6.187722385623201
 40
6.187722385623201
 40
6.187722385623201
 10
1247.644698375437
 20
453.9599700163386
 30
0.0
 41
1.0
 10
1246.242558590744
 20
452.9723035013367
 30
0.0
 41
0.8429456994086756
 10
1244.756275893077
 20
453.8281334279541
 30
0.0
 41
1.0
 10
1243.271804731261
 20
454.7270292160117
 30
0.0
 41
0.8608769058233504
 10
1243.343444613356
 20
456.4609657763696
 30
0.0
 41
1.0
  0
SPLINE
  5
72
330
1F
100
AcDbEntity
  8
Predefinito
100
AcDbSpline
210
0.0
220
0.0
230
1.0
 70
    12
 71
     2
 72
    10
 73
     7
 74
     0
 42
0.0000000001
 43
0.0000000001
 40
0.0
 40
0.0
 40
0.0
 40
4.656451623517608
 40
4.656451623517608
 40
6.893348333498849
 40
6.893348333498849
 40
9.13024504348009
 40
9.13024504348009
 40
9.13024504348009
 10
1247.644698375437
 20
453.9599700163386
 30
0.0
 41
1.0
 10
1249.994367272497
 20
455.6138518996111
 30
0.0
 41
0.7382672774481728
 10
1248.558860232916
 20
458.1029458610638
 30
0.0
 41
1.0
 10
1247.96829784684
 20
459.1336243182126
 30
0.0
 41
0.9145858849797968
 10
1246.808493113339
 20
459.3903634738341
 30
0.0
 41
1.0
 10
1245.648688379839
 20
459.647102629455
 30
0.0
 41
0.9145858849797968
 10
1244.678305106855
 20
458.9619615364006
 30
0.0
 41
1.0
  0
SPLINE
  5
73
330
1F
100
AcDbEntity
  8
Predefinito
100
AcDbSpline
210
0.0
220
0.0
230
1.0
 70
    12
 71
     2
 72
     6
 73
     3
 74
     0
 42
0.0000000001
 43
0.0000000001
 40
0.0
 40
0.0
 40
0.0
 40
2.941836455034332
 40
2.941836455034332
 40
2.941836455034332
 10
1244.678305106855
 20
458.9619615364006
 30
0.0
 41
1.0
 10
1243.376407764353
 20
458.0500988008665
 30
0.0
 41
0.8917821890929528
 10
1243.343444613356
 20
456.4609657763696
 30
0.0
 41
1.0
  0
SPLINE
  5
74
330
1F
100
AcDbEntity
  8
Predefinito
100
AcDbSpline
210
0.0
220
0.0
230
1.0
 70
    12
 71
     2
 72
    10
 73
     7
 74
     0
 42
0.0000000001
 43
0.0000000001
 40
0.0
 40
0.0
 40
0.0
 40
3.880376352931245
 40
3.880376352931245
 40
5.744456944582204
 40
5.744456944582204
 40
7.608537536233163
 40
7.608537536233163
 40
7.608537536233163
 10
1245.096514617566
 20
458.5082651930842
 30
0.0
 41
1.0
 10
1243.138457203351
 20
457.1300302903571
 30
0.0
 41
0.7382672774482434
 10
1244.334713069667
 20
455.0557853224799
 30
0.0
 41
1.0
 10
1244.826848391398
 20
454.1968866081892
 30
0.0
 41
0.9145858849798113
 10
1245.793352335981
 20
453.9829373118382
 30
0.0
 41
1.0
 10
1246.759856280565
 20
453.768988015487
 30
0.0
 41
0.9145858849798113
 10
1247.568509008052
 20
454.339938926366
 30
0.0
 41
1.0
  0
SPLINE
  5
75
330
1F
100
AcDbEntity
  8
Predefinito
100
AcDbSpline
210
0.0
220
0.0
230
1.0
 70
    12
 71
     2
 72
    10
 73
     7
 74
     0
 42
0.0000000001
 43
0.0000000001
 40
0.0
 40
0.0
 40
0.0
 40
3.880376352931246
 40
3.880376352931246
 40
5.74445694458224
 40
5.74445694458224
 40
7.608537536233234
 40
7.608537536233234
 40
7.608537536233234
 10
1247.568509008052
 20
454.339938926366
 30
0.0
 41
1.0
 10
1249.526566422268
 20
455.718173829093
 30
0.0
 41
0.7382672774481792
 10
1248.330310555951
 20
457.7924187969703
 30
0.0
 41
1.0
 10
1247.838175234221
 20
458.6513175112611
 30
0.0
 41
0.914585884979804
 10
1246.871671289637
 20
458.8652668076121
 30
0.0
 41
1.0
 10
1245.905167345053
 20
459.0792161039632
 30
0.0
 41
0.914585884979804
 10
1245.096514617566
 20
458.5082651930842
 30
0.0
 41
1.0
  0
SPLINE
  5
76
330
1F
100
AcDbEntity
  8
Predefinito
100
AcDbSpline
210
0.0
220
0.0
230
1.0
 70
    12
 71
     2
 72
     8
 73
     5
 74
     0
 42
0.0000000001
 43
0.0000000001
 40
0.0
 40
0.0
 40
0.0
 40
0.079412480963943
 40
0.079412480963943
 40
0.0960551669155472
 40
0.0960551669155472
 40
0.0960551669155472
 10
1185.57104380924
 20
463.1568527775389
 30
0.0
 41
1.0
 10
1185.529110329066
 20
463.1568527775393
 30
0.0
 41
0.9222009716741397
 10
1185.499718764326
 20
463.1867618511077
 30
0.0
 41
1.0
 10
1185.493872758202
 20
463.1927107901586
 30
0.0
 41
0.9965397599409187
 10
1185.489093025549
 20
463.1995459799288
 30
0.0
 41
1.0
  0
SPLINE
  5
77
330
1F
100
AcDbEntity
  8
Predefinito
100
AcDbSpline
210
0.0
220
0.0
230
1.0
 70
    24
 71
     2
 72
     6
 73
     3
 74
     0
 42
0.0000000001
 43
0.0000000001
 40
0.0
 40
0.0
 40
0.0
 40
0.1212121212104762
 40
0.1212121212104762
 40
0.1212121212104762
 10
1185.57104380924
 20
463.2780648987493
 30
0.0
 10
1185.57104380924
 20
463.2174588381441
 30
0.0
 10
1185.57104380924
 20
463.1568527775389
 30
0.0
  0
SPLINE
  5
78
330
1F
100
AcDbEntity
  8
Predefinito
100
AcDbSpline
210
0.0
220
0.0
230
1.0
 70
    24
 71
     2
 72
     6
 73
     3
 74
     0
 42
0.0000000001
 43
0.0000000001
 40
0.0
 40
0.0
 40
0.0
 40
0.1212121212105899
 40
0.1212121212105899
 40
0.1212121212105899
 10
1205.367522330646
 20
463.2780648987493
 30
0.0
 10
1205.367522330646
 20
463.217458838144
 30
0.0
 10
1205.367522330646
 20
463.1568527775387
 30
0.0
  0
SPLINE
  5
79
330
1F
100
AcDbEntity
  8
Predefinito
100
AcDbSpline
210
0.0
220
0.0
230
1.0
 70
    12
 71
     2
 72
     8
 73
     5
 74
     0
 42
0.0000000001
 43
0.0000000001
 40
0.0
 40
0.0
 40
0.0
 40
0.0166426859517211
 40
0.0166426859517211
 40
0.0960551669158049
 40
0.0960551669158049
 40
0.0960551669158049
 10
1205.449473114338
 20
463.1995459799288
 30
0.0
 41
1.0
 10
1205.444693381683
 20
463.1927107901585
 30
0.0
 41
0.9965397599407501
 10
1205.43884737556
 20
463.1867618511077
 30
0.0
 41
1.0
 10
1205.409455810821
 20
463.1568527775387
 30
0.0
 41
0.9222009716727034
 10
1205.367522330646
 20
463.1568527775389
 30
0.0
 41
1.0
  0
SPLINE
  5
7A
330
1F
100
AcDbEntity
  8
Predefinito
100
AcDbSpline
210
0.0
220
0.0
230
1.0
 70
    12
 71
     2
 72
     6
 73
     3
 74
     0
 42
0.0000000001
 43
0.0000000001
 40
0.0
 40
0.0
 40
0.0
 40
0.7766715171366765
 40
0.7766715171366765
 40
0.7766715171366765
 10
1204.477858285964
 20
488.6655789807587
 30
0.0
 41
1.0
 10
1204.469283069943
 20
489.1568527775399
 30
0.0
 41
0.7132504491537652
 10
1203.977934438385
 20
489.1568527775389
 30
0.0
 41
1.0
  0
SPLINE
  5
7B
330
1F
100
AcDbEntity
  8
Predefinito
100
AcDbSpline
210
0.0
220
0.0
230
1.0
 70
    12
 71
     2
 72
     6
 73
     3
 74
     0
 42
0.0000000001
 43
0.0000000001
 40
0.0
 40
0.0
 40
0.0
 40
0.7766715171367148
 40
0.7766715171367148
 40
0.7766715171367148
 10
1186.960631701501
 20
489.1568527775389
 30
0.0
 41
1.0
 10
1186.469283069943
 20
489.1568527775397
 30
0.0
 41
0.7132504491537254
 10
1186.460707853923
 20
488.6655789807587
 30
0.0
 41
1.0
  0
SPLINE
  5
7C
330
1F
100
AcDbEntity
  8
Predefinito
100
AcDbSpline
210
0.0
220
0.0
230
1.0
 70
    24
 71
     2
 72
     6
 73
     3
 74
     0
 42
0.0000000001
 43
0.0000000001
 40
0.0
 40
0.0
 40
0.0
 40
0.2731329383185224
 40
0.2731329383185224
 40
0.2731329383185224
 10
1205.246170667069
 20
470.7923910058707
 30
0.0
 10
1205.243672458929
 20
470.9289346232782
 30
0.0
 10
1205.24117425079
 20
471.0654782406857
 30
0.0
  0
SPLINE
  5
7D
330
1F
100
AcDbEntity
  8
Predefinito
100
AcDbSpline
210
0.0
220
0.0
230
1.0
 70
    24
 71
     2
 72
     6
 73
     3
 74
     0
 42
0.0000000001
 43
0.0000000001
 40
0.0
 40
0.0
 40
0.0
 40
0.0719252520527001
 40
0.0719252520527001
 40
0.0719252520527001
 10
1185.693720844768
 20
470.8643048026764
 30
0.0
 10
1185.693062982552
 20
470.828348194271
 30
0.0
 10
1185.692405120335
 20
470.7923915858657
 30
0.0
  0
SPLINE
  5
7E
330
1F
100
AcDbEntity
  8
Predefinito
100
AcDbSpline
210
0.0
220
0.0
230
1.0
 70
    28
 71
     2
 72
     6
 73
     3
 74
     0
 42
0.0000000001
 43
0.0000000001
 40
0.0
 40
0.0
 40
0.0
 40
0.0873961376055377
 40
0.0873961376055377
 40
0.0873961376055377
 10
1185.697401046753
 20
471.0654789209366
 30
0.0
 41
1.0
 10
1185.698200412972
 20
471.1091696777478
 30
0.0
 41
1.0
 10
1185.698999779192
 20
471.152860434559
 30
0.0
 41
1.0
  0
SPLINE
  5
7F
330
1F
100
AcDbEntity
  8
Predefinito
100
AcDbSpline
210
0.0
220
0.0
230
1.0
 70
    12
 71
     2
 72
     6
 73
     3
 74
     0
 42
0.0000000001
 43
0.0000000001
 40
0.0
 40
0.0
 40
0.0
 40
0.7269414020912033
 40
0.7269414020912033
 40
0.7269414020912033
 10
1205.246170667069
 20
470.7923910058707
 30
0.0
 41
1.0
 10
1204.797873108239
 20
470.815614252315
 30
0.0
 41
0.7375303643779169
 10
1204.78160017387
 20
471.2642178769488
 30
0.0
 41
1.0
  0
SPLINE
  5
80
330
1F
100
AcDbEntity
  8
Predefinito
100
AcDbSpline
210
0.0
220
0.0
230
1.0
 70
    12
 71
     2
 72
     6
 73
     3
 74
     0
 42
0.0000000001
 43
0.0000000001
 40
0.0
 40
0.0
 40
0.0
 40
0.2427446378268533
 40
0.2427446378268533
 40
0.2427446378268533
 10
1205.241860172557
 20
470.5497161409808
 30
0.0
 41
1.0
 10
1205.247401735732
 20
470.6709934242375
 30
0.0
 41
0.9996107920135654
 10
1205.246170667068
 20
470.7923910058707
 30
0.0
 41
1.0
  0
SPLINE
  5
81
330
1F
100
AcDbEntity
  8
Predefinito
100
AcDbSpline
210
0.0
220
0.0
230
1.0
 70
    12
 71
     2
 72
     6
 73
     3
 74
     0
 42
0.0000000001
 43
0.0000000001
 40
0.0
 40
0.0
 40
0.0
 40
0.7269349193820422
 40
0.7269349193820422
 40
0.7269349193820422
 10
1186.156965966016
 20
471.2642178769488
 30
0.0
 41
1.0
 10
1186.140700848611
 20
470.8156157505911
 30
0.0
 41
0.7375252902465317
 10
1185.692405120335
 20
470.7923915858657
 30
0.0
 41
1.0
  0
SPLINE
  5
82
330
1F
100
AcDbEntity
  8
Predefinito
100
AcDbSpline
210
0.0
220
0.0
230
1.0
 70
    12
 71
     2
 72
     6
 73
     3
 74
     0
 42
0.0000000001
 43
0.0000000001
 40
0.0
 40
0.0
 40
0.0
 40
0.2425639083259786
 40
0.2425639083259786
 40
0.2425639083259786
 10
1185.692405120335
 20
470.7923915858657
 30
0.0
 41
1.0
 10
1185.691105820006
 20
470.671083866872
 30
0.0
 41
0.9995954456554949
 10
1185.696706288503
 20
470.5498985310371
 30
0.0
 41
1.0
  0
SPLINE
  5
83
330
1F
100
AcDbEntity
  8
Predefinito
100
AcDbSpline
210
0.0
220
0.0
230
1.0
 70
    12
 71
     2
 72
     6
 73
     3
 74
     0
 42
0.0000000001
 43
0.0000000001
 40
0.0
 40
0.0
 40
0.0
 40
6.498956570804284
 40
6.498956570804284
 40
6.498956570804284
 10
1197.978909518393
 20
488.6655790629517
 30
0.0
 41
1.0
 10
1201.228383902289
 20
488.6743008065097
 30
0.0
 41
0.9999963979300573
 10
1204.477858285964
 20
488.6655789807588
 30
0.0
 41
1.0
  0
SPLINE
  5
84
330
1F
100
AcDbEntity
  8
Predefinito
100
AcDbSpline
210
0.0
220
0.0
230
1.0
 70
     8
 71
     3
 72
    13
 73
     9
 74
     0
 42
0.0000000001
 43
0.0000000001
 40
0.0
 40
0.0
 40
0.0
 40
0.0
 40
0.7037437981502807
 40
1.486370489796177
 40
3.860406909972093
 40
7.594166795901496
 40
8.897411283841176
 40
9.59719383011727
 40
9.59719383011727
 40
9.59719383011727
 40
9.59719383011727
 10
1198.399561949055
 20
464.5629083038589
 30
0.0
 10
1198.632378869747
 20
464.5685371898235
 30
0.0
 10
1199.131829621278
 20
464.6419082815019
 30
0.0
 10
1200.271551213053
 20
465.2675207032761
 30
0.0
 10
1201.924026212097
 20
466.8798237132279
 30
0.0
 10
1203.490022314076
 20
468.7907400643928
 30
0.0
 10
1204.531387195845
 20
470.400009691537
 30
0.0
 10
1204.777636650395
 20
471.0278572871144
 30
0.0
 10
1204.78160017387
 20
471.2642178769488
 30
0.0
  0
SPLINE
  5
85
330
1F
100
AcDbEntity
  8
Predefinito
100
AcDbSpline
210
0.0
220
0.0
230
1.0
 70
    12
 71
     2
 72
     6
 73
     3
 74
     0
 42
0.0000000001
 43
0.0000000001
 40
0.0
 40
0.0
 40
0.0
 40
6.498956570804284
 40
6.498956570804284
 40
6.498956570804284
 10
1186.460707853923
 20
488.6655789807588
 30
0.0
 41
1.0
 10
1189.710182237598
 20
488.6743008065095
 30
0.0
 41
0.9999963979300575
 10
1192.959656621493
 20
488.6655790629518
 30
0.0
 41
1.0
  0
SPLINE
  5
86
330
1F
100
AcDbEntity
  8
Predefinito
100
AcDbSpline
210
0.0
220
0.0
230
1.0
 70
     8
 71
     3
 72
    12
 73
     8
 74
     0
 42
0.0000000001
 43
0.0000000001
 40
0.0
 40
0.0
 40
0.0
 40
0.0
 40
0.6992186513073869
 40
2.002097852409172
 40
5.737103586772778
 40
8.110143451809712
 40
9.597282441742859
 40
9.597282441742859
 40
9.597282441742859
 40
9.597282441742859
 10
1186.156965966016
 20
471.2642178769488
 30
0.0
 10
1186.160575628681
 20
471.027549929025
 30
0.0
 10
1186.407640647843
 20
470.401423941892
 30
0.0
 10
1187.446770457261
 20
468.7887798565743
 30
0.0
 10
1189.016864556312
 20
466.8839747148078
 30
0.0
 10
1190.832542181622
 20
465.0982025596724
 30
0.0
 10
1192.028822763725
 20
464.5476802029393
 30
0.0
 10
1192.539004190831
 20
464.5629083038589
 30
0.0
  0
SPLINE
  5
87
330
1F
100
AcDbEntity
  8
Predefinito
100
AcDbSpline
210
0.0
220
0.0
230
1.0
 70
    24
 71
     2
 72
     6
 73
     3
 74
     0
 42
0.0000000001
 43
0.0000000001
 40
0.0
 40
0.0
 40
0.0
 40
0.1037969109876482
 40
0.1037969109876482
 40
0.1037969109876482
 10
1185.603845333929
 20
470.8659197182041
 30
0.0
 10
1185.604751086868
 20
470.9178102693118
 30
0.0
 10
1185.605656839806
 20
470.9697008204194
 30
0.0
  0
SPLINE
  5
88
330
1F
100
AcDbEntity
  8
Predefinito
100
AcDbSpline
210
0.0
220
0.0
230
1.0
 70
    24
 71
     2
 72
     6
 73
     3
 74
     0
 42
0.0000000001
 43
0.0000000001
 40
0.0
 40
0.0
 40
0.0
 40
5.999086170937971
 40
5.999086170937971
 40
5.999086170937971
 10
1192.959717872439
 20
489.1568527775389
 30
0.0
 10
1189.96017478697
 20
489.1568527775389
 30
0.0
 10
1186.960631701501
 20
489.156852777539
 30
0.0
  0
SPLINE
  5
89
330
1F
100
AcDbEntity
  8
Predefinito
100
AcDbSpline
210
0.0
220
0.0
230
1.0
 70
    24
 71
     2
 72
     6
 73
     3
 74
     0
 42
0.0000000001
 43
0.0000000001
 40
0.0
 40
0.0
 40
0.0
 40
5.019130395008006
 40
5.019130395008006
 40
5.019130395008006
 10
1197.978848267447
 20
489.1568527775389
 30
0.0
 10
1195.469283069943
 20
489.1568527775389
 30
0.0
 10
1192.959717872439
 20
489.1568527775389
 30
0.0
  0
SPLINE
  5
8A
330
1F
100
AcDbEntity
  8
Predefinito
100
AcDbSpline
210
0.0
220
0.0
230
1.0
 70
    24
 71
     2
 72
     6
 73
     3
 74
     0
 42
0.0000000001
 43
0.0000000001
 40
0.0
 40
0.0
 40
0.0
 40
5.999086170938085
 40
5.999086170938085
 40
5.999086170938085
 10
1203.977934438385
 20
489.1568527775389
 30
0.0
 10
1200.978391352916
 20
489.1568527775389
 30
0.0
 10
1197.978848267447
 20
489.156852777539
 30
0.0
  0
SPLINE
  5
8B
330
1F
100
AcDbEntity
  8
Predefinito
100
AcDbSpline
210
0.0
220
0.0
230
1.0
 70
    24
 71
     2
 72
     6
 73
     3
 74
     0
 42
0.0000000001
 43
0.0000000001
 40
0.0
 40
0.0
 40
0.0
 40
17.40401181910818
 40
17.40401181910818
 40
17.40401181910818
 10
1186.156965966016
 20
471.2642178769488
 30
0.0
 10
1186.30883690997
 20
479.9648984288538
 30
0.0
 10
1186.460707853923
 20
488.6655789807587
 30
0.0
  0
SPLINE
  5
8C
330
1F
100
AcDbEntity
  8
Predefinito
100
AcDbSpline
210
0.0
220
0.0
230
1.0
 70
    24
 71
     2
 72
     6
 73
     3
 74
     0
 42
0.0000000001
 43
0.0000000001
 40
0.0
 40
0.0
 40
0.0
 40
17.40401181910818
 40
17.40401181910818
 40
17.40401181910818
 10
1204.477858285964
 20
488.6655789807587
 30
0.0
 10
1204.629729229917
 20
479.9648984288538
 30
0.0
 10
1204.78160017387
 20
471.2642178769488
 30
0.0
  0
SPLINE
  5
8D
330
1F
100
AcDbEntity
  8
Predefinito
100
AcDbSpline
210
0.0
220
0.0
230
1.0
 70
    24
 71
     2
 72
     6
 73
     3
 74
     0
 42
0.0000000001
 43
0.0000000001
 40
0.0
 40
0.0
 40
0.0
 40
5.019130395008233
 40
5.019130395008233
 40
5.019130395008233
 10
1197.978848267447
 20
488.6655789807587
 30
0.0
 10
1195.469283069943
 20
488.6655789807587
 30
0.0
 10
1192.959717872439
 20
488.6655789807587
 30
0.0
  0
SPLINE
  5
8E
330
1F
100
AcDbEntity
  8
Predefinito
100
AcDbSpline
210
0.0
220
0.0
230
1.0
 70
    24
 71
     2
 72
     6
 73
     3
 74
     0
 42
0.0000000001
 43
0.0000000001
 40
0.0
 40
0.0
 40
0.0
 40
5.860557758224331
 40
5.860557758224331
 40
5.860557758224331
 10
1192.539004190831
 20
464.5629083038589
 30
0.0
 10
1195.469283069943
 20
464.5629083038589
 30
0.0
 10
1198.399561949055
 20
464.5629083038589
 30
0.0
  0
SPLINE
  5
8F
330
1F
100
AcDbEntity
  8
Predefinito
100
AcDbSpline
210
0.0
220
0.0
230
1.0
 70
    24
 71
     2
 72
     6
 73
     3
 74
     0
 42
0.0000000001
 43
0.0000000001
 40
0.0
 40
0.0
 40
0.0
 40
19.79647852140602
 40
19.79647852140602
 40
19.79647852140602
 10
1185.57104380924
 20
463.1568527775389
 30
0.0
 10
1195.469283069943
 20
463.1568527775389
 30
0.0
 10
1205.367522330646
 20
463.1568527775389
 30
0.0
  0
SPLINE
  5
90
330
1F
100
AcDbEntity
  8
Predefinito
100
AcDbSpline
210
0.0
220
0.0
230
1.0
 70
    24
 71
     2
 72
     6
 73
     3
 74
     0
 42
0.0000000001
 43
0.0000000001
 40
0.0
 40
0.0
 40
0.0
 40
5.86055775822399
 40
5.86055775822399
 40
5.86055775822399
 10
1198.399561949055
 20
464.409025853289
 30
0.0
 10
1195.469283069943
 20
464.409025853289
 30
0.0
 10
1192.539004190831
 20
464.409025853289
 30
0.0
  0
SPLINE
  5
91
330
1F
100
AcDbEntity
  8
Predefinito
100
AcDbSpline
210
0.0
220
0.0
230
1.0
 70
     8
 71
     3
 72
    12
 73
     8
 74
     0
 42
0.0000000001
 43
0.0000000001
 40
0.0
 40
0.0
 40
0.0
 40
0.0
 40
0.9382650471847006
 40
2.407305264318409
 40
5.878798658422867
 40
8.025737169680555
 40
9.477666120809964
 40
9.477666120809964
 40
9.477666120809964
 40
9.477666120809964
 10
1205.241860172557
 20
470.5497161409808
 30
0.0
 10
1205.15136225956
 20
470.2474671063905
 30
0.0
 10
1204.727101853966
 20
469.562552018886
 30
0.0
 10
1203.51876234383
 20
468.0178345701019
 30
0.0
 10
1201.876315058732
 20
466.3148284238235
 30
0.0
 10
1200.050382725852
 20
464.8095788123654
 30
0.0
 10
1198.886888190935
 20
464.4054899319491
 30
0.0
 10
1198.399561949055
 20
464.409025853289
 30
0.0
  0
SPLINE
  5
92
330
1F
100
AcDbEntity
  8
Predefinito
100
AcDbSpline
210
0.0
220
0.0
230
1.0
 70
    12
 71
     2
 72
     6
 73
     3
 74
     0
 42
0.0000000001
 43
0.0000000001
 40
0.0
 40
0.0
 40
0.0
 40
7.272736972898932
 40
7.272736972898932
 40
7.272736972898932
 10
1205.367522330645
 20
463.2780648987493
 30
0.0
 41
1.0
 10
1205.30517363485
 20
466.9138988559799
 30
0.0
 41
0.9999999911986692
 10
1205.241860172552
 20
470.5497161409807
 30
0.0
 41
1.0
  0
SPLINE
  5
93
330
1F
100
AcDbEntity
  8
Predefinito
100
AcDbSpline
210
0.0
220
0.0
230
1.0
 70
    24
 71
     2
 72
     6
 73
     3
 74
     0
 42
0.0000000001
 43
0.0000000001
 40
0.0
 40
0.0
 40
0.0
 40
19.7964785214059
 40
19.7964785214059
 40
19.7964785214059
 10
1185.57104380924
 20
463.2780648987493
 30
0.0
 10
1195.469283069943
 20
463.2780648987493
 30
0.0
 10
1205.367522330646
 20
463.2780648987493
 30
0.0
  0
SPLINE
  5
94
330
1F
100
AcDbEntity
  8
Predefinito
100
AcDbSpline
210
0.0
220
0.0
230
1.0
 70
    12
 71
     2
 72
     6
 73
     3
 74
     0
 42
0.0000000001
 43
0.0000000001
 40
0.0
 40
0.0
 40
0.0
 40
7.272919341217617
 40
7.272919341217617
 40
7.272919341217617
 10
1185.696706288501
 20
470.5498985310371
 30
0.0
 41
1.0
 10
1185.633393333888
 20
466.9139900392722
 30
0.0
 41
0.9999999912234784
 10
1185.571043809241
 20
463.2780648987493
 30
0.0
 41
1.0
  0
SPLINE
  5
95
330
1F
100
AcDbEntity
  8
Predefinito
100
AcDbSpline
210
0.0
220
0.0
230
1.0
 70
     8
 71
     3
 72
    13
 73
     9
 74
     0
 42
0.0000000001
 43
0.0000000001
 40
0.0
 40
0.0
 40
0.0
 40
0.0
 40
0.7035741086867925
 40
1.451867383504969
 40
3.59871887822706
 40
7.134817376231057
 40
8.53692312248784
 40
9.478275941084673
 40
9.478275941084673
 40
9.478275941084673
 40
9.478275941084673
 10
1192.539004190831
 20
464.409025853289
 30
0.0
 10
1192.30259340628
 20
464.4101870795504
 30
0.0
 10
1191.824536569303
 20
464.4828486860565
 30
0.0
 10
1190.706164124384
 20
464.9599956701593
 30
0.0
 10
1189.046332720706
 20
466.32850377469
 30
0.0
 10
1187.405408380376
 20
468.0329924398199
 30
0.0
 10
1186.197229920569
 20
469.5776485195308
 30
0.0
 10
1185.787598595263
 20
470.246980154052
 30
0.0
 10
1185.696706288503
 20
470.5498985310371
 30
0.0
  0
SPLINE
  5
96
330
1F
100
AcDbEntity
  8
Predefinito
100
AcDbSpline
210
0.0
220
0.0
230
1.0
 70
    24
 71
     2
 72
     6
 73
     3
 74
     0
 42
0.0000000001
 43
0.0000000001
 40
0.0
 40
0.0
 40
0.0
 40
7.672229855379555
 40
7.672229855379555
 40
7.672229855379555
 10
1203.141512925323
 20
489.9840752046589
 30
0.0
 10
1199.305397997633
 20
489.9840752046589
 30
0.0
 10
1195.469283069943
 20
489.9840752046589
 30
0.0
  0
SPLINE
  5
97
330
1F
100
AcDbEntity
  8
Predefinito
100
AcDbSpline
210
0.0
220
0.0
230
1.0
 70
    24
 71
     2
 72
     6
 73
     3
 74
     0
 42
0.0000000001
 43
0.0000000001
 40
0.0
 40
0.0
 40
0.0
 40
7.672229855379442
 40
7.672229855379442
 40
7.672229855379442
 10
1195.469283069943
 20
489.9840752046589
 30
0.0
 10
1191.633168142253
 20
489.9840752046589
 30
0.0
 10
1187.797053214564
 20
489.9840752046589
 30
0.0
  0
SPLINE
  5
98
330
1F
100
AcDbEntity
  8
Predefinito
100
AcDbSpline
210
0.0
220
0.0
230
1.0
 70
    24
 71
     2
 72
     6
 73
     3
 74
     0
 42
0.0000000001
 43
0.0000000001
 40
0.0
 40
0.0
 40
0.0
 40
25.23697342533796
 40
25.23697342533796
 40
25.23697342533796
 10
1204.905659693149
 20
524.2550846463062
 30
0.0
 10
1204.905659693149
 20
511.6365979336372
 30
0.0
 10
1204.905659693148
 20
499.0181112209682
 30
0.0
  0
SPLINE
  5
99
330
1F
100
AcDbEntity
  8
Predefinito
100
AcDbSpline
210
0.0
220
0.0
230
1.0
 70
    24
 71
     2
 72
     6
 73
     3
 74
     0
 42
0.0000000001
 43
0.0000000001
 40
0.0
 40
0.0
 40
0.0
 40
25.23697342533796
 40
25.23697342533796
 40
25.23697342533796
 10
1186.032906446738
 20
499.0181112209682
 30
0.0
 10
1186.032906446738
 20
511.6365979336372
 30
0.0
 10
1186.032906446738
 20
524.2550846463062
 30
0.0
  0
SPLINE
  5
9A
330
1F
100
AcDbEntity
  8
Predefinito
100
AcDbSpline
210
0.0
220
0.0
230
1.0
 70
    24
 71
     2
 72
     6
 73
     3
 74
     0
 42
0.0000000001
 43
0.0000000001
 40
0.0
 40
0.0
 40
0.0
 40
7.426439716650066
 40
7.426439716650066
 40
7.426439716650066
 10
1186.183254612397
 20
508.2623896168889
 30
0.0
 10
1186.183254612397
 20
511.9756094752139
 30
0.0
 10
1186.183254612398
 20
515.6888293335389
 30
0.0
  0
SPLINE
  5
9B
330
1F
100
AcDbEntity
  8
Predefinito
100
AcDbSpline
210
0.0
220
0.0
230
1.0
 70
    12
 71
     2
 72
     8
 73
     5
 74
     0
 42
0.0000000001
 43
0.0000000001
 40
0.0
 40
0.0
 40
0.0
 40
14.82262573798434
 40
14.82262573798434
 40
29.64525147596867
 40
29.64525147596867
 40
29.64525147596867
 10
1186.032906446738
 20
524.2550846463062
 30
0.0
 41
1.0
 10
1186.032906446738
 20
525.2414545935446
 30
0.0
 41
0.7071067811865476
 10
1195.469283069943
 20
525.2414545935449
 30
0.0
 41
1.0
 10
1204.905659693149
 20
525.2414545935446
 30
0.0
 41
0.7071067811865476
 10
1204.905659693149
 20
524.2550846463062
 30
0.0
 41
1.0
  0
SPLINE
  5
9C
330
1F
100
AcDbEntity
  8
Predefinito
100
AcDbSpline
210
0.0
220
0.0
230
1.0
 70
    24
 71
     2
 72
     6
 73
     3
 74
     0
 42
0.0000000001
 43
0.0000000001
 40
0.0
 40
0.0
 40
0.0
 40
8.567574607462145
 40
8.567574607462145
 40
8.567574607462145
 10
1204.905659693149
 20
524.2550846463062
 30
0.0
 10
1204.830485610319
 20
519.9719569899225
 30
0.0
 10
1204.755311527488
 20
515.6888293335389
 30
0.0
  0
SPLINE
  5
9D
330
1F
100
AcDbEntity
  8
Predefinito
100
AcDbSpline
210
0.0
220
0.0
230
1.0
 70
    24
 71
     2
 72
     6
 73
     3
 74
     0
 42
0.0000000001
 43
0.0000000001
 40
0.0
 40
0.0
 40
0.0
 40
8.567574607462145
 40
8.567574607462145
 40
8.567574607462145
 10
1186.183254612398
 20
515.6888293335389
 30
0.0
 10
1186.108080529568
 20
519.9719569899225
 30
0.0
 10
1186.032906446738
 20
524.2550846463062
 30
0.0
  0
SPLINE
  5
9E
330
1F
100
AcDbEntity
  8
Predefinito
100
AcDbSpline
210
0.0
220
0.0
230
1.0
 70
    24
 71
     2
 72
     6
 73
     3
 74
     0
 42
0.0000000001
 43
0.0000000001
 40
0.0
 40
0.0
 40
0.0
 40
5.106620424441432
 40
5.106620424441432
 40
5.106620424441432
 10
1186.043068496371
 20
498.4401792726087
 30
0.0
 10
1186.087629903955
 20
500.9931006033169
 30
0.0
 10
1186.132191311539
 20
503.546021934025
 30
0.0
  0
SPLINE
  5
9F
330
1F
100
AcDbEntity
  8
Predefinito
100
AcDbSpline
210
0.0
220
0.0
230
1.0
 70
    12
 71
     2
 72
     6
 73
     3
 74
     0
 42
0.0000000001
 43
0.0000000001
 40
0.0
 40
0.0
 40
0.0
 40
1.833286667241483
 40
1.833286667241483
 40
1.833286667241483
 10
1186.334147570054
 20
496.6364162509093
 30
0.0
 41
1.0
 10
1186.059317036371
 20
497.5174336553641
 30
0.0
 41
0.9898801078582807
 10
1186.043068496371
 20
498.4401792726086
 30
0.0
 41
1.0
  0
SPLINE
  5
A0
330
1F
100
AcDbEntity
  8
Predefinito
100
AcDbSpline
210
0.0
220
0.0
230
1.0
 70
    24
 71
     2
 72
     6
 73
     3
 74
     0
 42
0.0000000001
 43
0.0000000001
 40
0.0
 40
0.0
 40
0.0
 40
5.406788916105746
 40
5.406788916105746
 40
5.406788916105746
 10
1204.801136165833
 20
503.8461447085749
 30
0.0
 10
1204.848316904674
 20
501.1431619905921
 30
0.0
 10
1204.895497643516
 20
498.4401792726094
 30
0.0
  0
SPLINE
  5
A1
330
1F
100
AcDbEntity
  8
Predefinito
100
AcDbSpline
210
0.0
220
0.0
230
1.0
 70
    24
 71
     2
 72
     6
 73
     3
 74
     0
 42
0.0000000001
 43
0.0000000001
 40
0.0
 40
0.0
 40
0.0
 40
0.5812462086274224
 40
0.5812462086274224
 40
0.5812462086274224
 10
1204.789150291994
 20
504.5328149609182
 30
0.0
 10
1204.79422236453
 20
504.2422361199109
 30
0.0
 10
1204.799294437067
 20
503.9516572789037
 30
0.0
  0
SPLINE
  5
A2
330
1F
100
AcDbEntity
  8
Predefinito
100
AcDbSpline
210
0.0
220
0.0
230
1.0
 70
    12
 71
     2
 72
     6
 73
     3
 74
     0
 42
0.0000000001
 43
0.0000000001
 40
0.0
 40
0.0
 40
0.0
 40
1.833286667242323
 40
1.833286667242323
 40
1.833286667242323
 10
1204.895497643516
 20
498.4401792726093
 30
0.0
 41
1.0
 10
1204.879249103515
 20
497.5174336553644
 30
0.0
 41
0.9898801078582536
 10
1204.604418569833
 20
496.6364162509092
 30
0.0
 41
1.0
  0
SPLINE
  5
A3
330
1F
100
AcDbEntity
  8
Predefinito
100
AcDbSpline
210
0.0
220
0.0
230
1.0
 70
    24
 71
     2
 72
     6
 73
     3
 74
     0
 42
0.0000000001
 43
0.0000000001
 40
0.0
 40
0.0
 40
0.0
 40
3.194128923784981
 40
3.194128923784981
 40
3.194128923784981
 10
1186.46533701292
 20
490.6481743773782
 30
0.0
 10
1186.437617037817
 20
492.244998255713
 30
0.0
 10
1186.409897062714
 20
493.8418221340478
 30
0.0
  0
SPLINE
  5
A4
330
1F
100
AcDbEntity
  8
Predefinito
100
AcDbSpline
210
0.0
220
0.0
230
1.0
 70
    12
 71
     2
 72
     6
 73
     3
 74
     0
 42
0.0000000001
 43
0.0000000001
 40
0.0
 40
0.0
 40
0.0
 40
13.53706870246987
 40
13.53706870246987
 40
13.53706870246987
 10
1186.409897062714
 20
493.8418221340477
 30
0.0
 41
1.0
 10
1186.289194845333
 20
500.6092869157987
 30
0.0
 41
0.9999985047903914
 10
1186.191899027843
 20
507.3771286782385
 30
0.0
 41
1.0
  0
SPLINE
  5
A5
330
1F
100
AcDbEntity
  8
Predefinito
100
AcDbSpline
210
0.0
220
0.0
230
1.0
 70
    24
 71
     2
 72
     6
 73
     3
 74
     0
 42
0.0000000001
 43
0.0000000001
 40
0.0
 40
0.0
 40
0.0
 40
7.426439716650066
 40
7.426439716650066
 40
7.426439716650066
 10
1204.755311527488
 20
515.6888293335389
 30
0.0
 10
1204.755311527489
 20
511.9756094752139
 30
0.0
 10
1204.75531152749
 20
508.2623896168889
 30
0.0
  0
SPLINE
  5
A6
330
1F
100
AcDbEntity
  8
Predefinito
100
AcDbSpline
210
0.0
220
0.0
230
1.0
 70
    12
 71
     2
 72
     6
 73
     3
 74
     0
 42
0.0000000001
 43
0.0000000001
 40
0.0
 40
0.0
 40
0.0
 40
13.53706870246992
 40
13.53706870246992
 40
13.53706870246992
 10
1204.746667112044
 20
507.3771286782385
 30
0.0
 41
1.0
 10
1204.649371294552
 20
500.6092869157987
 30
0.0
 41
0.9999985047903914
 10
1204.528669077172
 20
493.8418221340477
 30
0.0
 41
1.0
  0
SPLINE
  5
A7
330
1F
100
AcDbEntity
  8
Predefinito
100
AcDbSpline
210
0.0
220
0.0
230
1.0
 70
    24
 71
     2
 72
     6
 73
     3
 74
     0
 42
0.0000000001
 43
0.0000000001
 40
0.0
 40
0.0
 40
0.0
 40
3.194128923784982
 40
3.194128923784982
 40
3.194128923784982
 10
1204.528669077172
 20
493.8418221340478
 30
0.0
 10
1204.500949102069
 20
492.244998255713
 30
0.0
 10
1204.473229126966
 20
490.6481743773782
 30
0.0
  0
SPLINE
  5
A8
330
1F
100
AcDbEntity
  8
Predefinito
100
AcDbSpline
210
0.0
220
0.0
230
1.0
 70
    24
 71
     2
 72
     6
 73
     3
 74
     0
 42
0.0000000001
 43
0.0000000001
 40
0.0
 40
0.0
 40
0.0
 40
6.000893997385333
 40
6.000893997385333
 40
6.000893997385333
 10
1192.966154857884
 20
490.156852777539
 30
0.0
 10
1189.965707859191
 20
490.1568527775389
 30
0.0
 10
1186.965260860498
 20
490.1568527775389
 30
0.0
  0
SPLINE
  5
A9
330
1F
100
AcDbEntity
  8
Predefinito
100
AcDbSpline
210
0.0
220
0.0
230
1.0
 70
    12
 71
     2
 72
     6
 73
     3
 74
     0
 42
0.0000000001
 43
0.0000000001
 40
0.0
 40
0.0
 40
0.0
 40
0.7767186740425918
 40
0.7767186740425918
 40
0.7767186740425918
 10
1186.46533701292
 20
490.6481743773782
 30
0.0
 41
1.0
 10
1186.473865642806
 20
490.1568531764895
 30
0.0
 41
0.7132169234650854
 10
1186.965260860498
 20
490.1568527775389
 30
0.0
 41
1.0
  0
SPLINE
  5
AA
330
1F
100
AcDbEntity
  8
Predefinito
100
AcDbSpline
210
0.0
220
0.0
230
1.0
 70
    12
 71
     2
 72
     6
 73
     3
 74
     0
 42
0.0000000001
 43
0.0000000001
 40
0.0
 40
0.0
 40
0.0
 40
6.500824267238249
 40
6.500824267238249
 40
6.500824267238249
 10
1186.46533701292
 20
490.6481743773784
 30
0.0
 41
1.0
 10
1189.715749243088
 20
490.6500358551446
 30
0.0
 41
0.9999997094645864
 10
1192.966154857883
 20
490.65685277754
 30
0.0
 41
1.0
  0
SPLINE
  5
AB
330
1F
100
AcDbEntity
  8
Predefinito
100
AcDbSpline
210
0.0
220
0.0
230
1.0
 70
    24
 71
     2
 72
     6
 73
     3
 74
     0
 42
0.0000000001
 43
0.0000000001
 40
0.0
 40
0.0
 40
0.0
 40
5.006256424119329
 40
5.006256424119329
 40
5.006256424119329
 10
1192.966154857883
 20
490.6568527775389
 30
0.0
 10
1195.469283069943
 20
490.6568527775389
 30
0.0
 10
1197.972411282003
 20
490.6568527775389
 30
0.0
  0
SPLINE
  5
AC
330
1F
100
AcDbEntity
  8
Predefinito
100
AcDbSpline
210
0.0
220
0.0
230
1.0
 70
    24
 71
     2
 72
     6
 73
     3
 74
     0
 42
0.0000000001
 43
0.0000000001
 40
0.0
 40
0.0
 40
0.0
 40
5.006256424119329
 40
5.006256424119329
 40
5.006256424119329
 10
1197.972411282003
 20
490.1568527775389
 30
0.0
 10
1195.469283069943
 20
490.1568527775389
 30
0.0
 10
1192.966154857884
 20
490.1568527775389
 30
0.0
  0
SPLINE
  5
AD
330
1F
100
AcDbEntity
  8
Predefinito
100
AcDbSpline
210
0.0
220
0.0
230
1.0
 70
    12
 71
     2
 72
     6
 73
     3
 74
     0
 42
0.0000000001
 43
0.0000000001
 40
0.0
 40
0.0
 40
0.0
 40
0.7767186740425815
 40
0.7767186740425815
 40
0.7767186740425815
 10
1203.973305279388
 20
490.1568527775389
 30
0.0
 41
1.0
 10
1204.46470049708
 20
490.1568531764893
 30
0.0
 41
0.7132169234646527
 10
1204.473229126966
 20
490.6481743773782
 30
0.0
 41
1.0
  0
SPLINE
  5
AE
330
1F
100
AcDbEntity
  8
Predefinito
100
AcDbSpline
210
0.0
220
0.0
230
1.0
 70
    24
 71
     2
 72
     6
 73
     3
 74
     0
 42
0.0000000001
 43
0.0000000001
 40
0.0
 40
0.0
 40
0.0
 40
6.000893997385219
 40
6.000893997385219
 40
6.000893997385219
 10
1203.973305279388
 20
490.1568527775389
 30
0.0
 10
1200.972858280696
 20
490.1568527775389
 30
0.0
 10
1197.972411282003
 20
490.156852777539
 30
0.0
  0
SPLINE
  5
AF
330
1F
100
AcDbEntity
  8
Predefinito
100
AcDbSpline
210
0.0
220
0.0
230
1.0
 70
    12
 71
     2
 72
     6
 73
     3
 74
     0
 42
0.0000000001
 43
0.0000000001
 40
0.0
 40
0.0
 40
0.0
 40
6.500824267238031
 40
6.500824267238031
 40
6.500824267238031
 10
1197.972411282003
 20
490.6568527775389
 30
0.0
 41
1.0
 10
1201.222816896799
 20
490.6500358553552
 30
0.0
 41
0.9999997094646359
 10
1204.473229126966
 20
490.6481743773779
 30
0.0
 41
1.0
  0
SPLINE
  5
B0
330
1F
100
AcDbEntity
  8
Predefinito
100
AcDbSpline
210
0.0
220
0.0
230
1.0
 70
    12
 71
     2
 72
     6
 73
     3
 74
     0
 42
0.0000000001
 43
0.0000000001
 40
0.0
 40
0.0
 40
0.0
 40
15.73103213236353
 40
15.73103213236353
 40
15.73103213236353
 10
1211.173194153882
 20
531.3026354555144
 30
0.0
 41
1.0
 10
1203.34302639973
 20
532.1323572498964
 30
0.0
 41
0.9983835125165611
 10
1195.469283069943
 20
532.0680821310167
 30
0.0
 41
1.0
  0
SPLINE
  5
B1
330
1F
100
AcDbEntity
  8
Predefinito
100
AcDbSpline
210
0.0
220
0.0
230
1.0
 70
    12
 71
     2
 72
     6
 73
     3
 74
     0
 42
0.0000000001
 43
0.0000000001
 40
113.7103405730522
 40
113.7103405730522
 40
113.7103405730522
 40
128.8052987971815
 40
128.8052987971815
 40
128.8052987971815
 10
1215.95634391536
 20
529.8491265088265
 30
0.0
 41
0.8541247801514642
 10
1216.236151341204
 20
530.6719318838318
 30
0.0
 41
0.8627009620440682
 10
1211.173194153883
 20
531.3026354555138
 30
0.0
 41
1.0
  0
SPLINE
  5
B2
330
1F
100
AcDbEntity
  8
Predefinito
100
AcDbSpline
210
0.0
220
0.0
230
1.0
 70
    12
 71
     2
 72
     8
 73
     5
 74
     0
 42
0.0000000001
 43
0.0000000001
 40
17.88962483294225
 40
17.88962483294225
 40
17.88962483294225
 40
41.14613711576661
 40
41.14613711576661
 40
50.63572190037826
 40
50.63572190037826
 40
50.63572190037826
 10
1195.469283069943
 20
532.0680821310151
 30
0.0
 41
1.0
 10
1182.409342723389
 20
532.068082131015
 30
0.0
 41
0.8433914458128794
 10
1176.889973435691
 20
530.8308492017255
 30
0.0
 41
1.0
 10
1174.860888616682
 20
530.3760054644173
 30
0.0
 41
0.9360974622986915
 10
1174.975082229227
 20
529.8742828984533
 30
0.0
 41
0.9243444938959798
  0
SPLINE
  5
B3
330
1F
100
AcDbEntity
  8
Predefinito
100
AcDbSpline
210
0.0
220
0.0
230
1.0
 70
    12
 71
     2
 72
     6
 73
     3
 74
     0
 42
0.0000000001
 43
0.0000000001
 40
0.8871546174964949
 40
0.8871546174964949
 40
0.8871546174964949
 40
1.0
 40
1.0
 40
1.0
 10
1204.468010537516
 20
525.2365362719727
 30
0.0
 41
0.9265897402247901
 10
1204.516908061861
 20
525.5867010911372
 30
0.0
 41
0.9021196536330535
 10
1202.363573560898
 20
525.8549675123318
 30
0.0
 41
1.0
  0
SPLINE
  5
B4
330
1F
100
AcDbEntity
  8
Predefinito
100
AcDbSpline
210
0.0
220
0.0
230
1.0
 70
    12
 71
     2
 72
    10
 73
     7
 74
     0
 42
0.0000000001
 43
0.0000000001
 40
0.0
 40
0.0
 40
0.0
 40
8.080535890366415
 40
8.080535890366415
 40
15.09116375882794
 40
15.09116375882794
 40
16.02779174144481
 40
16.02779174144481
 40
16.02779174144481
 10
1202.363573560898
 20
525.8549675123321
 30
0.0
 41
1.0
 10
1198.339447861882
 20
526.270091872891
 30
0.0
 41
0.9980682320723512
 10
1194.294905350043
 20
526.1829612460349
 30
0.0
 41
1.0
 10
1190.781294878979
 20
526.2119389108695
 30
0.0
 41
0.9964110941295806
 10
1187.313145888495
 20
525.6478105325328
 30
0.0
 41
1.0
 10
1186.823069875338
 20
525.625397896361
 30
0.0
 41
0.9332662288293818
 10
1186.474473469343
 20
525.2802061081336
 30
0.0
 41
1.0
  0
SPLINE
  5
B5
330
1F
100
AcDbEntity
  8
Predefinito
100
AcDbSpline
210
0.0
220
0.0
230
1.0
 70
    12
 71
     2
 72
     8
 73
     5
 74
     0
 42
0.0000000001
 43
0.0000000001
 40
0.0
 40
0.0
 40
0.0
 40
2.041877863711222
 40
2.041877863711222
 40
25.29820480246081
 40
25.29820480246081
 40
25.29820480246081
 10
1175.021093784688
 20
529.6880008572399
 30
0.0
 41
1.0
 10
1175.846581126096
 20
530.3349605542206
 30
0.0
 41
0.9606220566159022
 10
1176.889973435691
 20
530.4413498799053
 30
0.0
 41
1.0
 10
1182.409290568653
 20
531.6785711180862
 30
0.0
 41
0.843392693913505
 10
1195.469107506113
 20
531.6785828091191
 30
0.0
 41
0.9999975038186397
  0
SPLINE
  5
B6
330
1F
100
AcDbEntity
  8
Predefinito
100
AcDbSpline
210
0.0
220
0.0
230
1.0
 70
    12
 71
     2
 72
     6
 73
     3
 74
     0
 42
0.0000000001
 43
0.0000000001
 40
0.0
 40
0.0
 40
0.0
 40
0.6485357593001692
 40
0.6485357593001692
 40
0.6485357593001692
 10
1215.480953085144
 20
530.0006726369705
 30
0.0
 41
1.0
 10
1215.80900685768
 20
529.8997067267618
 30
0.0
 41
0.9191166140217023
 10
1215.962093276583
 20
529.5924967968323
 30
0.0
 41
1.0
  0
SPLINE
  5
B7
330
1F
100
AcDbEntity
  8
Predefinito
100
AcDbSpline
210
0.0
220
0.0
230
1.0
 70
    12
 71
     2
 72
     8
 73
     5
 74
     0
 42
0.0000000001
 43
0.0000000001
 40
0.0
 40
0.0
 40
0.0
 40
3.241948211989713
 40
3.241948211989713
 40
5.761972097520644
 40
5.761972097520644
 40
5.761972097520644
 10
1209.543016272428
 20
531.0938197224236
 30
0.0
 41
1.0
 10
1211.157330333677
 20
530.9412030379923
 30
0.0
 41
0.9995023248875975
 10
1212.758807709107
 20
530.6870929108919
 30
0.0
 41
1.0
 10
1214.009762363344
 20
530.5103228510965
 30
0.0
 41
0.9960030406275098
 10
1215.209305176125
 20
530.1137976421873
 30
0.0
 41
1.0
  0
SPLINE
  5
B8
330
1F
100
AcDbEntity
  8
Predefinito
100
AcDbSpline
210
0.0
220
0.0
230
1.0
 70
    12
 71
     2
 72
     6
 73
     3
 74
     0
 42
0.0000000001
 43
0.0000000001
 40
0.0
 40
0.0
 40
0.0
 40
13.03146170883832
 40
13.03146170883832
 40
13.03146170883832
 10
1195.469283069943
 20
531.6785828091946
 30
0.0
 41
1.0
 10
1201.988626602143
 20
531.7018592958868
 30
0.0
 41
0.9991594355326047
 10
1208.487966372586
 20
531.1910125145408
 30
0.0
 41
1.0
  0
SPLINE
  5
B9
330
1F
100
AcDbEntity
  8
Predefinito
100
AcDbSpline
210
0.0
220
0.0
230
1.0
 70
    12
 71
     2
 72
     6
 73
     3
 74
     0
 42
0.0000000001
 43
0.0000000001
 40
0.0
 40
0.0
 40
0.0
 40
0.019506840637205
 40
0.019506840637205
 40
0.019506840637205
 10
1215.54378759371
 20
529.0418526248575
 30
0.0
 41
1.0
 10
1215.535204166006
 20
529.0372206222677
 30
0.0
 41
0.9999884009611524
 10
1215.526576517675
 20
529.0326715164846
 30
0.0
 41
1.0
  0
SPLINE
  5
BA
330
1F
100
AcDbEntity
  8
Predefinito
100
AcDbSpline
210
0.0
220
0.0
230
1.0
 70
    12
 71
     2
 72
     6
 73
     3
 74
     0
 42
0.0000000001
 43
0.0000000001
 40
-117.8776072078102
 40
-117.8776072078102
 40
-117.8776072078102
 40
-104.3865558988242
 40
-104.3865558988242
 40
-104.3865558988242
 10
1175.399862664865
 20
529.0391182786823
 30
0.0
 41
0.8704894179814736
 10
1173.99692816354
 20
529.7910294828235
 30
0.0
 41
0.8286524679807346
 10
1177.482934903619
 20
530.4648973093417
 30
0.0
 41
0.8901650429449525
  0
SPLINE
  5
BB
330
1F
100
AcDbEntity
  8
Predefinito
100
AcDbSpline
210
0.0
220
0.0
230
1.0
 70
    24
 71
     2
 72
     6
 73
     3
 74
     0
 42
0.0000000001
 43
0.0000000001
 40
0.0
 40
0.0
 40
0.0
 40
1.300000000000011
 40
1.300000000000011
 40
1.300000000000011
 10
1120.269283069943
 20
118.3992720069267
 30
0.0
 10
1119.619283069943
 20
118.3992720069267
 30
0.0
 10
1118.969283069943
 20
118.3992720069267
 30
0.0
  0
SPLINE
  5
BC
330
1F
100
AcDbEntity
  8
Predefinito
100
AcDbSpline
210
0.0
220
0.0
230
1.0
 70
    24
 71
     2
 72
     6
 73
     3
 74
     0
 42
0.0000000001
 43
0.0000000001
 40
0.0
 40
0.0
 40
0.0
 40
0.6244725707722482
 40
0.6244725707722482
 40
0.6244725707722482
 10
1118.910851859401
 20
118.4577032174687
 30
0.0
 10
1118.690067464672
 20
118.6784876121977
 30
0.0
 10
1118.469283069943
 20
118.8992720069267
 30
0.0
  0
SPLINE
  5
BD
330
1F
100
AcDbEntity
  8
Predefinito
100
AcDbSpline
210
0.0
220
0.0
230
1.0
 70
    24
 71
     2
 72
     6
 73
     3
 74
     0
 42
0.0000000001
 43
0.0000000001
 40
0.0
 40
0.0
 40
0.0
 40
0.6244725707722181
 40
0.6244725707722181
 40
0.6244725707722181
 10
1118.469283069943
 20
131.8992720069267
 30
0.0
 10
1118.690067464672
 20
132.1200564016557
 30
0.0
 10
1118.910851859401
 20
132.3408407963847
 30
0.0
  0
SPLINE
  5
BE
330
1F
100
AcDbEntity
  8
Predefinito
100
AcDbSpline
210
0.0
220
0.0
230
1.0
 70
    24
 71
     2
 72
     6
 73
     3
 74
     0
 42
0.0000000001
 43
0.0000000001
 40
0.0
 40
0.0
 40
0.0
 40
0.2002085020603036
 40
0.2002085020603036
 40
0.2002085020603036
 10
1120.469283069943
 20
118.5992720069267
 30
0.0
 10
1120.398498675214
 20
118.5284876121977
 30
0.0
 10
1120.327714280485
 20
118.4577032174687
 30
0.0
  0
SPLINE
  5
BF
330
1F
100
AcDbEntity
  8
Predefinito
100
AcDbSpline
210
0.0
220
0.0
230
1.0
 70
    24
 71
     2
 72
     6
 73
     3
 74
     0
 42
0.0000000001
 43
0.0000000001
 40
0.0
 40
0.0
 40
0.0
 40
0.2002085020602734
 40
0.2002085020602734
 40
0.2002085020602734
 10
1120.327714280485
 20
132.3408407963847
 30
0.0
 10
1120.398498675214
 20
132.2700564016557
 30
0.0
 10
1120.469283069943
 20
132.1992720069267
 30
0.0
  0
SPLINE
  5
C0
330
1F
100
AcDbEntity
  8
Predefinito
100
AcDbSpline
210
0.0
220
0.0
230
1.0
 70
    24
 71
     2
 72
     6
 73
     3
 74
     0
 42
0.0000000001
 43
0.0000000001
 40
0.0
 40
0.0
 40
0.0
 40
64.54975813744522
 40
64.54975813744522
 40
64.54975813744522
 10
1205.419524932498
 20
132.3992720069267
 30
0.0
 10
1237.694404001221
 20
132.3992720069267
 30
0.0
 10
1269.969283069943
 20
132.3992720069267
 30
0.0
  0
SPLINE
  5
C1
330
1F
100
AcDbEntity
  8
Predefinito
100
AcDbSpline
210
0.0
220
0.0
230
1.0
 70
    24
 71
     2
 72
     6
 73
     3
 74
     0
 42
0.0000000001
 43
0.0000000001
 40
0.0
 40
0.0
 40
0.0
 40
64.90176073929695
 40
64.90176073929695
 40
64.90176073929695
 10
1120.669283069943
 20
132.3992720069267
 30
0.0
 10
1153.120163439592
 20
132.3992720069267
 30
0.0
 10
1185.57104380924
 20
132.3992720069267
 30
0.0
  0
SPLINE
  5
C2
330
1F
100
AcDbEntity
  8
Predefinito
100
AcDbSpline
210
0.0
220
0.0
230
1.0
 70
    24
 71
     2
 72
     6
 73
     3
 74
     0
 42
0.0000000001
 43
0.0000000001
 40
0.0
 40
0.0
 40
0.0
 40
0.6244725707722181
 40
0.6244725707722181
 40
0.6244725707722181
 10
1270.027714280485
 20
132.3408407963847
 30
0.0
 10
1270.248498675214
 20
132.1200564016557
 30
0.0
 10
1270.469283069943
 20
131.8992720069267
 30
0.0
  0
SPLINE
  5
C3
330
1F
100
AcDbEntity
  8
Predefinito
100
AcDbSpline
210
0.0
220
0.0
230
1.0
 70
    24
 71
     2
 72
     6
 73
     3
 74
     0
 42
0.0000000001
 43
0.0000000001
 40
0.0
 40
0.0
 40
0.0
 40
0.6244725707722482
 40
0.6244725707722482
 40
0.6244725707722482
 10
1270.469283069943
 20
118.8992720069267
 30
0.0
 10
1270.248498675214
 20
118.6784876121977
 30
0.0
 10
1270.027714280485
 20
118.4577032174687
 30
0.0
  0
SPLINE
  5
C4
330
1F
100
AcDbEntity
  8
Predefinito
100
AcDbSpline
210
0.0
220
0.0
230
1.0
 70
    24
 71
     2
 72
     6
 73
     3
 74
     0
 42
0.0000000001
 43
0.0000000001
 40
0.0
 40
0.0
 40
0.0
 40
0.2002085020602734
 40
0.2002085020602734
 40
0.2002085020602734
 10
1120.469283069943
 20
132.1992720069267
 30
0.0
 10
1120.540067464672
 20
132.2700564016557
 30
0.0
 10
1120.610851859401
 20
132.3408407963847
 30
0.0
  0
SPLINE
  5
C5
330
1F
100
AcDbEntity
  8
Predefinito
100
AcDbSpline
210
0.0
220
0.0
230
1.0
 70
    24
 71
     2
 72
     6
 73
     3
 74
     0
 42
0.0000000001
 43
0.0000000001
 40
0.0
 40
0.0
 40
0.0
 40
0.2002085020602935
 40
0.2002085020602935
 40
0.2002085020602935
 10
1120.610851859401
 20
118.4577032174687
 30
0.0
 10
1120.540067464672
 20
118.5284876121977
 30
0.0
 10
1120.469283069943
 20
118.5992720069267
 30
0.0
  0
SPLINE
  5
C6
330
1F
100
AcDbEntity
  8
Predefinito
100
AcDbSpline
210
0.0
220
0.0
230
1.0
 70
    24
 71
     2
 72
     6
 73
     3
 74
     0
 42
0.0000000001
 43
0.0000000001
 40
0.0
 40
0.0
 40
0.0
 40
0.4861466822950012
 40
0.4861466822950012
 40
0.4861466822950012
 10
1248.887027866661
 20
66.55001066065387
 30
0.0
 10
1248.783917626913
 20
66.32989040344034
 30
0.0
 10
1248.680807387165
 20
66.10977014622684
 30
0.0
  0
SPLINE
  5
C7
330
1F
100
AcDbEntity
  8
Predefinito
100
AcDbSpline
210
0.0
220
0.0
230
1.0
 70
    24
 71
     2
 72
     6
 73
     3
 74
     0
 42
0.0000000001
 43
0.0000000001
 40
0.0
 40
0.0
 40
0.0
 40
0.0598240898642478
 40
0.0598240898642478
 40
0.0598240898642478
 10
1248.977455227235
 20
66.74305544376533
 30
0.0
 10
1248.964766718862
 20
66.71596795242152
 30
0.0
 10
1248.95207821049
 20
66.6888804610777
 30
0.0
  0
SPLINE
  5
C8
330
1F
100
AcDbEntity
  8
Predefinito
100
AcDbSpline
210
0.0
220
0.0
230
1.0
 70
    24
 71
     2
 72
     6
 73
     3
 74
     0
 42
0.0000000001
 43
0.0000000001
 40
0.0
 40
0.0
 40
0.0
 40
0.6201740467705104
 40
0.6201740467705104
 40
0.6201740467705104
 10
1243.995230365926
 20
64.39613482230517
 30
0.0
 10
1243.713709722867
 20
64.52613516693552
 30
0.0
 10
1243.432189079809
 20
64.65613551156586
 30
0.0
  0
SPLINE
  5
C9
330
1F
100
AcDbEntity
  8
Predefinito
100
AcDbSpline
210
0.0
220
0.0
230
1.0
 70
    24
 71
     2
 72
     6
 73
     3
 74
     0
 42
0.0000000001
 43
0.0000000001
 40
0.0
 40
0.0
 40
0.0
 40
55.18543982302234
 40
55.18543982302234
 40
55.18543982302234
 10
1230.03811780166
 20
118.6419869280196
 30
0.0
 10
1239.501138099156
 20
92.72269992076804
 30
0.0
 10
1248.964158396653
 20
66.8034129135165
 30
0.0
  0
SPLINE
  5
CA
330
1F
100
AcDbEntity
  8
Predefinito
100
AcDbSpline
210
0.0
220
0.0
230
1.0
 70
    24
 71
     2
 72
     6
 73
     3
 74
     0
 42
0.0000000001
 43
0.0000000001
 40
0.0
 40
0.0
 40
0.0
 40
2.208456140814775
 40
2.208456140814775
 40
2.208456140814775
 10
1205.467522330646
 20
135.073981304885
 30
0.0
 10
1205.467522330646
 20
133.9697532344776
 30
0.0
 10
1205.467522330646
 20
132.8655251640702
 30
0.0
  0
SPLINE
  5
CB
330
1F
100
AcDbEntity
  8
Predefinito
100
AcDbSpline
210
0.0
220
0.0
230
1.0
 70
    15
 71
     2
 72
    12
 73
     9
 74
     0
 42
0.0000000001
 43
0.0000000001
 40
0.0
 40
0.0
 40
0.0
 40
70.68584303609948
 40
70.68584303609948
 40
141.371686072199
 40
141.371686072199
 40
212.0575291082985
 40
212.0575291082985
 40
282.7433721443979
 40
282.7433721443979
 40
282.7433721443979
 10
1195.469283069943
 20
90.00001057284248
 30
0.0
 41
1.0
 10
1240.469288372459
 20
90.00026804705647
 30
0.0
 41
0.7071067811865476
 10
1240.469545846673
 20
45.00026274454082
 30
0.0
 41
1.0
 10
1240.469803320887
 20
0.0002574420251813
 30
0.0
 41
0.7071067811865476
 10
1195.469798018371
 20
-0.0000000321888081
 30
0.0
 41
1.0
 10
1150.469792715855
 20
-0.0002575064027945
 30
0.0
 41
0.7071067811865476
 10
1150.469535241642
 20
44.99974779611285
 30
0.0
 41
1.0
 10
1150.469277767428
 20
89.99975309862849
 30
0.0
 41
0.7071067811865476
 10
1195.469283069943
 20
90.00001057284248
 30
0.0
 41
1.0
  0
SPLINE
  5
CC
330
1F
100
AcDbEntity
  8
Predefinito
100
AcDbSpline
210
0.0
220
0.0
230
1.0
 70
    24
 71
     2
 72
     6
 73
     3
 74
     0
 42
0.0000000001
 43
0.0000000001
 40
0.0
 40
0.0
 40
0.0
 40
1.300000000000011
 40
1.300000000000011
 40
1.300000000000011
 10
1118.969283069943
 20
132.3992720069267
 30
0.0
 10
1119.619283069943
 20
132.3992720069267
 30
0.0
 10
1120.269283069943
 20
132.3992720069267
 30
0.0
  0
SPLINE
  5
CD
330
1F
100
AcDbEntity
  8
Predefinito
100
AcDbSpline
210
0.0
220
0.0
230
1.0
 70
    24
 71
     2
 72
     6
 73
     3
 74
     0
 42
0.0000000001
 43
0.0000000001
 40
0.0
 40
0.0
 40
0.0
 40
7.0
 40
7.0
 40
7.0
 10
1118.969283069943
 20
125.3992720069267
 30
0.0
 10
1118.969283069943
 20
128.8992720069267
 30
0.0
 10
1118.969283069943
 20
132.3992720069267
 30
0.0
  0
SPLINE
  5
CE
330
1F
100
AcDbEntity
  8
Predefinito
100
AcDbSpline
210
0.0
220
0.0
230
1.0
 70
    24
 71
     2
 72
     6
 73
     3
 74
     0
 42
0.0000000001
 43
0.0000000001
 40
0.0
 40
0.0
 40
0.0
 40
6.5
 40
6.5
 40
6.5
 10
1118.469283069943
 20
125.3992720069267
 30
0.0
 10
1118.469283069943
 20
128.6492720069267
 30
0.0
 10
1118.469283069943
 20
131.8992720069267
 30
0.0
  0
SPLINE
  5
CF
330
1F
100
AcDbEntity
  8
Predefinito
100
AcDbSpline
210
0.0
220
0.0
230
1.0
 70
    24
 71
     2
 72
     6
 73
     3
 74
     0
 42
0.0000000001
 43
0.0000000001
 40
0.0
 40
0.0
 40
0.0
 40
6.5
 40
6.5
 40
6.5
 10
1118.469283069943
 20
118.8992720069267
 30
0.0
 10
1118.469283069943
 20
122.1492720069267
 30
0.0
 10
1118.469283069943
 20
125.3992720069267
 30
0.0
  0
SPLINE
  5
D0
330
1F
100
AcDbEntity
  8
Predefinito
100
AcDbSpline
210
0.0
220
0.0
230
1.0
 70
    24
 71
     2
 72
     6
 73
     3
 74
     0
 42
0.0000000001
 43
0.0000000001
 40
0.0
 40
0.0
 40
0.0
 40
7.0
 40
7.0
 40
7.0
 10
1118.969283069943
 20
118.3992720069267
 30
0.0
 10
1118.969283069943
 20
121.8992720069267
 30
0.0
 10
1118.969283069943
 20
125.3992720069267
 30
0.0
  0
SPLINE
  5
D1
330
1F
100
AcDbEntity
  8
Predefinito
100
AcDbSpline
210
0.0
220
0.0
230
1.0
 70
    24
 71
     2
 72
     6
 73
     3
 74
     0
 42
0.0000000001
 43
0.0000000001
 40
0.0
 40
0.0
 40
0.0
 40
7.0
 40
7.0
 40
7.0
 10
1120.269283069943
 20
125.3992720069267
 30
0.0
 10
1120.269283069943
 20
121.8992720069267
 30
0.0
 10
1120.269283069943
 20
118.3992720069267
 30
0.0
  0
SPLINE
  5
D2
330
1F
100
AcDbEntity
  8
Predefinito
100
AcDbSpline
210
0.0
220
0.0
230
1.0
 70
    24
 71
     2
 72
     6
 73
     3
 74
     0
 42
0.0000000001
 43
0.0000000001
 40
0.0
 40
0.0
 40
0.0
 40
7.0
 40
7.0
 40
7.0
 10
1120.269283069943
 20
132.3992720069267
 30
0.0
 10
1120.269283069943
 20
128.8992720069267
 30
0.0
 10
1120.269283069943
 20
125.3992720069267
 30
0.0
  0
SPLINE
  5
D3
330
1F
100
AcDbEntity
  8
Predefinito
100
AcDbSpline
210
0.0
220
0.0
230
1.0
 70
    24
 71
     2
 72
     6
 73
     3
 74
     0
 42
0.0000000001
 43
0.0000000001
 40
0.0
 40
0.0
 40
0.0
 40
39.49087761048042
 40
39.49087761048042
 40
39.49087761048042
 10
1269.969283069943
 20
118.3992720069267
 30
0.0
 10
1250.223844264703
 20
118.3992720069267
 30
0.0
 10
1230.478405459463
 20
118.3992720069267
 30
0.0
  0
SPLINE
  5
D4
330
1F
100
AcDbEntity
  8
Predefinito
100
AcDbSpline
210
0.0
220
0.0
230
1.0
 70
    24
 71
     2
 72
     6
 73
     3
 74
     0
 42
0.0000000001
 43
0.0000000001
 40
0.0
 40
0.0
 40
0.0
 40
64.80177596978149
 40
64.80177596978149
 40
64.80177596978149
 10
1185.471059039725
 20
118.3992720069267
 30
0.0
 10
1153.070171054834
 20
118.3992720069267
 30
0.0
 10
1120.669283069943
 20
118.3992720069267
 30
0.0
  0
SPLINE
  5
D5
330
1F
100
AcDbEntity
  8
Predefinito
100
AcDbSpline
210
0.0
220
0.0
230
1.0
 70
    24
 71
     2
 72
     6
 73
     3
 74
     0
 42
0.0000000001
 43
0.0000000001
 40
0.0
 40
0.0
 40
0.0
 40
17.74814619399615
 40
17.74814619399615
 40
17.74814619399615
 10
1223.215653294158
 20
118.3992720069267
 30
0.0
 10
1214.34158019716
 20
118.3992720069267
 30
0.0
 10
1205.467507100162
 20
118.3992720069267
 30
0.0
  0
SPLINE
  5
D6
330
1F
100
AcDbEntity
  8
Predefinito
100
AcDbSpline
210
0.0
220
0.0
230
1.0
 70
    24
 71
     2
 72
     6
 73
     3
 74
     0
 42
0.0000000001
 43
0.0000000001
 40
0.0
 40
0.0
 40
0.0
 40
6.5
 40
6.5
 40
6.5
 10
1270.469283069943
 20
118.8992720069267
 30
0.0
 10
1270.469283069943
 20
122.1492720069267
 30
0.0
 10
1270.469283069943
 20
125.3992720069267
 30
0.0
  0
SPLINE
  5
D7
330
1F
100
AcDbEntity
  8
Predefinito
100
AcDbSpline
210
0.0
220
0.0
230
1.0
 70
    24
 71
     2
 72
     6
 73
     3
 74
     0
 42
0.0000000001
 43
0.0000000001
 40
0.0
 40
0.0
 40
0.0
 40
6.5
 40
6.5
 40
6.5
 10
1270.469283069943
 20
125.3992720069267
 30
0.0
 10
1270.469283069943
 20
128.6492720069267
 30
0.0
 10
1270.469283069943
 20
131.8992720069267
 30
0.0
  0
SPLINE
  5
D8
330
1F
100
AcDbEntity
  8
Predefinito
100
AcDbSpline
210
0.0
220
0.0
230
1.0
 70
    24
 71
     2
 72
     6
 73
     3
 74
     0
 42
0.0000000001
 43
0.0000000001
 40
0.0
 40
0.0
 40
0.0
 40
7.0
 40
7.0
 40
7.0
 10
1269.969283069943
 20
132.3992720069267
 30
0.0
 10
1269.969283069943
 20
128.8992720069267
 30
0.0
 10
1269.969283069943
 20
125.3992720069267
 30
0.0
  0
SPLINE
  5
D9
330
1F
100
AcDbEntity
  8
Predefinito
100
AcDbSpline
210
0.0
220
0.0
230
1.0
 70
    24
 71
     2
 72
     6
 73
     3
 74
     0
 42
0.0000000001
 43
0.0000000001
 40
0.0
 40
0.0
 40
0.0
 40
7.0
 40
7.0
 40
7.0
 10
1269.969283069943
 20
118.3992720069267
 30
0.0
 10
1269.969283069943
 20
121.8992720069267
 30
0.0
 10
1269.969283069943
 20
125.3992720069267
 30
0.0
  0
SPLINE
  5
DA
330
1F
100
AcDbEntity
  8
Predefinito
100
AcDbSpline
210
0.0
220
0.0
230
1.0
 70
    24
 71
     2
 72
     6
 73
     3
 74
     0
 42
0.0000000001
 43
0.0000000001
 40
0.0
 40
0.0
 40
0.0
 40
7.0
 40
7.0
 40
7.0
 10
1120.669283069943
 20
125.3992720069267
 30
0.0
 10
1120.669283069943
 20
121.8992720069267
 30
0.0
 10
1120.669283069943
 20
118.3992720069267
 30
0.0
  0
SPLINE
  5
DB
330
1F
100
AcDbEntity
  8
Predefinito
100
AcDbSpline
210
0.0
220
0.0
230
1.0
 70
    24
 71
     2
 72
     6
 73
     3
 74
     0
 42
0.0000000001
 43
0.0000000001
 40
0.0
 40
0.0
 40
0.0
 40
6.800000000000011
 40
6.800000000000011
 40
6.800000000000011
 10
1120.469283069943
 20
118.5992720069267
 30
0.0
 10
1120.469283069943
 20
121.9992720069267
 30
0.0
 10
1120.469283069943
 20
125.3992720069267
 30
0.0
  0
SPLINE
  5
DC
330
1F
100
AcDbEntity
  8
Predefinito
100
AcDbSpline
210
0.0
220
0.0
230
1.0
 70
    24
 71
     2
 72
     6
 73
     3
 74
     0
 42
0.0000000001
 43
0.0000000001
 40
0.0
 40
0.0
 40
0.0
 40
6.800000000000011
 40
6.800000000000011
 40
6.800000000000011
 10
1120.469283069943
 20
125.3992720069267
 30
0.0
 10
1120.469283069943
 20
128.7992720069267
 30
0.0
 10
1120.469283069943
 20
132.1992720069267
 30
0.0
  0
SPLINE
  5
DD
330
1F
100
AcDbEntity
  8
Predefinito
100
AcDbSpline
210
0.0
220
0.0
230
1.0
 70
    24
 71
     2
 72
     6
 73
     3
 74
     0
 42
0.0000000001
 43
0.0000000001
 40
0.0
 40
0.0
 40
0.0
 40
6.999999999999972
 40
6.999999999999972
 40
6.999999999999972
 10
1120.669283069943
 20
125.3992720069267
 30
0.0
 10
1120.669283069943
 20
128.8992720069267
 30
0.0
 10
1120.669283069943
 20
132.3992720069267
 30
0.0
  0
SPLINE
  5
DE
330
1F
100
AcDbEntity
  8
Predefinito
100
AcDbSpline
210
0.0
220
0.0
230
1.0
 70
     8
 71
     3
 72
    12
 73
     8
 74
     0
 42
0.0000000001
 43
0.0000000001
 40
0.0
 40
0.0
 40
0.0
 40
0.0
 40
1.863467337092348
 40
3.441946489340032
 40
5.018293161676212
 40
7.226598565313568
 40
7.433914018407339
 40
7.433914018407339
 40
7.433914018407339
 40
7.433914018407339
 10
1223.215653294158
 20
118.3992720069267
 30
0.0
 10
1223.807624596823
 20
118.5716137598757
 30
0.0
 10
1224.882231480753
 20
119.006636106309
 30
0.0
 10
1226.564310249173
 20
119.1532464723274
 30
0.0
 10
1228.346039884021
 20
118.9734564565193
 30
0.0
 10
1229.628212836469
 20
118.5888180037398
 30
0.0
 10
1230.407422050992
 20
118.3964705141989
 30
0.0
 10
1230.478405459463
 20
118.3992720069267
 30
0.0
  0
SPLINE
  5
DF
330
1F
100
AcDbEntity
  8
Predefinito
100
AcDbSpline
210
0.0
220
0.0
230
1.0
 70
    12
 71
     2
 72
     8
 73
     5
 74
     0
 42
0.0000000001
 43
0.0000000001
 40
0.0
 40
0.0
 40
0.0
 40
0.4374087444399145
 40
0.4374087444399145
 40
4.595025723703156
 40
4.595025723703156
 40
4.595025723703156
 10
1248.93649445457
 20
66.69780790422509
 30
0.0
 41
1.0
 10
1248.758203663235
 20
66.56999031919041
 30
0.0
 41
0.9954277741833546
 10
1248.558860232916
 20
66.47840899954463
 30
0.0
 41
1.0
 10
1246.666247741688
 20
65.61161011337674
 30
0.0
 41
0.9979441121919874
 10
1244.678305106855
 20
64.99402899997429
 30
0.0
 41
1.0
  0
SPLINE
  5
E0
330
1F
100
AcDbEntity
  8
Predefinito
100
AcDbSpline
210
0.0
220
0.0
230
1.0
 70
    12
 71
     2
 72
     6
 73
     3
 74
     0
 42
0.0000000001
 43
0.0000000001
 40
0.0
 40
0.0
 40
0.0
 40
1.361398752841447
 40
1.361398752841447
 40
1.361398752841447
 10
1244.678305106855
 20
64.9940289999743
 30
0.0
 41
1.0
 10
1244.040968187287
 20
64.73988487136772
 30
0.0
 41
0.988149153920708
 10
1243.356568195075
 20
64.69105621368807
 30
0.0
 41
1.0
  0
SPLINE
  5
E1
330
1F
100
AcDbEntity
  8
Predefinito
100
AcDbSpline
210
0.0
220
0.0
230
1.0
 70
    24
 71
     2
 72
     6
 73
     3
 74
     0
 42
0.0000000001
 43
0.0000000001
 40
0.0
 40
0.0
 40
0.0
 40
57.31824930391084
 40
57.31824930391084
 40
57.31824930391084
 10
1223.685949508875
 20
118.5455434732552
 30
0.0
 10
1233.514697061115
 20
91.62452663936418
 30
0.0
 10
1243.343444613356
 20
64.70350980547316
 30
0.0
  0
SPLINE
  5
E2
330
1F
100
AcDbEntity
  8
Predefinito
100
AcDbSpline
210
0.0
220
0.0
230
1.0
 70
    12
 71
     2
 72
     6
 73
     3
 74
     0
 42
0.0000000001
 43
0.0000000001
 40
0.0
 40
0.0
 40
0.0
 40
1.08390055666688
 40
1.08390055666688
 40
1.08390055666688
 10
1245.096514617566
 20
64.64868796098247
 30
0.0
 41
1.0
 10
1244.583859450051
 20
64.46768971069595
 30
0.0
 41
0.9952654734137087
 10
1244.045872775804
 20
64.38929311816828
 30
0.0
 41
1.0
  0
SPLINE
  5
E3
330
1F
100
AcDbEntity
  8
Predefinito
100
AcDbSpline
210
0.0
220
0.0
230
1.0
 70
    12
 71
     2
 72
     8
 73
     5
 74
     0
 42
0.0000000001
 43
0.0000000001
 40
0.0
 40
0.0
 40
0.0
 40
0.4139134065785666
 40
0.4139134065785666
 40
3.878594222631249
 40
3.878594222631249
 40
3.878594222631249
 10
1248.678527108594
 20
66.10495958549352
 30
0.0
 41
1.0
 10
1248.52513492306
 20
65.96241953968578
 30
0.0
 41
0.982615061959666
 10
1248.330310555951
 20
65.88567129395774
 30
0.0
 41
1.0
 10
1246.753133479927
 20
65.16333888881782
 30
0.0
 41
0.9979441121919863
 10
1245.096514617566
 20
64.64868796098247
 30
0.0
 41
1.0
  0
SPLINE
  5
E4
330
1F
100
AcDbEntity
  8
Predefinito
100
AcDbSpline
210
0.0
220
0.0
230
1.0
 70
    12
 71
     2
 72
     6
 73
     3
 74
     0
 42
0.0000000001
 43
0.0000000001
 40
0.0
 40
0.0
 40
0.0
 40
0.1550964470872757
 40
0.1550964470872757
 40
0.1550964470872757
 10
1185.471059039725
 20
115.7245627089684
 30
0.0
 41
1.0
 10
1185.472635880031
 20
115.6261651104819
 30
0.0
 41
0.7103457796843835
 10
1185.57104380924
 20
115.6268383726253
 30
0.0
 41
1.0
  0
SPLINE
  5
E5
330
1F
100
AcDbEntity
  8
Predefinito
100
AcDbSpline
210
0.0
220
0.0
230
1.0
 70
    12
 71
     2
 72
     6
 73
     3
 74
     0
 42
0.0000000001
 43
0.0000000001
 40
0.0
 40
0.0
 40
0.0
 40
0.1550964470873249
 40
0.1550964470873249
 40
0.1550964470873249
 10
1205.367522330646
 20
115.6268383726252
 30
0.0
 41
1.0
 10
1205.465930259856
 20
115.6261651104818
 30
0.0
 41
0.7103457796838323
 10
1205.467507100162
 20
115.7245627089684
 30
0.0
 41
1.0
  0
SPLINE
  5
E6
330
1F
100
AcDbEntity
  8
Predefinito
100
AcDbSpline
210
0.0
220
0.0
230
1.0
 70
    12
 71
     2
 72
     6
 73
     3
 74
     0
 42
0.0000000001
 43
0.0000000001
 40
0.0
 40
0.0
 40
0.0
 40
0.7507866039538006
 40
0.7507866039538006
 40
0.7507866039538006
 10
1205.246170667068
 20
128.0791078483117
 30
0.0
 41
1.0
 10
1205.247896135057
 20
128.4545105591556
 30
0.0
 41
0.9999465618470806
 10
1205.241859851384
 20
128.8298687025708
 30
0.0
 41
1.0
  0
SPLINE
  5
E7
330
1F
100
AcDbEntity
  8
Predefinito
100
AcDbSpline
210
0.0
220
0.0
230
1.0
 70
    12
 71
     2
 72
     6
 73
     3
 74
     0
 42
0.0000000001
 43
0.0000000001
 40
0.0
 40
0.0
 40
0.0
 40
0.7507186248181305
 40
0.7507186248181305
 40
0.7507186248181305
 10
1185.69670596733
 20
128.8298014258254
 30
0.0
 41
1.0
 10
1185.690738952471
 20
128.4544766070191
 30
0.0
 41
0.9999483081010742
 10
1185.692405120335
 20
128.0791080564412
 30
0.0
 41
1.0
  0
SPLINE
  5
E8
330
1F
100
AcDbEntity
  8
Predefinito
100
AcDbSpline
210
0.0
220
0.0
230
1.0
 70
    12
 71
     2
 72
     6
 73
     3
 74
     0
 42
0.0000000001
 43
0.0000000001
 40
0.0
 40
0.0
 40
0.0
 40
5.359693763857247
 40
5.359693763857247
 40
5.359693763857247
 10
1205.246170667069
 20
122.7194361655417
 30
0.0
 41
1.0
 10
1205.232846873266
 20
125.3992720069267
 30
0.0
 41
0.9999876404865022
 10
1205.246170667069
 20
128.0791078483117
 30
0.0
 41
1.0
  0
SPLINE
  5
E9
330
1F
100
AcDbEntity
  8
Predefinito
100
AcDbSpline
210
0.0
220
0.0
230
1.0
 70
    12
 71
     2
 72
     6
 73
     3
 74
     0
 42
0.0000000001
 43
0.0000000001
 40
0.0
 40
0.0
 40
0.0
 40
5.359694180029284
 40
5.359694180029284
 40
5.359694180029284
 10
1185.692405120335
 20
128.0791080564412
 30
0.0
 41
1.0
 10
1185.705728888383
 20
125.3992720069267
 30
0.0
 41
0.9999876405362016
 10
1185.692405120335
 20
122.7194359574122
 30
0.0
 41
1.0
  0
SPLINE
  5
EA
330
1F
100
AcDbEntity
  8
Predefinito
100
AcDbSpline
210
0.0
220
0.0
230
1.0
 70
    12
 71
     2
 72
     6
 73
     3
 74
     0
 42
0.0000000001
 43
0.0000000001
 40
0.0
 40
0.0
 40
0.0
 40
0.7507188887691258
 40
0.7507188887691258
 40
0.7507188887691258
 10
1205.241860172557
 20
121.9687425880279
 30
0.0
 41
1.0
 10
1205.247832084066
 20
122.3440674614377
 30
0.0
 41
0.9999483061553787
 10
1205.246170667068
 20
122.7194361655418
 30
0.0
 41
1.0
  0
SPLINE
  5
EB
330
1F
100
AcDbEntity
  8
Predefinito
100
AcDbSpline
210
0.0
220
0.0
230
1.0
 70
    12
 71
     2
 72
     6
 73
     3
 74
     0
 42
0.0000000001
 43
0.0000000001
 40
0.0
 40
0.0
 40
0.0
 40
0.7507863399946759
 40
0.7507863399946759
 40
0.7507863399946759
 10
1185.692405120335
 20
122.7194359574122
 30
0.0
 41
1.0
 10
1185.690674900438
 20
122.3440334009131
 30
0.0
 41
0.9999465637959748
 10
1185.696706288503
 20
121.9686753112907
 30
0.0
 41
1.0
  0
SPLINE
  5
EC
330
1F
100
AcDbEntity
  8
Predefinito
100
AcDbSpline
210
0.0
220
0.0
230
1.0
 70
    12
 71
     2
 72
     6
 73
     3
 74
     0
 42
0.0000000001
 43
0.0000000001
 40
0.0
 40
0.0
 40
0.0
 40
6.280188776158355
 40
6.280188776158355
 40
6.280188776158355
 10
1205.341844697675
 20
122.0029523934262
 30
0.0
 41
1.0
 10
1205.33325156808
 20
118.8623279882902
 30
0.0
 41
0.999741263771369
 10
1205.467507100162
 20
115.7245627089684
 30
0.0
 41
1.0
  0
SPLINE
  5
ED
330
1F
100
AcDbEntity
  8
Predefinito
100
AcDbSpline
210
0.0
220
0.0
230
1.0
 70
    12
 71
     2
 72
     6
 73
     3
 74
     0
 42
0.0000000001
 43
0.0000000001
 40
0.0
 40
0.0
 40
0.0
 40
0.6813092981529426
 40
0.6813092981529426
 40
0.6813092981529426
 10
1205.337649787042
 20
122.7460976204676
 30
0.0
 41
1.0
 10
1205.339311896431
 20
122.4054469699296
 30
0.0
 41
0.9999997519372001
 10
1205.341453886659
 20
122.0647989988548
 30
0.0
 41
1.0
  0
SPLINE
  5
EE
330
1F
100
AcDbEntity
  8
Predefinito
100
AcDbSpline
210
0.0
220
0.0
230
1.0
 70
    12
 71
     2
 72
     6
 73
     3
 74
     0
 42
0.0000000001
 43
0.0000000001
 40
0.0
 40
0.0
 40
0.0
 40
5.306254117690269
 40
5.306254117690269
 40
5.306254117690269
 10
1205.337649508577
 20
128.0523890280085
 30
0.0
 41
1.0
 10
1205.325008695329
 20
125.3992720069267
 30
0.0
 41
0.9999886498963083
 10
1205.337649508577
 20
122.7461549858449
 30
0.0
 41
1.0
  0
SPLINE
  5
EF
330
1F
100
AcDbEntity
  8
Predefinito
100
AcDbSpline
210
0.0
220
0.0
230
1.0
 70
    12
 71
     2
 72
     6
 73
     3
 74
     0
 42
0.0000000001
 43
0.0000000001
 40
0.0
 40
0.0
 40
0.0
 40
0.6813092981530138
 40
0.6813092981530138
 40
0.6813092981530138
 10
1205.341453886659
 20
128.7337450149987
 30
0.0
 41
1.0
 10
1205.339311896431
 20
128.3930970439238
 30
0.0
 41
0.9999997519371999
 10
1205.337649787042
 20
128.0524463933858
 30
0.0
 41
1.0
  0
SPLINE
  5
F0
330
1F
100
AcDbEntity
  8
Predefinito
100
AcDbSpline
210
0.0
220
0.0
230
1.0
 70
    12
 71
     2
 72
     6
 73
     3
 74
     0
 42
0.0000000001
 43
0.0000000001
 40
0.0
 40
0.0
 40
0.0
 40
3.595094303722531
 40
3.595094303722531
 40
3.595094303722531
 10
1205.38181097578
 20
132.3904465673961
 30
0.0
 41
1.0
 10
1205.352197957493
 20
130.5931261553889
 30
0.0
 41
0.9999856484243215
 10
1205.341844697675
 20
128.7955916204549
 30
0.0
 41
1.0
  0
SPLINE
  5
F1
330
1F
100
AcDbEntity
  8
Predefinito
100
AcDbSpline
210
0.0
220
0.0
230
1.0
 70
    12
 71
     2
 72
     6
 73
     3
 74
     0
 42
0.0000000001
 43
0.0000000001
 40
0.0
 40
0.0
 40
0.0
 40
3.595094303698082
 40
3.595094303698082
 40
3.595094303698082
 10
1185.596721442211
 20
128.7955916204272
 30
0.0
 41
1.0
 10
1185.586368182393
 20
130.593126155349
 30
0.0
 41
0.9999856484243216
 10
1185.556755164107
 20
132.3904465673439
 30
0.0
 41
1.0
  0
SPLINE
  5
F2
330
1F
100
AcDbEntity
  8
Predefinito
100
AcDbSpline
210
0.0
220
0.0
230
1.0
 70
    12
 71
     2
 72
     6
 73
     3
 74
     0
 42
0.0000000001
 43
0.0000000001
 40
0.0
 40
0.0
 40
0.0
 40
0.6813092981530422
 40
0.6813092981530422
 40
0.6813092981530422
 10
1185.600916352844
 20
128.0524463933858
 30
0.0
 41
1.0
 10
1185.599254243456
 20
128.3930970439238
 30
0.0
 41
0.9999997519372001
 10
1185.597112253228
 20
128.7337450149987
 30
0.0
 41
1.0
  0
SPLINE
  5
F3
330
1F
100
AcDbEntity
  8
Predefinito
100
AcDbSpline
210
0.0
220
0.0
230
1.0
 70
    12
 71
     2
 72
     6
 73
     3
 74
     0
 42
0.0000000001
 43
0.0000000001
 40
0.0
 40
0.0
 40
0.0
 40
5.306254117690226
 40
5.306254117690226
 40
5.306254117690226
 10
1185.600916631309
 20
122.7461549858449
 30
0.0
 41
1.0
 10
1185.613557444558
 20
125.3992720069267
 30
0.0
 41
0.9999886498963086
 10
1185.600916631309
 20
128.0523890280085
 30
0.0
 41
1.0
  0
SPLINE
  5
F4
330
1F
100
AcDbEntity
  8
Predefinito
100
AcDbSpline
210
0.0
220
0.0
230
1.0
 70
    12
 71
     2
 72
     6
 73
     3
 74
     0
 42
0.0000000001
 43
0.0000000001
 40
0.0
 40
0.0
 40
0.0
 40
0.6813092981528861
 40
0.6813092981528861
 40
0.6813092981528861
 10
1185.597112253228
 20
122.0647989988548
 30
0.0
 41
1.0
 10
1185.599254243456
 20
122.4054469699297
 30
0.0
 41
0.9999997519371999
 10
1185.600916352844
 20
122.7460976204676
 30
0.0
 41
1.0
  0
SPLINE
  5
F5
330
1F
100
AcDbEntity
  8
Predefinito
100
AcDbSpline
210
0.0
220
0.0
230
1.0
 70
    12
 71
     2
 72
     6
 73
     3
 74
     0
 42
0.0000000001
 43
0.0000000001
 40
0.0
 40
0.0
 40
0.0
 40
6.280188776138921
 40
6.280188776138921
 40
6.280188776138921
 10
1185.471059039725
 20
115.7245627089684
 30
0.0
 41
1.0
 10
1185.605314571807
 20
118.8623279882805
 30
0.0
 41
0.9997412637713674
 10
1185.596721442211
 20
122.0029523934068
 30
0.0
 41
1.0
  0
SPLINE
  5
F6
330
1F
100
AcDbEntity
  8
Predefinito
100
AcDbSpline
210
0.0
220
0.0
230
1.0
 70
    12
 71
     2
 72
     6
 73
     3
 74
     0
 42
0.0000000001
 43
0.0000000001
 40
0.0
 40
0.0
 40
0.0
 40
6.246124674324032
 40
6.246124674324032
 40
6.246124674324032
 10
1205.241859851384
 20
128.8298687025708
 30
0.0
 41
1.0
 10
1205.238269774656
 20
131.9533515912178
 30
0.0
 41
0.9997970589199
 10
1205.360505290967
 20
135.0744438235739
 30
0.0
 41
1.0
  0
SPLINE
  5
F7
330
1F
100
AcDbEntity
  8
Predefinito
100
AcDbSpline
210
0.0
220
0.0
230
1.0
 70
    12
 71
     2
 72
     6
 73
     3
 74
     0
 42
0.0000000001
 43
0.0000000001
 40
0.0
 40
0.0
 40
0.0
 40
6.246191904606621
 40
6.246191904606621
 40
6.246191904606621
 10
1185.578060670073
 20
135.0744438017438
 30
0.0
 41
1.0
 10
1185.700295724822
 20
131.9533179202051
 30
0.0
 41
0.9997970658077335
 10
1185.69670596733
 20
128.8298014258254
 30
0.0
 41
1.0
  0
SPLINE
  5
F8
330
1F
100
AcDbEntity
  8
Predefinito
100
AcDbSpline
210
0.0
220
0.0
230
1.0
 70
    24
 71
     2
 72
     6
 73
     3
 74
     0
 42
0.0000000001
 43
0.0000000001
 40
0.0
 40
0.0
 40
0.0
 40
0.4618626374976884
 40
0.4618626374976884
 40
0.4618626374976884
 10
1186.032906446738
 20
135.1717056412282
 30
0.0
 10
1185.801975127989
 20
135.1717056412282
 30
0.0
 10
1185.57104380924
 20
135.1717056412282
 30
0.0
  0
SPLINE
  5
F9
330
1F
100
AcDbEntity
  8
Predefinito
100
AcDbSpline
210
0.0
220
0.0
230
1.0
 70
    24
 71
     2
 72
     6
 73
     3
 74
     0
 42
0.0000000001
 43
0.0000000001
 40
0.0
 40
0.0
 40
0.0
 40
0.4618626374976884
 40
0.4618626374976884
 40
0.4618626374976884
 10
1205.367522330646
 20
135.1717056412282
 30
0.0
 10
1205.136591011898
 20
135.1717056412282
 30
0.0
 10
1204.905659693149
 20
135.1717056412282
 30
0.0
  0
SPLINE
  5
FA
330
1F
100
AcDbEntity
  8
Predefinito
100
AcDbSpline
210
0.0
220
0.0
230
1.0
 70
    12
 71
     2
 72
     6
 73
     3
 74
     0
 42
0.0000000001
 43
0.0000000001
 40
0.0
 40
0.0
 40
0.0
 40
6.343680405040429
 40
6.343680405040429
 40
6.343680405040429
 10
1205.367522330646
 20
115.6268383726252
 30
0.0
 41
1.0
 10
1205.23359293327
 20
118.796381697126
 30
0.0
 41
0.9997487271402798
 10
1205.241860172557
 20
121.9687425880279
 30
0.0
 41
1.0
  0
SPLINE
  5
FB
330
1F
100
AcDbEntity
  8
Predefinito
100
AcDbSpline
210
0.0
220
0.0
230
1.0
 70
    24
 71
     2
 72
     6
 73
     3
 74
     0
 42
0.0000000001
 43
0.0000000001
 40
0.0
 40
0.0
 40
0.0
 40
0.4618626374976884
 40
0.4618626374976884
 40
0.4618626374976884
 10
1204.905659693149
 20
115.6268383726252
 30
0.0
 10
1205.136591011898
 20
115.6268383726252
 30
0.0
 10
1205.367522330646
 20
115.6268383726252
 30
0.0
  0
SPLINE
  5
FC
330
1F
100
AcDbEntity
  8
Predefinito
100
AcDbSpline
210
0.0
220
0.0
230
1.0
 70
    24
 71
     2
 72
     6
 73
     3
 74
     0
 42
0.0000000001
 43
0.0000000001
 40
0.0
 40
0.0
 40
0.0
 40
0.4618626374976884
 40
0.4618626374976884
 40
0.4618626374976884
 10
1185.57104380924
 20
115.6268383726252
 30
0.0
 10
1185.801975127989
 20
115.6268383726252
 30
0.0
 10
1186.032906446738
 20
115.6268383726252
 30
0.0
  0
SPLINE
  5
FD
330
1F
100
AcDbEntity
  8
Predefinito
100
AcDbSpline
210
0.0
220
0.0
230
1.0
 70
    12
 71
     2
 72
     6
 73
     3
 74
     0
 42
0.0000000001
 43
0.0000000001
 40
0.0
 40
0.0
 40
0.0
 40
6.343613163673245
 40
6.343613163673245
 40
6.343613163673245
 10
1185.696706288503
 20
121.9686753112907
 30
0.0
 41
1.0
 10
1185.704974047647
 20
118.7963480267289
 30
0.0
 41
0.999748717003148
 10
1185.57104380924
 20
115.6268383726252
 30
0.0
 41
1.0
  0
SPLINE
  5
FE
330
1F
100
AcDbEntity
  8
Predefinito
100
AcDbSpline
210
0.0
220
0.0
230
1.0
 70
    24
 71
     2
 72
     6
 73
     3
 74
     0
 42
0.0000000001
 43
0.0000000001
 40
0.0
 40
0.0
 40
0.0
 40
42.2218815690387
 40
42.2218815690387
 40
42.2218815690387
 10
1192.819283069943
 20
132.1438376368224
 30
0.0
 10
1192.819283069943
 20
111.0328968523031
 30
0.0
 10
1192.819283069943
 20
89.92195606778371
 30
0.0
  0
SPLINE
  5
FF
330
1F
100
AcDbEntity
  8
Predefinito
100
AcDbSpline
210
0.0
220
0.0
230
1.0
 70
    24
 71
     2
 72
     6
 73
     3
 74
     0
 42
0.0000000001
 43
0.0000000001
 40
0.0
 40
0.0
 40
0.0
 40
42.22193331596084
 40
42.22193331596084
 40
42.22193331596084
 10
1198.119283069943
 20
132.1438376368224
 30
0.0
 10
1198.119283069943
 20
111.032870978842
 30
0.0
 10
1198.119283069943
 20
89.92190432086157
 30
0.0
  0
SPLINE
  5
100
330
1F
100
AcDbEntity
  8
Predefinito
100
AcDbSpline
210
0.0
220
0.0
230
1.0
 70
    12
 71
     2
 72
     6
 73
     3
 74
     0
 42
0.0000000001
 43
0.0000000001
 40
0.0
 40
0.0
 40
0.0
 40
1.566496513131107
 40
1.566496513131107
 40
1.566496513131107
 10
1197.119283069943
 20
133.1383595321907
 30
0.0
 41
1.0
 10
1198.116536515333
 20
133.1410910408875
 30
0.0
 41
0.7071121153507984
 10
1198.119283069943
 20
132.1438376368224
 30
0.0
 41
1.0
  0
SPLINE
  5
101
330
1F
100
AcDbEntity
  8
Predefinito
100
AcDbSpline
210
0.0
220
0.0
230
1.0
 70
    24
 71
     2
 72
     6
 73
     3
 74
     0
 42
0.0000000001
 43
0.0000000001
 40
0.0
 40
0.0
 40
0.0
 40
3.300000000000068
 40
3.300000000000068
 40
3.300000000000068
 10
1193.819283069943
 20
133.1383595321907
 30
0.0
 10
1195.469283069943
 20
133.1383595321907
 30
0.0
 10
1197.119283069943
 20
133.1383595321907
 30
0.0
  0
SPLINE
  5
102
330
1F
100
AcDbEntity
  8
Predefinito
100
AcDbSpline
210
0.0
220
0.0
230
1.0
 70
    12
 71
     2
 72
     6
 73
     3
 74
     0
 42
0.0000000001
 43
0.0000000001
 40
0.0
 40
0.0
 40
0.0
 40
1.566496513131078
 40
1.566496513131078
 40
1.566496513131078
 10
1192.819283069943
 20
132.1438376368224
 30
0.0
 41
1.0
 10
1192.822029624554
 20
133.1410910408873
 30
0.0
 41
0.7071121153509797
 10
1193.819283069943
 20
133.1383595321907
 30
0.0
 41
1.0
  0
SPLINE
  5
103
330
1F
100
AcDbEntity
  8
Predefinito
100
AcDbSpline
210
0.0
220
0.0
230
1.0
 70
    24
 71
     2
 72
     6
 73
     3
 74
     0
 42
0.0000000001
 43
0.0000000001
 40
0.0
 40
0.0
 40
0.0
 40
18.85242914714547
 40
18.85242914714547
 40
18.85242914714547
 10
1204.895497643516
 20
280.2593354907057
 30
0.0
 10
1195.469283069943
 20
280.2593354907057
 30
0.0
 10
1186.043068496371
 20
280.2593354907057
 30
0.0
  0
SPLINE
  5
104
330
1F
100
AcDbEntity
  8
Predefinito
100
AcDbSpline
210
0.0
220
0.0
230
1.0
 70
    24
 71
     2
 72
     6
 73
     3
 74
     0
 42
0.0000000001
 43
0.0000000001
 40
0.0
 40
0.0
 40
0.0
 40
191.1888774717376
 40
191.1888774717376
 40
191.1888774717376
 10
1204.905659693149
 20
88.99949689845727
 30
0.0
 10
1204.905659693149
 20
184.5939356343261
 30
0.0
 10
1204.905659693148
 20
280.1883743701949
 30
0.0
  0
SPLINE
  5
105
330
1F
100
AcDbEntity
  8
Predefinito
100
AcDbSpline
210
0.0
220
0.0
230
1.0
 70
    24
 71
     2
 72
     6
 73
     3
 74
     0
 42
0.0000000001
 43
0.0000000001
 40
0.0
 40
0.0
 40
0.0
 40
191.1888413379403
 40
191.1888413379403
 40
191.1888413379403
 10
1186.032906446738
 20
280.1883743701948
 30
0.0
 10
1186.032906446738
 20
184.5939537012247
 30
0.0
 10
1186.032906446738
 20
88.99953303225453
 30
0.0
  0
SPLINE
  5
106
330
1F
100
AcDbEntity
  8
Predefinito
100
AcDbSpline
210
0.0
220
0.0
230
1.0
 70
    12
 71
     2
 72
     6
 73
     3
 74
     0
 42
0.0000000001
 43
0.0000000001
 40
0.0
 40
0.0
 40
0.0
 40
0.1759342398639161
 40
0.1759342398639161
 40
0.1759342398639161
 10
798.0716544438279
 20
489.9840752046609
 30
0.0
 41
1.0
 10
798.0907102265595
 20
490.0699793899387
 30
0.0
 41
0.9995701300132992
 10
798.1046983083105
 20
490.1568527775356
 30
0.0
 41
1.0
  0
SPLINE
  5
107
330
1F
100
AcDbEntity
  8
Predefinito
100
AcDbSpline
210
0.0
220
0.0
230
1.0
 70
    24
 71
     2
 72
     6
 73
     3
 74
     0
 42
0.0000000001
 43
0.0000000001
 40
0.0
 40
0.0
 40
0.0
 40
0.8473305095833603
 40
0.8473305095833603
 40
0.8473305095833603
 10
797.8881549927705
 20
489.1568527775397
 30
0.0
 10
797.9799047182992
 20
489.5704639911003
 30
0.0
 10
798.0716544438279
 20
489.9840752046609
 30
0.0
  0
SPLINE
  5
108
330
1F
100
AcDbEntity
  8
Predefinito
100
AcDbSpline
210
0.0
220
0.0
230
1.0
 70
    12
 71
     2
 72
     8
 73
     5
 74
     0
 42
0.0000000001
 43
0.0000000001
 40
0.0
 40
0.0
 40
0.0
 40
10.21017612416683
 40
10.21017612416683
 40
20.42035224833376
 40
20.42035224833376
 40
20.42035224833376
 10
790.3994245884485
 20
454.6568527775394
 30
0.0
 41
1.0
 10
783.8994245884484
 20
454.6568527775394
 30
0.0
 41
0.7071067811865476
 10
783.8994245884485
 20
461.1568527775394
 30
0.0
 41
1.0
 10
783.8994245884484
 20
467.6568527775394
 30
0.0
 41
0.7071067811865398
 10
790.3994245884485
 20
467.6568527775394
 30
0.0
 41
1.0
  0
SPLINE
  5
109
330
1F
100
AcDbEntity
  8
Predefinito
100
AcDbSpline
210
0.0
220
0.0
230
1.0
 70
    12
 71
     2
 72
     8
 73
     5
 74
     0
 42
0.0000000001
 43
0.0000000001
 40
0.0
 40
0.0
 40
0.0
 40
10.21017612416685
 40
10.21017612416685
 40
20.42035224833369
 40
20.42035224833369
 40
20.42035224833369
 10
790.3994245884485
 20
467.6568527775394
 30
0.0
 41
1.0
 10
796.8994245884486
 20
467.6568527775395
 30
0.0
 41
0.7071067811865367
 10
796.8994245884484
 20
461.1568527775394
 30
0.0
 41
1.0
 10
796.8994245884485
 20
454.6568527775394
 30
0.0
 41
0.7071067811865483
 10
790.3994245884485
 20
454.6568527775394
 30
0.0
 41
1.0
  0
SPLINE
  5
10A
330
1F
100
AcDbEntity
  8
Predefinito
100
AcDbSpline
210
0.0
220
0.0
230
1.0
 70
    12
 71
     2
 72
     6
 73
     3
 74
     0
 42
0.0000000001
 43
0.0000000001
 40
-8.611709013110783
 40
-8.611709013110783
 40
-8.611709013110783
 40
0.0
 40
0.0
 40
0.0
 10
793.2127316738586
 20
471.2642178769511
 30
0.0
 41
1.0
 10
797.5907483180163
 20
469.8818382494626
 30
0.0
 41
0.9093642831117537
 10
799.4075776913953
 20
465.665544355645
 30
0.0
 41
1.0
  0
SPLINE
  5
10B
330
1F
100
AcDbEntity
  8
Predefinito
100
AcDbSpline
210
0.0
220
0.0
230
1.0
 70
    12
 71
     2
 72
     8
 73
     5
 74
     0
 42
0.0000000001
 43
0.0000000001
 40
0.0
 40
0.0
 40
0.0
 40
2.848103928033593
 40
2.848103928033593
 40
5.696207856067244
 40
5.696207856067244
 40
5.696207856067244
 10
787.5861175030382
 20
471.2642178769511
 30
0.0
 41
1.0
 10
788.9665766269618
 20
471.6481265743205
 30
0.0
 41
0.9908171544026528
 10
790.3994245884484
 20
471.6481265743203
 30
0.0
 41
1.0
 10
791.8322725499356
 20
471.6481265743201
 30
0.0
 41
0.9908171544026586
 10
793.2127316738586
 20
471.2642178769511
 30
0.0
 41
1.0
  0
SPLINE
  5
10C
330
1F
100
AcDbEntity
  8
Predefinito
100
AcDbSpline
210
0.0
220
0.0
230
1.0
 70
    12
 71
     2
 72
     6
 73
     3
 74
     0
 42
0.0000000001
 43
0.0000000001
 40
0.0
 40
0.0
 40
0.0
 40
8.64048352042504
 40
8.64048352042504
 40
8.64048352042504
 10
781.3801169852311
 20
465.6372663496939
 30
0.0
 41
1.0
 10
783.1942254012556
 20
469.8722690992143
 30
0.0
 41
0.9091404327777195
 10
787.5861175030382
 20
471.2642178769511
 30
0.0
 41
1.0
  0
SPLINE
  5
10D
330
1F
100
AcDbEntity
  8
Predefinito
100
AcDbSpline
210
0.0
220
0.0
230
1.0
 70
    12
 71
     2
 72
     8
 73
     5
 74
     0
 42
0.0000000001
 43
0.0000000001
 40
0.0
 40
0.0
 40
0.0
 40
10.99557428756436
 40
10.99557428756436
 40
21.99114857512868
 40
21.99114857512868
 40
21.99114857512868
 10
790.3994245884485
 20
454.1568527775394
 30
0.0
 41
1.0
 10
797.3994245884486
 20
454.1568527775393
 30
0.0
 41
0.7071067811865389
 10
797.3994245884485
 20
461.1568527775394
 30
0.0
 41
1.0
 10
797.3994245884486
 20
468.1568527775395
 30
0.0
 41
0.707106781186536
 10
790.3994245884485
 20
468.1568527775394
 30
0.0
 41
1.0
  0
SPLINE
  5
10E
330
1F
100
AcDbEntity
  8
Predefinito
100
AcDbSpline
210
0.0
220
0.0
230
1.0
 70
    12
 71
     2
 72
     6
 73
     3
 74
     0
 42
0.0000000001
 43
0.0000000001
 40
0.0
 40
0.0
 40
0.0
 40
10.99557428756431
 40
10.99557428756431
 40
10.99557428756431
 10
783.3994245884485
 20
461.1568527775394
 30
0.0
 41
1.0
 10
783.3994245884484
 20
454.1568527775393
 30
0.0
 41
0.7071067811865426
 10
790.3994245884485
 20
454.1568527775394
 30
0.0
 41
1.0
  0
SPLINE
  5
10F
330
1F
100
AcDbEntity
  8
Predefinito
100
AcDbSpline
210
0.0
220
0.0
230
1.0
 70
    12
 71
     2
 72
     6
 73
     3
 74
     0
 42
0.0000000001
 43
0.0000000001
 40
-10.99557428756429
 40
-10.99557428756429
 40
-10.99557428756429
 40
0.0
 40
0.0
 40
0.0
 10
790.3994245884485
 20
468.1568527775394
 30
0.0
 41
1.0
 10
783.3994245884484
 20
468.1568527775394
 30
0.0
 41
0.707106781186541
 10
783.3994245884485
 20
461.1568527775394
 30
0.0
 41
1.0
  0
SPLINE
  5
110
330
1F
100
AcDbEntity
  8
Predefinito
100
AcDbSpline
210
0.0
220
0.0
230
1.0
 70
     8
 71
     2
 72
     6
 73
     3
 74
     0
 42
0.0000000001
 43
0.0000000001
 40
-0.3916447929744274
 40
-0.3916447929744274
 40
-0.3916447929744274
 40
0.0
 40
0.0
 40
0.0
 10
726.0880385300902
 20
527.3929584590014
 30
0.0
 10
726.1089132727005
 20
527.587665476134
 30
0.0
 10
726.1293822868787
 20
527.7824151370432
 30
0.0
  0
SPLINE
  5
111
330
1F
100
AcDbEntity
  8
Predefinito
100
AcDbSpline
210
0.0
220
0.0
230
1.0
 70
    24
 71
     2
 72
     6
 73
     3
 74
     0
 42
0.0000000001
 43
0.0000000001
 40
0.0
 40
0.0
 40
0.0
 40
30.22511234384096
 40
30.22511234384096
 40
30.22511234384096
 10
696.0280967544506
 20
530.5523856514599
 30
0.0
 10
711.0578647937
 20
528.9726933754755
 30
0.0
 10
726.0880385300902
 20
527.3929584590014
 30
0.0
  0
SPLINE
  5
112
330
1F
100
AcDbEntity
  8
Predefinito
100
AcDbSpline
210
0.0
220
0.0
230
1.0
 70
    24
 71
     2
 72
     6
 73
     3
 74
     0
 42
0.0000000001
 43
0.0000000001
 40
0.0
 40
0.0
 40
0.0
 40
1.158707300182545
 40
1.158707300182545
 40
1.158707300182545
 10
694.8757369428047
 20
530.6735035482138
 30
0.0
 10
695.451916832982
 20
530.6129446014812
 30
0.0
 10
696.0280967544506
 20
530.5523856514599
 30
0.0
  0
SPLINE
  5
113
330
1F
100
AcDbEntity
  8
Predefinito
100
AcDbSpline
210
0.0
220
0.0
230
1.0
 70
    24
 71
     2
 72
     6
 73
     3
 74
     0
 42
0.0000000001
 43
0.0000000001
 40
0.0
 40
0.0
 40
0.0
 40
9.192132899623061
 40
9.192132899623061
 40
9.192132899623061
 10
685.7032121702591
 20
531.6375747498869
 30
0.0
 10
690.3048482258995
 20
531.1539233112883
 30
0.0
 10
694.8757369428047
 20
530.6735035482138
 30
0.0
  0
SPLINE
  5
114
330
1F
100
AcDbEntity
  8
Predefinito
100
AcDbSpline
210
0.0
220
0.0
230
1.0
 70
    24
 71
     2
 72
     6
 73
     3
 74
     0
 42
0.0000000001
 43
0.0000000001
 40
0.0
 40
0.0
 40
0.0
 40
0.3613980594841152
 40
0.3613980594841152
 40
0.3613980594841152
 10
685.3130465484237
 20
531.6785828091975
 30
0.0
 10
685.4927556899738
 20
531.659694617304
 30
0.0
 10
685.7032121702591
 20
531.6375747498869
 30
0.0
  0
SPLINE
  5
115
330
1F
100
AcDbEntity
  8
Predefinito
100
AcDbSpline
210
0.0
220
0.0
230
1.0
 70
    24
 71
     2
 72
     6
 73
     3
 74
     0
 42
0.0000000001
 43
0.0000000001
 40
0.0
 40
0.0
 40
0.0
 40
0.391644792974423
 40
0.391644792974423
 40
0.391644792974423
 10
685.35398457678
 20
532.0680821310186
 30
0.0
 10
685.3335155626019
 20
531.8733324701082
 30
0.0
 10
685.3130465484237
 20
531.6785828091975
 30
0.0
  0
SPLINE
  5
116
330
1F
100
AcDbEntity
  8
Predefinito
100
AcDbSpline
210
0.0
220
0.0
230
1.0
 70
    24
 71
     2
 72
     6
 73
     3
 74
     0
 42
0.0000000001
 43
0.0000000001
 40
0.0
 40
0.0
 40
0.0
 40
7.32285400142627
 40
7.32285400142627
 40
7.32285400142627
 10
692.6367232177838
 20
531.3026354555163
 30
0.0
 10
688.9953538972819
 20
531.6853587932678
 30
0.0
 10
685.35398457678
 20
532.0680821310186
 30
0.0
  0
SPLINE
  5
117
330
1F
100
AcDbEntity
  8
Predefinito
100
AcDbSpline
210
0.0
220
0.0
230
1.0
 70
    28
 71
     2
 72
     8
 73
     5
 74
     0
 42
0.0000000001
 43
0.0000000001
 40
80.50331174823845
 40
80.50331174823845
 40
80.50331174823845
 40
96.60397409788614
 40
96.60397409788614
 40
128.8052987971815
 40
128.8052987971815
 40
128.8052987971815
 10
726.0518009375214
 20
527.7905692654405
 30
0.0
 41
0.8535533905932737
 10
726.7878191027417
 20
527.7132106390433
 30
0.0
 41
0.8535533905932737
 10
721.359566847724
 20
528.2837429411359
 30
0.0
 41
1.0
 10
708.2546066336779
 20
529.6611297626201
 30
0.0
 41
0.7071067811865476
 10
692.6367232177838
 20
531.3026354555163
 30
0.0
 41
1.0
  0
SPLINE
  5
118
330
1F
100
AcDbEntity
  8
Predefinito
100
AcDbSpline
210
0.0
220
0.0
230
1.0
 70
    12
 71
     2
 72
     6
 73
     3
 74
     0
 42
0.0000000001
 43
0.0000000001
 40
0.0
 40
0.0
 40
0.0
 40
0.1759289090429678
 40
0.1759289090429678
 40
0.1759289090429678
 10
782.7271947330689
 20
489.9840752046611
 30
0.0
 41
1.0
 10
782.7081451482123
 20
490.0699782059995
 30
0.0
 41
0.9995672625092297
 10
782.6941801495556
 20
490.1568527772768
 30
0.0
 41
1.0
  0
SPLINE
  5
119
330
1F
100
AcDbEntity
  8
Predefinito
100
AcDbSpline
210
0.0
220
0.0
230
1.0
 70
    24
 71
     2
 72
     6
 73
     3
 74
     0
 42
0.0000000001
 43
0.0000000001
 40
0.0
 40
0.0
 40
0.0
 40
0.8473305095835882
 40
0.8473305095835882
 40
0.8473305095835882
 10
782.9106941841262
 20
489.1568527775395
 30
0.0
 10
782.8189444585973
 20
489.5704639911003
 30
0.0
 10
782.7271947330689
 20
489.9840752046611
 30
0.0
  0
SPLINE
  5
11A
330
1F
100
AcDbEntity
  8
Predefinito
100
AcDbSpline
210
0.0
220
0.0
230
1.0
 70
    12
 71
     2
 72
     8
 73
     5
 74
     0
 42
0.0000000001
 43
0.0000000001
 40
-116.6644026660593
 40
-116.6644026660593
 40
-116.6644026660593
 40
-58.33220133302964
 40
-58.33220133302964
 40
0.0
 40
0.0
 40
0.0
 10
710.0001627755773
 20
615.4419767351412
 30
0.0
 41
1.0
 10
675.9231414427472
 20
615.4420060649186
 30
0.0
 41
0.7972100318831122
 10
666.6852530046865
 20
582.6410186665358
 30
0.0
 41
1.0
 10
657.4473645666257
 20
549.840031268153
 30
0.0
 41
0.7972100318831122
 10
686.515830218277
 20
532.0561154518402
 30
0.0
 41
1.0
  0
SPLINE
  5
11B
330
1F
100
AcDbEntity
  8
Predefinito
100
AcDbSpline
210
0.0
220
0.0
230
1.0
 70
    12
 71
     2
 72
     8
 73
     5
 74
     0
 42
0.0000000001
 43
0.0000000001
 40
0.0
 40
0.0
 40
0.0
 40
63.11648650795264
 40
63.11648650795264
 40
126.2329730159054
 40
126.2329730159054
 40
126.2329730159054
 10
724.8549164902994
 20
527.9644967801282
 30
0.0
 41
1.0
 10
760.7272896683861
 20
540.5093854058059
 30
0.0
 41
0.7640077394556668
 10
754.3650512866227
 20
577.9756810704722
 30
0.0
 41
1.0
 10
748.0028129048595
 20
615.4419767351386
 30
0.0
 41
0.7640077394556656
 10
710.0001627755773
 20
615.4419767351412
 30
0.0
 41
1.0
  0
SPLINE
  5
11C
330
1F
100
AcDbEntity
  8
Predefinito
100
AcDbSpline
210
0.0
220
0.0
230
1.0
 70
    12
 71
     2
 72
     6
 73
     3
 74
     0
 42
0.0000000001
 43
0.0000000001
 40
0.0
 40
0.0
 40
0.0
 40
1.789728915140592
 40
1.789728915140592
 40
1.789728915140592
 10
799.6369978551347
 20
464.9834868443063
 30
0.0
 41
1.0
 10
799.9811592751239
 20
464.1548405889434
 30
0.0
 41
0.9959757683997835
 10
800.17185822275
 20
463.2780648987518
 30
0.0
 41
1.0
  0
SPLINE
  5
11D
330
1F
100
AcDbEntity
  8
Predefinito
100
AcDbSpline
210
0.0
220
0.0
230
1.0
 70
    12
 71
     2
 72
     6
 73
     3
 74
     0
 42
0.0000000001
 43
0.0000000001
 40
0.0
 40
0.0
 40
0.0
 40
0.4607875144367559
 40
0.4607875144367559
 40
0.4607875144367559
 10
780.9701356908195
 20
464.5629083038611
 30
0.0
 41
1.0
 10
781.0448498142009
 20
464.7808527418335
 30
0.0
 41
0.9999901815441219
 10
781.1214925581583
 20
464.9981264587769
 30
0.0
 41
1.0
  0
LINE
  5
11E
330
1F
100
AcDbEntity
  8
Predefinito
100
AcDbLine
 10
699.497017660435
 20
525.8549675121048
 30
0.0
 11
696.299714379122
 21
526.1910205229477
 31
0.0
  0
SPLINE
  5
11F
330
1F
100
AcDbEntity
  8
Predefinito
100
AcDbSpline
210
0.0
220
0.0
230
1.0
 70
    12
 71
     2
 72
     8
 73
     5
 74
     0
 42
0.0000000001
 43
0.0000000001
 40
0.0
 40
0.0
 40
0.0
 40
5.196033200437495
 40
5.196033200437495
 40
14.78421490448052
 40
14.78421490448052
 40
14.78421490448052
 10
714.2002287980577
 20
524.3094602879137
 30
0.0
 41
1.0
 10
711.6164504342387
 20
524.5810843333452
 30
0.0
 41
0.999999999959085
 10
709.0326671566252
 20
524.8526616330416
 30
0.0
 41
1.0
 10
704.2648434627575
 20
525.3538246019612
 30
0.0
 41
0.9999999999977875
 10
699.497017660435
 20
525.8549675121048
 30
0.0
 41
1.0
  0
SPLINE
  5
120
330
1F
100
AcDbEntity
  8
Predefinito
100
AcDbSpline
210
0.0
220
0.0
230
1.0
 70
    12
 71
     2
 72
     6
 73
     3
 74
     0
 42
0.0000000001
 43
0.0000000001
 40
0.0
 40
0.0
 40
0.0
 40
12.07470758267878
 40
12.07470758267878
 40
12.07470758267878
 10
714.2002287980545
 20
524.3094602878931
 30
0.0
 41
1.0
 10
720.2433549967146
 20
524.9534653002931
 30
0.0
 41
0.9901587140205474
 10
725.8712814675401
 20
527.2470564469234
 30
0.0
 41
1.0
  0
SPLINE
  5
121
330
1F
100
AcDbEntity
  8
Predefinito
100
AcDbSpline
210
0.0
220
0.0
230
1.0
 70
    24
 71
     2
 72
     6
 73
     3
 74
     0
 42
0.0000000001
 43
0.0000000001
 40
0.0
 40
0.0
 40
0.0
 40
1.000465733588587
 40
1.000465733588587
 40
1.000465733588587
 10
714.0964290554556
 20
523.3143938089472
 30
0.0
 10
714.1483289267546
 20
523.8119270484201
 30
0.0
 10
714.2002287980545
 20
524.3094602878931
 30
0.0
  0
SPLINE
  5
122
330
1F
100
AcDbEntity
  8
Predefinito
100
AcDbSpline
210
0.0
220
0.0
230
1.0
 70
    12
 71
     2
 72
     6
 73
     3
 74
     0
 42
0.0000000001
 43
0.0000000001
 40
0.0
 40
0.0
 40
0.0
 40
12.11499289923654
 40
12.11499289923654
 40
12.11499289923654
 10
696.2998997560512
 20
526.1909599807286
 30
0.0
 41
0.9999997688279242
 10
690.5033718398065
 20
528.0840324794517
 30
0.0
 41
0.9900919446226709
 10
685.4614353453976
 20
531.5136585962335
 30
0.0
 41
1.0
  0
SPLINE
  5
123
330
1F
100
AcDbEntity
  8
Predefinito
100
AcDbSpline
210
0.0
220
0.0
230
1.0
 70
     8
 71
     2
 72
     6
 73
     3
 74
     0
 42
0.0000000001
 43
0.0000000001
 40
0.0
 40
0.0
 40
0.0
 40
0.9999999999997716
 40
0.9999999999997716
 40
0.9999999999997716
 10
696.1950281237546
 20
525.1958408157194
 30
0.0
 10
696.2472923553884
 20
525.6931017634034
 30
0.0
 10
696.2998997560512
 20
526.1909599807286
 30
0.0
  0
SPLINE
  5
124
330
1F
100
AcDbEntity
  8
Predefinito
100
AcDbSpline
210
0.0
220
0.0
230
1.0
 70
    12
 71
     2
 72
     6
 73
     3
 74
     0
 42
0.0000000001
 43
0.0000000001
 40
-0.7243116395802138
 40
-0.7243116395802138
 40
-0.7243116395802138
 40
0.0
 40
0.0
 40
0.0
 10
798.9570619561705
 20
490.1568527775411
 30
0.0
 41
1.0
 10
799.399424588451
 20
490.1568527775409
 30
0.0
 41
0.7489557207869607
 10
799.4533350319914
 20
490.5959181058411
 30
0.0
 41
1.0
  0
SPLINE
  5
125
330
1F
100
AcDbEntity
  8
Predefinito
100
AcDbSpline
210
0.0
220
0.0
230
1.0
 70
    24
 71
     2
 72
     6
 73
     3
 74
     0
 42
0.0000000001
 43
0.0000000001
 40
-6.04321770946197
 40
-6.04321770946197
 40
-6.04321770946197
 40
0.0
 40
0.0
 40
0.0
 10
792.9138442467085
 20
490.1568527775412
 30
0.0
 10
795.9354531014394
 20
490.1568527775412
 30
0.0
 10
798.9570619561705
 20
490.1568527775411
 30
0.0
  0
SPLINE
  5
126
330
1F
100
AcDbEntity
  8
Predefinito
100
AcDbSpline
210
0.0
220
0.0
230
1.0
 70
    24
 71
     2
 72
     6
 73
     3
 74
     0
 42
0.0000000001
 43
0.0000000001
 40
-5.025365297611359
 40
-5.025365297611359
 40
-5.025365297611359
 40
0.0
 40
0.0
 40
0.0
 10
787.8884789490971
 20
490.1568527775412
 30
0.0
 10
790.4011615979028
 20
490.1568527775412
 30
0.0
 10
792.9138442467085
 20
490.1568527775412
 30
0.0
  0
SPLINE
  5
127
330
1F
100
AcDbEntity
  8
Predefinito
100
AcDbSpline
210
0.0
220
0.0
230
1.0
 70
    24
 71
     2
 72
     6
 73
     3
 74
     0
 42
0.0000000001
 43
0.0000000001
 40
-5.989054360648765
 40
-5.989054360648765
 40
-5.989054360648765
 40
0.0
 40
0.0
 40
0.0
 10
781.8994245884485
 20
490.1568527775412
 30
0.0
 10
784.8939517687727
 20
490.1568527775412
 30
0.0
 10
787.8884789490971
 20
490.1568527775412
 30
0.0
  0
SPLINE
  5
128
330
1F
100
AcDbEntity
  8
Predefinito
100
AcDbSpline
210
0.0
220
0.0
230
1.0
 70
    12
 71
     2
 72
     6
 73
     3
 74
     0
 42
0.0000000001
 43
0.0000000001
 40
-0.7853981633974523
 40
-0.7853981633974523
 40
-0.7853981633974523
 40
0.0
 40
0.0
 40
0.0
 10
781.3994245884484
 20
490.6568527775412
 30
0.0
 41
1.0
 10
781.3994245884484
 20
490.1568527775412
 30
0.0
 41
0.7071067811866079
 10
781.8994245884485
 20
490.1568527775412
 30
0.0
 41
1.0
  0
SPLINE
  5
129
330
1F
100
AcDbEntity
  8
Predefinito
100
AcDbSpline
210
0.0
220
0.0
230
1.0
 70
    12
 71
     2
 72
     6
 73
     3
 74
     0
 42
0.0000000001
 43
0.0000000001
 40
-6.488160876342994
 40
-6.488160876342994
 40
-6.488160876342994
 40
0.0
 40
0.0
 40
0.0
 10
787.8875668124845
 20
490.6481743773804
 30
0.0
 41
1.0
 10
784.6434807433113
 20
490.64133131526
 30
0.0
 41
0.9999940592025477
 10
781.3994245884484
 20
490.6568527775412
 30
0.0
 41
1.0
  0
SPLINE
  5
12A
330
1F
100
AcDbEntity
  8
Predefinito
100
AcDbSpline
210
0.0
220
0.0
230
1.0
 70
    24
 71
     2
 72
     6
 73
     3
 74
     0
 42
0.0000000001
 43
0.0000000001
 40
-5.025365297611359
 40
-5.025365297611359
 40
-5.025365297611359
 40
0.0
 40
0.0
 40
0.0
 10
792.9129321100959
 20
490.6481743773804
 30
0.0
 10
790.4002494612902
 20
490.6481743773804
 30
0.0
 10
787.8875668124845
 20
490.6481743773804
 30
0.0
  0
SPLINE
  5
12B
330
1F
100
AcDbEntity
  8
Predefinito
100
AcDbSpline
210
0.0
220
0.0
230
1.0
 70
    12
 71
     2
 72
     6
 73
     3
 74
     0
 42
0.0000000001
 43
0.0000000001
 40
0.0
 40
0.0
 40
0.0
 40
6.540619329849815
 40
6.540619329849815
 40
6.540619329849815
 10
799.4533350319914
 20
490.5959181058411
 30
0.0
 41
1.0
 10
796.1830643384801
 20
490.6133810834658
 30
0.0
 41
0.999996489478093
 10
792.9129321100959
 20
490.6481743773804
 30
0.0
 41
1.0
  0
SPLINE
  5
12C
330
1F
100
AcDbEntity
  8
Predefinito
100
AcDbSpline
210
0.0
220
0.0
230
1.0
 70
    24
 71
     2
 72
     6
 73
     3
 74
     0
 42
0.0000000001
 43
0.0000000001
 40
0.0
 40
0.0
 40
0.0
 40
1.636023743787141
 40
1.636023743787141
 40
1.636023743787141
 10
799.6527161714417
 20
492.2197471767311
 30
0.0
 10
799.5530256017166
 20
491.4078326412859
 30
0.0
 10
799.4533350319914
 20
490.5959181058411
 30
0.0
  0
SPLINE
  5
12D
330
1F
100
AcDbEntity
  8
Predefinito
100
AcDbSpline
210
0.0
220
0.0
230
1.0
 70
    12
 71
     2
 72
     6
 73
     3
 74
     0
 42
0.0000000001
 43
0.0000000001
 40
0.0
 40
0.0
 40
0.0
 40
4.337861770985492
 40
4.337861770985492
 40
4.337861770985492
 10
801.2992979888852
 20
496.1771387518149
 30
0.0
 41
1.0
 10
799.9321687163105
 20
494.4245852538715
 30
0.0
 41
0.9642491569595655
 10
799.6527161714417
 20
492.2197471767311
 30
0.0
 41
1.0
  0
SPLINE
  5
12E
330
1F
100
AcDbEntity
  8
Predefinito
100
AcDbSpline
210
0.0
220
0.0
230
1.0
 70
    12
 71
     2
 72
     6
 73
     3
 74
     0
 42
0.0000000001
 43
0.0000000001
 40
-1.663059446568368
 40
-1.663059446568368
 40
-1.663059446568368
 40
0.0
 40
0.0
 40
0.0
 10
802.4511469113756
 20
497.3734520297681
 30
0.0
 41
1.0
 10
801.8119111977442
 20
496.8360931424768
 30
0.0
 41
0.9944591113693767
 10
801.2992979888852
 20
496.1771387518149
 30
0.0
 41
1.0
  0
SPLINE
  5
12F
330
1F
100
AcDbEntity
  8
Predefinito
100
AcDbSpline
210
0.0
220
0.0
230
1.0
 70
    12
 71
     2
 72
     6
 73
     3
 74
     0
 42
0.0000000001
 43
0.0000000001
 40
0.0
 40
0.0
 40
0.0
 40
0.748898542041438
 40
0.748898542041438
 40
0.748898542041438
 10
803.0476265484672
 20
497.8265856327225
 30
0.0
 41
0.9999999812930908
 10
802.7386589406019
 20
497.6145317484979
 30
0.0
 41
0.9988365849144956
 10
802.4511469113756
 20
497.3734520297681
 30
0.0
 41
1.0
  0
SPLINE
  5
130
330
1F
100
AcDbEntity
  8
Predefinito
100
AcDbSpline
210
0.0
220
0.0
230
1.0
 70
    12
 71
     2
 72
     6
 73
     3
 74
     0
 42
0.0000000001
 43
0.0000000001
 40
-2.947276446163108
 40
-2.947276446163108
 40
-2.947276446163108
 40
0.0
 40
0.0
 40
0.0
 10
805.7255573933268
 20
499.0180115187884
 30
0.0
 41
0.9999999581869206
 10
804.2770778413828
 20
498.6684500287807
 30
0.0
 41
0.9835429954677944
 10
803.0476265484672
 20
497.8265856327228
 30
0.0
 41
0.9999999316523981
  0
SPLINE
  5
131
330
1F
100
AcDbEntity
  8
Predefinito
100
AcDbSpline
210
0.0
220
0.0
230
1.0
 70
    12
 71
     2
 72
     6
 73
     3
 74
     0
 42
0.0000000001
 43
0.0000000001
 40
0.0
 40
0.0
 40
0.0
 40
2.162466137301099
 40
2.162466137301099
 40
2.162466137301099
 10
807.8702171206949
 20
499.239943380368
 30
0.0
 41
1.0
 10
806.7826325515026
 20
499.2752211064394
 30
0.0
 41
0.9908060069898461
 10
805.7255573933272
 20
499.0180115187887
 30
0.0
 41
0.9999999627033648
  0
SPLINE
  5
132
330
1F
100
AcDbEntity
  8
Predefinito
100
AcDbSpline
210
0.0
220
0.0
230
1.0
 70
    12
 71
     2
 72
     6
 73
     3
 74
     0
 42
0.0000000001
 43
0.0000000001
 40
-0.1414508716337592
 40
-0.1414508716337592
 40
-0.1414508716337592
 40
0.0
 40
0.0
 40
0.0
 10
808.011773034516
 20
499.2338287075233
 30
0.0
 41
1.0
 10
807.9411425200454
 20
499.2375297875143
 30
0.0
 41
0.999957975445397
 10
807.8702171206949
 20
499.239943380368
 30
0.0
 41
1.0
  0
SPLINE
  5
133
330
1F
100
AcDbEntity
  8
Predefinito
100
AcDbSpline
210
0.0
220
0.0
230
1.0
 70
    24
 71
     2
 72
     6
 73
     3
 74
     0
 42
0.0000000001
 43
0.0000000001
 40
0.0
 40
0.0
 40
0.0
 40
136.5836917390968
 40
136.5836917390968
 40
136.5836917390968
 10
944.4082815709922
 20
492.085590593166
 30
0.0
 10
876.210027302754
 20
495.6597096503447
 30
0.0
 10
808.011773034516
 20
499.2338287075233
 30
0.0
  0
SPLINE
  5
134
330
1F
100
AcDbEntity
  8
Predefinito
100
AcDbSpline
210
0.0
220
0.0
230
1.0
 70
    24
 71
     2
 72
     6
 73
     3
 74
     0
 42
0.0000000001
 43
0.0000000001
 40
0.0
 40
0.0
 40
0.0
 40
6.402310531290972
 40
6.402310531290972
 40
6.402310531290972
 10
945.1885269517165
 20
498.4401792726117
 30
0.0
 10
944.7984042613543
 20
495.2628849328888
 30
0.0
 10
944.4082815709922
 20
492.085590593166
 30
0.0
  0
SPLINE
  5
135
330
1F
100
AcDbEntity
  8
Predefinito
100
AcDbSpline
210
0.0
220
0.0
230
1.0
 70
    24
 71
     2
 72
     6
 73
     3
 74
     0
 42
0.0000000001
 43
0.0000000001
 40
0.0
 40
0.0
 40
0.0
 40
0.5822721164180579
 40
0.5822721164180579
 40
0.5822721164180579
 10
945.2594880722274
 20
499.0181112209705
 30
0.0
 10
945.224007511972
 20
498.7291452467911
 30
0.0
 10
945.1885269517165
 20
498.4401792726117
 30
0.0
  0
SPLINE
  5
136
330
1F
100
AcDbEntity
  8
Predefinito
100
AcDbSpline
210
0.0
220
0.0
230
1.0
 70
    24
 71
     2
 72
     6
 73
     3
 74
     0
 42
0.0000000001
 43
0.0000000001
 40
0.0
 40
0.0
 40
0.0
 40
241.4363766232057
 40
241.4363766232057
 40
241.4363766232057
 10
705.1457251820691
 20
524.2550846463084
 30
0.0
 10
825.2026066271483
 20
511.6365979336395
 30
0.0
 10
945.2594880722274
 20
499.0181112209705
 30
0.0
  0
SPLINE
  5
137
330
1F
100
AcDbEntity
  8
Predefinito
100
AcDbSpline
210
0.0
220
0.0
230
1.0
 70
    24
 71
     2
 72
     6
 73
     3
 74
     0
 42
0.0000000001
 43
0.0000000001
 40
0.0
 40
0.0
 40
0.0
 40
9.43637662320547
 40
9.43637662320547
 40
9.43637662320547
 10
695.7610420173502
 20
525.2414545935483
 30
0.0
 10
700.4533835997095
 20
524.7482696199278
 30
0.0
 10
705.1457251820691
 20
524.2550846463084
 30
0.0
  0
SPLINE
  5
138
330
1F
100
AcDbEntity
  8
Predefinito
100
AcDbSpline
210
0.0
220
0.0
230
1.0
 70
    24
 71
     2
 72
     6
 73
     3
 74
     0
 42
0.0000000001
 43
0.0000000001
 40
0.0
 40
0.0
 40
0.0
 40
8.614752710409398
 40
8.614752710409398
 40
8.614752710409398
 10
695.0102168462874
 20
516.6594836180673
 30
0.0
 10
695.3856294318189
 20
520.9504691058082
 30
0.0
 10
695.7610420173502
 20
525.2414545935483
 30
0.0
  0
SPLINE
  5
139
330
1F
100
AcDbEntity
  8
Predefinito
100
AcDbSpline
210
0.0
220
0.0
230
1.0
 70
    12
 71
     2
 72
     6
 73
     3
 74
     0
 42
0.0000000001
 43
0.0000000001
 40
0.0
 40
0.0
 40
0.0
 40
10.09663581187792
 40
10.09663581187792
 40
10.09663581187792
 10
700.8060470169328
 20
509.6285790076988
 30
0.0
 41
1.0
 10
694.4537430833147
 20
510.2964533790254
 30
0.0
 41
0.7132744548975256
 10
695.0102168462874
 20
516.6594836180673
 30
0.0
 41
1.0
  0
SPLINE
  5
13A
330
1F
100
AcDbEntity
  8
Predefinito
100
AcDbSpline
210
0.0
220
0.0
230
1.0
 70
    24
 71
     2
 72
     6
 73
     3
 74
     0
 42
0.0000000001
 43
0.0000000001
 40
0.0
 40
0.0
 40
0.0
 40
2.787018439030221
 40
2.787018439030221
 40
2.787018439030221
 10
703.5777982330546
 20
509.3372562157822
 30
0.0
 10
702.1919228028494
 20
509.4829175930475
 30
0.0
 10
700.8060470169328
 20
509.6285790076988
 30
0.0
  0
SPLINE
  5
13B
330
1F
100
AcDbEntity
  8
Predefinito
100
AcDbSpline
210
0.0
220
0.0
230
1.0
 70
    24
 71
     2
 72
     6
 73
     3
 74
     0
 42
0.0000000001
 43
0.0000000001
 40
0.0
 40
0.0
 40
0.0
 40
71.04705727506413
 40
71.04705727506413
 40
71.04705727506413
 10
774.2356522945896
 20
501.9108164991306
 30
0.0
 10
738.9067252638222
 20
505.6240363574561
 30
0.0
 10
703.5777982330546
 20
509.3372562157822
 30
0.0
  0
SPLINE
  5
13C
330
1F
100
AcDbEntity
  8
Predefinito
100
AcDbSpline
210
0.0
220
0.0
230
1.0
 70
    12
 71
     2
 72
     6
 73
     3
 74
     0
 42
0.0000000001
 43
0.0000000001
 40
0.0
 40
0.0
 40
0.0
 40
5.858637531927736
 40
5.858637531927736
 40
5.858637531927736
 10
779.3436847227657
 20
499.308683688898
 30
0.0
 41
1.0
 10
777.2820189791255
 20
501.5778240806893
 30
0.0
 41
0.9351212259712803
 10
774.2356522945896
 20
501.9108164991306
 30
0.0
 41
1.0
  0
SPLINE
  5
13D
330
1F
100
AcDbEntity
  8
Predefinito
100
AcDbSpline
210
0.0
220
0.0
230
1.0
 70
    12
 71
     2
 72
     6
 73
     3
 74
     0
 42
0.0000000001
 43
0.0000000001
 40
-2.021287676674774
 40
-2.021287676674774
 40
-2.021287676674774
 40
0.0
 40
0.0
 40
0.0
 10
780.4902926650134
 20
497.6490924727581
 30
0.0
 41
1.0
 10
780.0235773952285
 20
498.5517083542068
 30
0.0
 41
0.9919099329520779
 10
779.3436847227657
 20
499.308683688898
 30
0.0
 41
1.0
  0
SPLINE
  5
13E
330
1F
100
AcDbEntity
  8
Predefinito
100
AcDbSpline
210
0.0
220
0.0
230
1.0
 70
    12
 71
     2
 72
     6
 73
     3
 74
     0
 42
0.0000000001
 43
0.0000000001
 40
0.0
 40
0.0
 40
0.0
 40
3.840799940068631
 40
3.840799940068631
 40
3.840799940068631
 10
781.3994245884485
 20
493.9546413361811
 30
0.0
 41
1.0
 10
781.3928633487717
 20
495.9121113215003
 30
0.0
 41
0.9718258763355012
 10
780.4902926650134
 20
497.6490924727581
 30
0.0
 41
1.0
  0
SPLINE
  5
13F
330
1F
100
AcDbEntity
  8
Predefinito
100
AcDbSpline
210
0.0
220
0.0
230
1.0
 70
    24
 71
     2
 72
     6
 73
     3
 74
     0
 42
0.0000000001
 43
0.0000000001
 40
0.0
 40
0.0
 40
0.0
 40
3.297788558639922
 40
3.297788558639922
 40
3.297788558639922
 10
781.3994245884484
 20
490.6568527775412
 30
0.0
 10
781.3994245884485
 20
492.3057470568612
 30
0.0
 10
781.3994245884485
 20
493.9546413361811
 30
0.0
  0
SPLINE
  5
140
330
1F
100
AcDbEntity
  8
Predefinito
100
AcDbSpline
210
0.0
220
0.0
230
1.0
 70
    12
 71
     2
 72
     6
 73
     3
 74
     0
 42
0.0000000001
 43
0.0000000001
 40
0.0
 40
0.0
 40
0.0
 40
6.498956570804695
 40
6.498956570804695
 40
6.498956570804695
 10
792.9090204114251
 20
488.6655790218575
 30
0.0
 41
1.0
 10
796.1585254207943
 20
488.674300806512
 30
0.0
 41
0.9999963979300573
 10
799.4079998044688
 20
488.665578980761
 30
0.0
 41
1.0
  0
SPLINE
  5
141
330
1F
100
AcDbEntity
  8
Predefinito
100
AcDbSpline
210
0.0
220
0.0
230
1.0
 70
     8
 71
     2
 72
     6
 73
     3
 74
     0
 42
0.0000000001
 43
0.0000000001
 40
-5.019130395007608
 40
-5.019130395007608
 40
-5.019130395007608
 40
0.0
 40
0.0
 40
0.0
 10
787.8898287654717
 20
488.6655790218575
 30
0.0
 10
790.3994245884485
 20
488.665578980761
 30
0.0
 10
792.9090204114251
 20
488.6655790218575
 30
0.0
  0
SPLINE
  5
142
330
1F
100
AcDbEntity
  8
Predefinito
100
AcDbSpline
210
0.0
220
0.0
230
1.0
 70
    12
 71
     2
 72
     6
 73
     3
 74
     0
 42
0.0000000001
 43
0.0000000001
 40
0.0
 40
0.0
 40
0.0
 40
6.498956570804753
 40
6.498956570804753
 40
6.498956570804753
 10
781.3908493724281
 20
488.665578980761
 30
0.0
 41
1.0
 10
784.6403237561032
 20
488.6743008065117
 30
0.0
 41
0.9999963979300575
 10
787.8898287654717
 20
488.6655790218575
 30
0.0
 41
1.0
  0
SPLINE
  5
143
330
1F
100
AcDbEntity
  8
Predefinito
100
AcDbSpline
210
0.0
220
0.0
230
1.0
 70
    24
 71
     2
 72
     6
 73
     3
 74
     0
 42
0.0000000001
 43
0.0000000001
 40
0.0
 40
0.0
 40
0.0
 40
23.99036784821387
 40
23.99036784821387
 40
23.99036784821387
 10
780.9721597221612
 20
464.6788649817703
 30
0.0
 10
781.1815045472947
 20
476.6722219812657
 30
0.0
 10
781.3908493724281
 20
488.665578980761
 30
0.0
  0
SPLINE
  5
144
330
1F
100
AcDbEntity
  8
Predefinito
100
AcDbSpline
210
0.0
220
0.0
230
1.0
 70
    24
 71
     2
 72
     6
 73
     3
 74
     0
 42
0.0000000001
 43
0.0000000001
 40
0.0
 40
0.0
 40
0.0
 40
24.106342189577
 40
24.106342189577
 40
24.106342189577
 10
799.4079998044688
 20
488.665578980761
 30
0.0
 10
799.6183566452731
 20
476.6142436423111
 30
0.0
 10
799.8287134860775
 20
464.5629083038611
 30
0.0
  0
SPLINE
  5
145
330
1F
100
AcDbEntity
  8
Predefinito
100
AcDbSpline
210
0.0
220
0.0
230
1.0
 70
    12
 71
     2
 72
     6
 73
     3
 74
     0
 42
0.0000000001
 43
0.0000000001
 40
0.0
 40
0.0
 40
0.0
 40
0.7766715171363733
 40
0.7766715171363733
 40
0.7766715171363733
 10
798.9080759568906
 20
489.1568527775412
 30
0.0
 41
1.0
 10
799.3994245884475
 20
489.1568527775412
 30
0.0
 41
0.7132504491548312
 10
799.4079998044688
 20
488.665578980761
 30
0.0
 41
1.0
  0
SPLINE
  5
146
330
1F
100
AcDbEntity
  8
Predefinito
100
AcDbSpline
210
0.0
220
0.0
230
1.0
 70
    24
 71
     2
 72
     6
 73
     3
 74
     0
 42
0.0000000001
 43
0.0000000001
 40
-5.999086170938341
 40
-5.999086170938341
 40
-5.999086170938341
 40
0.0
 40
0.0
 40
0.0
 10
792.9089897859523
 20
489.1568527775412
 30
0.0
 10
795.9085328714214
 20
489.1568527775412
 30
0.0
 10
798.9080759568906
 20
489.1568527775412
 30
0.0
  0
SPLINE
  5
147
330
1F
100
AcDbEntity
  8
Predefinito
100
AcDbSpline
210
0.0
220
0.0
230
1.0
 70
    24
 71
     2
 72
     6
 73
     3
 74
     0
 42
0.0000000001
 43
0.0000000001
 40
-5.019130395007608
 40
-5.019130395007608
 40
-5.019130395007608
 40
0.0
 40
0.0
 40
0.0
 10
787.8898593909446
 20
489.1568527775412
 30
0.0
 10
790.3994245884485
 20
489.1568527775412
 30
0.0
 10
792.9089897859523
 20
489.1568527775412
 30
0.0
  0
SPLINE
  5
148
330
1F
100
AcDbEntity
  8
Predefinito
100
AcDbSpline
210
0.0
220
0.0
230
1.0
 70
    24
 71
     2
 72
     6
 73
     3
 74
     0
 42
0.0000000001
 43
0.0000000001
 40
-5.999086170938355
 40
-5.999086170938355
 40
-5.999086170938355
 40
0.0
 40
0.0
 40
0.0
 10
781.8907732200063
 20
489.1568527775412
 30
0.0
 10
784.8903163054754
 20
489.1568527775412
 30
0.0
 10
787.8898593909446
 20
489.1568527775412
 30
0.0
  0
SPLINE
  5
149
330
1F
100
AcDbEntity
  8
Predefinito
100
AcDbSpline
210
0.0
220
0.0
230
1.0
 70
    12
 71
     2
 72
     6
 73
     3
 74
     0
 42
0.0000000001
 43
0.0000000001
 40
0.0
 40
0.0
 40
0.0
 40
0.7766715171362868
 40
0.7766715171362868
 40
0.7766715171362868
 10
781.3908493724281
 20
488.665578980761
 30
0.0
 41
1.0
 10
781.3994245884497
 20
489.156852777541
 30
0.0
 41
0.7132504491552655
 10
781.8907732200063
 20
489.1568527775412
 30
0.0
 41
1.0
  0
SPLINE
  5
14A
330
1F
100
AcDbEntity
  8
Predefinito
100
AcDbSpline
210
0.0
220
0.0
230
1.0
 70
    24
 71
     2
 72
     6
 73
     3
 74
     0
 42
0.0000000001
 43
0.0000000001
 40
0.0
 40
0.0
 40
0.0
 40
0.3133248769756075
 40
0.3133248769756075
 40
0.3133248769756075
 10
729.9537626152313
 20
458.9660460156525
 30
0.0
 10
730.0473742183946
 20
459.091664435425
 30
0.0
 10
730.1409858215578
 20
459.2172828551975
 30
0.0
  0
SPLINE
  5
14B
330
1F
100
AcDbEntity
  8
Predefinito
100
AcDbSpline
210
0.0
220
0.0
230
1.0
 70
    24
 71
     2
 72
     6
 73
     3
 74
     0
 42
0.0000000001
 43
0.0000000001
 40
0.0
 40
0.0
 40
0.0
 40
53.51032511082531
 40
53.51032511082531
 40
53.51032511082531
 10
784.3297430486341
 20
457.6698818850257
 30
0.0
 10
757.6570577302957
 20
455.5706960248765
 30
0.0
 10
730.9843724119573
 20
453.4715101647273
 30
0.0
  0
SPLINE
  5
14C
330
1F
100
AcDbEntity
  8
Predefinito
100
AcDbSpline
210
0.0
220
0.0
230
1.0
 70
    24
 71
     2
 72
     6
 73
     3
 74
     0
 42
0.0000000001
 43
0.0000000001
 40
0.0
 40
0.0
 40
0.0
 40
53.25269871659498
 40
53.25269871659498
 40
53.25269871659498
 10
730.7316943920081
 20
459.4701771641771
 30
0.0
 10
757.2759636013288
 20
461.5592564573628
 30
0.0
 10
783.8202328106495
 20
463.6483357505485
 30
0.0
  0
SPLINE
  5
14D
330
1F
100
AcDbEntity
  8
Predefinito
100
AcDbSpline
210
0.0
220
0.0
230
1.0
 70
     8
 71
     2
 72
     6
 73
     3
 74
     0
 42
0.0000000001
 43
0.0000000001
 40
0.0
 40
0.0
 40
0.0
 40
0.2639459991009157
 40
0.2639459991009157
 40
0.2639459991009157
 10
730.579530850132
 20
453.645969418642
 30
0.0
 10
730.4850096296584
 20
453.7382290864095
 30
0.0
 10
730.3905676466005
 20
453.8304114298731
 30
0.0
  0
SPLINE
  5
14E
330
1F
100
AcDbEntity
  8
Predefinito
100
AcDbSpline
210
0.0
220
0.0
230
1.0
 70
    12
 71
     2
 72
     8
 73
     5
 74
     0
 42
0.0000000001
 43
0.0000000001
 40
0.0
 40
0.0
 40
0.0
 40
0.5990049791284343
 40
0.5990049791284343
 40
1.198009958256869
 40
1.198009958256869
 40
1.198009958256869
 10
731.4708642858496
 20
453.9599700163409
 30
0.0
 41
1.0
 10
731.4480667179345
 20
453.6220613072923
 30
0.0
 41
0.8351943412232388
 10
731.1286434775905
 20
453.5094965779954
 30
0.0
 41
1.0
 10
730.8092202372461
 20
453.3969318486984
 30
0.0
 41
0.8351943412232388
 10
730.579530850132
 20
453.645969418642
 30
0.0
 41
1.0
  0
SPLINE
  5
14F
330
1F
100
AcDbEntity
  8
Predefinito
100
AcDbSpline
210
0.0
220
0.0
230
1.0
 70
    12
 71
     2
 72
     8
 73
     5
 74
     0
 42
0.0000000001
 43
0.0000000001
 40
-8.327895622144933
 40
-8.327895622144933
 40
-8.327895622144933
 40
-4.204555264308328
 40
-4.204555264308328
 40
0.0
 40
0.0
 40
0.0
 10
730.1422593878506
 20
459.2189880418083
 30
0.0
 41
0.9359296083845571
 10
730.8643164793792
 20
460.1835883584833
 30
0.0
 41
0.7437184335382282
 10
731.4785615810663
 20
458.1029458610661
 30
0.0
 41
1.0
 10
732.1088669021792
 20
456.0302797348004
 30
0.0
 41
0.956196723820572
 10
731.4708642858496
 20
453.9599700163409
 30
0.0
 41
1.0
  0
SPLINE
  5
150
330
1F
100
AcDbEntity
  8
Predefinito
100
AcDbSpline
210
0.0
220
0.0
230
1.0
 70
    12
 71
     2
 72
     8
 73
     5
 74
     0
 42
0.0000000001
 43
0.0000000001
 40
0.0
 40
0.0
 40
0.0
 40
3.503796053590254
 40
3.503796053590254
 40
4.52705237609892
 40
4.52705237609892
 40
4.52705237609892
 10
729.6488405425042
 20
458.5082651930865
 30
0.0
 41
1.0
 10
729.1171716955633
 20
456.7830070943704
 30
0.0
 41
0.9561967238205774
 10
729.6424261298235
 20
455.0557853224822
 30
0.0
 41
1.0
 10
729.7697950876902
 20
454.5533126436458
 30
0.0
 41
0.9806207536043409
 10
730.0804554944638
 20
454.1383526985079
 30
0.0
 41
1.0
  0
SPLINE
  5
151
330
1F
100
AcDbEntity
  8
Predefinito
100
AcDbSpline
210
0.0
220
0.0
230
1.0
 70
    12
 71
     2
 72
     8
 73
     5
 74
     0
 42
0.0000000001
 43
0.0000000001
 40
0.0
 40
0.0
 40
0.0
 40
3.503796053590253
 40
3.503796053590253
 40
7.430786870577495
 40
7.430786870577495
 40
7.430786870577495
 10
730.8794094627989
 20
454.3399389263682
 30
0.0
 41
1.0
 10
731.4110783097402
 20
456.0651970250847
 30
0.0
 41
0.9561967238205704
 10
730.8858238754794
 20
457.7924187969726
 30
0.0
 41
1.0
 10
730.2705394153322
 20
459.8765819303317
 30
0.0
 41
0.7071067811865476
 10
729.6488405425042
 20
458.5082651930865
 30
0.0
 41
1.0
  0
SPLINE
  5
152
330
1F
100
AcDbEntity
  8
Predefinito
100
AcDbSpline
210
0.0
220
0.0
230
1.0
 70
    12
 71
     2
 72
     8
 73
     5
 74
     0
 42
0.0000000001
 43
0.0000000001
 40
0.0
 40
0.0
 40
0.0
 40
0.5179082673726366
 40
0.5179082673726366
 40
1.035816534745273
 40
1.035816534745273
 40
1.035816534745273
 10
730.1110372755696
 20
454.1043335755074
 30
0.0
 41
1.0
 10
730.2935663941502
 20
453.8720336224179
 30
0.0
 41
0.8246761141051031
 10
730.5760184975754
 20
453.9586416855869
 30
0.0
 41
1.0
 10
730.8584706010005
 20
454.045249748756
 30
0.0
 41
0.8246761141051031
 10
730.8794094627989
 20
454.3399389263682
 30
0.0
 41
1.0
  0
SPLINE
  5
153
330
1F
100
AcDbEntity
  8
Predefinito
100
AcDbSpline
210
0.0
220
0.0
230
1.0
 70
    12
 71
     2
 72
     6
 73
     3
 74
     0
 42
0.0000000001
 43
0.0000000001
 40
0.0
 40
0.0
 40
0.0
 40
5.372000362913235
 40
5.372000362913235
 40
5.372000362913235
 10
793.0525989749076
 20
470.6981185042612
 30
0.0
 41
1.0
 10
790.3994245884489
 20
471.4360842832579
 30
0.0
 41
0.9634267502282471
 10
787.7462502019894
 20
470.6981185042612
 30
0.0
 41
1.0
  0
SPLINE
  5
154
330
1F
100
AcDbEntity
  8
Predefinito
100
AcDbSpline
210
0.0
220
0.0
230
1.0
 70
    12
 71
     2
 72
     6
 73
     3
 74
     0
 42
0.0000000001
 43
0.0000000001
 40
0.0
 40
0.0
 40
0.0
 40
0.7812413675794458
 40
0.7812413675794458
 40
0.7812413675794458
 10
793.7960223190198
 20
470.4576906496753
 30
0.0
 41
1.0
 10
793.4289142775056
 20
470.5926208773041
 30
0.0
 41
0.9992220176014311
 10
793.0525989749076
 20
470.6981185042612
 30
0.0
 41
1.0
  0
SPLINE
  5
155
330
1F
100
AcDbEntity
  8
Predefinito
100
AcDbSpline
210
0.0
220
0.0
230
1.0
 70
    12
 71
     2
 72
     6
 73
     3
 74
     0
 42
0.0000000001
 43
0.0000000001
 40
0.0
 40
0.0
 40
0.0
 40
9.967478720039413
 40
9.967478720039413
 40
9.967478720039413
 10
800.0741338864067
 20
463.2585980181817
 30
0.0
 41
1.0
 10
798.9175885226654
 20
468.5868076296579
 30
0.0
 41
0.8759435786996501
 10
793.7960223190198
 20
470.4576906496753
 30
0.0
 41
1.0
  0
SPLINE
  5
156
330
1F
100
AcDbEntity
  8
Predefinito
100
AcDbSpline
210
0.0
220
0.0
230
1.0
 70
    24
 71
     2
 72
     6
 73
     3
 74
     0
 42
0.0000000001
 43
0.0000000001
 40
0.0
 40
0.0
 40
0.0
 40
0.1017452406404118
 40
0.1017452406404118
 40
0.1017452406404118
 10
800.0741338864067
 20
463.1568527775412
 30
0.0
 10
800.0741338864067
 20
463.2077253978614
 30
0.0
 10
800.0741338864067
 20
463.2585980181817
 30
0.0
  0
SPLINE
  5
157
330
1F
100
AcDbEntity
  8
Predefinito
100
AcDbSpline
210
0.0
220
0.0
230
1.0
 70
    24
 71
     2
 72
     6
 73
     3
 74
     0
 42
0.0000000001
 43
0.0000000001
 40
0.0
 40
0.0
 40
0.0
 40
2.683285980778862
 40
2.683285980778862
 40
2.683285980778862
 10
797.3908479056279
 20
463.1568527775412
 30
0.0
 10
798.7324908960172
 20
463.1568527775412
 30
0.0
 10
800.0741338864067
 20
463.1568527775412
 30
0.0
  0
SPLINE
  5
158
330
1F
100
AcDbEntity
  8
Predefinito
100
AcDbSpline
210
0.0
220
0.0
230
1.0
 70
    24
 71
     2
 72
     6
 73
     3
 74
     0
 42
0.0000000001
 43
0.0000000001
 40
0.0
 40
0.0
 40
0.0
 40
0.1017452406404118
 40
0.1017452406404118
 40
0.1017452406404118
 10
797.3908479056279
 20
463.2585980181816
 30
0.0
 10
797.3908479056279
 20
463.2077253978614
 30
0.0
 10
797.3908479056279
 20
463.1568527775412
 30
0.0
  0
SPLINE
  5
159
330
1F
100
AcDbEntity
  8
Predefinito
100
AcDbSpline
210
0.0
220
0.0
230
1.0
 70
    12
 71
     2
 72
     8
 73
     5
 74
     0
 42
0.0000000001
 43
0.0000000001
 40
0.0
 40
0.0
 40
0.0
 40
8.950471010064371
 40
8.950471010064371
 40
18.28718510425787
 40
18.28718510425787
 40
18.28718510425787
 10
783.5288443154946
 20
463.6254029786307
 30
0.0
 41
1.0
 10
785.2641489076435
 20
468.4585980181811
 30
0.0
 41
0.8178992871169775
 10
790.3994245884485
 20
468.4585980181814
 30
0.0
 41
1.0
 10
795.8289341858318
 20
468.4585980181808
 30
0.0
 41
0.8023936792114388
 10
797.3908479056279
 20
463.2585980181816
 30
0.0
 41
1.0
  0
SPLINE
  5
15A
330
1F
100
AcDbEntity
  8
Predefinito
100
AcDbSpline
210
0.0
220
0.0
230
1.0
 70
    12
 71
     2
 72
     6
 73
     3
 74
     0
 42
0.0000000001
 43
0.0000000001
 40
0.0
 40
0.0
 40
0.0
 40
9.815002429742728
 40
9.815002429742728
 40
9.815002429742728
 10
787.0025481725231
 20
470.4575888567093
 30
0.0
 41
1.0
 10
781.9741977522943
 20
468.6207567477072
 30
0.0
 41
0.8796325505596118
 10
780.7582047794082
 20
463.4073489145172
 30
0.0
 41
1.0
  0
VIEWPORT
  5
164
330
160
100
AcDbEntity
 67
     1
  8
0
100
AcDbViewport
 10
6.0
 20
4.5
 30
0.0
 40
12.696
 41
9.522
 68
     1
 69
     1
 12
6.0
 22
4.5
 13
0.0
 23
0.0
 14
0.5
 24
0.5
 15
0.5
 25
0.5
 16
0.0
 26
0.0
 36
1.0
 17
0.0
 27
0.0
 37
0.0
 42
50.0
 43
0.0
 44
0.0
 45
9.522
 50
0.0
 51
0.0
 72
   100
 90
   557152
  1

281
     0
 71
     1
 74
     0
110
0.0
120
0.0
130
0.0
111
1.0
121
0.0
131
0.0
112
0.0
122
1.0
132
0.0
 79
     0
146
0.0
170
     0
  0
ENDSEC
  0
SECTION
  2
OBJECTS
  0
DICTIONARY
  5
C
330
0
100
AcDbDictionary
281
     1
  3
ACAD_GROUP
350
D
  3
ACAD_LAYOUT
350
1A
  3
ACAD_MLEADERSTYLE
350
18A
  3
ACAD_MLINESTYLE
350
17
  3
ACAD_PLOTSETTINGS
350
19
  3
ACAD_PLOTSTYLENAME
350
E
  3
ACAD_SCALELIST
350
165
  3
ACAD_TABLESTYLE
350
189
  3
ACAD_VISUALSTYLE
350
2A
  3
AcDbVariableDictionary
350
187
  0
DICTIONARY
  5
D
102
{ACAD_REACTORS
330
C
102
}
330
C
100
AcDbDictionary
281
     1
  0
DICTIONARY
  5
1A
102
{ACAD_REACTORS
330
C
102
}
330
C
100
AcDbDictionary
281
     1
  3
Layout1
350
15C
  3
Layout2
350
161
  3
Model
350
22
  0
DICTIONARY
  5
18A
102
{ACAD_REACTORS
330
C
102
}
330
C
100
AcDbDictionary
281
     1
  0
DICTIONARY
  5
17
102
{ACAD_REACTORS
330
C
102
}
330
C
100
AcDbDictionary
281
     1
  3
Standard
350
18
  0
DICTIONARY
  5
19
102
{ACAD_REACTORS
330
C
102
}
330
C
100
AcDbDictionary
281
     1
  0
ACDBDICTIONARYWDFLT
  5
E
102
{ACAD_REACTORS
330
C
102
}
330
C
100
AcDbDictionary
281
     1
  3
Normal
350
F
100
AcDbDictionaryWithDefault
340
F
  0
DICTIONARY
  5
165
102
{ACAD_REACTORS
330
C
102
}
330
C
100
AcDbDictionary
281
     1
  3
A0
350
166
  3
A1
350
167
  3
A2
350
168
  3
A3
350
169
  3
A4
350
16A
  3
A5
350
16B
  3
A6
350
16C
  3
A7
350
16D
  3
A8
350
16E
  3
A9
350
16F
  3
B0
350
170
  3
B1
350
171
  3
B2
350
172
  3
B3
350
173
  3
B4
350
174
  3
B5
350
175
  3
B6
350
176
  3
B7
350
177
  3
B8
350
178
  3
B9
350
179
  3
C0
350
17A
  3
C1
350
17B
  3
C2
350
17C
  3
C3
350
17D
  3
C4
350
17E
  3
C5
350
17F
  3
C6
350
180
  3
C7
350
181
  3
C8
350
182
  3
C9
350
183
  3
D0
350
184
  3
D1
350
185
  3
D2
350
186
  0
DICTIONARY
  5
189
102
{ACAD_REACTORS
330
C
102
}
330
C
100
AcDbDictionary
281
     1
  0
DICTIONARY
  5
2A
102
{ACAD_REACTORS
330
C
102
}
330
C
100
AcDbDictionary
281
     1
  3
2dWireframe
350
2F
  3
3D Hidden
350
31
  3
3dWireframe
350
30
  3
Basic
350
32
  3
Brighten
350
36
  3
ColorChange
350
3A
  3
Conceptual
350
34
  3
Dim
350
35
  3
Facepattern
350
39
  3
Flat
350
2B
  3
FlatWithEdges
350
2C
  3
Gouraud
350
2D
  3
GouraudWithEdges
350
2E
  3
Linepattern
350
38
  3
Realistic
350
33
  3
Thicken
350
37
  0
DICTIONARY
  5
187
102
{ACAD_REACTORS
330
C
102
}
330
C
100
AcDbDictionary
281
     1
  3
CANNOSCALE
350
188
  0
LAYOUT
  5
15C
102
{ACAD_REACTORS
330
1A
102
}
330
1A
100
AcDbPlotSettings
  1

  2
none_device
  4
Letter_(8.50_x_11.00_Inches)
  6

 40
6.35
 41
6.35
 42
6.35000508
 43
6.35000508
 44
215.9
 45
279.4
 46
0.0
 47
0.0
 48
0.0
 49
0.0
140
0.0
141
0.0
142
1.0
143
1.0
 70
   688
 72
     0
 73
     1
 74
     5
  7

 75
    16
 76
     0
 77
     2
 78
   300
147
1.0
148
0.0
149
0.0
100
AcDbLayout
  1
Layout1
 70
     1
 71
     1
 10
0.0
 20
0.0
 11
0.0
 21
0.0
 12
0.0
 22
0.0
 32
0.0
 14
0.0
 24
0.0
 34
0.0
 15
0.0
 25
0.0
 35
0.0
146
0.0
 13
0.0
 23
0.0
 33
0.0
 16
1.0
 26
0.0
 36
0.0
 17
0.0
 27
1.0
 37
0.0
 76
     0
330
15B
331
15F
  0
LAYOUT
  5
161
102
{ACAD_REACTORS
330
1A
102
}
330
1A
100
AcDbPlotSettings
  1

  2
none_device
  4
Letter_(8.50_x_11.00_Inches)
  6

 40
6.35
 41
6.35
 42
6.35000508
 43
6.35000508
 44
215.9
 45
279.4
 46
0.0
 47
0.0
 48
0.0
 49
0.0
140
0.0
141
0.0
142
1.0
143
1.0
 70
   688
 72
     0
 73
     1
 74
     5
  7

 75
    16
 76
     0
 77
     2
 78
   300
147
1.0
148
0.0
149
0.0
100
AcDbLayout
  1
Layout2
 70
     1
 71
     2
 10
0.0
 20
0.0
 11
0.0
 21
0.0
 12
0.0
 22
0.0
 32
0.0
 14
0.0
 24
0.0
 34
0.0
 15
0.0
 25
0.0
 35
0.0
146
0.0
 13
0.0
 23
0.0
 33
0.0
 16
1.0
 26
0.0
 36
0.0
 17
0.0
 27
1.0
 37
0.0
 76
     0
330
160
331
164
  0
LAYOUT
  5
22
102
{ACAD_REACTORS
330
1A
102
}
330
1A
100
AcDbPlotSettings
  1

  2
none_device
  4

  6

 40
0.0
 41
0.0
 42
0.0
 43
0.0
 44
0.0
 45
0.0
 46
0.0
 47
0.0
 48
0.0
 49
0.0
140
0.0
141
0.0
142
1.0
143
1.0
 70
  1712
 72
     0
 73
     0
 74
     0
  7

 75
     0
 76
     0
 77
     2
 78
   300
147
1.0
148
0.0
149
0.0
100
AcDbLayout
  1
Model
 70
     1
 71
     0
 10
0.0
 20
0.0
 11
12.0
 21
9.0
 12
0.0
 22
0.0
 32
0.0
 14
665.0366778127664
 24
-0.0000000321888081
 34
0.0
 15
1270.469283069943
 25
615.4419767351412
 35
0.0
146
0.0
 13
0.0
 23
0.0
 33
0.0
 16
1.0
 26
0.0
 36
0.0
 17
0.0
 27
1.0
 37
0.0
 76
     0
330
1F
331
29
  0
MLINESTYLE
  5
18
102
{ACAD_REACTORS
330
17
102
}
330
17
100
AcDbMlineStyle
  2
Standard
 70
     0
  3

 62
   256
 51
90.0
 52
90.0
 71
     2
 49
0.5
 62
   256
  6
BYLAYER
 49
-0.5
 62
   256
  6
BYLAYER
  0
ACDBPLACEHOLDER
  5
F
102
{ACAD_REACTORS
330
E
102
}
330
E
  0
SCALE
  5
166
102
{ACAD_REACTORS
330
165
102
}
330
165
100
AcDbScale
 70
     0
300
1:1
140
1.0
141
1.0
290
     1
  0
SCALE
  5
167
102
{ACAD_REACTORS
330
165
102
}
330
165
100
AcDbScale
 70
     0
300
1:2
140
1.0
141
2.0
290
     0
  0
SCALE
  5
168
102
{ACAD_REACTORS
330
165
102
}
330
165
100
AcDbScale
 70
     0
300
1:4
140
1.0
141
4.0
290
     0
  0
SCALE
  5
169
102
{ACAD_REACTORS
330
165
102
}
330
165
100
AcDbScale
 70
     0
300
1:5
140
1.0
141
5.0
290
     0
  0
SCALE
  5
16A
102
{ACAD_REACTORS
330
165
102
}
330
165
100
AcDbScale
 70
     0
300
1:8
140
1.0
141
8.0
290
     0
  0
SCALE
  5
16B
102
{ACAD_REACTORS
330
165
102
}
330
165
100
AcDbScale
 70
     0
300
1:10
140
1.0
141
10.0
290
     0
  0
SCALE
  5
16C
102
{ACAD_REACTORS
330
165
102
}
330
165
100
AcDbScale
 70
     0
300
1:16
140
1.0
141
16.0
290
     0
  0
SCALE
  5
16D
102
{ACAD_REACTORS
330
165
102
}
330
165
100
AcDbScale
 70
     0
300
1:20
140
1.0
141
20.0
290
     0
  0
SCALE
  5
16E
102
{ACAD_REACTORS
330
165
102
}
330
165
100
AcDbScale
 70
     0
300
1:30
140
1.0
141
30.0
290
     0
  0
SCALE
  5
16F
102
{ACAD_REACTORS
330
165
102
}
330
165
100
AcDbScale
 70
     0
300
1:40
140
1.0
141
40.0
290
     0
  0
SCALE
  5
170
102
{ACAD_REACTORS
330
165
102
}
330
165
100
AcDbScale
 70
     0
300
1:50
140
1.0
141
50.0
290
     0
  0
SCALE
  5
171
102
{ACAD_REACTORS
330
165
102
}
330
165
100
AcDbScale
 70
     0
300
1:100
140
1.0
141
100.0
290
     0
  0
SCALE
  5
172
102
{ACAD_REACTORS
330
165
102
}
330
165
100
AcDbScale
 70
     0
300
2:1
140
2.0
141
1.0
290
     0
  0
SCALE
  5
173
102
{ACAD_REACTORS
330
165
102
}
330
165
100
AcDbScale
 70
     0
300
4:1
140
4.0
141
1.0
290
     0
  0
SCALE
  5
174
102
{ACAD_REACTORS
330
165
102
}
330
165
100
AcDbScale
 70
     0
300
8:1
140
8.0
141
1.0
290
     0
  0
SCALE
  5
175
102
{ACAD_REACTORS
330
165
102
}
330
165
100
AcDbScale
 70
     0
300
10:1
140
10.0
141
1.0
290
     0
  0
SCALE
  5
176
102
{ACAD_REACTORS
330
165
102
}
330
165
100
AcDbScale
 70
     0
300
100:1
140
100.0
141
1.0
290
     0
  0
SCALE
  5
177
102
{ACAD_REACTORS
330
165
102
}
330
165
100
AcDbScale
 70
     0
300
1/128" = 1'-0"
140
0.0078125
141
12.0
290
     0
  0
SCALE
  5
178
102
{ACAD_REACTORS
330
165
102
}
330
165
100
AcDbScale
 70
     0
300
1/64" = 1'-0"
140
0.015625
141
12.0
290
     0
  0
SCALE
  5
179
102
{ACAD_REACTORS
330
165
102
}
330
165
100
AcDbScale
 70
     0
300
1/32" = 1'-0"
140
0.03125
141
12.0
290
     0
  0
SCALE
  5
17A
102
{ACAD_REACTORS
330
165
102
}
330
165
100
AcDbScale
 70
     0
300
1/16" = 1'-0"
140
0.0625
141
12.0
290
     0
  0
SCALE
  5
17B
102
{ACAD_REACTORS
330
165
102
}
330
165
100
AcDbScale
 70
     0
300
3/32" = 1'-0"
140
0.09375
141
12.0
290
     0
  0
SCALE
  5
17C
102
{ACAD_REACTORS
330
165
102
}
330
165
100
AcDbScale
 70
     0
300
1/8" = 1'-0"
140
0.125
141
12.0
290
     0
  0
SCALE
  5
17D
102
{ACAD_REACTORS
330
165
102
}
330
165
100
AcDbScale
 70
     0
300
3/16" = 1'-0"
140
0.1875
141
12.0
290
     0
  0
SCALE
  5
17E
102
{ACAD_REACTORS
330
165
102
}
330
165
100
AcDbScale
 70
     0
300
1/4" = 1'-0"
140
0.25
141
12.0
290
     0
  0
SCALE
  5
17F
102
{ACAD_REACTORS
330
165
102
}
330
165
100
AcDbScale
 70
     0
300
3/8" = 1'-0"
140
0.375
141
12.0
290
     0
  0
SCALE
  5
180
102
{ACAD_REACTORS
330
165
102
}
330
165
100
AcDbScale
 70
     0
300
1/2" = 1'-0"
140
0.5
141
12.0
290
     0
  0
SCALE
  5
181
102
{ACAD_REACTORS
330
165
102
}
330
165
100
AcDbScale
 70
     0
300
3/4" = 1'-0"
140
0.75
141
12.0
290
     0
  0
SCALE
  5
182
102
{ACAD_REACTORS
330
165
102
}
330
165
100
AcDbScale
 70
     0
300
1" = 1'-0"
140
1.0
141
12.0
290
     0
  0
SCALE
  5
183
102
{ACAD_REACTORS
330
165
102
}
330
165
100
AcDbScale
 70
     0
300
1-1/2" = 1'-0"
140
1.5
141
12.0
290
     0
  0
SCALE
  5
184
102
{ACAD_REACTORS
330
165
102
}
330
165
100
AcDbScale
 70
     0
300
3" = 1'-0"
140
3.0
141
12.0
290
     0
  0
SCALE
  5
185
102
{ACAD_REACTORS
330
165
102
}
330
165
100
AcDbScale
 70
     0
300
6" = 1'-0"
140
6.0
141
12.0
290
     0
  0
SCALE
  5
186
102
{ACAD_REACTORS
330
165
102
}
330
165
100
AcDbScale
 70
     0
300
1'-0" = 1'-0"
140
12.0
141
12.0
290
     0
  0
VISUALSTYLE
  5
2F
102
{ACAD_REACTORS
330
2A
102
}
330
2A
100
AcDbVisualStyle
  2
2dWireframe
 70
     4
 71
     0
 72
     2
 73
     0
 90
        0
 40
-0.6
 41
-30.0
 62
     5
 63
     7
421
 16777215
 74
     1
 91
        4
 64
     7
 65
   257
 75
     1
175
     1
 42
1.0
 92
        0
 66
   257
 43
1.0
 76
     1
 77
     6
 78
     2
 67
     7
 79
     5
170
     0
171
     0
290
     0
174
     0
 93
        1
 44
0.0
173
     0
291
     0
 45
0.0
1001
ACAD
1000
AcDbSavedByObjectVersion
1070
     0
  0
VISUALSTYLE
  5
31
102
{ACAD_REACTORS
330
2A
102
}
330
2A
100
AcDbVisualStyle
  2
3D Hidden
 70
     6
 71
     1
 72
     2
 73
     2
 90
        0
 40
-0.6
 41
-30.0
 62
     5
 63
     7
421
 16777215
 74
     2
 91
        2
 64
     7
 65
   257
 75
     2
175
     1
 42
40.0
 92
        0
 66
   257
 43
1.0
 76
     1
 77
     6
 78
     2
 67
     7
 79
     3
170
     0
171
     0
290
     0
174
     0
 93
        1
 44
0.0
173
     0
291
     0
 45
0.0
1001
ACAD
1000
AcDbSavedByObjectVersion
1070
     0
  0
VISUALSTYLE
  5
30
102
{ACAD_REACTORS
330
2A
102
}
330
2A
100
AcDbVisualStyle
  2
3dWireframe
 70
     5
 71
     0
 72
     2
 73
     0
 90
        0
 40
-0.6
 41
-30.0
 62
     5
 63
     7
421
 16777215
 74
     1
 91
        4
 64
     7
 65
   257
 75
     1
175
     1
 42
1.0
 92
        0
 66
   257
 43
1.0
 76
     1
 77
     6
 78
     2
 67
     7
 79
     5
170
     0
171
     0
290
     0
174
     0
 93
        1
 44
0.0
173
     0
291
     0
 45
0.0
1001
ACAD
1000
AcDbSavedByObjectVersion
1070
     0
  0
VISUALSTYLE
  5
32
102
{ACAD_REACTORS
330
2A
102
}
330
2A
100
AcDbVisualStyle
  2
Basic
 70
     7
 71
     1
 72
     0
 73
     1
 90
        0
 40
-0.6
 41
-30.0
 62
     5
 63
     7
421
 16777215
 74
     0
 91
        4
 64
     7
 65
   257
 75
     1
175
     1
 42
1.0
 92
        8
 66
     7
 43
1.0
 76
     1
 77
     6
 78
     2
 67
     7
 79
     5
170
     0
171
     0
290
     0
174
     0
 93
        1
 44
0.0
173
     0
291
     1
 45
0.0
1001
ACAD
1000
AcDbSavedByObjectVersion
1070
     0
  0
VISUALSTYLE
  5
36
102
{ACAD_REACTORS
330
2A
102
}
330
2A
100
AcDbVisualStyle
  2
Brighten
 70
    12
 71
     2
 72
     2
 73
     0
 90
        0
 40
-0.6
 41
-30.0
 62
     5
 63
     7
421
 16777215
 74
     1
 91
        4
 64
     7
 65
   257
 75
     1
175
     1
 42
1.0
 92
        8
 66
     7
 43
1.0
 76
     1
 77
     6
 78
     2
 67
     7
 79
     5
170
     0
171
     0
290
     0
174
     0
 93
        1
 44
50.0
173
     0
291
     1
 45
0.0
1001
ACAD
1000
AcDbSavedByObjectVersion
1070
     0
  0
VISUALSTYLE
  5
3A
102
{ACAD_REACTORS
330
2A
102
}
330
2A
100
AcDbVisualStyle
  2
ColorChange
 70
    16
 71
     2
 72
     2
 73
     3
 90
        0
 40
-0.6
 41
-30.0
 62
     5
 63
     8
421
  8421504
 74
     1
 91
        4
 64
     7
 65
   257
 75
     1
175
     1
 42
1.0
 92
        8
 66
     8
424
  8421504
 43
1.0
 76
     1
 77
     6
 78
     2
 67
     7
 79
     5
170
     0
171
     0
290
     0
174
     0
 93
        1
 44
0.0
173
     0
291
     1
 45
0.0
1001
ACAD
1000
AcDbSavedByObjectVersion
1070
     0
  0
VISUALSTYLE
  5
34
102
{ACAD_REACTORS
330
2A
102
}
330
2A
100
AcDbVisualStyle
  2
Conceptual
 70
     9
 71
     3
 72
     2
 73
     0
 90
        0
 40
-0.6
 41
-30.0
 62
     5
 63
     7
421
 16777215
 74
     2
 91
        2
 64
     7
 65
   257
 75
     1
175
     1
 42
40.0
 92
        8
 66
     7
 43
1.0
 76
     1
 77
     6
 78
     2
 67
     7
 79
     3
170
     0
171
     0
290
     0
174
     0
 93
        1
 44
0.0
173
     0
291
     0
 45
0.0
1001
ACAD
1000
AcDbSavedByObjectVersion
1070
     0
  0
VISUALSTYLE
  5
35
102
{ACAD_REACTORS
330
2A
102
}
330
2A
100
AcDbVisualStyle
  2
Dim
 70
    11
 71
     2
 72
     2
 73
     0
 90
        0
 40
-0.6
 41
-30.0
 62
     5
 63
     7
421
 16777215
 74
     1
 91
        4
 64
     7
 65
   257
 75
     1
175
     1
 42
1.0
 92
        8
 66
     7
 43
1.0
 76
     1
 77
     6
 78
     2
 67
     7
 79
     5
170
     0
171
     0
290
     0
174
     0
 93
        1
 44
-50.0
173
     0
291
     1
 45
0.0
1001
ACAD
1000
AcDbSavedByObjectVersion
1070
     0
  0
VISUALSTYLE
  5
39
102
{ACAD_REACTORS
330
2A
102
}
330
2A
100
AcDbVisualStyle
  2
Facepattern
 70
    15
 71
     2
 72
     2
 73
     0
 90
        0
 40
-0.6
 41
-30.0
 62
     5
 63
     7
421
 16777215
 74
     1
 91
        4
 64
     7
 65
   257
 75
     1
175
     1
 42
1.0
 92
        8
 66
     7
 43
1.0
 76
     1
 77
     6
 78
     2
 67
     7
 79
     5
170
     0
171
     0
290
     0
174
     0
 93
        1
 44
0.0
173
     0
291
     1
 45
0.0
1001
ACAD
1000
AcDbSavedByObjectVersion
1070
     0
  0
VISUALSTYLE
  5
2B
102
{ACAD_REACTORS
330
2A
102
}
330
2A
100
AcDbVisualStyle
  2
Flat
 70
     0
 71
     2
 72
     1
 73
     1
 90
        2
 40
-0.6
 41
30.0
 62
     5
 63
     7
421
 16777215
 74
     0
 91
        4
 64
     7
 65
   257
 75
     1
175
     1
 42
1.0
 92
        8
 66
     7
 43
1.0
 76
     1
 77
     6
 78
     2
 67
     7
 79
     5
170
     0
171
     0
290
     0
174
     0
 93
       13
 44
0.0
173
     0
291
     1
 45
0.0
1001
ACAD
1000
AcDbSavedByObjectVersion
1070
     0
  0
VISUALSTYLE
  5
2C
102
{ACAD_REACTORS
330
2A
102
}
330
2A
100
AcDbVisualStyle
  2
FlatWithEdges
 70
     1
 71
     2
 72
     1
 73
     1
 90
        2
 40
-0.6
 41
30.0
 62
     5
 63
     7
421
 16777215
 74
     1
 91
        4
 64
     7
 65
   257
 75
     1
175
     1
 42
1.0
 92
        0
 66
   257
 43
1.0
 76
     1
 77
     6
 78
     2
 67
     7
 79
     5
170
     0
171
     0
290
     0
174
     0
 93
       13
 44
0.0
173
     0
291
     1
 45
0.0
1001
ACAD
1000
AcDbSavedByObjectVersion
1070
     0
  0
VISUALSTYLE
  5
2D
102
{ACAD_REACTORS
330
2A
102
}
330
2A
100
AcDbVisualStyle
  2
Gouraud
 70
     2
 71
     2
 72
     2
 73
     1
 90
        2
 40
-0.6
 41
30.0
 62
     5
 63
     7
421
 16777215
 74
     0
 91
        4
 64
     7
 65
   257
 75
     1
175
     1
 42
1.0
 92
        0
 66
     7
 43
1.0
 76
     1
 77
     6
 78
     2
 67
     7
 79
     5
170
     0
171
     0
290
     0
174
     0
 93
       13
 44
0.0
173
     0
291
     1
 45
0.0
1001
ACAD
1000
AcDbSavedByObjectVersion
1070
     0
  0
VISUALSTYLE
  5
2E
102
{ACAD_REACTORS
330
2A
102
}
330
2A
100
AcDbVisualStyle
  2
GouraudWithEdges
 70
     3
 71
     2
 72
     2
 73
     1
 90
        2
 40
-0.6
 41
30.0
 62
     5
 63
     7
421
 16777215
 74
     1
 91
        4
 64
     7
 65
   257
 75
     1
175
     1
 42
1.0
 92
        0
 66
   257
 43
1.0
 76
     1
 77
     6
 78
     2
 67
     7
 79
     5
170
     0
171
     0
290
     0
174
     0
 93
       13
 44
0.0
173
     0
291
     1
 45
0.0
1001
ACAD
1000
AcDbSavedByObjectVersion
1070
     0
  0
VISUALSTYLE
  5
38
102
{ACAD_REACTORS
330
2A
102
}
330
2A
100
AcDbVisualStyle
  2
Linepattern
 70
    14
 71
     2
 72
     2
 73
     0
 90
        0
 40
-0.6
 41
-30.0
 62
     5
 63
     7
421
 16777215
 74
     1
 91
        4
 64
     7
 65
   257
 75
     7
175
     7
 42
1.0
 92
        8
 66
     7
 43
1.0
 76
     1
 77
     6
 78
     2
 67
     7
 79
     5
170
     0
171
     0
290
     0
174
     0
 93
        1
 44
0.0
173
     0
291
     1
 45
0.0
1001
ACAD
1000
AcDbSavedByObjectVersion
1070
     0
  0
VISUALSTYLE
  5
33
102
{ACAD_REACTORS
330
2A
102
}
330
2A
100
AcDbVisualStyle
  2
Realistic
 70
     8
 71
     2
 72
     2
 73
     0
 90
        0
 40
-0.6
 41
-30.0
 62
     5
 63
     7
421
 16777215
 74
     1
 91
        0
 64
     7
 65
   257
 75
     1
175
     1
 42
1.0
 92
        8
 66
     8
424
  7895160
 43
1.0
 76
     1
 77
     6
 78
     2
 67
     7
 79
     5
170
     0
171
     0
290
     0
174
     0
 93
       13
 44
0.0
173
     0
291
     0
 45
0.0
1001
ACAD
1000
AcDbSavedByObjectVersion
1070
     0
  0
VISUALSTYLE
  5
37
102
{ACAD_REACTORS
330
2A
102
}
330
2A
100
AcDbVisualStyle
  2
Thicken
 70
    13
 71
     2
 72
     2
 73
     0
 90
        0
 40
-0.6
 41
-30.0
 62
     5
 63
     7
421
 16777215
 74
     1
 91
        4
 64
     7
 65
   257
 75
     1
175
     1
 42
1.0
 92
       12
 66
     7
 43
1.0
 76
     1
 77
     6
 78
     2
 67
     7
 79
     5
170
     0
171
     0
290
     0
174
     0
 93
        1
 44
0.0
173
     0
291
     1
 45
0.0
1001
ACAD
1000
AcDbSavedByObjectVersion
1070
     0
  0
DICTIONARYVAR
  5
188
102
{ACAD_REACTORS
330
187
102
}
330
187
100
DictionaryVariables
280
     0
  1
1:1
  0
ENDSEC
  0
EOF
