  0
SECTION
  2
HEADER
  9
$ACADVER
  1
AC1024
  9
$ACADMAINTVER
 70
   109
  9
$DWGCODEPAGE
  3
ANSI_1252
  9
$LASTSAVEDBY
  1
imac
  9
$INSBASE
 10
0.0
 20
0.0
 30
0.0
  9
$EXTMIN
 10
214.1460963295399
 20
-2327.609063515772
 30
0.0
  9
$EXTMAX
 10
336.3415489098863
 20
-2098.993479340718
 30
0.0
  9
$LIMMIN
 10
0.0
 20
0.0
  9
$LIMMAX
 10
420.0
 20
297.0
  9
$ORTHOMODE
 70
     1
  9
$REGENMODE
 70
     1
  9
$FILLMODE
 70
     1
  9
$QTEXTMODE
 70
     0
  9
$MIRRTEXT
 70
     0
  9
$LTSCALE
 40
1.0
  9
$ATTMODE
 70
     1
  9
$TEXTSIZE
 40
2.0
  9
$TRACEWID
 40
1.0
  9
$TEXTSTYLE
  7
Standard
  9
$CLAYER
  8
quote
  9
$CELTYPE
  6
ByLayer
  9
$CECOLOR
 62
   256
  9
$CELTSCALE
 40
1.0
  9
$DISPSILH
 70
     0
  9
$DIMSCALE
 40
1.0
  9
$DIMASZ
 40
1.5
  9
$DIMEXO
 40
1.0
  9
$DIMDLI
 40
3.75
  9
$DIMRND
 40
0.0
  9
$DIMDLE
 40
0.0
  9
$DIMEXE
 40
1.25
  9
$DIMTP
 40
0.0
  9
$DIMTM
 40
0.0
  9
$DIMTXT
 40
2.5
  9
$DIMCEN
 40
2.5
  9
$DIMTSZ
 40
0.0
  9
$DIMTOL
 70
     0
  9
$DIMLIM
 70
     0
  9
$DIMTIH
 70
     0
  9
$DIMTOH
 70
     0
  9
$DIMSE1
 70
     0
  9
$DIMSE2
 70
     0
  9
$DIMTAD
 70
     0
  9
$DIMZIN
 70
     8
  9
$DIMBLK
  1

  9
$DIMASO
 70
     1
  9
$DIMSHO
 70
     1
  9
$DIMPOST
  1

  9
$DIMAPOST
  1

  9
$DIMALT
 70
     0
  9
$DIMALTD
 70
     3
  9
$DIMALTF
 40
0.03937007874016
  9
$DIMLFAC
 40
1.0
  9
$DIMTOFL
 70
     1
  9
$DIMTVP
 40
0.0
  9
$DIMTIX
 70
     0
  9
$DIMSOXD
 70
     0
  9
$DIMSAH
 70
     0
  9
$DIMBLK1
  1

  9
$DIMBLK2
  1

  9
$DIMSTYLE
  2
ISO-25
  9
$DIMCLRD
 70
   256
  9
$DIMCLRE
 70
     0
  9
$DIMCLRT
 70
   256
  9
$DIMTFAC
 40
1.0
  9
$DIMGAP
 40
1.0
  9
$DIMJUST
 70
     0
  9
$DIMSD1
 70
     0
  9
$DIMSD2
 70
     0
  9
$DIMTOLJ
 70
     0
  9
$DIMTZIN
 70
     8
  9
$DIMALTZ
 70
     0
  9
$DIMALTTZ
 70
     0
  9
$DIMUPT
 70
     0
  9
$DIMDEC
 70
     2
  9
$DIMTDEC
 70
     2
  9
$DIMALTU
 70
     2
  9
$DIMALTTD
 70
     3
  9
$DIMTXSTY
  7
Standard
  9
$DIMAUNIT
 70
     0
  9
$DIMADEC
 70
     0
  9
$DIMALTRND
 40
0.0
  9
$DIMAZIN
 70
     0
  9
$DIMDSEP
 70
    44
  9
$DIMATFIT
 70
     3
  9
$DIMFRAC
 70
     0
  9
$DIMLDRBLK
  1

  9
$DIMLUNIT
 70
     2
  9
$DIMLWD
 70
    -1
  9
$DIMLWE
 70
    -2
  9
$DIMTMOVE
 70
     1
  9
$DIMFXL
 40
1.0
  9
$DIMFXLON
 70
     0
  9
$DIMJOGANG
 40
0.7853981633974483
  9
$DIMTFILL
 70
     0
  9
$DIMTFILLCLR
 70
     0
  9
$DIMARCSYM
 70
     0
  9
$DIMLTYPE
  6

  9
$DIMLTEX1
  6

  9
$DIMLTEX2
  6

  9
$DIMTXTDIRECTION
 70
     0
  9
$LUNITS
 70
     2
  9
$LUPREC
 70
     4
  9
$SKETCHINC
 40
1.0
  9
$FILLETRAD
 40
0.0
  9
$AUNITS
 70
     0
  9
$AUPREC
 70
     0
  9
$MENU
  1
.
  9
$ELEVATION
 40
0.0
  9
$PELEVATION
 40
0.0
  9
$THICKNESS
 40
0.0
  9
$LIMCHECK
 70
     0
  9
$CHAMFERA
 40
0.0
  9
$CHAMFERB
 40
0.0
  9
$CHAMFERC
 40
0.0
  9
$CHAMFERD
 40
0.0
  9
$SKPOLY
 70
     0
  9
$TDCREATE
 40
2454848.696614120
  9
$TDUCREATE
 40
2454848.654947454
  9
$TDUPDATE
 40
2457539.793326180
  9
$TDUUPDATE
 40
2457539.709992847
  9
$TDINDWG
 40
0.6015252315
  9
$TDUSRTIMER
 40
0.6015096759
  9
$USRTIMER
 70
     1
  9
$ANGBASE
 50
0.0
  9
$ANGDIR
 70
     0
  9
$PDMODE
 70
     0
  9
$PDSIZE
 40
0.0
  9
$PLINEWID
 40
0.0
  9
$SPLFRAME
 70
     0
  9
$SPLINETYPE
 70
     6
  9
$SPLINESEGS
 70
     8
  9
$HANDSEED
  5
317
  9
$SURFTAB1
 70
     6
  9
$SURFTAB2
 70
     6
  9
$SURFTYPE
 70
     6
  9
$SURFU
 70
     6
  9
$SURFV
 70
     6
  9
$UCSBASE
  2

  9
$UCSNAME
  2

  9
$UCSORG
 10
0.0
 20
0.0
 30
0.0
  9
$UCSXDIR
 10
1.0
 20
0.0
 30
0.0
  9
$UCSYDIR
 10
0.0
 20
1.0
 30
0.0
  9
$UCSORTHOREF
  2

  9
$UCSORTHOVIEW
 70
     0
  9
$UCSORGTOP
 10
0.0
 20
0.0
 30
0.0
  9
$UCSORGBOTTOM
 10
0.0
 20
0.0
 30
0.0
  9
$UCSORGLEFT
 10
0.0
 20
0.0
 30
0.0
  9
$UCSORGRIGHT
 10
0.0
 20
0.0
 30
0.0
  9
$UCSORGFRONT
 10
0.0
 20
0.0
 30
0.0
  9
$UCSORGBACK
 10
0.0
 20
0.0
 30
0.0
  9
$PUCSBASE
  2

  9
$PUCSNAME
  2

  9
$PUCSORG
 10
0.0
 20
0.0
 30
0.0
  9
$PUCSXDIR
 10
1.0
 20
0.0
 30
0.0
  9
$PUCSYDIR
 10
0.0
 20
1.0
 30
0.0
  9
$PUCSORTHOREF
  2

  9
$PUCSORTHOVIEW
 70
     0
  9
$PUCSORGTOP
 10
0.0
 20
0.0
 30
0.0
  9
$PUCSORGBOTTOM
 10
0.0
 20
0.0
 30
0.0
  9
$PUCSORGLEFT
 10
0.0
 20
0.0
 30
0.0
  9
$PUCSORGRIGHT
 10
0.0
 20
0.0
 30
0.0
  9
$PUCSORGFRONT
 10
0.0
 20
0.0
 30
0.0
  9
$PUCSORGBACK
 10
0.0
 20
0.0
 30
0.0
  9
$USERI1
 70
     0
  9
$USERI2
 70
     0
  9
$USERI3
 70
     0
  9
$USERI4
 70
     0
  9
$USERI5
 70
     0
  9
$USERR1
 40
0.0
  9
$USERR2
 40
0.0
  9
$USERR3
 40
0.0
  9
$USERR4
 40
0.0
  9
$USERR5
 40
0.0
  9
$WORLDVIEW
 70
     1
  9
$SHADEDGE
 70
     3
  9
$SHADEDIF
 70
    70
  9
$TILEMODE
 70
     1
  9
$MAXACTVP
 70
    64
  9
$PINSBASE
 10
0.0
 20
0.0
 30
0.0
  9
$PLIMCHECK
 70
     0
  9
$PEXTMIN
 10
0.0
 20
0.0
 30
0.0
  9
$PEXTMAX
 10
0.0
 20
0.0
 30
0.0
  9
$PLIMMIN
 10
0.0
 20
0.0
  9
$PLIMMAX
 10
12.0
 20
9.0
  9
$UNITMODE
 70
     0
  9
$VISRETAIN
 70
     1
  9
$PLINEGEN
 70
     0
  9
$PSLTSCALE
 70
     1
  9
$TREEDEPTH
 70
  3020
  9
$CMLSTYLE
  2
Standard
  9
$CMLJUST
 70
     0
  9
$CMLSCALE
 40
20.0
  9
$PROXYGRAPHICS
 70
     1
  9
$MEASUREMENT
 70
     1
  9
$CELWEIGHT
370
    -1
  9
$ENDCAPS
280
     0
  9
$JOINSTYLE
280
     0
  9
$LWDISPLAY
290
     0
  9
$INSUNITS
 70
     4
  9
$HYPERLINKBASE
  1

  9
$STYLESHEET
  1

  9
$XEDIT
290
     1
  9
$CEPSNTYPE
380
     0
  9
$PSTYLEMODE
290
     1
  9
$FINGERPRINTGUID
  2
{1289FF01-2BCE-4EF1-B7EA-5D07D475F7B3}
  9
$VERSIONGUID
  2
{83024D5F-5965-054F-91E7-1862A5063295}
  9
$EXTNAMES
290
     1
  9
$PSVPSCALE
 40
0.0
  9
$OLESTARTUP
290
     0
  9
$SORTENTS
280
   127
  9
$INDEXCTL
280
     0
  9
$HIDETEXT
280
     1
  9
$XCLIPFRAME
280
     0
  9
$HALOGAP
280
     0
  9
$OBSCOLOR
 70
   257
  9
$OBSLTYPE
280
     0
  9
$INTERSECTIONDISPLAY
280
     0
  9
$INTERSECTIONCOLOR
 70
   257
  9
$DIMASSOC
280
     2
  9
$PROJECTNAME
  1

  9
$CAMERADISPLAY
290
     0
  9
$LENSLENGTH
 40
50.0
  9
$CAMERAHEIGHT
 40
0.0
  9
$STEPSPERSEC
 40
2.0
  9
$STEPSIZE
 40
6.0
  9
$3DDWFPREC
 40
2.0
  9
$PSOLWIDTH
 40
0.25
  9
$PSOLHEIGHT
 40
4.0
  9
$LOFTANG1
 40
1.570796326794896
  9
$LOFTANG2
 40
1.570796326794896
  9
$LOFTMAG1
 40
0.0
  9
$LOFTMAG2
 40
0.0
  9
$LOFTPARAM
 70
     7
  9
$LOFTNORMALS
280
     1
  9
$LATITUDE
 40
37.795
  9
$LONGITUDE
 40
-122.394
  9
$NORTHDIRECTION
 40
0.0
  9
$TIMEZONE
 70
 -8000
  9
$LIGHTGLYPHDISPLAY
280
     1
  9
$TILEMODELIGHTSYNCH
280
     1
  9
$CMATERIAL
347
279
  9
$SOLIDHIST
280
     0
  9
$SHOWHIST
280
     1
  9
$DWFFRAME
280
     2
  9
$DGNFRAME
280
     0
  9
$REALWORLDSCALE
290
     1
  9
$INTERFERECOLOR
 62
     1
  9
$INTERFEREOBJVS
345
29B
  9
$INTERFEREVPVS
346
298
  9
$CSHADOW
280
     0
  9
$SHADOWPLANELOCATION
 40
0.0
  0
ENDSEC
  0
SECTION
  2
CLASSES
  0
CLASS
  1
ACDBDICTIONARYWDFLT
  2
AcDbDictionaryWithDefault
  3
ObjectDBX Classes
 90
        0
 91
        1
280
     0
281
     0
  0
CLASS
  1
DICTIONARYVAR
  2
AcDbDictionaryVar
  3
ObjectDBX Classes
 90
        0
 91
        9
280
     0
281
     0
  0
CLASS
  1
TABLESTYLE
  2
AcDbTableStyle
  3
ObjectDBX Classes
 90
     4095
 91
        1
280
     0
281
     0
  0
CLASS
  1
SORTENTSTABLE
  2
AcDbSortentsTable
  3
ObjectDBX Classes
 90
        0
 91
        1
280
     0
281
     0
  0
CLASS
  1
DIMASSOC
  2
AcDbDimAssoc
  3
"AcDbDimAssoc|Product Desc:     AcDim ARX App For Dimension|Company:          Autodesk, Inc.|WEB Address:      www.autodesk.com"
 90
        0
 91
        0
280
     0
281
     0
  0
CLASS
  1
MATERIAL
  2
AcDbMaterial
  3
ObjectDBX Classes
 90
     1153
 91
        3
280
     0
281
     0
  0
CLASS
  1
VISUALSTYLE
  2
AcDbVisualStyle
  3
ObjectDBX Classes
 90
     4095
 91
       24
280
     0
281
     0
  0
CLASS
  1
SCALE
  2
AcDbScale
  3
ObjectDBX Classes
 90
     1153
 91
       17
280
     0
281
     0
  0
CLASS
  1
MLEADERSTYLE
  2
AcDbMLeaderStyle
  3
ACDB_MLEADERSTYLE_CLASS
 90
     4095
 91
        1
280
     0
281
     0
  0
CLASS
  1
ACDBSECTIONVIEWSTYLE
  2
AcDbSectionViewStyle
  3
ObjectDBX Classes
 90
     1025
 91
        1
280
     0
281
     0
  0
CLASS
  1
ACDBDETAILVIEWSTYLE
  2
AcDbDetailViewStyle
  3
ObjectDBX Classes
 90
     1025
 91
        1
280
     0
281
     0
  0
CLASS
  1
CELLSTYLEMAP
  2
AcDbCellStyleMap
  3
ObjectDBX Classes
 90
     1152
 91
        1
280
     0
281
     0
  0
ENDSEC
  0
SECTION
  2
TABLES
  0
TABLE
  2
VPORT
  5
20
330
0
100
AcDbSymbolTable
 70
     1
  0
VPORT
  5
21
330
20
100
AcDbSymbolTableRecord
100
AcDbViewportTableRecord
  2
*Active
 70
     0
 10
0.0
 20
0.0
 11
1.0
 21
1.0
 12
291.4354365019053
 22
-2167.978634214738
 13
0.0
 23
0.0
 14
10.0
 24
10.0
 15
10.0
 25
10.0
 16
0.0
 26
0.0
 36
1.0
 17
0.0
 27
0.0
 37
0.0
 40
148.2322494929926
 41
1.655310621242485
 42
50.0
 43
0.0
 44
0.0
 50
0.0
 51
0.0
 71
     0
 72
  1000
 73
     1
 74
     1
 75
     0
 76
     0
 77
     0
 78
     0
281
     0
 65
     1
110
0.0
120
0.0
130
0.0
111
1.0
121
0.0
131
0.0
112
0.0
122
1.0
132
0.0
 79
     0
146
0.0
348
297
 60
     3
 61
     5
292
     1
282
     1
141
0.0
142
0.0
 63
   250
421
  3355443
1001
ACAD_NAV_VCDISPLAY
1070
     3
  0
ENDTAB
  0
TABLE
  2
LTYPE
  5
1B
330
0
100
AcDbSymbolTable
 70
     1
  0
LTYPE
  5
1C
330
1B
100
AcDbSymbolTableRecord
100
AcDbLinetypeTableRecord
  2
ByBlock
 70
     0
  3

 72
    65
 73
     0
 40
0.0
  0
LTYPE
  5
1D
330
1B
100
AcDbSymbolTableRecord
100
AcDbLinetypeTableRecord
  2
ByLayer
 70
     0
  3

 72
    65
 73
     0
 40
0.0
  0
LTYPE
  5
A
330
1B
100
AcDbSymbolTableRecord
100
AcDbLinetypeTableRecord
  2
Continuous
 70
     0
  3
Solid line
 72
    65
 73
     0
 40
0.0
  0
ENDTAB
  0
TABLE
  2
LAYER
  5
13
102
{ACAD_XDICTIONARY
360
14
102
}
330
0
100
AcDbSymbolTable
 70
     2
  0
LAYER
  5
6
102
{ACAD_XDICTIONARY
360
2C5
102
}
330
13
100
AcDbSymbolTableRecord
100
AcDbLayerTableRecord
  2
0
 70
     0
 62
     7
  6
Continuous
370
    -3
390
7
347
289
  0
LAYER
  5
2C
102
{ACAD_XDICTIONARY
360
2C7
102
}
330
13
100
AcDbSymbolTableRecord
100
AcDbLayerTableRecord
  2
quote
 70
     0
 62
     8
  6
Continuous
370
    -3
390
7
347
289
1001
AcAecLayerStandard
1000

1000

  0
ENDTAB
  0
TABLE
  2
STYLE
  5
18
330
0
100
AcDbSymbolTable
 70
     1
  0
STYLE
  5
19
330
18
100
AcDbSymbolTableRecord
100
AcDbTextStyleTableRecord
  2
Standard
 70
     0
 40
2.0
 41
1.0
 50
0.0
 71
     0
 42
2.0
  3
lte50327.ttf
  4

1001
ACAD
1000
Frutiger LT 45 Light
1071
       34
  0
ENDTAB
  0
TABLE
  2
VIEW
  5
1E
330
0
100
AcDbSymbolTable
 70
     1
  0
ENDTAB
  0
TABLE
  2
UCS
  5
1F
330
0
100
AcDbSymbolTable
 70
     0
  0
ENDTAB
  0
TABLE
  2
APPID
  5
22
330
0
100
AcDbSymbolTable
 70
     4
  0
APPID
  5
17
330
22
100
AcDbSymbolTableRecord
100
AcDbRegAppTableRecord
  2
ACAD
 70
     0
  0
APPID
  5
E
330
22
100
AcDbSymbolTableRecord
100
AcDbRegAppTableRecord
  2
ACAD_PSEXT
 70
     0
  0
APPID
  5
2D
330
22
100
AcDbSymbolTableRecord
100
AcDbRegAppTableRecord
  2
AcAecLayerStandard
 70
     0
  0
APPID
  5
2D9
330
22
100
AcDbSymbolTableRecord
100
AcDbRegAppTableRecord
  2
ACAD_NAV_VCDISPLAY
 70
     0
  0
ENDTAB
  0
TABLE
  2
DIMSTYLE
  5
23
330
0
100
AcDbSymbolTable
 70
     1
100
AcDbDimStyleTable
 71
     1
340
24
  0
DIMSTYLE
105
24
330
23
100
AcDbSymbolTableRecord
100
AcDbDimStyleTableRecord
  2
ISO-25
 70
     0
 41
1.5
 42
1.0
 43
3.75
 44
1.25
 73
     0
 74
     0
 78
     8
140
2.5
141
2.5
143
0.03937007874016
147
1.0
171
     3
172
     1
176
   256
178
   256
271
     2
272
     2
274
     3
278
    44
279
     1
283
     0
284
     8
340
19
371
    -1
  0
ENDTAB
  0
TABLE
  2
BLOCK_RECORD
  5
1
330
0
100
AcDbSymbolTable
 70
     0
  0
BLOCK_RECORD
  5
2
102
{ACAD_XDICTIONARY
360
3
102
}
330
1
100
AcDbSymbolTableRecord
100
AcDbBlockTableRecord
  2
*Model_Space
340
C
 70
     0
280
     1
281
     0
  0
BLOCK_RECORD
  5
F
330
1
100
AcDbSymbolTableRecord
100
AcDbBlockTableRecord
  2
*Paper_Space
340
12
 70
     0
280
     1
281
     0
  0
ENDTAB
  0
ENDSEC
  0
SECTION
  2
BLOCKS
  0
BLOCK
  5
5
330
2
100
AcDbEntity
  8
0
100
AcDbBlockBegin
  2
*Model_Space
 70
     0
 10
0.0
 20
0.0
 30
0.0
  3
*Model_Space
  1

  0
ENDBLK
  5
B
330
2
100
AcDbEntity
  8
0
100
AcDbBlockEnd
  0
BLOCK
  5
10
330
F
100
AcDbEntity
 67
     1
  8
0
100
AcDbBlockBegin
  2
*Paper_Space
 70
     0
 10
0.0
 20
0.0
 30
0.0
  3
*Paper_Space
  1

  0
ENDBLK
  5
11
330
F
100
AcDbEntity
 67
     1
  8
0
100
AcDbBlockEnd
  0
ENDSEC
  0
SECTION
  2
ENTITIES
  0
ARC
  5
30
330
2
100
AcDbEntity
  8
0
 62
     7
100
AcDbCircle
 10
320.3415489098861
 20
-2099.993479340719
 30
0.0
 40
0.9999999999999953
100
AcDbArc
 50
357.5144030819713
 51
180.0
  0
LINE
  5
31
330
2
100
AcDbEntity
  8
0
 62
     7
100
AcDbLine
 10
321.3406144451878
 20
-2100.036700357044
 30
0.0
 11
320.8798863358416
 21
-2110.684345480781
 31
0.0
  0
LINE
  5
32
330
2
100
AcDbEntity
  8
0
 62
     7
100
AcDbLine
 10
319.803095491483
 20
-2110.681664840301
 30
0.0
 11
319.3424832984592
 21
-2100.03669859776
 31
0.0
  0
LINE
  5
33
330
2
100
AcDbEntity
  8
0
 62
     7
100
AcDbLine
 10
317.8423112327732
 20
-2124.490532007982
 30
0.0
 11
318.0915489098861
 21
-2120.415532007982
 31
0.0
  0
LINE
  5
34
330
2
100
AcDbEntity
  8
0
 62
     7
100
AcDbLine
 10
322.5915489098861
 20
-2120.415532007982
 30
0.0
 11
322.840786586999
 21
-2124.490532007982
 31
0.0
  0
LINE
  5
35
330
2
100
AcDbEntity
  8
0
 62
     7
100
AcDbLine
 10
318.0915489098861
 20
-2120.415532007982
 30
0.0
 11
318.841674309248
 21
-2119.66540660862
 31
0.0
  0
LINE
  5
36
330
2
100
AcDbEntity
  8
0
 62
     7
100
AcDbLine
 10
321.8414235105242
 20
-2119.66540660862
 30
0.0
 11
322.5915489098861
 21
-2120.415532007982
 31
0.0
  0
LINE
  5
37
330
2
100
AcDbEntity
  8
0
 62
     7
100
AcDbLine
 10
318.8417039983333
 20
-2113.515532007982
 30
0.0
 11
318.3413963465855
 21
-2113.515532007982
 31
0.0
  0
LINE
  5
38
330
2
100
AcDbEntity
  8
0
 62
     7
100
AcDbLine
 10
318.3413963465855
 20
-2109.115532007982
 30
0.0
 11
318.8417039983333
 21
-2109.115532007982
 31
0.0
  0
LINE
  5
39
330
2
100
AcDbEntity
  8
0
 62
     7
100
AcDbLine
 10
320.8995131687361
 20
-2112.383239833187
 30
0.0
 11
320.691548909886
 21
-2117.665532007981
 31
0.0
  0
LINE
  5
3A
330
2
100
AcDbEntity
  8
0
 62
     7
100
AcDbLine
 10
319.9915489098862
 20
-2117.665532007981
 30
0.0
 11
319.7835846510361
 21
-2112.383239833185
 31
0.0
  0
LINE
  5
3B
330
2
100
AcDbEntity
  8
0
 62
     7
100
AcDbLine
 10
321.3415489098861
 20
-2112.565532007982
 30
0.0
 11
320.8923363114605
 21
-2112.565532007982
 31
0.0
  0
LINE
  5
3C
330
2
100
AcDbEntity
  8
0
 62
     7
100
AcDbLine
 10
319.7907615083114
 20
-2112.565532007982
 30
0.0
 11
319.3415489098861
 21
-2112.565532007982
 31
0.0
  0
LINE
  5
3D
330
2
100
AcDbEntity
  8
0
 62
     7
100
AcDbLine
 10
319.3415489098861
 20
-2110.065532007982
 30
0.0
 11
319.7764351631527
 21
-2110.065532007982
 31
0.0
  0
LINE
  5
3E
330
2
100
AcDbEntity
  8
0
 62
     7
100
AcDbLine
 10
320.9066626566191
 20
-2110.065532007982
 30
0.0
 11
321.3415489098861
 21
-2110.065532007982
 31
0.0
  0
ARC
  5
3F
330
2
100
AcDbEntity
  8
0
 62
     7
100
AcDbCircle
 10
320.8415489098861
 20
-2119.515532007982
 30
0.0
 40
0.1500000000000014
100
AcDbArc
 50
180.0
 51
270.0
  0
ARC
  5
40
330
2
100
AcDbEntity
  8
0
 62
     7
100
AcDbCircle
 10
319.8415489098861
 20
-2119.515532007982
 30
0.0
 40
0.1500000000000014
100
AcDbArc
 50
270.0
 51
0.000000000000007
  0
LINE
  5
41
330
2
100
AcDbEntity
  8
0
 62
     7
100
AcDbLine
 10
320.691548909886
 20
-2117.665532007981
 30
0.0
 11
320.691548909886
 21
-2119.515532007982
 31
0.0
  0
LINE
  5
42
330
2
100
AcDbEntity
  8
0
 62
     7
100
AcDbLine
 10
319.9915489098862
 20
-2119.515532007982
 30
0.0
 11
319.9915489098862
 21
-2117.665532007981
 31
0.0
  0
LINE
  5
43
330
2
100
AcDbEntity
  8
0
 62
     7
100
AcDbLine
 10
319.3415489098861
 20
-2111.815532007982
 30
0.0
 11
318.841202348176
 21
-2111.815532007982
 31
0.0
  0
LINE
  5
44
330
2
100
AcDbEntity
  8
0
 62
     7
100
AcDbLine
 10
318.841202348176
 20
-2110.815532007982
 30
0.0
 11
319.3415489098861
 21
-2110.815532007982
 31
0.0
  0
LINE
  5
45
330
2
100
AcDbEntity
  8
0
 62
     7
100
AcDbLine
 10
329.3415489098861
 20
-2137.990532007981
 30
0.0
 11
329.2444354818954
 21
-2138.01438535374
 31
0.0
  0
LINE
  5
46
330
2
100
AcDbEntity
  8
0
 62
     7
100
AcDbLine
 10
311.4386623378773
 20
-2138.01438535374
 30
0.0
 11
311.3415489098861
 21
-2137.990532007981
 31
0.0
  0
LINE
  5
47
330
2
100
AcDbEntity
  8
0
 62
     7
100
AcDbLine
 10
311.3415489098861
 20
-2137.990532007981
 30
0.0
 11
314.6574669491615
 21
-2124.490532007982
 31
0.0
  0
LINE
  5
48
330
2
100
AcDbEntity
  8
0
 62
     7
100
AcDbLine
 10
326.0256308706112
 20
-2124.490532007982
 30
0.0
 11
329.3415489098861
 21
-2137.990532007981
 31
0.0
  0
LINE
  5
49
330
2
100
AcDbEntity
  8
0
 62
     7
100
AcDbLine
 10
319.8124150516187
 20
-2113.115532007982
 30
0.0
 11
319.3415489098861
 21
-2113.115532007982
 31
0.0
  0
LINE
  5
4A
330
2
100
AcDbEntity
  8
0
 62
     7
100
AcDbLine
 10
319.3415489098861
 20
-2109.515532007982
 30
0.0
 11
319.7526364304567
 21
-2109.515532007982
 31
0.0
  0
LINE
  5
4B
330
2
100
AcDbEntity
  8
0
 62
     7
100
AcDbLine
 10
319.441548909886
 20
-2161.015532007982
 30
0.0
 11
318.941548909886
 21
-2161.015532007982
 31
0.0
  0
LINE
  5
4C
330
2
100
AcDbEntity
  8
0
 62
     7
100
AcDbLine
 10
318.941548909886
 20
-2157.415532007982
 30
0.0
 11
319.441548909886
 21
-2157.415532007982
 31
0.0
  0
LINE
  5
4D
330
2
100
AcDbEntity
  8
0
 62
     7
100
AcDbLine
 10
319.787548909886
 20
-2160.323532007982
 30
0.0
 11
319.7415489098862
 21
-2160.323532007982
 31
0.0
  0
LINE
  5
4E
330
2
100
AcDbEntity
  8
0
 62
     7
100
AcDbLine
 10
320.941548909886
 20
-2160.323532007982
 30
0.0
 11
320.8955489098862
 21
-2160.323532007982
 31
0.0
  0
LINE
  5
4F
330
2
100
AcDbEntity
  8
0
 62
     7
100
AcDbLine
 10
320.8746805690334
 20
-2158.107532007982
 30
0.0
 11
320.941548909886
 21
-2158.107532007982
 31
0.0
  0
LINE
  5
50
330
2
100
AcDbEntity
  8
0
 62
     7
100
AcDbLine
 10
319.7415489098862
 20
-2158.107532007982
 30
0.0
 11
319.8060830107924
 21
-2158.107532007982
 31
0.0
  0
LINE
  5
51
330
2
100
AcDbEntity
  8
0
 62
     7
100
AcDbLine
 10
319.787548909886
 20
-2163.715532007982
 30
0.0
 11
319.787548909886
 21
-2160.175088155375
 31
0.0
  0
LINE
  5
52
330
2
100
AcDbEntity
  8
0
 62
     7
100
AcDbLine
 10
320.8955489098862
 20
-2160.175088155375
 30
0.0
 11
320.8955489098862
 21
-2163.715532007982
 31
0.0
  0
LINE
  5
53
330
2
100
AcDbEntity
  8
0
 62
     7
100
AcDbLine
 10
319.7415489098862
 20
-2159.815532007982
 30
0.0
 11
319.441548909886
 21
-2159.815532007982
 31
0.0
  0
LINE
  5
54
330
2
100
AcDbEntity
  8
0
 62
     7
100
AcDbLine
 10
319.441548909886
 20
-2158.615532007982
 30
0.0
 11
319.7415489098862
 21
-2158.615532007982
 31
0.0
  0
LINE
  5
55
330
2
100
AcDbEntity
  8
0
 62
     7
100
AcDbLine
 10
320.8815489098861
 20
-2154.815532007982
 30
0.0
 11
320.8815489098861
 21
-2158.110861935655
 31
0.0
  0
LINE
  5
56
330
2
100
AcDbEntity
  8
0
 62
     7
100
AcDbLine
 10
319.8015489098862
 20
-2158.109697607524
 30
0.0
 11
319.8015489098862
 21
-2154.815532007982
 31
0.0
  0
LINE
  5
57
330
2
100
AcDbEntity
  8
0
 62
     7
100
AcDbLine
 10
319.6415489098863
 20
-2154.815532007982
 30
0.0
 11
319.6415489098863
 21
-2138.01438535374
 31
0.0
  0
LINE
  5
58
330
2
100
AcDbEntity
  8
0
 62
     7
100
AcDbLine
 10
319.6415489098863
 20
-2119.665532007982
 30
0.0
 11
319.6415489098863
 21
-2115.815532007982
 31
0.0
  0
LINE
  5
59
330
2
100
AcDbEntity
  8
0
 62
     7
100
AcDbLine
 10
321.0415489098864
 20
-2115.815532007982
 30
0.0
 11
321.0415489098864
 21
-2119.665532007982
 31
0.0
  0
LINE
  5
5A
330
2
100
AcDbEntity
  8
0
 62
     7
100
AcDbLine
 10
321.0415489098864
 20
-2138.01438535374
 30
0.0
 11
321.0415489098864
 21
-2154.815532007982
 31
0.0
  0
LINE
  5
5B
330
2
100
AcDbEntity
  8
0
 62
     7
100
AcDbLine
 10
320.8415489098861
 20
-2115.365532007982
 30
0.0
 11
320.7915489098864
 21
-2115.365532007982
 31
0.0
  0
LINE
  5
5C
330
2
100
AcDbEntity
  8
0
 62
     7
100
AcDbLine
 10
320.8214701697284
 20
-2114.365532007982
 30
0.0
 11
320.8415489098861
 21
-2114.365532007982
 31
0.0
  0
LINE
  5
5D
330
2
100
AcDbEntity
  8
0
 62
     7
100
AcDbLine
 10
319.8915489098863
 20
-2115.365532007982
 30
0.0
 11
319.8415489098861
 21
-2115.365532007982
 31
0.0
  0
LINE
  5
5E
330
2
100
AcDbEntity
  8
0
 62
     7
100
AcDbLine
 10
319.8415489098861
 20
-2114.365532007982
 30
0.0
 11
319.8616276500438
 21
-2114.365532007982
 31
0.0
  0
LINE
  5
5F
330
2
100
AcDbEntity
  8
0
 62
     7
100
AcDbLine
 10
320.8955489098862
 20
-2155.791089372397
 30
0.0
 11
320.8955489098862
 21
-2158.107532007982
 31
0.0
  0
LINE
  5
60
330
2
100
AcDbEntity
  8
0
 62
     7
100
AcDbLine
 10
320.8955489098862
 20
-2154.907205895914
 30
0.0
 11
320.8955489098862
 21
-2155.331469964625
 31
0.0
  0
LINE
  5
61
330
2
100
AcDbEntity
  8
0
 62
     7
100
AcDbLine
 10
319.7875489098865
 20
-2155.331469964625
 30
0.0
 11
319.7875489098865
 21
-2154.907205895914
 31
0.0
  0
LINE
  5
62
330
2
100
AcDbEntity
  8
0
 62
     7
100
AcDbLine
 10
319.787548909886
 20
-2158.107532007982
 30
0.0
 11
319.7875489098865
 21
-2155.791089372397
 31
0.0
  0
LWPOLYLINE
  5
63
330
2
100
AcDbEntity
  8
0
 62
     7
100
AcDbPolyline
 90
        3
 70
   128
 43
0.0
 10
319.7912203164155
 20
-2154.90244018396
 10
319.7955876228707
 20
-2154.829669944075
 10
319.8006607254333
 20
-2154.815532007982
  0
LINE
  5
64
330
2
100
AcDbEntity
  8
0
 62
     7
100
AcDbLine
 10
320.8816113218213
 20
-2154.815532007982
 30
0.0
 11
320.8955344096944
 21
-2154.907789861543
 31
0.0
  0
ARC
  5
65
330
2
100
AcDbEntity
  8
0
 62
     7
100
AcDbCircle
 10
321.4927529233094
 20
-2163.815532007982
 30
0.0
 40
0.1000000000000028
100
AcDbArc
 50
8.90000000004805
 51
90.0
  0
ARC
  5
66
330
2
100
AcDbEntity
  8
0
 62
     7
100
AcDbCircle
 10
319.1903448964633
 20
-2163.815532007982
 30
0.0
 40
0.1000000000000028
100
AcDbArc
 50
90.0
 51
171.0999999999519
  0
LWPOLYLINE
  5
67
330
2
100
AcDbEntity
  8
0
 62
     7
100
AcDbPolyline
 90
       10
 70
   128
 43
0.0
 10
320.3415489098861
 20
-2100.538515713591
 10
320.581756244695
 20
-2100.529627895479
 10
320.7803526425296
 20
-2100.496183245075
 10
321.0484628586942
 20
-2100.400004686021
 10
321.1770967431867
 20
-2100.317679693656
 10
321.2689631909821
 20
-2100.224557952703
 10
321.3232511898141
 20
-2100.125214107622
 10
321.3365344926401
 20
-2100.074551019119
 10
321.3398094444015
 20
-2100.049189658406
 10
321.340601312937
 20
-2100.036847821426
  0
LWPOLYLINE
  5
68
330
2
100
AcDbEntity
  8
0
 62
     7
100
AcDbPolyline
 90
       11
 70
   128
 43
0.0
 10
319.3444282142882
 20
-2100.036650120335
 10
319.3598423772637
 20
-2100.125202110956
 10
319.4141233257983
 20
-2100.224542853939
 10
319.5059885880391
 20
-2100.317669508404
 10
319.5448792722809
 20
-2100.346545631004
 10
319.5877958559022
 20
-2100.374049121172
 10
319.6346349610781
 20
-2100.400004686021
 10
319.7482692697418
 20
-2100.449829862103
 10
319.902718386199
 20
-2100.496177003408
 10
320.1013198560727
 20
-2100.52962563307
 10
320.3415489098861
 20
-2100.538515713591
  0
LWPOLYLINE
  5
69
330
2
100
AcDbEntity
  8
0
 62
     7
100
AcDbPolyline
 90
        5
 70
   128
 43
0.0
 10
320.4831254282208
 20
-2111.315532007982
 10
320.641289494311
 20
-2111.194885376848
 10
320.7943543418164
 20
-2110.976812715702
 10
320.8748418225459
 20
-2110.735554267556
 10
320.8739639998658
 20
-2110.684271771982
  0
LWPOLYLINE
  5
6A
330
2
100
AcDbEntity
  8
0
 62
     7
100
AcDbPolyline
 90
       10
 70
   128
 43
0.0
 10
319.8039726888855
 20
-2110.681691508736
 10
319.803375258623
 20
-2110.687275370494
 10
319.8357063371068
 20
-2110.850376479034
 10
319.9235419320857
 20
-2111.039129102168
 10
320.0877643926842
 20
-2111.239089836839
 10
320.1999723915514
 20
-2111.315532007982
 10
320.3038216741556
 20
-2111.347720935838
 10
320.3415489098861
 20
-2111.350190004416
 10
320.4483492372692
 20
-2111.330441006586
 10
320.4831254282208
 20
-2111.315532007982
  0
LINE
  5
6B
330
2
100
AcDbEntity
  8
0
 62
     7
100
AcDbLine
 10
322.5915489098861
 20
-2120.415532007982
 30
0.0
 11
318.0915489098861
 21
-2120.415532007982
 31
0.0
  0
LINE
  5
6C
330
2
100
AcDbEntity
  8
0
 62
     7
100
AcDbLine
 10
321.8415489098861
 20
-2119.665532007982
 30
0.0
 11
318.8415489098861
 21
-2119.665532007982
 31
0.0
  0
LINE
  5
6D
330
2
100
AcDbEntity
  8
0
 62
     7
100
AcDbLine
 10
318.8415489098861
 20
-2109.115532007982
 30
0.0
 11
318.8415489098861
 21
-2111.315532007982
 31
0.0
  0
LINE
  5
6E
330
2
100
AcDbEntity
  8
0
 62
     7
100
AcDbLine
 10
318.8415489098861
 20
-2111.315532007982
 30
0.0
 11
318.8415489098861
 21
-2113.515532007982
 31
0.0
  0
LINE
  5
6F
330
2
100
AcDbEntity
  8
0
 62
     7
100
AcDbLine
 10
318.3415489098861
 20
-2113.515532007982
 30
0.0
 11
318.3415489098861
 21
-2111.315532007982
 31
0.0
  0
LINE
  5
70
330
2
100
AcDbEntity
  8
0
 62
     7
100
AcDbLine
 10
318.3415489098861
 20
-2111.315532007982
 30
0.0
 11
318.3415489098861
 21
-2109.115532007982
 31
0.0
  0
LWPOLYLINE
  5
71
330
2
100
AcDbEntity
  8
0
 62
     7
100
AcDbPolyline
 90
       19
 70
   128
 43
0.0
 10
320.8995131687375
 20
-2112.383239833187
 10
320.8635849624625
 20
-2112.218191661814
 10
320.7329505088474
 20
-2111.960621609171
 10
320.6091803756831
 20
-2111.76221367277
 10
320.470562695024
 20
-2111.558452490579
 10
320.417749735388
 20
-2111.485457144395
 10
320.3688665670902
 20
-2111.427700922686
 10
320.3585820439826
 20
-2111.419623966463
 10
320.3464644557753
 20
-2111.414315410536
 10
320.3381619920756
 20
-2111.414047910413
 10
320.3302400370312
 20
-2111.41645020333
 10
320.316661373166
 20
-2111.42556141737
 10
320.2681885868447
 20
-2111.481697569022
 10
320.1023123134078
 20
-2111.719734522263
 10
319.9757968678414
 20
-2111.91755459173
 10
319.8703120702258
 20
-2112.105523606008
 10
319.7938325491364
 20
-2112.297994707509
 10
319.7835846510361
 20
-2112.383239833186
 10
319.7835846510356
 20
-2112.383239833185
  0
LINE
  5
72
330
2
100
AcDbEntity
  8
0
 62
     7
100
AcDbLine
 10
320.691548909886
 20
-2117.665532007981
 30
0.0
 11
319.9915489098862
 21
-2117.665532007981
 31
0.0
  0
LINE
  5
73
330
2
100
AcDbEntity
  8
0
 62
     7
100
AcDbLine
 10
319.3415489098861
 20
-2111.315532007982
 30
0.0
 11
319.3415489098861
 21
-2110.065532007982
 31
0.0
  0
LINE
  5
74
330
2
100
AcDbEntity
  8
0
 62
     7
100
AcDbLine
 10
319.3415489098861
 20
-2112.565532007982
 30
0.0
 11
319.3415489098861
 21
-2111.315532007982
 31
0.0
  0
LINE
  5
75
330
2
100
AcDbEntity
  8
0
 62
     7
100
AcDbLine
 10
321.3415489098861
 20
-2111.315532007982
 30
0.0
 11
321.3415489098861
 21
-2112.565532007982
 31
0.0
  0
LINE
  5
76
330
2
100
AcDbEntity
  8
0
 62
     7
100
AcDbLine
 10
321.3415489098861
 20
-2110.065532007982
 30
0.0
 11
321.3415489098861
 21
-2111.315532007982
 31
0.0
  0
LINE
  5
77
330
2
100
AcDbEntity
  8
0
 62
     7
100
AcDbLine
 10
320.3415489098861
 20
-2137.990532007981
 30
0.0
 11
311.3415489098861
 21
-2137.990532007981
 31
0.0
  0
LINE
  5
78
330
2
100
AcDbEntity
  8
0
 62
     7
100
AcDbLine
 10
329.3415489098861
 20
-2137.990532007981
 30
0.0
 11
320.3415489098861
 21
-2137.990532007981
 31
0.0
  0
LINE
  5
79
330
2
100
AcDbEntity
  8
0
 62
     7
100
AcDbLine
 10
320.3415489098861
 20
-2138.01438535374
 30
0.0
 11
311.4386623378773
 21
-2138.01438535374
 31
0.0
  0
LINE
  5
7A
330
2
100
AcDbEntity
  8
0
 62
     7
100
AcDbLine
 10
329.2444354818954
 20
-2138.01438535374
 30
0.0
 11
320.3415489098861
 21
-2138.01438535374
 31
0.0
  0
LINE
  5
7B
330
2
100
AcDbEntity
  8
0
 62
     7
100
AcDbLine
 10
320.3415489098861
 20
-2124.490532007982
 30
0.0
 11
314.6574669491615
 21
-2124.490532007982
 31
0.0
  0
LINE
  5
7C
330
2
100
AcDbEntity
  8
0
 62
     7
100
AcDbLine
 10
326.0256308706112
 20
-2124.490532007982
 30
0.0
 11
320.3415489098861
 21
-2124.490532007982
 31
0.0
  0
LINE
  5
7D
330
2
100
AcDbEntity
  8
0
 62
     7
100
AcDbLine
 10
319.3415489098861
 20
-2110.065532007982
 30
0.0
 11
319.3415489098861
 21
-2109.515532007982
 31
0.0
  0
LINE
  5
7E
330
2
100
AcDbEntity
  8
0
 62
     7
100
AcDbLine
 10
319.3415489098861
 20
-2113.115532007982
 30
0.0
 11
319.3415489098861
 21
-2112.565532007982
 31
0.0
  0
LINE
  5
7F
330
2
100
AcDbEntity
  8
0
 62
     7
100
AcDbLine
 10
319.441548909886
 20
-2159.215532007982
 30
0.0
 11
319.441548909886
 21
-2161.015532007982
 31
0.0
  0
LINE
  5
80
330
2
100
AcDbEntity
  8
0
 62
     7
100
AcDbLine
 10
319.441548909886
 20
-2157.415532007982
 30
0.0
 11
319.441548909886
 21
-2159.215532007982
 31
0.0
  0
LINE
  5
81
330
2
100
AcDbEntity
  8
0
 62
     7
100
AcDbLine
 10
318.941548909886
 20
-2159.215532007982
 30
0.0
 11
318.941548909886
 21
-2157.415532007982
 31
0.0
  0
LINE
  5
82
330
2
100
AcDbEntity
  8
0
 62
     7
100
AcDbLine
 10
318.941548909886
 20
-2161.015532007982
 30
0.0
 11
318.941548909886
 21
-2159.215532007982
 31
0.0
  0
LINE
  5
83
330
2
100
AcDbEntity
  8
0
 62
     7
100
AcDbLine
 10
320.8314468584431
 20
-2115.815532007982
 30
0.0
 11
320.7643835555554
 21
-2115.815532007982
 31
0.0
  0
LINE
  5
84
330
2
100
AcDbEntity
  8
0
 62
     7
100
AcDbLine
 10
319.9187142642168
 20
-2115.815532007982
 30
0.0
 11
319.8516509613296
 21
-2115.815532007982
 31
0.0
  0
LINE
  5
85
330
2
100
AcDbEntity
  8
0
 62
     7
100
AcDbLine
 10
320.8314468584431
 20
-2154.815532007982
 30
0.0
 11
319.8516509613296
 21
-2154.815532007982
 31
0.0
  0
LWPOLYLINE
  5
86
330
2
100
AcDbEntity
  8
0
 62
     7
100
AcDbPolyline
 90
       11
 70
   128
 43
0.0
 10
320.8908501207902
 20
-2160.129745570355
 10
320.8178597470028
 20
-2159.955167585922
 10
320.6910997179348
 20
-2159.79538549871
 10
320.5505031929438
 20
-2159.68935588718
 10
320.4222554405005
 20
-2159.641187287842
 10
320.3415489098861
 20
-2159.632835958795
 10
320.199190995826
 20
-2159.658906819902
 10
320.0753250437879
 20
-2159.725340515489
 10
319.9313145864858
 20
-2159.861899310742
 10
319.8340870650873
 20
-2160.011724465186
 10
319.792247698982
 20
-2160.129745570355
  0
LINE
  5
87
330
2
100
AcDbEntity
  8
0
 62
     7
100
AcDbLine
 10
319.792247698982
 20
-2160.129745570355
 30
0.0
 11
319.787548909886
 21
-2160.175088155375
 31
0.0
  0
LINE
  5
88
330
2
100
AcDbEntity
  8
0
 62
     7
100
AcDbLine
 10
320.8955489098862
 20
-2160.175088155375
 30
0.0
 11
320.8908501207902
 21
-2160.129745570355
 31
0.0
  0
LWPOLYLINE
  5
89
330
2
100
AcDbEntity
  8
0
 62
     7
100
AcDbPolyline
 90
       12
 70
   128
 43
0.0
 10
320.8746805690334
 20
-2158.110862522295
 10
320.8732461055106
 20
-2158.111554694884
 10
320.8214104661488
 20
-2158.1355639005
 10
320.7225642319981
 20
-2158.175706697806
 10
320.5730088280575
 20
-2158.220726653292
 10
320.3910498694745
 20
-2158.246762507533
 10
320.3415489098861
 20
-2158.248028002822
 10
320.1752745715794
 20
-2158.233844096485
 10
320.0281797829507
 20
-2158.198544196002
 10
319.9034674100271
 20
-2158.153468262005
 10
319.8213912785482
 20
-2158.11706582214
 10
319.8060830107924
 20
-2158.109716016887
  0
LINE
  5
8A
330
2
100
AcDbEntity
  8
0
 62
     7
100
AcDbLine
 10
319.7415489098862
 20
-2159.215532007982
 30
0.0
 11
319.7415489098862
 21
-2158.107532007982
 31
0.0
  0
LINE
  5
8B
330
2
100
AcDbEntity
  8
0
 62
     7
100
AcDbLine
 10
319.7415489098862
 20
-2160.323532007982
 30
0.0
 11
319.7415489098862
 21
-2159.215532007982
 31
0.0
  0
LINE
  5
8C
330
2
100
AcDbEntity
  8
0
 62
     7
100
AcDbLine
 10
320.941548909886
 20
-2159.215532007982
 30
0.0
 11
320.941548909886
 21
-2160.323532007982
 31
0.0
  0
LINE
  5
8D
330
2
100
AcDbEntity
  8
0
 62
     7
100
AcDbLine
 10
320.941548909886
 20
-2158.107532007982
 30
0.0
 11
320.941548909886
 21
-2159.215532007982
 31
0.0
  0
LINE
  5
8E
330
2
100
AcDbEntity
  8
0
 62
     7
100
AcDbLine
 10
320.8314468584431
 20
-2154.815532007982
 30
0.0
 11
321.0274060378656
 21
-2154.815532007982
 31
0.0
  0
LINE
  5
8F
330
2
100
AcDbEntity
  8
0
 62
     7
100
AcDbLine
 10
321.0274060378656
 20
-2115.815532007982
 30
0.0
 11
320.8314468584431
 21
-2115.815532007982
 31
0.0
  0
LINE
  5
90
330
2
100
AcDbEntity
  8
0
 62
     7
100
AcDbLine
 10
319.6556917819071
 20
-2154.815532007982
 30
0.0
 11
319.8516509613296
 21
-2154.815532007982
 31
0.0
  0
LINE
  5
91
330
2
100
AcDbEntity
  8
0
 62
     7
100
AcDbLine
 10
319.8516509613296
 20
-2115.815532007982
 30
0.0
 11
319.6556917819071
 21
-2115.815532007982
 31
0.0
  0
LINE
  5
92
330
2
100
AcDbEntity
  8
0
 62
     7
100
AcDbLine
 10
319.8915489098863
 20
-2115.815532007982
 30
0.0
 11
319.8915489098863
 21
-2115.125532007984
 31
0.0
  0
LINE
  5
93
330
2
100
AcDbEntity
  8
0
 62
     7
100
AcDbLine
 10
320.7915489098864
 20
-2115.125532007974
 30
0.0
 11
320.7915489098864
 21
-2115.815532007982
 31
0.0
  0
LINE
  5
94
330
2
100
AcDbEntity
  8
0
 62
     7
100
AcDbLine
 10
319.6556917819071
 20
-2154.815532007982
 30
0.0
 11
319.6415489098863
 21
-2154.815532007982
 31
0.0
  0
LINE
  5
95
330
2
100
AcDbEntity
  8
0
 62
     7
100
AcDbLine
 10
321.0415489098864
 20
-2154.815532007982
 30
0.0
 11
321.0274060378656
 21
-2154.815532007982
 31
0.0
  0
LINE
  5
96
330
2
100
AcDbEntity
  8
0
 62
     7
100
AcDbLine
 10
319.6556917819071
 20
-2115.815532007982
 30
0.0
 11
319.6415489098863
 21
-2115.815532007982
 31
0.0
  0
LINE
  5
97
330
2
100
AcDbEntity
  8
0
 62
     7
100
AcDbLine
 10
321.0415489098864
 20
-2115.815532007982
 30
0.0
 11
321.0274060378656
 21
-2115.815532007982
 31
0.0
  0
LINE
  5
98
330
2
100
AcDbEntity
  8
0
 62
     7
100
AcDbLine
 10
320.8415489098861
 20
-2114.865532007982
 30
0.0
 11
320.8415489098861
 21
-2115.365532007982
 31
0.0
  0
LINE
  5
99
330
2
100
AcDbEntity
  8
0
 62
     7
100
AcDbLine
 10
320.8415489098861
 20
-2114.365532007982
 30
0.0
 11
320.8415489098861
 21
-2114.865532007982
 31
0.0
  0
LINE
  5
9A
330
2
100
AcDbEntity
  8
0
 62
     7
100
AcDbLine
 10
319.8415489098861
 20
-2114.865532007982
 30
0.0
 11
319.8415489098861
 21
-2114.365532007982
 31
0.0
  0
LINE
  5
9B
330
2
100
AcDbEntity
  8
0
 62
     7
100
AcDbLine
 10
319.8415489098861
 20
-2115.365532007982
 30
0.0
 11
319.8415489098861
 21
-2114.865532007982
 31
0.0
  0
LINE
  5
9C
330
2
100
AcDbEntity
  8
0
 62
     7
100
AcDbLine
 10
319.7875489098865
 20
-2155.331469964625
 30
0.0
 11
319.8015489098862
 21
-2155.418979964054
 31
0.0
  0
LINE
  5
9D
330
2
100
AcDbEntity
  8
0
 62
     7
100
AcDbLine
 10
320.8815489098861
 20
-2155.418979964054
 30
0.0
 11
320.8955489098862
 21
-2155.331469964625
 31
0.0
  0
LWPOLYLINE
  5
9E
330
2
100
AcDbEntity
  8
0
 62
     7
100
AcDbPolyline
 90
        3
 70
   128
 43
0.0
 10
319.7875489098865
 20
-2155.791089372397
 10
319.7963345702351
 20
-2155.710843230021
 10
319.8015489098862
 20
-2155.690137059873
  0
LWPOLYLINE
  5
9F
330
2
100
AcDbEntity
  8
0
 62
     7
100
AcDbPolyline
 90
        4
 70
   128
 43
0.0
 10
319.8015489098862
 20
-2155.263526877995
 10
319.7993689800842
 20
-2155.265537348029
 10
319.7878946978426
 20
-2155.318048410638
 10
319.7875489098865
 20
-2155.331469964625
  0
LWPOLYLINE
  5
A0
330
2
100
AcDbEntity
  8
0
 62
     7
100
AcDbPolyline
 90
        3
 70
   128
 43
0.0
 10
320.8955489098862
 20
-2155.331469964625
 10
320.8867632495376
 20
-2155.27273895896
 10
320.8815489098861
 20
-2155.265676769668
  0
LWPOLYLINE
  5
A1
330
2
100
AcDbEntity
  8
0
 62
     7
100
AcDbPolyline
 90
        4
 70
   128
 43
0.0
 10
320.8815489098861
 20
-2155.688125060697
 10
320.8837288396885
 20
-2155.696044203445
 10
320.8952031219301
 20
-2155.776833734104
 10
320.8955489098862
 20
-2155.791089372397
  0
LINE
  5
A2
330
2
100
AcDbEntity
  8
0
 62
     7
100
AcDbLine
 10
320.3415489098861
 20
-2163.715532007982
 30
0.0
 11
319.1903448964633
 21
-2163.715532007982
 31
0.0
  0
LINE
  5
A3
330
2
100
AcDbEntity
  8
0
 62
     7
100
AcDbLine
 10
321.4927529233094
 20
-2163.715532007982
 30
0.0
 11
320.3415489098861
 21
-2163.715532007982
 31
0.0
  0
LINE
  5
A4
330
2
100
AcDbEntity
  8
0
 62
     7
100
AcDbLine
 10
320.691548909886
 20
-2119.515532007982
 30
0.0
 11
319.9915489098862
 21
-2119.515532007982
 31
0.0
  0
LINE
  5
A5
330
2
100
AcDbEntity
  8
0
 62
     7
100
AcDbLine
 10
320.8314468584431
 20
-2115.815532007982
 30
0.0
 11
320.8314468584431
 21
-2119.665191449904
 31
0.0
  0
LINE
  5
A6
330
2
100
AcDbEntity
  8
0
 62
     7
100
AcDbLine
 10
320.8314468584431
 20
-2138.01438535374
 30
0.0
 11
320.8314468584431
 21
-2154.815532007982
 31
0.0
  0
LINE
  5
A7
330
2
100
AcDbEntity
  8
0
 62
     7
100
AcDbLine
 10
319.8516509613296
 20
-2154.815532007982
 30
0.0
 11
319.8516509613296
 21
-2138.01438535374
 31
0.0
  0
LINE
  5
A8
330
2
100
AcDbEntity
  8
0
 62
     7
100
AcDbLine
 10
319.8516509613296
 20
-2119.665191449904
 30
0.0
 11
319.8516509613296
 21
-2115.815532007982
 31
0.0
  0
LINE
  5
A9
330
2
100
AcDbEntity
  8
0
 62
     7
100
AcDbLine
 10
320.8908501207902
 20
-2160.129745570355
 30
0.0
 11
319.792247698982
 21
-2160.129745570355
 31
0.0
  0
LINE
  5
AA
330
2
100
AcDbEntity
  8
0
 62
     7
100
AcDbLine
 10
321.0274060378656
 20
-2154.815532007982
 30
0.0
 11
321.0274060378656
 21
-2138.01438535374
 31
0.0
  0
LINE
  5
AB
330
2
100
AcDbEntity
  8
0
 62
     7
100
AcDbLine
 10
321.0274060378656
 20
-2119.665532007982
 30
0.0
 11
321.0274060378656
 21
-2115.815532007982
 31
0.0
  0
LINE
  5
AC
330
2
100
AcDbEntity
  8
0
 62
     7
100
AcDbLine
 10
319.6556917819071
 20
-2115.815532007982
 30
0.0
 11
319.6556917819071
 21
-2119.665532007982
 31
0.0
  0
LINE
  5
AD
330
2
100
AcDbEntity
  8
0
 62
     7
100
AcDbLine
 10
319.6556917819071
 20
-2138.01438535374
 30
0.0
 11
319.6556917819071
 21
-2154.815532007982
 31
0.0
  0
LINE
  5
AE
330
2
100
AcDbEntity
  8
0
 62
     7
100
AcDbLine
 10
320.8815489098861
 20
-2154.819695896485
 30
0.0
 11
320.8955489098862
 21
-2154.907205895914
 31
0.0
  0
LINE
  5
AF
330
2
100
AcDbEntity
  8
0
 62
     7
100
AcDbLine
 10
319.7875489098865
 20
-2154.907205895914
 30
0.0
 11
319.8015489098862
 21
-2154.819695896485
 31
0.0
  0
LINE
  5
B0
330
2
100
AcDbEntity
  8
0
 62
     7
100
AcDbLine
 10
319.7875489098865
 20
-2155.331469964625
 30
0.0
 11
319.8015489098862
 21
-2155.331469964625
 31
0.0
  0
LINE
  5
B1
330
2
100
AcDbEntity
  8
0
 62
     7
100
AcDbLine
 10
320.8815489098861
 20
-2155.331469964625
 30
0.0
 11
320.8955489098862
 21
-2155.331469964625
 31
0.0
  0
LINE
  5
B2
330
2
100
AcDbEntity
  8
0
 62
     7
100
AcDbLine
 10
319.0915489098863
 20
-2163.800060969352
 30
0.0
 11
321.5915489098864
 21
-2163.800060969352
 31
0.0
  0
ARC
  5
B3
330
2
100
AcDbEntity
  8
0
 62
     7
100
AcDbCircle
 10
224.3797294085493
 20
-2316.109063515772
 30
0.0
 40
1.000000000000022
100
AcDbArc
 50
85.97567666508885
 51
180.0
  0
ARC
  5
B4
330
2
100
AcDbEntity
  8
0
 62
     7
100
AcDbCircle
 10
224.3797294085493
 20
-2316.109063515772
 30
0.0
 40
1.000000000000022
100
AcDbArc
 50
180.0
 51
273.8302886186117
  0
LINE
  5
B5
330
2
100
AcDbEntity
  8
0
 62
     7
100
AcDbLine
 10
224.4463747524696
 20
-2317.106840246355
 30
0.0
 11
231.3318164456932
 21
-2316.647469023942
 31
0.0
  0
LINE
  5
B6
330
2
100
AcDbEntity
  8
0
 62
     7
100
AcDbLine
 10
231.332365559856
 20
-2315.57069464247
 30
0.0
 11
224.4463021535916
 21
-2315.111281941661
 31
0.0
  0
LINE
  5
B7
330
2
100
AcDbEntity
  8
0
 62
     7
100
AcDbLine
 10
230.1823563812522
 20
-2317.608908427325
 30
0.0
 11
230.1823563812522
 21
-2318.109216079073
 31
0.0
  0
LINE
  5
B8
330
2
100
AcDbEntity
  8
0
 62
     7
100
AcDbLine
 10
234.5823563812523
 20
-2318.109216079073
 30
0.0
 11
234.5823563812523
 21
-2317.608908427325
 31
0.0
  0
LINE
  5
B9
330
2
100
AcDbEntity
  8
0
 62
     7
100
AcDbLine
 10
231.132356381252
 20
-2316.660776262272
 30
0.0
 11
231.132356381252
 21
-2317.109063515772
 31
0.0
  0
LINE
  5
BA
330
2
100
AcDbEntity
  8
0
 62
     7
100
AcDbLine
 10
231.132356381252
 20
-2315.109063515772
 30
0.0
 11
231.132356381252
 21
-2315.557350769272
 31
0.0
  0
LINE
  5
BB
330
2
100
AcDbEntity
  8
0
 62
     7
100
AcDbLine
 10
233.632356381252
 20
-2315.559063515772
 30
0.0
 11
233.632356381252
 21
-2315.109063515772
 31
0.0
  0
LINE
  5
BC
330
2
100
AcDbEntity
  8
0
 62
     7
100
AcDbLine
 10
233.632356381252
 20
-2317.109063515772
 30
0.0
 11
233.632356381252
 21
-2316.659063515772
 31
0.0
  0
LINE
  5
BD
330
2
100
AcDbEntity
  8
0
 62
     7
100
AcDbLine
 10
236.8823563812521
 20
-2315.559063515772
 30
0.0
 11
233.632356381252
 21
-2315.559063515772
 31
0.0
  0
LINE
  5
BE
330
2
100
AcDbEntity
  8
0
 62
     7
100
AcDbLine
 10
233.632356381252
 20
-2316.659063515772
 30
0.0
 11
236.8823563812521
 21
-2316.659063515772
 31
0.0
  0
LINE
  5
BF
330
2
100
AcDbEntity
  8
0
 62
     7
100
AcDbLine
 10
231.882356381252
 20
-2317.109063515772
 30
0.0
 11
231.882356381252
 21
-2317.609410077482
 31
0.0
  0
LINE
  5
C0
330
2
100
AcDbEntity
  8
0
 62
     7
100
AcDbLine
 10
232.882356381252
 20
-2317.609410077482
 30
0.0
 11
232.882356381252
 21
-2317.109063515772
 31
0.0
  0
LINE
  5
C1
330
2
100
AcDbEntity
  8
0
 62
     7
100
AcDbLine
 10
236.6410379581357
 20
-2318.815497736061
 30
0.0
 11
234.7466811151011
 21
-2317.721790302794
 31
0.0
  0
LINE
  5
C2
330
2
100
AcDbEntity
  8
0
 62
     7
100
AcDbLine
 10
234.6466672819319
 20
-2317.894987396966
 30
0.0
 11
236.5410379581358
 21
-2318.988702816818
 31
0.0
  0
LINE
  5
C3
330
2
100
AcDbEntity
  8
0
 62
     7
100
AcDbLine
 10
231.6533563812522
 20
-2310.522989994437
 30
0.0
 11
231.6533563812522
 21
-2312.710344487846
 31
0.0
  0
LINE
  5
C4
330
2
100
AcDbEntity
  8
0
 62
     7
100
AcDbLine
 10
231.8533563812521
 20
-2312.710315400232
 30
0.0
 11
231.8533563812521
 21
-2310.522989994437
 31
0.0
  0
LINE
  5
C5
330
2
100
AcDbEntity
  8
0
 62
     7
100
AcDbLine
 10
226.9656748043685
 20
-2318.988702816818
 30
0.0
 11
228.8600641722014
 21
-2317.89497660535
 31
0.0
  0
LINE
  5
C6
330
2
100
AcDbEntity
  8
0
 62
     7
100
AcDbLine
 10
228.7599920776156
 20
-2317.721813148422
 30
0.0
 11
226.8656748043686
 21
-2318.815497736061
 31
0.0
  0
LINE
  5
C7
330
2
100
AcDbEntity
  8
0
 62
     7
100
AcDbLine
 10
283.1759485489433
 20
-2315.609063515772
 30
0.0
 11
283.1759485489433
 21
-2315.659868939771
 31
0.0
  0
LINE
  5
C8
330
2
100
AcDbEntity
  8
0
 62
     7
100
AcDbLine
 10
283.1759485489433
 20
-2316.558331794182
 30
0.0
 11
283.1759485489433
 21
-2316.609063515772
 31
0.0
  0
LINE
  5
C9
330
2
100
AcDbEntity
  8
0
 62
     7
100
AcDbLine
 10
283.7759485489432
 20
-2316.609063515772
 30
0.0
 11
283.7759485489432
 21
-2316.559063515772
 31
0.0
  0
LINE
  5
CA
330
2
100
AcDbEntity
  8
0
 62
     7
100
AcDbLine
 10
283.7759485489432
 20
-2315.659063515772
 30
0.0
 11
283.7759485489432
 21
-2315.609063515772
 31
0.0
  0
LWPOLYLINE
  5
CB
330
2
100
AcDbEntity
  8
0
 62
     7
100
AcDbPolyline
 90
        9
 70
   128
 43
0.0
 10
284.3954864315282
 20
-2316.542211112487
 10
284.4479374529619
 20
-2316.48557497209
 10
284.5100652614969
 20
-2316.384846908377
 10
284.5516009112198
 20
-2316.267326675133
 10
284.5697997236975
 20
-2316.138547006055
 10
284.5626548467289
 20
-2316.006615136371
 10
284.5293835585362
 20
-2315.878740877019
 10
284.4695877622079
 20
-2315.762243161654
 10
284.3954864315282
 20
-2315.675915919058
  0
LINE
  5
CC
330
2
100
AcDbEntity
  8
0
 62
     7
100
AcDbLine
 10
282.1552021574498
 20
-2315.959063515772
 30
0.0
 11
282.1552021574498
 21
-2316.049063515772
 31
0.0
  0
LINE
  5
CD
330
2
100
AcDbEntity
  8
0
 62
     7
100
AcDbLine
 10
282.1552021574498
 20
-2316.169063515772
 30
0.0
 11
282.1552021574498
 21
-2316.259063515772
 31
0.0
  0
LINE
  5
CE
330
2
100
AcDbEntity
  8
0
 62
     7
100
AcDbLine
 10
233.1917014788064
 20
-2316.169063515772
 30
0.0
 11
282.3659871078098
 21
-2316.169063515772
 31
0.0
  0
LINE
  5
CF
330
2
100
AcDbEntity
  8
0
 62
     7
100
AcDbLine
 10
282.3666947987176
 20
-2316.049063515772
 30
0.0
 11
233.1917014788064
 21
-2316.049063515772
 31
0.0
  0
LINE
  5
D0
330
2
100
AcDbEntity
  8
0
 62
     7
100
AcDbLine
 10
278.5823563812523
 20
-2316.609063515772
 30
0.0
 11
278.5823563812523
 21
-2317.109063515772
 31
0.0
  0
LINE
  5
D1
330
2
100
AcDbEntity
  8
0
 62
     7
100
AcDbLine
 10
282.1823563812523
 20
-2317.109063515772
 30
0.0
 11
282.1823563812523
 21
-2316.609063515772
 31
0.0
  0
LINE
  5
D2
330
2
100
AcDbEntity
  8
0
 62
     7
100
AcDbLine
 10
275.8823563812521
 20
-2315.409063515772
 30
0.0
 11
236.8823563812521
 21
-2315.409063515772
 31
0.0
  0
LINE
  5
D3
330
2
100
AcDbEntity
  8
0
 62
     7
100
AcDbLine
 10
236.8823563812521
 20
-2316.809063515772
 30
0.0
 11
275.8823563812521
 21
-2316.809063515772
 31
0.0
  0
LINE
  5
D4
330
2
100
AcDbEntity
  8
0
 62
     7
100
AcDbLine
 10
279.8823563812521
 20
-2316.559063515772
 30
0.0
 11
279.8823563812521
 21
-2316.609063515772
 31
0.0
  0
LINE
  5
D5
330
2
100
AcDbEntity
  8
0
 62
     7
100
AcDbLine
 10
280.882356381252
 20
-2316.609063515772
 30
0.0
 11
280.882356381252
 21
-2316.559063515772
 31
0.0
  0
LINE
  5
D6
330
2
100
AcDbEntity
  8
0
 62
     7
100
AcDbLine
 10
279.8823563812521
 20
-2315.609063515772
 30
0.0
 11
279.8823563812521
 21
-2315.659063515772
 31
0.0
  0
LINE
  5
D7
330
2
100
AcDbEntity
  8
0
 62
     7
100
AcDbLine
 10
280.882356381252
 20
-2315.659063515772
 30
0.0
 11
280.882356381252
 21
-2315.609063515772
 31
0.0
  0
LINE
  5
D8
330
2
100
AcDbEntity
  8
0
 62
     7
100
AcDbLine
 10
284.6823563812522
 20
-2316.559063502635
 30
0.0
 11
284.6823563812522
 21
-2315.659063515767
 31
0.0
  0
LINE
  5
D9
330
2
100
AcDbEntity
  8
0
 62
     7
100
AcDbLine
 10
284.4823563812524
 20
-2315.659063515772
 30
0.0
 11
284.4823563812524
 21
-2315.609063515772
 31
0.0
  0
LINE
  5
DA
330
2
100
AcDbEntity
  8
0
 62
     7
100
AcDbLine
 10
284.4823563812524
 20
-2316.609063515772
 30
0.0
 11
284.4823563812524
 21
-2316.559063515772
 31
0.0
  0
LINE
  5
DB
330
2
100
AcDbEntity
  8
0
 62
     7
100
AcDbLine
 10
284.6823563812522
 20
-2316.169063515772
 30
0.0
 11
286.8392345879414
 21
-2316.169063515772
 31
0.0
  0
LINE
  5
DC
330
2
100
AcDbEntity
  8
0
 62
     7
100
AcDbLine
 10
286.8392431817119
 20
-2316.049063515772
 30
0.0
 11
284.6823563812522
 21
-2316.049063515772
 31
0.0
  0
LWPOLYLINE
  5
DD
330
2
100
AcDbEntity
  8
0
 62
     7
100
AcDbPolyline
 90
       15
 70
   128
 43
0.0
 10
287.5388963071409
 20
-2316.662835660595
 10
287.6456271179304
 20
-2316.64706329137
 10
287.7432912338435
 20
-2316.602811371056
 10
287.8280261674854
 20
-2316.534033719945
 10
287.8980222365153
 20
-2316.442697305447
 10
287.9500852630899
 20
-2316.331332247248
 10
287.9803363243709
 20
-2316.20528806711
 10
287.9860321019623
 20
-2316.072290035596
 10
287.9660224352382
 20
-2315.939826944719
 10
287.9198320010523
 20
-2315.815003083586
 10
287.8474109754879
 20
-2315.705350258538
 10
287.76488041648
 20
-2315.629692112381
 10
287.6707332084479
 20
-2315.579498694057
 10
287.5694008478126
 20
-2315.556485315791
 10
287.5365260926218
 20
-2315.558458294454
  0
LINE
  5
DE
330
2
100
AcDbEntity
  8
0
 62
     7
100
AcDbLine
 10
286.6527990168378
 20
-2315.555063515772
 30
0.0
 11
284.0367486873765
 21
-2315.555063515772
 31
0.0
  0
LINE
  5
DF
330
2
100
AcDbEntity
  8
0
 62
     7
100
AcDbLine
 10
287.5366824933207
 20
-2315.555063515772
 30
0.0
 11
287.1124184246091
 21
-2315.555063515772
 31
0.0
  0
LINE
  5
E0
330
2
100
AcDbEntity
  8
0
 62
     7
100
AcDbLine
 10
287.1124184246091
 20
-2316.663063515772
 30
0.0
 11
287.5366824933207
 21
-2316.663063515772
 31
0.0
  0
LINE
  5
E1
330
2
100
AcDbEntity
  8
0
 62
     7
100
AcDbLine
 10
284.0357849259435
 20
-2316.663063515772
 30
0.0
 11
286.6527990168378
 21
-2316.663063515772
 31
0.0
  0
LINE
  5
E2
330
2
100
AcDbEntity
  8
0
 62
     7
100
AcDbLine
 10
285.5519628342936
 20
-2315.959063515772
 30
0.0
 11
285.5519628342936
 21
-2316.049063515772
 31
0.0
  0
LINE
  5
E3
330
2
100
AcDbEntity
  8
0
 62
     7
100
AcDbLine
 10
285.5519628342936
 20
-2316.169063515772
 30
0.0
 11
285.5519628342936
 21
-2316.259063515772
 31
0.0
  0
LINE
  5
E4
330
2
100
AcDbEntity
  8
0
 62
     7
100
AcDbLine
 10
281.4823563812524
 20
-2317.109063515772
 30
0.0
 11
281.4823563812524
 21
-2317.509063515772
 31
0.0
  0
LINE
  5
E5
330
2
100
AcDbEntity
  8
0
 62
     7
100
AcDbLine
 10
285.0823563812523
 20
-2317.509063515772
 30
0.0
 11
285.0823563812523
 21
-2317.009063515772
 31
0.0
  0
LINE
  5
E6
330
2
100
AcDbEntity
  8
0
 62
     7
100
AcDbLine
 10
282.1743563812524
 20
-2315.509063515772
 30
0.0
 11
282.1743563812524
 21
-2315.620866834096
 31
0.0
  0
LINE
  5
E7
330
2
100
AcDbEntity
  8
0
 62
     7
100
AcDbLine
 10
282.1743563812524
 20
-2316.597260197449
 30
0.0
 11
282.1743563812524
 21
-2316.609063515772
 31
0.0
  0
LINE
  5
E8
330
2
100
AcDbEntity
  8
0
 62
     7
100
AcDbLine
 10
284.3903563812523
 20
-2316.709063515772
 30
0.0
 11
284.3903563812523
 21
-2316.663063515772
 31
0.0
  0
LINE
  5
E9
330
2
100
AcDbEntity
  8
0
 62
     7
100
AcDbLine
 10
284.3903563812523
 20
-2315.555063515772
 30
0.0
 11
284.3903563812523
 21
-2315.509063515772
 31
0.0
  0
LINE
  5
EA
330
2
100
AcDbEntity
  8
0
 62
     7
100
AcDbLine
 10
282.6823563812522
 20
-2316.709063515772
 30
0.0
 11
282.6823563812522
 21
-2317.009063515772
 31
0.0
  0
LINE
  5
EB
330
2
100
AcDbEntity
  8
0
 62
     7
100
AcDbLine
 10
283.882356381252
 20
-2317.009063515772
 30
0.0
 11
283.882356381252
 21
-2316.709063515772
 31
0.0
  0
LWPOLYLINE
  5
EC
330
2
100
AcDbEntity
  8
0
 62
     7
100
AcDbPolyline
 90
        7
 70
   128
 43
0.0
 10
224.449666995939
 20
-2315.111897348252
 10
224.5190043884067
 20
-2315.119936065507
 10
224.7659924672221
 20
-2315.210343273641
 10
224.9197736878655
 20
-2315.325603895595
 10
225.0705771530829
 20
-2315.5104227767
 10
225.1890707570637
 20
-2315.77396188989
 10
225.2375948611252
 20
-2316.109063515772
  0
LWPOLYLINE
  5
ED
330
2
100
AcDbEntity
  8
0
 62
     7
100
AcDbPolyline
 90
        9
 70
   128
 43
0.0
 10
225.2375948611252
 20
-2316.109063515772
 10
225.2214906360841
 20
-2316.304025574838
 10
225.1737968372967
 20
-2316.491495351311
 10
225.0963463107046
 20
-2316.664268486814
 10
224.9921154366093
 20
-2316.815705406642
 10
224.8651097490487
 20
-2316.939986474894
 10
224.7202100053709
 20
-2317.032335639813
 10
224.5629846214642
 20
-2317.089203974783
 10
224.4463417534138
 20
-2317.102902225568
  0
LWPOLYLINE
  5
EE
330
2
100
AcDbEntity
  8
0
 62
     7
100
AcDbPolyline
 90
       12
 70
   128
 43
0.0
 10
231.332050696963
 20
-2315.577334204743
 10
231.3747412848702
 20
-2315.578505276733
 10
231.4903364366982
 20
-2315.641034342854
 10
231.5895638684715
 20
-2315.748997903035
 10
231.6631902030239
 20
-2315.893642002465
 10
231.6987079161203
 20
-2316.06669075472
 10
231.7000938314677
 20
-2316.109063515772
 10
231.674794394823
 20
-2316.288320093493
 10
231.6039076093057
 20
-2316.447397736542
 10
231.5032213910099
 20
-2316.566341013901
 10
231.397019429814
 20
-2316.632161313672
 10
231.3312597296408
 20
-2316.642563202089
  0
LINE
  5
EF
330
2
100
AcDbEntity
  8
0
 62
     7
100
AcDbLine
 10
230.1823563812522
 20
-2318.109063515772
 30
0.0
 11
234.5823563812523
 21
-2318.109063515772
 31
0.0
  0
LINE
  5
F0
330
2
100
AcDbEntity
  8
0
 62
     7
100
AcDbLine
 10
234.5823563812523
 20
-2317.609063515772
 30
0.0
 11
230.1823563812522
 21
-2317.609063515772
 31
0.0
  0
LINE
  5
F1
330
2
100
AcDbEntity
  8
0
 62
     7
100
AcDbLine
 10
231.132356381252
 20
-2317.109063515772
 30
0.0
 11
233.632356381252
 21
-2317.109063515772
 31
0.0
  0
LWPOLYLINE
  5
F2
330
2
100
AcDbEntity
  8
0
 62
     7
100
AcDbPolyline
 90
        6
 70
   128
 43
0.0
 10
233.632356381252
 20
-2316.659063515772
 10
233.6203626735441
 20
-2316.631231668529
 10
233.5891560078785
 20
-2316.552194804248
 10
233.5481798214459
 20
-2316.423935384483
 10
233.5137625592051
 20
-2316.250767219006
 10
233.5101173518055
 20
-2316.169063515772
  0
LWPOLYLINE
  5
F3
330
2
100
AcDbEntity
  8
0
 62
     7
100
AcDbPolyline
 90
        6
 70
   128
 43
0.0
 10
233.5076489410266
 20
-2316.049063515772
 10
233.5231955524464
 20
-2315.905313633487
 10
233.5577456209521
 20
-2315.760437835705
 10
233.5989546558917
 20
-2315.639903242672
 10
233.627579856613
 20
-2315.570007392915
 10
233.632356381252
 20
-2315.559063515772
  0
LINE
  5
F4
330
2
100
AcDbEntity
  8
0
 62
     7
100
AcDbLine
 10
233.632356381252
 20
-2315.109063515772
 30
0.0
 11
231.132356381252
 21
-2315.109063515772
 31
0.0
  0
LINE
  5
F5
330
2
100
AcDbEntity
  8
0
 62
     7
100
AcDbLine
 10
231.7323563812524
 20
-2317.609063515772
 30
0.0
 11
231.882356381252
 21
-2317.594289805269
 31
0.0
  0
LWPOLYLINE
  5
F6
330
2
100
AcDbEntity
  8
0
 62
     7
100
AcDbPolyline
 90
        6
 70
   128
 43
0.0
 10
232.8427990694599
 20
-2315.109063515772
 10
232.7930165530319
 20
-2315.048403343993
 10
232.5657117307814
 20
-2314.861859097318
 10
232.3063815297996
 20
-2314.723244217006
 10
232.0249918642762
 20
-2314.637885595167
 10
231.7323563812524
 20
-2314.609063515772
  0
LWPOLYLINE
  5
F7
330
2
100
AcDbEntity
  8
0
 62
     7
100
AcDbPolyline
 90
        7
 70
   128
 43
0.0
 10
231.7323563812524
 20
-2314.609063515772
 10
231.4397208982282
 20
-2314.637885595167
 10
231.1583312327047
 20
-2314.723244217006
 10
230.8990010317229
 20
-2314.861859097318
 10
230.6716962094724
 20
-2315.048403343993
 10
230.4851519627982
 20
-2315.275708166243
 10
230.3620794002331
 20
-2315.505960735904
  0
LWPOLYLINE
  5
F8
330
2
100
AcDbEntity
  8
0
 62
     7
100
AcDbPolyline
 90
        7
 70
   128
 43
0.0
 10
230.3620794002331
 20
-2316.71216629564
 10
230.4851519627982
 20
-2316.942418865302
 10
230.6716962094724
 20
-2317.169723687552
 10
230.8990010317229
 20
-2317.356267934226
 10
231.1583312327047
 20
-2317.494882814539
 10
231.4397208982282
 20
-2317.580241436377
 10
231.7323563812524
 20
-2317.609063515772
  0
ARC
  5
F9
330
2
100
AcDbEntity
  8
0
 62
     7
100
AcDbCircle
 10
231.7323563812524
 20
-2316.109063515772
 30
0.0
 40
2.249999999999933
100
AcDbArc
 50
89.99999999999998
 51
163.0678625775747
  0
ARC
  5
FA
330
2
100
AcDbEntity
  8
0
 62
     7
100
AcDbCircle
 10
231.7323563812524
 20
-2316.109063515772
 30
0.0
 40
2.249999999999941
100
AcDbArc
 50
196.9321374224253
 51
226.4577809718832
  0
ARC
  5
FB
330
2
100
AcDbEntity
  8
0
 62
     7
100
AcDbCircle
 10
231.7323563812524
 20
-2316.109063515772
 30
0.0
 40
2.24999999999993
100
AcDbArc
 50
243.4180739547842
 51
296.4028887449145
  0
ARC
  5
FC
330
2
100
AcDbEntity
  8
0
 62
     7
100
AcDbCircle
 10
231.7323563812524
 20
-2316.109063515772
 30
0.0
 40
2.249999999999922
100
AcDbArc
 50
318.1078217024733
 51
345.8509954911658
  0
ARC
  5
FD
330
2
100
AcDbEntity
  8
0
 62
     7
100
AcDbCircle
 10
231.7323563812524
 20
-2316.109063515772
 30
0.0
 40
2.249999999999929
100
AcDbArc
 50
14.14900450883426
 51
89.99999999999998
  0
ARC
  5
FE
330
2
100
AcDbEntity
  8
0
 62
     7
100
AcDbCircle
 10
231.7533563812522
 20
-2316.109063515772
 30
0.0
 40
5.684081960724846
100
AcDbArc
 50
188.9560477807557
 51
352.9260129617309
  0
ARC
  5
FF
330
2
100
AcDbEntity
  8
0
 62
     7
100
AcDbCircle
 10
231.7533563812522
 20
-2316.109063515772
 30
0.0
 40
5.684081960724849
100
AcDbArc
 50
7.073987038269102
 51
171.0439522192442
  0
ARC
  5
100
330
2
100
AcDbEntity
  8
0
 62
     7
100
AcDbCircle
 10
231.7533563812522
 20
-2316.109063515772
 30
0.0
 40
9.000000000000003
100
AcDbArc
 50
180.0
 51
355.5391563020911
  0
ARC
  5
101
330
2
100
AcDbEntity
  8
0
 62
     7
100
AcDbCircle
 10
231.7533563812522
 20
-2316.109063515772
 30
0.0
 40
9.000000000000003
100
AcDbArc
 50
4.460843697908861
 51
180.0
  0
ARC
  5
102
330
2
100
AcDbEntity
  8
0
 62
     7
100
AcDbCircle
 10
231.7533563812522
 20
-2316.109063515772
 30
0.0
 40
5.586968532733898
100
AcDbArc
 50
189.0456236840169
 51
352.8024067229119
  0
ARC
  5
103
330
2
100
AcDbEntity
  8
0
 62
     7
100
AcDbCircle
 10
231.7533563812522
 20
-2316.109063515772
 30
0.0
 40
5.586968532733891
100
AcDbArc
 50
7.197593277088113
 51
170.954376315983
  0
LWPOLYLINE
  5
104
330
2
100
AcDbEntity
  8
0
 62
     7
100
AcDbPolyline
 90
        9
 70
   128
 43
0.0
 10
236.6378003604659
 20
-2318.821336437084
 10
236.634947204001
 20
-2318.821334983342
 10
236.6045824826497
 20
-2318.828957936327
 10
236.5754850051557
 20
-2318.849379870609
 10
236.551991718421
 20
-2318.879556919429
 10
236.5376042708994
 20
-2318.91499122697
 10
236.5344670957624
 20
-2318.950401348807
 10
236.5430477855015
 20
-2318.980509445369
 10
236.5444756227116
 20
-2318.982979624477
  0
LWPOLYLINE
  5
105
330
2
100
AcDbEntity
  8
0
 62
     7
100
AcDbPolyline
 90
        9
 70
   128
 43
0.0
 10
231.8466811190078
 20
-2310.522874485752
 10
231.8452557997516
 20
-2310.525346118606
 10
231.8234717681393
 20
-2310.547831262183
 10
231.7912371155085
 20
-2310.562819449736
 10
231.7533563812521
 20
-2310.568076708458
 10
231.7154756469958
 20
-2310.562819449736
 10
231.6832409943654
 20
-2310.547831262183
 10
231.6614569627527
 20
-2310.525346118606
 10
231.6600316434965
 20
-2310.522874485752
  0
LWPOLYLINE
  5
106
330
2
100
AcDbEntity
  8
0
 62
     7
100
AcDbPolyline
 90
        9
 70
   128
 43
0.0
 10
226.9622371397927
 20
-2318.982979624477
 10
226.9636649770032
 20
-2318.980509445369
 10
226.9722456667418
 20
-2318.950401348807
 10
226.9691084916048
 20
-2318.91499122697
 10
226.9547210440832
 20
-2318.87955691943
 10
226.9312277573485
 20
-2318.849379870609
 10
226.9021302798551
 20
-2318.828957936327
 10
226.8717655585037
 20
-2318.821334983342
 10
226.8689124020388
 20
-2318.821336437084
  0
ARC
  5
107
330
2
100
AcDbEntity
  8
0
 62
     7
100
AcDbCircle
 10
231.7533563812522
 20
-2316.109063515772
 30
0.0
 40
3.400000000000011
100
AcDbArc
 50
192.4293460831461
 51
323.7742214979285
  0
ARC
  5
108
330
2
100
AcDbEntity
  8
0
 62
     7
100
AcDbCircle
 10
231.7533563812522
 20
-2316.109063515772
 30
0.0
 40
3.399999999999995
100
AcDbArc
 50
326.3108134767295
 51
350.6906590784402
  0
ARC
  5
109
330
2
100
AcDbEntity
  8
0
 62
     7
100
AcDbCircle
 10
231.7533563812522
 20
-2316.109063515772
 30
0.0
 40
3.400000000000012
100
AcDbArc
 50
9.309340921559806
 51
167.5706539168539
  0
LINE
  5
10A
330
2
100
AcDbEntity
  8
0
 62
     7
100
AcDbLine
 10
283.1759485489433
 20
-2316.609063515772
 30
0.0
 11
283.7759485489432
 21
-2316.609063515772
 31
0.0
  0
LINE
  5
10B
330
2
100
AcDbEntity
  8
0
 62
     7
100
AcDbLine
 10
283.7759485489432
 20
-2315.609063515772
 30
0.0
 11
283.1759485489433
 21
-2315.609063515772
 31
0.0
  0
LWPOLYLINE
  5
10C
330
2
100
AcDbEntity
  8
0
 62
     7
100
AcDbPolyline
 90
        7
 70
   128
 43
0.0
 10
284.1085019704105
 20
-2315.859063515772
 10
284.1082208795373
 20
-2315.858051396739
 10
284.0753709724276
 20
-2315.778065777918
 10
284.0326304271716
 20
-2315.718496636919
 10
283.9837454430621
 20
-2315.67837794246
 10
283.9343837105971
 20
-2315.660219548222
 10
283.9189536123485
 20
-2315.659063515772
  0
LWPOLYLINE
  5
10D
330
2
100
AcDbEntity
  8
0
 62
     7
100
AcDbPolyline
 90
        5
 70
   128
 43
0.0
 10
284.0310273721779
 20
-2316.109063483619
 10
284.0360911763836
 20
-2316.039370259828
 10
284.0513174940751
 20
-2315.972348590354
 10
284.0757256781157
 20
-2315.911512078117
 10
284.1085019704105
 20
-2315.859063515772
  0
LWPOLYLINE
  5
10E
330
2
100
AcDbEntity
  8
0
 62
     7
100
AcDbPolyline
 90
        5
 70
   128
 43
0.0
 10
284.1085019704105
 20
-2316.359063515772
 10
284.075698233154
 20
-2316.306563375361
 10
284.0511711726212
 20
-2316.245306281737
 10
284.0360829562468
 20
-2316.178693277266
 10
284.0310273721747
 20
-2316.109063515772
  0
LWPOLYLINE
  5
10F
330
2
100
AcDbEntity
  8
0
 62
     7
100
AcDbPolyline
 90
        7
 70
   128
 43
0.0
 10
283.9189536123485
 20
-2316.559063515772
 10
283.9664523709561
 20
-2316.548551456812
 10
284.0131616766588
 20
-2316.518505579123
 10
284.0550962288402
 20
-2316.472045343408
 10
284.0891096760487
 20
-2316.412737994513
 10
284.1082208795319
 20
-2316.360075634801
 10
284.1085019704105
 20
-2316.359063515772
  0
LWPOLYLINE
  5
110
330
2
100
AcDbEntity
  8
0
 62
     7
100
AcDbPolyline
 90
        9
 70
   128
 43
0.0
 10
283.094110887103
 20
-2316.109063515772
 10
283.094347217344
 20
-2316.128059500692
 10
283.0950559155244
 20
-2316.147031971296
 10
283.096236104378
 20
-2316.165957442376
 10
283.0978863229984
 20
-2316.184812486901
 10
283.100004528651
 20
-2316.203573765021
 10
283.1025880993002
 20
-2316.222218052951
 10
283.1056338368535
 20
-2316.240722271729
 10
283.1091379711243
 20
-2316.259063515772
  0
LWPOLYLINE
  5
111
330
2
100
AcDbEntity
  8
0
 62
     7
100
AcDbPolyline
 90
        9
 70
   128
 43
0.0
 10
283.1091379711243
 20
-2315.959063515772
 10
283.1056338368535
 20
-2315.977404759816
 10
283.1025880993002
 20
-2315.995908978593
 10
283.100004528651
 20
-2316.014553266524
 10
283.0978863229984
 20
-2316.033314544643
 10
283.096236104378
 20
-2316.052169589168
 10
283.0950559155244
 20
-2316.071095060248
 10
283.094347217344
 20
-2316.090067530852
 10
283.094110887103
 20
-2316.109063515772
  0
LINE
  5
112
330
2
100
AcDbEntity
  8
0
 62
     7
100
AcDbLine
 10
283.1739815449378
 20
-2315.659063515772
 30
0.0
 11
281.0805364522021
 21
-2315.659063515772
 31
0.0
  0
LWPOLYLINE
  5
113
330
2
100
AcDbEntity
  8
0
 62
     7
100
AcDbPolyline
 90
        4
 70
   128
 43
0.0
 10
283.3557781345648
 20
-2315.659063515772
 10
283.2765755517339
 20
-2315.675916868789
 10
283.211968917768
 20
-2315.67461810623
 10
283.1739815449378
 20
-2315.659063515772
  0
LINE
  5
114
330
2
100
AcDbEntity
  8
0
 62
     7
100
AcDbLine
 10
283.9189536123485
 20
-2315.659063515772
 30
0.0
 11
283.3557781345648
 21
-2315.659063515772
 31
0.0
  0
LINE
  5
115
330
2
100
AcDbEntity
  8
0
 62
     7
100
AcDbLine
 10
283.3557781345648
 20
-2316.559063515772
 30
0.0
 11
283.9189536123485
 21
-2316.559063515772
 31
0.0
  0
LWPOLYLINE
  5
116
330
2
100
AcDbEntity
  8
0
 62
     7
100
AcDbPolyline
 90
        4
 70
   128
 43
0.0
 10
283.1739815449378
 20
-2316.559063515772
 10
283.2192864988001
 20
-2316.542210162756
 10
283.2863707171045
 20
-2316.543508925315
 10
283.3557781345648
 20
-2316.559063515772
  0
LINE
  5
117
330
2
100
AcDbEntity
  8
0
 62
     7
100
AcDbLine
 10
281.0805364512471
 20
-2316.559063515772
 30
0.0
 11
283.1739815449378
 21
-2316.559063515772
 31
0.0
  0
LINE
  5
118
330
2
100
AcDbEntity
  8
0
 62
     7
100
AcDbLine
 10
284.3410910307329
 20
-2315.659063515767
 30
0.0
 11
283.9189536123485
 21
-2315.659063515772
 31
0.0
  0
LWPOLYLINE
  5
119
330
2
100
AcDbEntity
  8
0
 62
     7
100
AcDbPolyline
 90
        7
 70
   128
 43
0.0
 10
284.434385385146
 20
-2315.859063515772
 10
284.4346628542471
 20
-2315.858051396739
 10
284.4432828988824
 20
-2315.778065777915
 10
284.4286153718307
 20
-2315.718496636945
 10
284.3975652183371
 20
-2315.678377942475
 10
284.3560279069734
 20
-2315.660219548226
 10
284.3410910307329
 20
-2315.659063515772
  0
LWPOLYLINE
  5
11A
330
2
100
AcDbEntity
  8
0
 62
     7
100
AcDbPolyline
 90
        7
 70
   128
 43
0.0
 10
284.3410910307329
 20
-2316.559063515772
 10
284.384083378874
 20
-2316.548551456812
 10
284.4176355853432
 20
-2316.518505579123
 10
284.4383369599072
 20
-2316.472045343408
 10
284.443401663464
 20
-2316.412737994513
 10
284.4346628542475
 20
-2316.360075634805
 10
284.434385385146
 20
-2316.359063515772
  0
LINE
  5
11B
330
2
100
AcDbEntity
  8
0
 62
     7
100
AcDbLine
 10
283.9189536123485
 20
-2316.559063515772
 30
0.0
 11
284.3410910307329
 21
-2316.559063515772
 31
0.0
  0
LWPOLYLINE
  5
11C
330
2
100
AcDbEntity
  8
0
 62
     7
100
AcDbPolyline
 90
       13
 70
   128
 43
0.0
 10
282.3666866379845
 20
-2316.050079674275
 10
282.3732765990094
 20
-2316.049294121464
 10
282.4276608553228
 20
-2316.063178521882
 10
282.4457195293025
 20
-2316.072810093571
 10
282.4640788488236
 20
-2316.088115688113
 10
282.4698383317168
 20
-2316.0965872281
 10
282.4726374709872
 20
-2316.104916691307
 10
282.4729845039324
 20
-2316.109063515772
 10
282.4715546256785
 20
-2316.117478571999
 10
282.4665335125555
 20
-2316.12690909756
 10
282.4535189408107
 20
-2316.13986567499
 10
282.4196805396269
 20
-2316.158274025821
 10
282.3659905528011
 20
-2316.168848570483
  0
LINE
  5
11D
330
2
100
AcDbEntity
  8
0
 62
     7
100
AcDbLine
 10
282.1552021574498
 20
-2315.959063515772
 30
0.0
 11
283.094110887103
 21
-2315.959063515772
 31
0.0
  0
LINE
  5
11E
330
2
100
AcDbEntity
  8
0
 62
     7
100
AcDbLine
 10
282.1552021574498
 20
-2316.259063515772
 30
0.0
 11
283.0941108871025
 21
-2316.259063515772
 31
0.0
  0
LINE
  5
11F
330
2
100
AcDbEntity
  8
0
 62
     7
100
AcDbLine
 10
283.0941108871025
 20
-2316.259063515772
 30
0.0
 11
283.1091379711243
 21
-2316.259063515772
 31
0.0
  0
LINE
  5
120
330
2
100
AcDbEntity
  8
0
 62
     7
100
AcDbLine
 10
283.094110887103
 20
-2315.959063515772
 30
0.0
 11
283.1091379711243
 21
-2315.959063515772
 31
0.0
  0
LINE
  5
121
330
2
100
AcDbEntity
  8
0
 62
     7
100
AcDbLine
 10
282.1823563812523
 20
-2316.609063515772
 30
0.0
 11
278.5823563812523
 21
-2316.609063515772
 31
0.0
  0
LINE
  5
122
330
2
100
AcDbEntity
  8
0
 62
     7
100
AcDbLine
 10
278.5823563812523
 20
-2317.109063515772
 30
0.0
 11
282.1823563812523
 21
-2317.109063515772
 31
0.0
  0
LINE
  5
123
330
2
100
AcDbEntity
  8
0
 62
     7
100
AcDbLine
 10
281.0805362756468
 20
-2315.659063515772
 30
0.0
 11
280.6958646274261
 21
-2315.659063469979
 31
0.0
  0
LINE
  5
124
330
2
100
AcDbEntity
  8
0
 62
     7
100
AcDbLine
 10
280.6958646956373
 20
-2316.559063465289
 30
0.0
 11
281.0805362879823
 21
-2316.559063515772
 31
0.0
  0
LINE
  5
125
330
2
100
AcDbEntity
  8
0
 62
     7
100
AcDbLine
 10
280.6958646274261
 20
-2315.659063469979
 30
0.0
 11
279.4092150966553
 21
-2315.659063469979
 31
0.0
  0
LINE
  5
126
330
2
100
AcDbEntity
  8
0
 62
     7
100
AcDbLine
 10
279.409215059165
 20
-2316.559063465289
 30
0.0
 11
280.6958646956373
 21
-2316.559063465289
 31
0.0
  0
LINE
  5
127
330
2
100
AcDbEntity
  8
0
 62
     7
100
AcDbLine
 10
236.8823563812521
 20
-2315.409063515772
 30
0.0
 11
236.8823563812521
 21
-2316.049063515772
 31
0.0
  0
LINE
  5
128
330
2
100
AcDbEntity
  8
0
 62
     7
100
AcDbLine
 10
236.8823563812521
 20
-2316.169063515772
 30
0.0
 11
236.8823563812521
 21
-2316.809063515772
 31
0.0
  0
LINE
  5
129
330
2
100
AcDbEntity
  8
0
 62
     7
100
AcDbLine
 10
275.8823563812521
 20
-2316.809063515772
 30
0.0
 11
275.8823563812521
 21
-2316.169063515772
 31
0.0
  0
LINE
  5
12A
330
2
100
AcDbEntity
  8
0
 62
     7
100
AcDbLine
 10
275.8823563812521
 20
-2316.049063515772
 30
0.0
 11
275.8823563812521
 21
-2315.409063515772
 31
0.0
  0
LINE
  5
12B
330
2
100
AcDbEntity
  8
0
 62
     7
100
AcDbLine
 10
279.4092150966553
 20
-2315.659063469979
 30
0.0
 11
279.0964843841093
 21
-2315.659063515772
 31
0.0
  0
LINE
  5
12C
330
2
100
AcDbEntity
  8
0
 62
     7
100
AcDbLine
 10
279.0964843958309
 20
-2316.559063515772
 30
0.0
 11
279.409215059165
 21
-2316.559063465289
 31
0.0
  0
LINE
  5
12D
330
2
100
AcDbEntity
  8
0
 62
     7
100
AcDbLine
 10
279.0964843876695
 20
-2315.659063516314
 30
0.0
 11
275.8823563812521
 21
-2315.659063516043
 31
0.0
  0
LINE
  5
12E
330
2
100
AcDbEntity
  8
0
 62
     7
100
AcDbLine
 10
275.8823563812521
 20
-2316.559063515772
 30
0.0
 11
279.096484395835
 21
-2316.559063515772
 31
0.0
  0
LINE
  5
12F
330
2
100
AcDbEntity
  8
0
 62
     7
100
AcDbLine
 10
280.882356381252
 20
-2315.609063515772
 30
0.0
 11
279.8823563812521
 21
-2315.609063515772
 31
0.0
  0
LINE
  5
130
330
2
100
AcDbEntity
  8
0
 62
     7
100
AcDbLine
 10
284.6823563812522
 20
-2315.659063515767
 30
0.0
 11
284.3410910307329
 21
-2315.659063515767
 31
0.0
  0
LINE
  5
131
330
2
100
AcDbEntity
  8
0
 62
     7
100
AcDbLine
 10
284.3458834477905
 20
-2316.559063502635
 30
0.0
 11
284.6823563812522
 21
-2316.559063502635
 31
0.0
  0
LINE
  5
132
330
2
100
AcDbEntity
  8
0
 62
     7
100
AcDbLine
 10
284.4823563812524
 20
-2315.609063515772
 30
0.0
 11
283.7722543298086
 21
-2315.609063515772
 31
0.0
  0
LINE
  5
133
330
2
100
AcDbEntity
  8
0
 62
     7
100
AcDbLine
 10
283.7722543298086
 20
-2316.609063515772
 30
0.0
 11
284.4823563812524
 21
-2316.609063515772
 31
0.0
  0
LWPOLYLINE
  5
134
330
2
100
AcDbEntity
  8
0
 62
     7
100
AcDbPolyline
 90
        6
 70
   128
 43
0.0
 10
286.8957454567889
 20
-2316.109063515772
 10
286.8938022389156
 20
-2316.093429748694
 10
286.8885723444232
 20
-2316.079751212359
 10
286.877230414293
 20
-2316.064592833608
 10
286.8576292220895
 20
-2316.052308253812
 10
286.839153673909
 20
-2316.049748413355
  0
LWPOLYLINE
  5
135
330
2
100
AcDbEntity
  8
0
 62
     7
100
AcDbPolyline
 90
        7
 70
   128
 43
0.0
 10
286.8393274512336
 20
-2316.168488700289
 10
286.8422116132378
 20
-2316.168981420259
 10
286.8651168534697
 20
-2316.162438052277
 10
286.88159906192
 20
-2316.148832917127
 10
286.890575989576
 20
-2316.134184808436
 10
286.8948499356147
 20
-2316.119727188195
 10
286.8957454567889
 20
-2316.109063515772
  0
LINE
  5
136
330
2
100
AcDbEntity
  8
0
 62
     7
100
AcDbLine
 10
283.1423563812523
 20
-2315.423206387793
 30
0.0
 11
282.1823563812523
 21
-2315.619165567215
 31
0.0
  0
ARC
  5
137
330
2
100
AcDbEntity
  8
0
 62
     7
100
AcDbCircle
 10
283.2823563812521
 20
-2316.109063515772
 30
0.0
 40
0.7000000000000042
100
AcDbArc
 50
258.4630409672129
 51
314.4153085972249
  0
ARC
  5
138
330
2
100
AcDbEntity
  8
0
 62
     7
100
AcDbCircle
 10
283.2823563812521
 20
-2316.109063515772
 30
0.0
 40
0.700000000000002
100
AcDbArc
 50
45.15981770001547
 51
101.5369590327871
  0
LINE
  5
139
330
2
100
AcDbEntity
  8
0
 62
     7
100
AcDbLine
 10
282.1823563812523
 20
-2316.598961464329
 30
0.0
 11
283.1423563812523
 21
-2316.794920643751
 31
0.0
  0
ARC
  5
13A
330
2
100
AcDbEntity
  8
0
 62
     7
100
AcDbCircle
 10
282.2823563812521
 20
-2316.109063515772
 30
0.0
 40
0.5000000000000002
100
AcDbArc
 50
101.5369590327871
 51
115.8419327631378
  0
ARC
  5
13B
330
2
100
AcDbEntity
  8
0
 62
     7
100
AcDbCircle
 10
282.2823563812521
 20
-2316.109063515772
 30
0.0
 40
0.5000000000000004
100
AcDbArc
 50
244.1580672368622
 51
258.4630409672129
  0
LWPOLYLINE
  5
13C
330
2
100
AcDbEntity
  8
0
 62
     7
100
AcDbPolyline
 90
       12
 70
   128
 43
0.0
 10
286.6527990168378
 20
-2316.663063515772
 10
286.594068011172
 20
-2316.654277855423
 10
286.5628115468252
 20
-2316.631199768067
 10
286.5606129744255
 20
-2316.598866942402
 10
286.5961575808583
 20
-2316.567457805491
 10
286.6499608109998
 20
-2316.557736350843
 10
286.7222472874691
 20
-2316.565979461698
 10
286.8042791233747
 20
-2316.588017392393
 10
286.9052347659362
 20
-2316.620374695826
 10
287.0173732556576
 20
-2316.651243445574
 10
287.0981627863165
 20
-2316.662717727815
 10
287.1124184246091
 20
-2316.663063515772
  0
LWPOLYLINE
  5
13D
330
2
100
AcDbEntity
  8
0
 62
     7
100
AcDbPolyline
 90
        3
 70
   128
 43
0.0
 10
286.6527990168378
 20
-2315.555063515772
 10
286.754188053686
 20
-2315.573940608008
 10
286.8214940078719
 20
-2315.609063515772
  0
LWPOLYLINE
  5
13E
330
2
100
AcDbEntity
  8
0
 62
     7
100
AcDbPolyline
 90
        3
 70
   128
 43
0.0
 10
286.8214940078719
 20
-2316.609063515772
 10
286.754188053686
 20
-2316.644186423536
 10
286.6527990168378
 20
-2316.663063515772
  0
LWPOLYLINE
  5
13F
330
2
100
AcDbEntity
  8
0
 62
     7
100
AcDbPolyline
 90
       12
 70
   128
 43
0.0
 10
287.1124184246091
 20
-2315.555063515772
 10
287.0321722822336
 20
-2315.563849176121
 10
286.9405290760996
 20
-2315.586927263478
 10
286.8385208611011
 20
-2315.619260089142
 10
286.7290810539334
 20
-2315.650669226053
 10
286.6556727163051
 20
-2315.6603906807
 10
286.59992654809
 20
-2315.652147569847
 10
286.5671891998003
 20
-2315.630109639151
 10
286.5583972741669
 20
-2315.597752335718
 10
286.5868664002418
 20
-2315.56688358597
 10
286.6393774628504
 20
-2315.555409303728
 10
286.6527990168378
 20
-2315.555063515772
  0
LWPOLYLINE
  5
140
330
2
100
AcDbEntity
  8
0
 62
     7
100
AcDbPolyline
 90
        6
 70
   128
 43
0.0
 10
286.49317579967
 20
-2316.169063515772
 10
286.4945469044605
 20
-2316.184773842135
 10
286.4966092246131
 20
-2316.203534558985
 10
286.4991248986379
 20
-2316.222184320215
 10
286.5020909718923
 20
-2316.240701221804
 10
286.5055039607423
 20
-2316.259063515772
  0
LWPOLYLINE
  5
141
330
2
100
AcDbEntity
  8
0
 62
     7
100
AcDbPolyline
 90
        6
 70
   128
 43
0.0
 10
286.5055039607427
 20
-2315.959063515772
 10
286.5020909718923
 20
-2315.97742580974
 10
286.4991248986379
 20
-2315.995942711329
 10
286.4966092246131
 20
-2316.014592472559
 10
286.4945469044605
 20
-2316.033353189409
 10
286.49317579967
 20
-2316.049063515772
  0
LWPOLYLINE
  5
142
330
2
100
AcDbEntity
  8
0
 62
     7
100
AcDbPolyline
 90
        3
 70
   128
 43
0.0
 10
283.8562059435107
 20
-2316.609063515772
 10
283.9723181246858
 20
-2316.656194136865
 10
284.0357580585455
 20
-2316.655742922701
  0
LWPOLYLINE
  5
143
330
2
100
AcDbEntity
  8
0
 62
     7
100
AcDbPolyline
 90
        4
 70
   128
 43
0.0
 10
284.0364188717931
 20
-2315.559661112045
 10
284.0124285848332
 20
-2315.556165393402
 10
283.8814807709168
 20
-2315.591360187339
 10
283.8529739928972
 20
-2315.609063515772
  0
LINE
  5
144
330
2
100
AcDbEntity
  8
0
 62
     7
100
AcDbLine
 10
286.4908715639458
 20
-2315.959063515772
 30
0.0
 11
285.5519628342936
 21
-2315.959063515772
 31
0.0
  0
LINE
  5
145
330
2
100
AcDbEntity
  8
0
 62
     7
100
AcDbLine
 10
286.4908715639458
 20
-2316.259063515772
 30
0.0
 11
285.5519628342936
 21
-2316.259063515772
 31
0.0
  0
LINE
  5
146
330
2
100
AcDbEntity
  8
0
 62
     7
100
AcDbLine
 10
286.5055039607423
 20
-2316.259063515772
 30
0.0
 11
286.4908715639458
 21
-2316.259063515772
 31
0.0
  0
LINE
  5
147
330
2
100
AcDbEntity
  8
0
 62
     7
100
AcDbLine
 10
286.4908715639458
 20
-2315.959063515772
 30
0.0
 11
286.5055039607427
 21
-2315.959063515772
 31
0.0
  0
LINE
  5
148
330
2
100
AcDbEntity
  8
0
 62
     7
100
AcDbLine
 10
286.5826087207233
 20
-2316.609063515772
 30
0.0
 11
286.8694787227982
 21
-2316.609063515772
 31
0.0
  0
LINE
  5
149
330
2
100
AcDbEntity
  8
0
 62
     7
100
AcDbLine
 10
286.8708549206185
 20
-2315.609063515772
 30
0.0
 11
286.5826087207233
 21
-2315.609063515772
 31
0.0
  0
LINE
  5
14A
330
2
100
AcDbEntity
  8
0
 62
     7
100
AcDbLine
 10
285.0823563812523
 20
-2317.009063515772
 30
0.0
 11
282.1823563812523
 21
-2317.009063515772
 31
0.0
  0
LINE
  5
14B
330
2
100
AcDbEntity
  8
0
 62
     7
100
AcDbLine
 10
281.4823563812524
 20
-2317.509063515772
 30
0.0
 11
285.0823563812523
 21
-2317.509063515772
 31
0.0
  0
LINE
  5
14C
330
2
100
AcDbEntity
  8
0
 62
     7
100
AcDbLine
 10
282.1823563812523
 20
-2316.709063515772
 30
0.0
 11
282.7217440725917
 21
-2316.709063515772
 31
0.0
  0
LINE
  5
14D
330
2
100
AcDbEntity
  8
0
 62
     7
100
AcDbLine
 10
283.6429115087985
 20
-2316.709063515772
 30
0.0
 11
284.3903563812523
 21
-2316.709063515772
 31
0.0
  0
LINE
  5
14E
330
2
100
AcDbEntity
  8
0
 62
     7
100
AcDbLine
 10
284.3903563812523
 20
-2315.509063515772
 30
0.0
 11
283.6429115087985
 21
-2315.509063515772
 31
0.0
  0
LINE
  5
14F
330
2
100
AcDbEntity
  8
0
 62
     7
100
AcDbLine
 10
282.7217440725917
 20
-2315.509063515772
 30
0.0
 11
282.1743563812524
 21
-2315.509063515772
 31
0.0
  0
ARC
  5
150
330
2
100
AcDbEntity
  8
0
 62
     7
100
AcDbCircle
 10
282.7283563812525
 20
-2316.109063515772
 30
0.0
 40
0.7000000000000007
100
AcDbArc
 50
68.85854818432862
 51
89.99999999999998
  0
ARC
  5
151
330
2
100
AcDbEntity
  8
0
 62
     7
100
AcDbCircle
 10
282.7283563812525
 20
-2316.109063515772
 30
0.0
 40
0.6999999999999992
100
AcDbArc
 50
238.9972808661621
 51
266.2321336108463
  0
ARC
  5
152
330
2
100
AcDbEntity
  8
0
 62
     7
100
AcDbCircle
 10
282.7283563812525
 20
-2316.109063515772
 30
0.0
 40
0.7000000000000007
100
AcDbArc
 50
89.99999999999998
 51
121.0027191338379
  0
ARC
  5
153
330
2
100
AcDbEntity
  8
0
 62
     7
100
AcDbCircle
 10
282.7283563812525
 20
-2316.109063515772
 30
0.0
 40
0.7250000000000006
100
AcDbArc
 50
235.8515756551089
 51
266.3622380395091
  0
ARC
  5
154
330
2
100
AcDbEntity
  8
0
 62
     7
100
AcDbCircle
 10
282.7283563812525
 20
-2316.109063515772
 30
0.0
 40
0.7250000000000019
100
AcDbArc
 50
65.89651564093927
 51
124.148424344891
  0
ARC
  5
155
330
2
100
AcDbEntity
  8
0
 62
     7
100
AcDbCircle
 10
274.1283563812522
 20
-2316.109063515772
 30
0.0
 40
11.5
100
AcDbArc
 50
2.761230612922972
 51
176.5102735791101
  0
ARC
  5
156
330
2
100
AcDbEntity
  8
0
 62
     7
100
AcDbCircle
 10
274.1283563812522
 20
-2316.109063515772
 30
0.0
 40
11.5
100
AcDbArc
 50
183.4897264208899
 51
357.238769387077
  0
ARC
  5
157
330
2
100
AcDbEntity
  8
0
 62
     7
100
AcDbCircle
 10
231.7323563812524
 20
-2316.109063515772
 30
0.0
 40
0.9549678817091837
100
AcDbArc
 50
216.1352676033035
 51
231.0756767176607
  0
ARC
  5
158
330
2
100
AcDbEntity
  8
0
 62
     7
100
AcDbCircle
 10
231.7323563812524
 20
-2316.109063515772
 30
0.0
 40
0.9549678817091793
100
AcDbArc
 50
128.9243232823393
 51
143.8647323966964
  0
LWPOLYLINE
  5
159
330
2
100
AcDbEntity
  8
0
 62
     7
100
AcDbPolyline
 90
        9
 70
   128
 43
0.0
 10
231.7323563812524
 20
-2315.037227201344
 10
231.6816677836541
 20
-2315.038421978159
 10
231.6310911306332
 20
-2315.041998642149
 10
231.5807376264988
 20
-2315.047949375722
 10
231.5551304505543
 20
-2315.051924937105
 10
231.471688987297
 20
-2315.06939180636
 10
231.4475029255072
 20
-2315.075767680994
 10
231.4322422132122
 20
-2315.080100653921
 10
231.3583925268826
 20
-2315.109063515772
  0
LWPOLYLINE
  5
15A
330
2
100
AcDbEntity
  8
0
 62
     7
100
AcDbPolyline
 90
        4
 70
   128
 43
0.0
 10
231.132356381252
 20
-2315.224957987198
 10
231.0892545925953
 20
-2315.25159446423
 10
230.9242662867068
 20
-2315.404900304436
 10
230.8327775093921
 20
-2315.537363974131
  0
LWPOLYLINE
  5
15B
330
2
100
AcDbEntity
  8
0
 62
     7
100
AcDbPolyline
 90
        6
 70
   128
 43
0.0
 10
230.8262010463322
 20
-2316.681201814723
 10
230.8286264444764
 20
-2316.685379898645
 10
230.8619975790688
 20
-2316.734644253942
 10
230.9232181149295
 20
-2316.81203704031
 10
231.0201122308012
 20
-2316.910049819711
 10
231.132356381252
 20
-2316.994349505545
  0
LWPOLYLINE
  5
15C
330
2
100
AcDbEntity
  8
0
 62
     7
100
AcDbPolyline
 90
        8
 70
   128
 43
0.0
 10
231.3499214385206
 20
-2317.109063515772
 10
231.4023664676792
 20
-2317.128839692852
 10
231.4184321500511
 20
-2317.133898596281
 10
231.4306806698418
 20
-2317.137569830664
 10
231.505174905435
 20
-2317.156558563414
 10
231.5782403414418
 20
-2317.169813808543
 10
231.657251498526
 20
-2317.178292464502
 10
231.7323563812524
 20
-2317.180899830201
  0
LWPOLYLINE
  5
15D
330
2
100
AcDbEntity
  8
0
 62
     7
100
AcDbPolyline
 90
        4
 70
   128
 43
0.0
 10
231.7323563812524
 20
-2317.180899830201
 10
231.7830449787707
 20
-2317.179705051483
 10
231.833621631677
 20
-2317.176128387497
 10
231.882356381252
 20
-2317.170368958789
  0
LWPOLYLINE
  5
15E
330
2
100
AcDbEntity
  8
0
 62
     7
100
AcDbPolyline
 90
        8
 70
   128
 43
0.0
 10
232.1147913231539
 20
-2315.109063515772
 10
232.0623463387823
 20
-2315.089287352913
 10
232.0462806354285
 20
-2315.0842284423
 10
232.0340320926643
 20
-2315.080557200882
 10
231.9595378570966
 20
-2315.061568468129
 10
231.886472421268
 20
-2315.048313223024
 10
231.8074613661465
 20
-2315.039834574164
 10
231.7323563812524
 20
-2315.037227201344
  0
ARC
  5
15F
330
2
100
AcDbEntity
  8
0
 62
     7
100
AcDbCircle
 10
231.7323563812524
 20
-2316.109063515772
 30
0.0
 40
0.9243442456779751
100
AcDbArc
 50
217.3442806367424
 51
229.5255558372012
  0
ARC
  5
160
330
2
100
AcDbEntity
  8
0
 62
     7
100
AcDbCircle
 10
231.7323563812524
 20
-2316.109063515772
 30
0.0
 40
0.9243442456779714
100
AcDbArc
 50
130.4744441627988
 51
142.6557193632576
  0
LWPOLYLINE
  5
161
330
2
100
AcDbEntity
  8
0
 62
     7
100
AcDbPolyline
 90
        9
 70
   128
 43
0.0
 10
283.9189536123485
 20
-2316.559063515772
 10
283.8477469625486
 20
-2316.472713407029
 10
283.7935747161063
 20
-2316.364418205556
 10
283.7597059925792
 20
-2316.240713175889
 10
283.7481846597001
 20
-2316.109063515772
 10
283.7597059925792
 20
-2315.977413855655
 10
283.7935747161063
 20
-2315.853708825989
 10
283.8477469625486
 20
-2315.745413624515
 10
283.9189536123485
 20
-2315.659063515772
  0
LINE
  5
162
330
2
100
AcDbEntity
  8
0
 62
     7
100
AcDbLine
 10
284.434385385146
 20
-2316.359063515772
 30
0.0
 11
284.1085019704105
 21
-2316.359063515772
 31
0.0
  0
LINE
  5
163
330
2
100
AcDbEntity
  8
0
 62
     7
100
AcDbLine
 10
284.1085019704105
 20
-2315.859063515772
 30
0.0
 11
284.434385385146
 21
-2315.859063515772
 31
0.0
  0
LWPOLYLINE
  5
164
330
2
100
AcDbEntity
  8
0
 62
     7
100
AcDbPolyline
 90
        9
 70
   128
 43
0.0
 10
284.434385385146
 20
-2316.359063515772
 10
284.4672111329023
 20
-2316.306537486113
 10
284.4916411383837
 20
-2316.245541194115
 10
284.5067976293103
 20
-2316.178852127963
 10
284.5118599833817
 20
-2316.109063515772
 10
284.5068128926314
 20
-2316.039379083804
 10
284.4916411383837
 20
-2315.972585837429
 10
284.4672396731757
 20
-2315.91162675491
 10
284.434385385146
 20
-2315.859063515772
  0
LWPOLYLINE
  5
165
330
2
100
AcDbEntity
  8
0
 62
     7
100
AcDbPolyline
 90
        6
 70
   128
 43
0.0
 10
280.792748474144
 20
-2316.169063515772
 10
280.8073931557737
 20
-2316.247627272
 10
280.8752395684592
 20
-2316.371107045994
 10
280.9201278431833
 20
-2316.425842158464
 10
280.969828555053
 20
-2316.475288890051
 10
281.0805364735929
 20
-2316.559063516705
  0
LWPOLYLINE
  5
166
330
2
100
AcDbEntity
  8
0
 62
     7
100
AcDbPolyline
 90
        5
 70
   128
 43
0.0
 10
281.0805364767844
 20
-2315.65906351577
 10
280.9700771911025
 20
-2315.742613032466
 10
280.8756334775571
 20
-2315.84648219659
 10
280.8075543249552
 20
-2315.970070034394
 10
280.7927834684065
 20
-2316.049063515772
  0
LINE
  5
167
330
2
100
AcDbEntity
  8
0
 62
     7
100
AcDbLine
 10
283.0941108871025
 20
-2316.259063515772
 30
0.0
 11
283.094110887103
 21
-2316.109063515772
 31
0.0
  0
LINE
  5
168
330
2
100
AcDbEntity
  8
0
 62
     7
100
AcDbLine
 10
283.094110887103
 20
-2316.109063515772
 30
0.0
 11
283.094110887103
 21
-2315.959063515772
 31
0.0
  0
LWPOLYLINE
  5
169
330
2
100
AcDbEntity
  8
0
 62
     7
100
AcDbPolyline
 90
        3
 70
   128
 43
0.0
 10
280.6958646956373
 20
-2316.559063515772
 10
280.5985843255694
 20
-2316.343562786288
 10
280.5727336566743
 20
-2316.169063515772
  0
LWPOLYLINE
  5
16A
330
2
100
AcDbEntity
  8
0
 62
     7
100
AcDbPolyline
 90
        3
 70
   128
 43
0.0
 10
280.572714436109
 20
-2316.049063515772
 10
280.5985040182605
 20
-2315.874832857994
 10
280.6958646274261
 20
-2315.659063469979
  0
LWPOLYLINE
  5
16B
330
2
100
AcDbEntity
  8
0
 62
     7
100
AcDbPolyline
 90
        3
 70
   128
 43
0.0
 10
279.4092150966553
 20
-2315.659063515772
 10
279.461067138358
 20
-2315.874667724326
 10
279.4759653539322
 20
-2316.049063515772
  0
LWPOLYLINE
  5
16C
330
2
100
AcDbEntity
  8
0
 62
     7
100
AcDbPolyline
 90
        3
 70
   128
 43
0.0
 10
279.476023521077
 20
-2316.169063515772
 10
279.4610043208932
 20
-2316.343829918142
 10
279.409215059165
 20
-2316.559063465289
  0
LWPOLYLINE
  5
16D
330
2
100
AcDbEntity
  8
0
 62
     7
100
AcDbPolyline
 90
        5
 70
   128
 43
0.0
 10
279.096484395835
 20
-2316.559063516679
 10
279.1547384297278
 20
-2316.475242885275
 10
279.2132100218487
 20
-2316.370994990286
 10
279.2593958522007
 20
-2316.247430763629
 10
279.2698438614916
 20
-2316.169063515772
  0
LWPOLYLINE
  5
16E
330
2
100
AcDbEntity
  8
0
 62
     7
100
AcDbPolyline
 90
        6
 70
   128
 43
0.0
 10
279.2697623305958
 20
-2316.049063515772
 10
279.2592902108126
 20
-2315.970296238692
 10
279.2130139955243
 20
-2315.846723508597
 10
279.1845829890221
 20
-2315.792397199365
 10
279.1547345977351
 20
-2315.742878143876
 10
279.0964843876695
 20
-2315.659063516314
  0
LWPOLYLINE
  5
16F
330
2
100
AcDbEntity
  8
0
 62
     7
100
AcDbPolyline
 90
       20
 70
   128
 43
0.0
 10
287.4277880490181
 20
-2316.109063515772
 10
287.4413508495372
 20
-2315.994119903673
 10
287.4805695112099
 20
-2315.89163221548
 10
287.5411940835038
 20
-2315.812706582467
 10
287.6166549533236
 20
-2315.76589582163
 10
287.698774764528
 20
-2315.756272605248
 10
287.7786545613535
 20
-2315.784879758136
 10
287.8476381283507
 20
-2315.848617251393
 10
287.8982500256451
 20
-2315.940578138637
 10
287.925005668841
 20
-2316.050797030813
 10
287.925005668841
 20
-2316.167330000732
 10
287.8982500256451
 20
-2316.277548892907
 10
287.8476381283507
 20
-2316.36950978015
 10
287.7786545613535
 20
-2316.433247273408
 10
287.698774764528
 20
-2316.461854426296
 10
287.6166549533236
 20
-2316.452231209915
 10
287.5411940835038
 20
-2316.405420449077
 10
287.4805695112099
 20
-2316.326494816064
 10
287.4413508495372
 20
-2316.22400712787
 10
287.4277880490181
 20
-2316.109063515772
  0
LWPOLYLINE
  5
170
330
2
100
AcDbEntity
  8
0
 62
     7
100
AcDbPolyline
 90
        7
 70
   128
 43
0.0
 10
287.1449453365435
 20
-2316.109063515772
 10
287.1582934564726
 20
-2315.965677764785
 10
287.1974281639454
 20
-2315.832063515772
 10
287.2596824933207
 20
-2315.717326358994
 10
287.3408139149323
 20
-2315.629285442076
 10
287.4352934564726
 20
-2315.573940608008
 10
287.5362681227279
 20
-2315.555063825705
  0
LWPOLYLINE
  5
171
330
2
100
AcDbEntity
  8
0
 62
     7
100
AcDbPolyline
 90
        8
 70
   128
 43
0.0
 10
287.5381317999981
 20
-2316.663059724261
 10
287.5366824933207
 20
-2316.663063515772
 10
287.4352934564726
 20
-2316.644186423536
 10
287.3408139149323
 20
-2316.588841589469
 10
287.2596824933207
 20
-2316.50080067255
 10
287.1974281639454
 20
-2316.386063515772
 10
287.1582934564726
 20
-2316.252449266759
 10
287.1449453365435
 20
-2316.109063515772
  0
LINE
  5
172
330
2
100
AcDbEntity
  8
0
 62
     7
100
AcDbLine
 10
286.4908715639458
 20
-2316.049063515772
 30
0.0
 11
286.4908715639458
 21
-2315.959063515772
 31
0.0
  0
LINE
  5
173
330
2
100
AcDbEntity
  8
0
 62
     7
100
AcDbLine
 10
286.4908715639458
 20
-2316.259063515772
 30
0.0
 11
286.4908715639458
 21
-2316.169063515772
 31
0.0
  0
LINE
  5
174
330
2
100
AcDbEntity
  8
0
 62
     7
100
AcDbLine
 10
286.6527990168378
 20
-2316.663063515772
 30
0.0
 11
286.6527990168378
 21
-2316.609063515772
 31
0.0
  0
LINE
  5
175
330
2
100
AcDbEntity
  8
0
 62
     7
100
AcDbLine
 10
286.6527990168378
 20
-2315.609063515772
 30
0.0
 11
286.6527990168378
 21
-2315.555063515772
 31
0.0
  0
ARC
  5
176
330
2
100
AcDbEntity
  8
0
 62
     7
100
AcDbCircle
 10
282.7283563812525
 20
-2316.109063515772
 30
0.0
 40
1.288057611510194
100
AcDbArc
 50
200.4483739091176
 51
202.8413876988215
  0
ARC
  5
177
330
2
100
AcDbEntity
  8
0
 62
     7
100
AcDbCircle
 10
282.7283563812525
 20
-2316.109063515772
 30
0.0
 40
1.288057611510194
100
AcDbArc
 50
27.76315332033345
 51
159.5516260908824
  0
ARC
  5
178
330
2
100
AcDbEntity
  8
0
 62
     7
100
AcDbCircle
 10
282.7283563812525
 20
-2316.109063515772
 30
0.0
 40
1.386853598087135
100
AcDbArc
 50
326.3150015148742
 51
334.3651639868127
  0
ARC
  5
179
330
2
100
AcDbEntity
  8
0
 62
     7
100
AcDbCircle
 10
282.7283563812525
 20
-2316.109063515772
 30
0.0
 40
1.386853598087131
100
AcDbArc
 50
199.103798165843
 51
201.1326456000656
  0
ARC
  5
17A
330
2
100
AcDbEntity
  8
0
 62
     7
100
AcDbCircle
 10
282.7283563812525
 20
-2316.109063515772
 30
0.0
 40
1.386853598087135
100
AcDbArc
 50
25.63483601318728
 51
161.0110365116385
  0
ARC
  5
17B
330
2
100
AcDbEntity
  8
0
 62
     7
100
AcDbCircle
 10
282.7283563812525
 20
-2316.109063515772
 30
0.0
 40
1.973526235791234
100
AcDbArc
 50
210.4447473978849
 51
314.8146850861358
  0
ARC
  5
17C
330
2
100
AcDbEntity
  8
0
 62
     7
100
AcDbCircle
 10
282.7283563812525
 20
-2316.109063515772
 30
0.0
 40
1.973526235791233
100
AcDbArc
 50
332.8683555961821
 51
343.6970693576956
  0
ARC
  5
17D
330
2
100
AcDbEntity
  8
0
 62
     7
100
AcDbCircle
 10
282.7283563812525
 20
-2316.109063515772
 30
0.0
 40
1.973526235791233
100
AcDbArc
 50
16.30293064230435
 51
165.3239491984168
  0
ARC
  5
17E
330
2
100
AcDbEntity
  8
0
 62
     7
100
AcDbCircle
 10
282.7283563812525
 20
-2316.109063515772
 30
0.0
 40
2.171118208945112
100
AcDbArc
 50
14.78354313585159
 51
166.6854965103438
  0
ARC
  5
17F
330
2
100
AcDbEntity
  8
0
 62
     7
100
AcDbCircle
 10
282.7283563812525
 20
-2316.109063515772
 30
0.0
 40
2.171118208945108
100
AcDbArc
 50
335.5100934766158
 51
345.2164568641484
  0
ARC
  5
180
330
2
100
AcDbEntity
  8
0
 62
     7
100
AcDbCircle
 10
282.7283563812525
 20
-2316.109063515772
 30
0.0
 40
2.171118208945105
100
AcDbArc
 50
207.4253243503386
 51
319.8471437440557
  0
ARC
  5
181
330
2
100
AcDbEntity
  8
0
 62
     7
100
AcDbCircle
 10
274.1283563812522
 20
-2316.109063515772
 30
0.0
 40
11.35
100
AcDbArc
 50
183.53590440786
 51
357.202248511038
  0
ARC
  5
182
330
2
100
AcDbEntity
  8
0
 62
     7
100
AcDbCircle
 10
274.1283563812522
 20
-2316.109063515772
 30
0.0
 40
11.35000000000001
100
AcDbArc
 50
2.797751488961929
 51
176.4640955921399
  0
LINE
  5
183
330
2
100
AcDbEntity
  8
0
 62
     7
100
AcDbLine
 10
220.6258586524268
 20
-2124.490532007982
 30
0.0
 11
220.8750963295401
 21
-2120.415532007982
 31
0.0
  0
LINE
  5
184
330
2
100
AcDbEntity
  8
0
 62
     7
100
AcDbLine
 10
225.3750963295402
 20
-2120.415532007982
 30
0.0
 11
225.624334006653
 21
-2124.490532007982
 31
0.0
  0
LINE
  5
185
330
2
100
AcDbEntity
  8
0
 62
     7
100
AcDbLine
 10
220.8750963295401
 20
-2120.415532007982
 30
0.0
 11
221.625221728902
 21
-2119.66540660862
 31
0.0
  0
LINE
  5
186
330
2
100
AcDbEntity
  8
0
 62
     7
100
AcDbLine
 10
224.6249709301778
 20
-2119.66540660862
 30
0.0
 11
225.3750963295402
 21
-2120.415532007982
 31
0.0
  0
LINE
  5
187
330
2
100
AcDbEntity
  8
0
 62
     7
100
AcDbLine
 10
216.6303348094134
 20
-2099.479604973507
 30
0.0
 11
223.0928337797554
 21
-2110.268145826499
 31
0.0
  0
LINE
  5
188
330
2
100
AcDbEntity
  8
0
 62
     7
100
AcDbLine
 10
222.5255768926031
 20
-2111.350190004416
 30
0.0
 11
214.9283324152939
 21
-2100.531478110335
 31
0.0
  0
ARC
  5
189
330
2
100
AcDbEntity
  8
0
 62
     7
100
AcDbCircle
 10
215.7724693568371
 20
-2099.993479340719
 30
0.0
 40
1.000000000000003
100
AcDbArc
 50
180.0
 51
213.0328119948253
  0
ARC
  5
18A
330
2
100
AcDbEntity
  8
0
 62
     7
100
AcDbCircle
 10
215.7724693568371
 20
-2099.993479340719
 30
0.0
 40
1.0
100
AcDbArc
 50
30.91063317324609
 51
180.0
  0
LINE
  5
18B
330
2
100
AcDbEntity
  8
0
 62
     7
100
AcDbLine
 10
223.6760385013095
 20
-2112.561600845031
 30
0.0
 11
223.4750963295401
 21
-2117.665532007981
 31
0.0
  0
LINE
  5
18C
330
2
100
AcDbEntity
  8
0
 62
     7
100
AcDbLine
 10
222.7750963295398
 20
-2117.665532007981
 30
0.0
 11
222.5289792261992
 21
-2111.414157583112
 31
0.0
  0
LINE
  5
18D
330
2
100
AcDbEntity
  8
0
 62
     7
100
AcDbLine
 10
228.2750963295403
 20
-2111.865532007982
 30
0.0
 11
224.9001582845472
 21
-2111.865532007982
 31
0.0
  0
LINE
  5
18E
330
2
100
AcDbEntity
  8
0
 62
     7
100
AcDbLine
 10
224.9001582845472
 20
-2110.765532007982
 30
0.0
 11
228.2750963295403
 21
-2110.765532007982
 31
0.0
  0
ARC
  5
18F
330
2
100
AcDbEntity
  8
0
 62
     7
100
AcDbCircle
 10
223.6250963295402
 20
-2119.515532007982
 30
0.0
 40
0.1500000000000114
100
AcDbArc
 50
180.0
 51
270.0
  0
ARC
  5
190
330
2
100
AcDbEntity
  8
0
 62
     7
100
AcDbCircle
 10
222.6250963295401
 20
-2119.515532007982
 30
0.0
 40
0.15
100
AcDbArc
 50
270.0
 51
0.000000000000007
  0
LINE
  5
191
330
2
100
AcDbEntity
  8
0
 62
     7
100
AcDbLine
 10
223.4750963295401
 20
-2117.665532007981
 30
0.0
 11
223.4750963295401
 21
-2119.515532007982
 31
0.0
  0
LINE
  5
192
330
2
100
AcDbEntity
  8
0
 62
     7
100
AcDbLine
 10
222.7750963295402
 20
-2119.515532007982
 30
0.0
 11
222.7750963295398
 21
-2117.665532007981
 31
0.0
  0
LINE
  5
193
330
2
100
AcDbEntity
  8
0
 62
     7
100
AcDbLine
 10
214.1460963295399
 20
-2137.990532007981
 30
0.0
 11
217.4620143688153
 21
-2124.490532007982
 31
0.0
  0
LINE
  5
194
330
2
100
AcDbEntity
  8
0
 62
     7
100
AcDbLine
 10
228.8301782902649
 20
-2124.490532007982
 30
0.0
 11
232.1460963295399
 21
-2137.990532007981
 31
0.0
  0
LINE
  5
195
330
2
100
AcDbEntity
  8
0
 62
     7
100
AcDbLine
 10
232.1460963295399
 20
-2137.990532007981
 30
0.0
 11
232.0489829015492
 21
-2138.01438535374
 31
0.0
  0
LINE
  5
196
330
2
100
AcDbEntity
  8
0
 62
     7
100
AcDbLine
 10
214.2432097575311
 20
-2138.01438535374
 30
0.0
 11
214.1460963295399
 21
-2137.990532007981
 31
0.0
  0
LWPOLYLINE
  5
197
330
2
100
AcDbEntity
  8
0
 62
     7
100
AcDbPolyline
 90
        5
 70
   128
 43
0.0
 10
274.9350576619272
 20
-2113.805274716429
 10
275.0353531302858
 20
-2113.941194317682
 10
275.1635143354988
 20
-2114.05122896485
 10
275.3130496858089
 20
-2114.129791661602
 10
275.4763739718182
 20
-2114.172897299658
  0
LWPOLYLINE
  5
198
330
2
100
AcDbEntity
  8
0
 62
     7
100
AcDbPolyline
 90
        4
 70
   128
 43
0.0
 10
275.2573181816997
 20
-2115.654811322383
 10
275.2658948658636
 20
-2115.678558923206
 10
275.2539827897603
 20
-2115.743743098488
 10
275.2150963295739
 20
-2115.815532007982
  0
LINE
  5
199
330
2
100
AcDbEntity
  8
0
 62
     7
100
AcDbLine
 10
275.3750963295402
 20
-2115.815532007982
 30
0.0
 11
275.3750963295402
 21
-2154.815532007982
 31
0.0
  0
LINE
  5
19A
330
2
100
AcDbEntity
  8
0
 62
     7
100
AcDbLine
 10
228.2750963295403
 20
-2110.615532007981
 30
0.0
 11
267.2750963295403
 21
-2110.615532007981
 31
0.0
  0
LWPOLYLINE
  5
19B
330
2
100
AcDbEntity
  8
0
 62
     7
100
AcDbPolyline
 90
        5
 70
   128
 43
0.0
 10
272.1753117190488
 20
-2112.47942272104
 10
272.1286656509465
 20
-2112.442347360474
 10
272.0745730380777
 20
-2112.417359986286
 10
272.0161037832672
 20
-2112.405882912596
 10
271.9565793036891
 20
-2112.408568114473
  0
LWPOLYLINE
  5
19C
330
2
100
AcDbEntity
  8
0
 62
     7
100
AcDbPolyline
 90
        5
 70
   128
 43
0.0
 10
271.956579225212
 20
-2110.22249588761
 10
272.0161037587204
 20
-2110.225181079895
 10
272.0745730419135
 20
-2110.213704008416
 10
272.1286656623138
 20
-2110.188716641549
 10
272.175311719986
 20
-2110.151641292782
  0
LWPOLYLINE
  5
19D
330
2
100
AcDbEntity
  8
0
 62
     7
100
AcDbPolyline
 90
        5
 70
   128
 43
0.0
 10
270.6691062955165
 20
-2110.775532008009
 10
270.7283062887555
 20
-2110.768764493074
 10
270.7842242935367
 20
-2110.748183968498
 10
270.8336838322371
 20
-2110.714955455448
 10
270.8738752949403
 20
-2110.67096653668
  0
LWPOLYLINE
  5
19E
330
2
100
AcDbEntity
  8
0
 62
     7
100
AcDbPolyline
 90
        5
 70
   128
 43
0.0
 10
272.8681324388658
 20
-2111.497014965062
 10
272.8654472359831
 20
-2111.556539452574
 10
272.8769243086485
 20
-2111.615008712967
 10
272.9019116824757
 20
-2111.669101329127
 10
272.9389870432569
 20
-2111.715747398132
  0
LWPOLYLINE
  5
19F
330
2
100
AcDbEntity
  8
0
 62
     7
100
AcDbPolyline
 90
        5
 70
   128
 43
0.0
 10
272.9389870440759
 20
-2110.915316617121
 10
272.9019116953359
 20
-2110.961962674644
 10
272.8769243283773
 20
-2111.01605529482
 10
272.8654472567419
 20
-2111.074524577733
 10
272.8681324488339
 20
-2111.134049110924
  0
LWPOLYLINE
  5
1A0
330
2
100
AcDbEntity
  8
0
 62
     7
100
AcDbPolyline
 90
        5
 70
   128
 43
0.0
 10
270.8738752949403
 20
-2111.960097479284
 10
270.8336838322371
 20
-2111.916108560516
 10
270.7842242935367
 20
-2111.882880047466
 10
270.7283062887555
 20
-2111.86229952289
 10
270.6691062955165
 20
-2111.855532007956
  0
ARC
  5
1A1
330
2
100
AcDbEntity
  8
0
 62
     7
100
AcDbCircle
 10
275.1210963295402
 20
-2160.129745570355
 30
0.0
 40
1.554000000000002
100
AcDbArc
 50
161.3635359974753
 51
180.0
  0
LINE
  5
1A2
330
2
100
AcDbEntity
  8
0
 62
     7
100
AcDbLine
 10
278.4372761219028
 20
-2156.182826529174
 30
0.0
 11
275.733230058609
 21
-2158.886872592468
 31
0.0
  0
LINE
  5
1A3
330
2
100
AcDbEntity
  8
0
 62
     7
100
AcDbLine
 10
279.3211595983858
 20
-2155.29894305269
 30
0.0
 11
278.8968955296741
 21
-2155.723207121403
 31
0.0
  0
LINE
  5
1A4
330
2
100
AcDbEntity
  8
0
 62
     7
100
AcDbLine
 10
278.2884854050767
 20
-2154.764668618891
 30
0.0
 11
278.5376852848312
 21
-2154.515468739136
 31
0.0
  0
LINE
  5
1A5
330
2
100
AcDbEntity
  8
0
 62
     7
100
AcDbLine
 10
277.8836115122335
 20
-2155.169542511734
 30
0.0
 11
278.1749697922728
 21
-2154.878184231695
 31
0.0
  0
LINE
  5
1A6
330
2
100
AcDbEntity
  8
0
 62
     7
100
AcDbLine
 10
275.2150963295398
 20
-2157.838057694427
 30
0.0
 11
277.1057940529285
 21
-2155.947359971039
 31
0.0
  0
ARC
  5
1A7
330
2
100
AcDbEntity
  8
0
 62
     7
100
AcDbCircle
 10
279.1797382421487
 20
-2155.157521696454
 30
0.0
 40
0.2000000000000006
100
AcDbArc
 50
315.0
 51
45.00000000000001
  0
ARC
  5
1A8
330
2
100
AcDbEntity
  8
0
 62
     7
100
AcDbCircle
 10
278.6791066410688
 20
-2154.656890095373
 30
0.0
 40
0.2000000000000046
100
AcDbArc
 50
45.00000000000001
 51
135.0
  0
LINE
  5
1A9
330
2
100
AcDbEntity
  8
0
 62
     7
100
AcDbLine
 10
273.5670963295401
 20
-2163.715532007982
 30
0.0
 11
273.5670963295401
 21
-2160.129745570355
 31
0.0
  0
LINE
  5
1AA
330
2
100
AcDbEntity
  8
0
 62
     7
100
AcDbLine
 10
274.6750963295399
 20
-2160.323532007982
 30
0.0
 11
274.6750963295399
 21
-2163.715532007982
 31
0.0
  0
LINE
  5
1AB
330
2
100
AcDbEntity
  8
0
 62
     7
100
AcDbLine
 10
275.2150963295398
 20
-2154.815532007982
 30
0.0
 11
275.2150963295398
 21
-2157.838057694427
 31
0.0
  0
LINE
  5
1AC
330
2
100
AcDbEntity
  8
0
 62
     7
100
AcDbLine
 10
274.1350963295399
 20
-2158.248028002822
 30
0.0
 11
274.1350963295399
 21
-2154.815532007982
 31
0.0
  0
LINE
  5
1AD
330
2
100
AcDbEntity
  8
0
 62
     7
100
AcDbLine
 10
273.1750963295399
 20
-2154.815532007982
 30
0.0
 11
273.1750963295399
 21
-2115.815532007982
 31
0.0
  0
LINE
  5
1AE
330
2
100
AcDbEntity
  8
0
 62
     7
100
AcDbLine
 10
267.2750963295403
 20
-2112.815532007982
 30
0.0
 11
228.2750963295403
 21
-2112.815532007982
 31
0.0
  0
ARC
  5
1AF
330
2
100
AcDbEntity
  8
0
 62
     7
100
AcDbCircle
 10
275.7631785754325
 20
-2107.808282373297
 30
0.0
 40
0.1999999999999936
100
AcDbArc
 50
315.0
 51
45.00000000000001
  0
ARC
  5
1B0
330
2
100
AcDbEntity
  8
0
 62
     7
100
AcDbCircle
 10
275.2823459642254
 20
-2107.32744976209
 30
0.0
 40
0.1999999999999896
100
AcDbArc
 50
45.00000000000001
 51
135.0
  0
LINE
  5
1B1
330
2
100
AcDbEntity
  8
0
 62
     7
100
AcDbLine
 10
274.4868508353907
 20
-2107.84010217845
 30
0.0
 11
275.1409246079879
 21
-2107.186028405853
 31
0.0
  0
LINE
  5
1B2
330
2
100
AcDbEntity
  8
0
 62
     7
100
AcDbLine
 10
272.1740689924536
 20
-2110.152884021387
 30
0.0
 11
273.7090333760852
 21
-2108.617919637755
 31
0.0
  0
ARC
  5
1B3
330
2
100
AcDbEntity
  8
0
 62
     7
100
AcDbCircle
 10
273.1750963295408
 20
-2114.836852351541
 30
0.0
 40
2.039999999999298
100
AcDbArc
 50
30.26055800775051
 51
45.00000000000001
  0
LINE
  5
1B4
330
2
100
AcDbEntity
  8
0
 62
     7
100
AcDbLine
 10
272.9377191810963
 20
-2111.714479535857
 30
0.0
 11
274.6175941631605
 21
-2113.394354517921
 31
0.0
  0
LINE
  5
1B5
330
2
100
AcDbEntity
  8
0
 62
     7
100
AcDbLine
 10
273.8539188394793
 20
-2114.158029841602
 30
0.0
 11
272.174067880715
 21
-2112.478178882839
 31
0.0
  0
LINE
  5
1B6
330
2
100
AcDbEntity
  8
0
 62
     7
100
AcDbLine
 10
275.0207164551862
 20
-2108.833587206017
 30
0.0
 11
272.9377204891289
 21
-2110.916583172075
 31
0.0
  0
LINE
  5
1B7
330
2
100
AcDbEntity
  8
0
 62
     7
100
AcDbLine
 10
267.2750963295403
 20
-2110.775532007982
 30
0.0
 11
270.6707815408636
 21
-2110.775532007982
 31
0.0
  0
LINE
  5
1B8
330
2
100
AcDbEntity
  8
0
 62
     7
100
AcDbLine
 10
270.6707815408872
 20
-2111.855532007982
 30
0.0
 11
267.2750963295403
 21
-2111.855532007982
 31
0.0
  0
LINE
  5
1B9
330
2
100
AcDbEntity
  8
0
 62
     7
100
AcDbLine
 10
275.9045999316695
 20
-2107.949703729534
 30
0.0
 11
275.4803358629574
 21
-2108.373967798246
 31
0.0
  0
LINE
  5
1BA
330
2
100
AcDbEntity
  8
0
 62
     7
100
AcDbLine
 10
274.1350963295399
 20
-2115.815532007982
 30
0.0
 11
274.1350963295399
 21
-2114.836852351542
 31
0.0
  0
ARC
  5
1BB
330
2
100
AcDbEntity
  8
0
 62
     7
100
AcDbCircle
 10
273.1750963295399
 20
-2114.836852351542
 30
0.0
 40
0.9599999999999909
100
AcDbArc
 50
0.000000000000007
 51
45.00000000000001
  0
LINE
  5
1BC
330
2
100
AcDbEntity
  8
0
 62
     7
100
AcDbLine
 10
224.5129989553125
 20
-2110.306572288827
 30
0.0
 11
273.8657244522205
 21
-2107.730437983251
 31
0.0
  0
LINE
  5
1BD
330
2
100
AcDbEntity
  8
0
 62
     7
100
AcDbLine
 10
273.6903252672237
 20
-2107.859756912918
 30
0.0
 11
224.6469142663777
 21
-2110.419745490441
 31
0.0
  0
LINE
  5
1BE
330
2
100
AcDbEntity
  8
0
 62
     7
100
AcDbLine
 10
275.9588454188738
 20
-2115.251844058923
 30
0.0
 11
278.2884854050767
 21
-2154.764668618891
 31
0.0
  0
LINE
  5
1BF
330
2
100
AcDbEntity
  8
0
 62
     7
100
AcDbLine
 10
278.1749697922728
 20
-2154.878184231695
 30
0.0
 11
275.8463767905537
 21
-2115.383117486012
 31
0.0
  0
ARC
  5
1C0
330
2
100
AcDbEntity
  8
0
 62
     7
100
AcDbCircle
 10
275.2795603946752
 20
-2163.815532007982
 30
0.0
 40
0.1000000000000028
100
AcDbArc
 50
8.90000000004805
 51
90.0
  0
ARC
  5
1C1
330
2
100
AcDbEntity
  8
0
 62
     7
100
AcDbCircle
 10
272.9771523678291
 20
-2163.815532007982
 30
0.0
 40
0.1000000000000043
100
AcDbArc
 50
90.0
 51
171.0999999999519
  0
LINE
  5
1C2
330
2
100
AcDbEntity
  8
0
 62
     7
100
AcDbLine
 10
223.1250963295401
 20
-2120.415532007982
 30
0.0
 11
220.8750963295401
 21
-2120.415532007982
 31
0.0
  0
LINE
  5
1C3
330
2
100
AcDbEntity
  8
0
 62
     7
100
AcDbLine
 10
225.3750963295402
 20
-2120.415532007982
 30
0.0
 11
223.1250963295401
 21
-2120.415532007982
 31
0.0
  0
LINE
  5
1C4
330
2
100
AcDbEntity
  8
0
 62
     7
100
AcDbLine
 10
223.1250963295401
 20
-2119.665532007982
 30
0.0
 11
221.6250963295402
 21
-2119.665532007982
 31
0.0
  0
LINE
  5
1C5
330
2
100
AcDbEntity
  8
0
 62
     7
100
AcDbLine
 10
224.6250963295401
 20
-2119.665532007982
 30
0.0
 11
223.1250963295401
 21
-2119.665532007982
 31
0.0
  0
LWPOLYLINE
  5
1C6
330
2
100
AcDbEntity
  8
0
 62
     7
100
AcDbPolyline
 90
       32
 70
   128
 43
0.0
 10
214.9332744447138
 20
-2100.538515713591
 10
214.9627733075645
 20
-2100.529627895479
 10
215.0273793333222
 20
-2100.496183245075
 10
215.1935717591514
 20
-2100.400004686021
 10
215.3288596360012
 20
-2100.317679693656
 10
215.4783393407925
 20
-2100.224557952703
 10
215.6349665388038
 20
-2100.125214107622
 10
215.7138937594482
 20
-2100.074551019119
 10
215.7531751230713
 20
-2100.049189658406
 10
215.7727308903741
 20
-2100.036527079962
 10
215.7824828020525
 20
-2100.030203396584
 10
215.7873516833074
 20
-2100.027043834045
 10
215.7897842833072
 20
-2100.025464669308
 10
215.7910001141977
 20
-2100.024675246888
 10
215.7916079112492
 20
-2100.024280576388
 10
215.7919117800375
 20
-2100.024083251407
 10
215.7920637069792
 20
-2100.023984591496
 10
215.7921396685852
 20
-2100.023935262186
 10
215.792177648922
 20
-2100.023910597692
 10
215.7921966389731
 20
-2100.023898265486
 10
215.79220613397
 20
-2100.023892099393
 10
215.7922108814609
 20
-2100.023889016349
 10
215.7922132552049
 20
-2100.023887474828
 10
215.7922144420759
 20
-2100.023886704067
 10
215.7922156289469
 20
-2100.023885933307
 10
215.8347336121565
 20
-2099.996274480872
 10
215.9117443366945
 20
-2099.946263166391
 10
216.1587324155098
 20
-2099.785867260413
 10
216.3125136361532
 20
-2099.686000561078
 10
216.4633171013707
 20
-2099.58806762481
 10
216.5818107053519
 20
-2099.511116943847
 10
216.6303348094134
 20
-2099.479604973507
  0
CIRCLE
  5
1C7
330
2
100
AcDbEntity
  8
0
 62
     7
100
AcDbCircle
 10
223.7750963295403
 20
-2111.315532007982
 30
0.0
 40
1.25
  0
LINE
  5
1C8
330
2
100
AcDbEntity
  8
0
 62
     7
100
AcDbLine
 10
223.4750963295401
 20
-2117.665532007981
 30
0.0
 11
222.7750963295398
 21
-2117.665532007981
 31
0.0
  0
LWPOLYLINE
  5
1C9
330
2
100
AcDbEntity
  8
0
 62
     7
100
AcDbPolyline
 90
        7
 70
   128
 43
0.0
 10
221.57509632954
 20
-2111.315532007982
 10
221.6173687126529
 20
-2111.744730716418
 10
221.7425613580153
 20
-2112.157435559185
 10
221.9458631824746
 20
-2112.537786520625
 10
222.2194614109298
 20
-2112.871166926592
 10
222.5528418168969
 20
-2113.144765155047
 10
222.5980650487568
 20
-2113.16893747608
  0
LWPOLYLINE
  5
1CA
330
2
100
AcDbEntity
  8
0
 62
     7
100
AcDbPolyline
 90
        9
 70
   128
 43
0.0
 10
223.639009847202
 20
-2113.502128659359
 10
223.7750963295403
 20
-2113.515532007982
 10
224.2042950379755
 20
-2113.473259624869
 10
224.6169998807431
 20
-2113.348066979507
 10
224.9973508421831
 20
-2113.144765155047
 10
225.3307312481506
 20
-2112.871166926592
 10
225.6043294766059
 20
-2112.537786520625
 10
225.8076313010647
 20
-2112.157435559185
 10
225.8961792752557
 20
-2111.865532007982
  0
LWPOLYLINE
  5
1CB
330
2
100
AcDbEntity
  8
0
 62
     7
100
AcDbPolyline
 90
        3
 70
   128
 43
0.0
 10
225.8961792752557
 20
-2110.765532007982
 10
225.8076313010647
 20
-2110.473628456779
 10
225.7481062965307
 20
-2110.362265006084
  0
LWPOLYLINE
  5
1CC
330
2
100
AcDbEntity
  8
0
 62
     7
100
AcDbPolyline
 90
       10
 70
   128
 43
0.0
 10
225.6856210166138
 20
-2110.245363269686
 10
225.6043294766059
 20
-2110.093277495339
 10
225.3307312481506
 20
-2109.759897089372
 10
224.9973508421831
 20
-2109.486298860916
 10
224.6169998807431
 20
-2109.282997036457
 10
224.2042950379755
 20
-2109.157804391095
 10
223.7750963295403
 20
-2109.115532007982
 10
223.3458976211045
 20
-2109.157804391095
 10
222.9331927783369
 20
-2109.282997036457
 10
222.6071176009023
 20
-2109.457287849953
  0
LWPOLYLINE
  5
1CD
330
2
100
AcDbEntity
  8
0
 62
     7
100
AcDbPolyline
 90
        4
 70
   128
 43
0.0
 10
221.8149389453401
 20
-2110.338219514931
 10
221.7425613580153
 20
-2110.473628456779
 10
221.6173687126529
 20
-2110.886333299546
 10
221.57509632954
 20
-2111.315532007982
  0
LINE
  5
1CE
330
2
100
AcDbEntity
  8
0
 62
     7
100
AcDbLine
 10
228.8301782902649
 20
-2124.490532007982
 30
0.0
 11
217.4620143688153
 21
-2124.490532007982
 31
0.0
  0
LINE
  5
1CF
330
2
100
AcDbEntity
  8
0
 62
     7
100
AcDbLine
 10
232.1460963295399
 20
-2137.990532007981
 30
0.0
 11
214.1460963295399
 21
-2137.990532007981
 31
0.0
  0
LINE
  5
1D0
330
2
100
AcDbEntity
  8
0
 62
     7
100
AcDbLine
 10
232.0489829015492
 20
-2138.01438535374
 30
0.0
 11
214.2432097575311
 21
-2138.01438535374
 31
0.0
  0
CIRCLE
  5
1D1
330
2
100
AcDbEntity
  8
0
 62
     7
100
AcDbCircle
 10
274.8686884972312
 20
-2108.221939840291
 30
0.0
 40
0.3
  0
LWPOLYLINE
  5
1D2
330
2
100
AcDbEntity
  8
0
 62
     7
100
AcDbPolyline
 90
        6
 70
   128
 43
0.0
 10
275.4275540113781
 20
-2114.16750007825
 10
275.2421861910398
 20
-2114.135265735725
 10
275.0593872551895
 20
-2114.06884630299
 10
274.8171901500072
 20
-2113.931290582832
 10
274.7023275485508
 20
-2113.844210822671
 10
274.5997596278039
 20
-2113.739161955504
  0
LWPOLYLINE
  5
1D3
330
2
100
AcDbEntity
  8
0
 62
     7
100
AcDbPolyline
 90
        3
 70
   128
 43
0.0
 10
275.5389152209959
 20
-2115.546093078118
 10
275.3791846926247
 20
-2115.597601995653
 10
275.2571144634526
 20
-2115.654373285247
  0
LWPOLYLINE
  5
1D4
330
2
100
AcDbEntity
  8
0
 62
     7
100
AcDbPolyline
 90
        4
 70
   128
 43
0.0
 10
274.9735924868792
 20
-2115.81553194185
 10
275.2432521073179
 20
-2115.659990854767
 10
275.3867612323233
 20
-2115.594591365301
 10
275.538915221026
 20
-2115.546093078096
  0
LINE
  5
1D5
330
2
100
AcDbEntity
  8
0
 62
     7
100
AcDbLine
 10
275.3750963295402
 20
-2154.815532007982
 30
0.0
 11
274.53509632954
 21
-2154.815532007982
 31
0.0
  0
LINE
  5
1D6
330
2
100
AcDbEntity
  8
0
 62
     7
100
AcDbLine
 10
275.3750963295402
 20
-2115.815532007982
 30
0.0
 11
274.53509632954
 21
-2115.815532007982
 31
0.0
  0
LINE
  5
1D7
330
2
100
AcDbEntity
  8
0
 62
     7
100
AcDbLine
 10
228.2750963295403
 20
-2111.455532007981
 30
0.0
 11
228.2750963295403
 21
-2110.615532007981
 31
0.0
  0
LINE
  5
1D8
330
2
100
AcDbEntity
  8
0
 62
     7
100
AcDbLine
 10
267.2750963295403
 20
-2110.615532007981
 30
0.0
 11
267.2750963295403
 21
-2111.455532007981
 31
0.0
  0
LINE
  5
1D9
330
2
100
AcDbEntity
  8
0
 62
     7
100
AcDbLine
 10
273.57509632954
 20
-2154.815532007982
 30
0.0
 11
274.53509632954
 21
-2154.815532007982
 31
0.0
  0
LINE
  5
1DA
330
2
100
AcDbEntity
  8
0
 62
     7
100
AcDbLine
 10
274.53509632954
 20
-2115.815532007982
 30
0.0
 11
273.57509632954
 21
-2115.815532007982
 31
0.0
  0
LINE
  5
1DB
330
2
100
AcDbEntity
  8
0
 62
     7
100
AcDbLine
 10
228.2750963295403
 20
-2111.455532007981
 30
0.0
 11
228.2750963295403
 21
-2112.415532007982
 31
0.0
  0
LINE
  5
1DC
330
2
100
AcDbEntity
  8
0
 62
     7
100
AcDbLine
 10
267.2750963295403
 20
-2111.455532007981
 30
0.0
 11
267.2750963295403
 21
-2112.415532007982
 31
0.0
  0
LWPOLYLINE
  5
1DD
330
2
100
AcDbEntity
  8
0
 62
     7
100
AcDbPolyline
 90
        4
 70
   128
 43
0.0
 10
272.0886046774458
 20
-2112.378253410003
 10
272.2486244252377
 20
-2112.359709066447
 10
272.4100085939422
 20
-2112.394214942788
 10
272.4732765049548
 20
-2112.435849421553
  0
LWPOLYLINE
  5
1DE
330
2
100
AcDbEntity
  8
0
 62
     7
100
AcDbPolyline
 90
        5
 70
   128
 43
0.0
 10
272.4732762239346
 20
-2110.195214292924
 10
272.4018083274081
 20
-2110.240354483149
 10
272.270166350389
 20
-2110.270019690956
 10
272.1235608951406
 20
-2110.261568510039
 10
272.0886045430766
 20
-2110.252810600643
  0
LWPOLYLINE
  5
1DF
330
2
100
AcDbEntity
  8
0
 62
     7
100
AcDbPolyline
 90
        4
 70
   128
 43
0.0
 10
270.8019549978899
 20
-2110.78575840789
 10
270.7019080437699
 20
-2110.912030286701
 10
270.5633794340588
 20
-2111.001745632041
 10
270.4892243323975
 20
-2111.017035506565
  0
LWPOLYLINE
  5
1E0
330
2
100
AcDbEntity
  8
0
 62
     7
100
AcDbPolyline
 90
        5
 70
   128
 43
0.0
 10
272.8954140256965
 20
-2112.013711916225
 10
272.8502733837936
 20
-2111.942243074972
 10
272.8206071954128
 20
-2111.810587928656
 10
272.8290616307745
 20
-2111.66398796035
 10
272.837817584194
 20
-2111.629040443586
  0
LWPOLYLINE
  5
1E1
330
2
100
AcDbEntity
  8
0
 62
     7
100
AcDbPolyline
 90
        4
 70
   128
 43
0.0
 10
272.8378176195429
 20
-2111.002023693123
 10
272.8192738378429
 20
-2110.841992917924
 10
272.8537881611473
 20
-2110.680603375311
 10
272.8954140202982
 20
-2110.61735209976
  0
LWPOLYLINE
  5
1E2
330
2
100
AcDbEntity
  8
0
 62
     7
100
AcDbPolyline
 90
        5
 70
   128
 43
0.0
 10
270.4892243441186
 20
-2111.614028496328
 10
270.5717479473451
 20
-2111.632673861208
 10
270.685866670588
 20
-2111.70486049258
 10
270.783553050408
 20
-2111.814583076657
 10
270.8019549747278
 20
-2111.84530545701
  0
CIRCLE
  5
1E3
330
2
100
AcDbEntity
  8
0
 62
     7
100
AcDbCircle
 10
274.6750963295399
 20
-2159.215532007982
 30
0.0
 40
1.107999999999998
  0
LINE
  5
1E4
330
2
100
AcDbEntity
  8
0
 62
     7
100
AcDbLine
 10
278.8968955296741
 20
-2155.723207121403
 30
0.0
 11
278.5051583728968
 21
-2155.331469964625
 31
0.0
  0
LINE
  5
1E5
330
2
100
AcDbEntity
  8
0
 62
     7
100
AcDbLine
 10
278.0455389651256
 20
-2155.791089372397
 30
0.0
 11
278.4372761219028
 21
-2156.182826529174
 31
0.0
  0
LWPOLYLINE
  5
1E6
330
2
100
AcDbEntity
  8
0
 62
     7
100
AcDbPolyline
 90
       12
 70
   128
 43
0.0
 10
278.5051583728968
 20
-2155.331469964625
 10
278.4249122305218
 20
-2155.27273895896
 10
278.3332690243874
 20
-2155.241482494613
 10
278.2312608093889
 20
-2155.239283922213
 10
278.1218210022207
 20
-2155.274828528646
 10
278.0484126645929
 20
-2155.328631758788
 10
277.9926664963777
 20
-2155.400918235256
 10
277.9599291480881
 20
-2155.482950071162
 10
277.9511372224547
 20
-2155.583905713724
 10
277.9796063485292
 20
-2155.696044203445
 10
278.0321174111382
 20
-2155.776833734104
 10
278.0455389651256
 20
-2155.791089372397
  0
LWPOLYLINE
  5
1E7
330
2
100
AcDbEntity
  8
0
 62
     7
100
AcDbPolyline
 90
       11
 70
   128
 43
0.0
 10
278.2884854050767
 20
-2154.764668618891
 10
278.2865421872029
 20
-2154.766923861484
 10
278.2813122927109
 20
-2154.772939167765
 10
278.2699703625803
 20
-2154.785711935285
 10
278.2503691703773
 20
-2154.806907076957
 10
278.2280116960178
 20
-2154.829728172158
 10
278.2025209029494
 20
-2154.854002881382
 10
278.1881673146941
 20
-2154.866864371156
 10
278.1793500035687
 20
-2154.874480530021
 10
278.1751295901681
 20
-2154.878050040981
 10
278.1749697922728
 20
-2154.878184231695
  0
LINE
  5
1E8
330
2
100
AcDbEntity
  8
0
 62
     7
100
AcDbLine
 10
277.1204264497251
 20
-2155.961992367835
 30
0.0
 11
277.8982439090305
 21
-2155.18417490853
 31
0.0
  0
LWPOLYLINE
  5
1E9
330
2
100
AcDbEntity
  8
0
 62
     7
100
AcDbPolyline
 90
        5
 70
   128
 43
0.0
 10
275.0703927127038
 20
-2158.180445166477
 10
275.1624308830528
 20
-2157.963126477636
 10
275.1920849516223
 20
-2157.892754538733
 10
275.211836635252
 20
-2157.845810116127
 10
275.2150963295398
 20
-2157.838057694427
  0
LINE
  5
1EA
330
2
100
AcDbEntity
  8
0
 62
     7
100
AcDbLine
 10
278.8205279973058
 20
-2154.515468739136
 30
0.0
 11
279.3211595682346
 21
-2155.016100310065
 31
0.0
  0
CIRCLE
  5
1EB
330
2
100
AcDbEntity
  8
0
 62
     7
100
AcDbCircle
 10
278.2753486690112
 20
-2155.561279668511
 30
0.0
 40
0.3
  0
CIRCLE
  5
1EC
330
2
100
AcDbEntity
  8
0
 62
     7
100
AcDbCircle
 10
275.3750963295402
 20
-2114.865532007982
 30
0.0
 40
0.5
  0
CIRCLE
  5
1ED
330
2
100
AcDbEntity
  8
0
 62
     7
100
AcDbCircle
 10
271.7750963295403
 20
-2111.315532007982
 30
0.0
 40
0.5
  0
LINE
  5
1EE
330
2
100
AcDbEntity
  8
0
 62
     7
100
AcDbLine
 10
273.57509632954
 20
-2154.815532007982
 30
0.0
 11
273.1750963295399
 21
-2154.815532007982
 31
0.0
  0
LINE
  5
1EF
330
2
100
AcDbEntity
  8
0
 62
     7
100
AcDbLine
 10
273.57509632954
 20
-2115.815532007982
 30
0.0
 11
273.1750963295399
 21
-2115.815532007982
 31
0.0
  0
LINE
  5
1F0
330
2
100
AcDbEntity
  8
0
 62
     7
100
AcDbLine
 10
228.2750963295403
 20
-2112.415532007982
 30
0.0
 11
228.2750963295403
 21
-2112.815532007982
 31
0.0
  0
LINE
  5
1F1
330
2
100
AcDbEntity
  8
0
 62
     7
100
AcDbLine
 10
267.2750963295403
 20
-2112.415532007982
 30
0.0
 11
267.2750963295403
 21
-2112.815532007982
 31
0.0
  0
LINE
  5
1F2
330
2
100
AcDbEntity
  8
0
 62
     7
100
AcDbLine
 10
275.9045999316695
 20
-2107.666861017059
 30
0.0
 11
275.8271253334342
 21
-2107.589386418824
 31
0.0
  0
LWPOLYLINE
  5
1F3
330
2
100
AcDbEntity
  8
0
 62
     7
100
AcDbPolyline
 90
        7
 70
   128
 43
0.0
 10
275.8271253334342
 20
-2107.589386418824
 10
275.8274028025348
 20
-2107.589667509696
 10
275.8360228471702
 20
-2107.622517416808
 10
275.821355320119
 20
-2107.665257962039
 10
275.7903051666249
 20
-2107.714142946145
 10
275.7487678552616
 20
-2107.763504678612
 10
275.7338309790207
 20
-2107.778934776885
  0
LINE
  5
1F4
330
2
100
AcDbEntity
  8
0
 62
     7
100
AcDbLine
 10
275.5012419186983
 20
-2107.263503004088
 30
0.0
 11
275.8271253334342
 21
-2107.589386418824
 31
0.0
  0
LWPOLYLINE
  5
1F5
330
2
100
AcDbEntity
  8
0
 62
     7
100
AcDbPolyline
 90
        7
 70
   128
 43
0.0
 10
275.5012419186983
 20
-2107.263503004088
 10
275.5009608278251
 20
-2107.263225534986
 10
275.4681109207159
 20
-2107.254605490352
 10
275.4253703754593
 20
-2107.269273017415
 10
275.3764853913499
 20
-2107.300323170917
 10
275.3271236588848
 20
-2107.341860482284
 10
275.3116935606367
 20
-2107.356797358502
  0
LWPOLYLINE
  5
1F6
330
2
100
AcDbEntity
  8
0
 62
     7
100
AcDbPolyline
 90
        5
 70
   128
 43
0.0
 10
275.4237673204662
 20
-2107.186028405856
 10
275.4288311246714
 20
-2107.191092221537
 10
275.4440574423634
 20
-2107.206318527785
 10
275.4684656264039
 20
-2107.230726722622
 10
275.5012419186983
 20
-2107.263503004088
  0
LINE
  5
1F7
330
2
100
AcDbEntity
  8
0
 62
     7
100
AcDbLine
 10
273.724060460107
 20
-2108.632946721777
 30
0.0
 11
274.501877919412
 21
-2107.855129262472
 31
0.0
  0
LINE
  5
1F8
330
2
100
AcDbEntity
  8
0
 62
     7
100
AcDbLine
 10
274.5667214932255
 20
-2108.101769425912
 30
0.0
 11
272.4732764004902
 21
-2110.195214469486
 31
0.0
  0
LWPOLYLINE
  5
1F9
330
2
100
AcDbEntity
  8
0
 62
     7
100
AcDbPolyline
 90
        4
 70
   128
 43
0.0
 10
274.7485180828526
 20
-2107.919972836285
 10
274.6693155000216
 20
-2107.965277790148
 10
274.6047088660562
 20
-2108.032362008453
 10
274.5667214932255
 20
-2108.101769425912
  0
LINE
  5
1FA
330
2
100
AcDbEntity
  8
0
 62
     7
100
AcDbLine
 10
275.3116935606367
 20
-2107.356797358502
 30
0.0
 11
274.7485180828526
 21
-2107.919972836285
 31
0.0
  0
LINE
  5
1FB
330
2
100
AcDbEntity
  8
0
 62
     7
100
AcDbLine
 10
274.8499475025378
 20
-2108.662818253369
 30
0.0
 11
274.6388787933456
 21
-2108.451749544177
 31
0.0
  0
ARC
  5
1FC
330
2
100
AcDbEntity
  8
0
 62
     7
100
AcDbCircle
 10
271.7750963295403
 20
-2111.315532007982
 30
0.0
 40
1.107999999999999
100
AcDbArc
 50
73.56366996289707
 51
151.4363337145724
  0
LINE
  5
1FD
330
2
100
AcDbEntity
  8
0
 62
     7
100
AcDbLine
 10
270.4892243359573
 20
-2111.017035776034
 30
0.0
 11
267.2750963295403
 21
-2111.017035776442
 31
0.0
  0
LINE
  5
1FE
330
2
100
AcDbEntity
  8
0
 62
     7
100
AcDbLine
 10
267.2750963295403
 20
-2111.614028239114
 30
0.0
 11
270.4892243441227
 21
-2111.614028269181
 31
0.0
  0
ARC
  5
1FF
330
2
100
AcDbEntity
  8
0
 62
     7
100
AcDbCircle
 10
271.7750963295403
 20
-2111.315532007982
 30
0.0
 40
1.107999999999999
100
AcDbArc
 50
208.5636622306749
 51
286.4363337147095
  0
LINE
  5
200
330
2
100
AcDbEntity
  8
0
 62
     7
100
AcDbLine
 10
272.473276430007
 20
-2112.435849501053
 30
0.0
 11
274.0246877956574
 21
-2113.987260892483
 31
0.0
  0
ARC
  5
201
330
2
100
AcDbEntity
  8
0
 62
     7
100
AcDbCircle
 10
273.1750963295399
 20
-2114.836852351542
 30
0.0
 40
1.201503768868008
100
AcDbArc
 50
0.000000000000007
 51
44.99999976196528
  0
LINE
  5
202
330
2
100
AcDbEntity
  8
0
 62
     7
100
AcDbLine
 10
274.3766000984083
 20
-2114.836852351542
 30
0.0
 11
274.3766000984083
 21
-2115.815532007982
 31
0.0
  0
ARC
  5
203
330
2
100
AcDbEntity
  8
0
 62
     7
100
AcDbCircle
 10
275.3750963295402
 20
-2114.865532007982
 30
0.0
 40
0.7000000000000089
100
AcDbArc
 50
283.5342739952241
 51
85.70225294347523
  0
ARC
  5
204
330
2
100
AcDbEntity
  8
0
 62
     7
100
AcDbCircle
 10
273.1750963295403
 20
-2114.836852351542
 30
0.0
 40
1.798496256096685
100
AcDbArc
 50
37.61393125080766
 51
44.99999999180145
  0
LINE
  5
205
330
2
100
AcDbEntity
  8
0
 62
     7
100
AcDbLine
 10
274.4468252283486
 20
-2113.565123470754
 30
0.0
 11
272.8954138629128
 21
-2112.013712079003
 31
0.0
  0
ARC
  5
206
330
2
100
AcDbEntity
  8
0
 62
     7
100
AcDbCircle
 10
271.7750963295403
 20
-2111.315532007982
 30
0.0
 40
1.107999999999995
100
AcDbArc
 50
343.5636627367095
 51
16.43633371462135
  0
LINE
  5
207
330
2
100
AcDbEntity
  8
0
 62
     7
100
AcDbLine
 10
272.8954138606368
 20
-2110.617351937837
 30
0.0
 11
274.8499475025378
 21
-2108.662818253369
 31
0.0
  0
ARC
  5
208
330
2
100
AcDbEntity
  8
0
 62
     7
100
AcDbCircle
 10
274.8686884972312
 20
-2108.221939840291
 30
0.0
 40
0.3250000000000026
100
AcDbArc
 50
158.2994842324109
 51
225.0
  0
LINE
  5
209
330
2
100
AcDbEntity
  8
0
 62
     7
100
AcDbLine
 10
274.8499475025378
 20
-2108.662818253369
 30
0.0
 11
275.0207164551862
 21
-2108.833587206017
 31
0.0
  0
LINE
  5
20A
330
2
100
AcDbEntity
  8
0
 62
     7
100
AcDbLine
 10
275.3095669103091
 20
-2108.203198845597
 30
0.0
 11
275.7338309790207
 21
-2107.778934776885
 31
0.0
  0
LINE
  5
20B
330
2
100
AcDbEntity
  8
0
 62
     7
100
AcDbLine
 10
275.4803358629574
 20
-2108.373967798246
 30
0.0
 11
275.3095669103091
 21
-2108.203198845597
 31
0.0
  0
LINE
  5
20C
330
2
100
AcDbEntity
  8
0
 62
     7
100
AcDbLine
 10
275.0984982011169
 20
-2107.992130136405
 30
0.0
 11
275.3095669103091
 21
-2108.203198845597
 31
0.0
  0
ARC
  5
20D
330
2
100
AcDbEntity
  8
0
 62
     7
100
AcDbCircle
 10
274.8686884972312
 20
-2108.221939840291
 30
0.0
 40
0.3250000000000094
100
AcDbArc
 50
45.00000000000001
 51
111.7005157676373
  0
LINE
  5
20E
330
2
100
AcDbEntity
  8
0
 62
     7
100
AcDbLine
 10
277.1057940529285
 20
-2155.947359971039
 30
0.0
 11
277.1204264497251
 21
-2155.961992367835
 31
0.0
  0
LINE
  5
20F
330
2
100
AcDbEntity
  8
0
 62
     7
100
AcDbLine
 10
277.8836115122335
 20
-2155.169542511734
 30
0.0
 11
277.8982439090305
 21
-2155.18417490853
 31
0.0
  0
ARC
  5
210
330
2
100
AcDbEntity
  8
0
 62
     7
100
AcDbCircle
 10
277.4947027825811
 20
-2155.558451241386
 30
0.0
 40
0.5500000000000006
100
AcDbArc
 50
45.00000000000001
 51
225.0
  0
LINE
  5
211
330
2
100
AcDbEntity
  8
0
 62
     7
100
AcDbLine
 10
274.4868508353907
 20
-2107.84010217845
 30
0.0
 11
274.501877919412
 21
-2107.855129262472
 31
0.0
  0
ARC
  5
212
330
2
100
AcDbEntity
  8
0
 62
     7
100
AcDbCircle
 10
274.0979421057377
 20
-2108.229010908102
 30
0.0
 40
0.5500000000000166
100
AcDbArc
 50
45.00000000000001
 51
224.9999999999079
  0
LINE
  5
213
330
2
100
AcDbEntity
  8
0
 62
     7
100
AcDbLine
 10
273.724060460107
 20
-2108.632946721777
 30
0.0
 11
273.7090333760852
 21
-2108.617919637755
 31
0.0
  0
ARC
  5
214
330
2
100
AcDbEntity
  8
0
 62
     7
100
AcDbCircle
 10
271.7750963295403
 20
-2111.315532007982
 30
0.0
 40
1.80000000000001
100
AcDbArc
 50
197.457603123696
 51
297.5423968763264
  0
ARC
  5
215
330
2
100
AcDbEntity
  8
0
 62
     7
100
AcDbCircle
 10
271.7750963295403
 20
-2111.315532007982
 30
0.0
 40
1.800000000000003
100
AcDbArc
 50
332.4576031236735
 51
27.54239687632648
  0
ARC
  5
216
330
2
100
AcDbEntity
  8
0
 62
     7
100
AcDbCircle
 10
271.7750963295403
 20
-2111.315532007982
 30
0.0
 40
1.799999999999999
100
AcDbArc
 50
62.45760312367355
 51
162.542396876304
  0
ARC
  5
217
330
2
100
AcDbEntity
  8
0
 62
     7
100
AcDbCircle
 10
274.6750963295399
 20
-2159.215532007982
 30
0.0
 40
1.800000000000004
100
AcDbArc
 50
180.0
 51
232.0077009573094
  0
ARC
  5
218
330
2
100
AcDbEntity
  8
0
 62
     7
100
AcDbCircle
 10
274.6750963295399
 20
-2159.215532007982
 30
0.0
 40
1.800000000000001
100
AcDbArc
 50
270.0
 51
28.34760656643643
  0
ARC
  5
219
330
2
100
AcDbEntity
  8
0
 62
     7
100
AcDbCircle
 10
274.6750963295399
 20
-2159.215532007982
 30
0.0
 40
1.800000000000001
100
AcDbArc
 50
64.20754360667732
 51
72.54239687617978
  0
ARC
  5
21A
330
2
100
AcDbEntity
  8
0
 62
     7
100
AcDbCircle
 10
274.6750963295399
 20
-2159.215532007982
 30
0.0
 40
1.800000000000001
100
AcDbArc
 50
107.4576031238202
 51
180.0
  0
LINE
  5
21B
330
2
100
AcDbEntity
  8
0
 62
     7
100
AcDbLine
 10
275.2795603941881
 20
-2163.715532007982
 30
0.0
 11
272.9771523678291
 21
-2163.715532007982
 31
0.0
  0
LINE
  5
21C
330
2
100
AcDbEntity
  8
0
 62
     7
100
AcDbLine
 10
223.4750963295401
 20
-2119.515532007982
 30
0.0
 11
222.7750963295402
 21
-2119.515532007982
 31
0.0
  0
LWPOLYLINE
  5
21D
330
2
100
AcDbEntity
  8
0
 62
     7
100
AcDbPolyline
 90
        6
 70
   128
 43
0.0
 10
274.9370928786475
 20
-2113.808762783005
 10
274.9304444101481
 20
-2113.805800976267
 10
274.9101983579258
 20
-2113.797268842815
 10
274.8360403526958
 20
-2113.770874688622
 10
274.727998027241
 20
-2113.746161996266
 10
274.5997593973707
 20
-2113.73916204984
  0
LINE
  5
21E
330
2
100
AcDbEntity
  8
0
 62
     7
100
AcDbLine
 10
274.53509632954
 20
-2154.815532007982
 30
0.0
 11
274.53509632954
 21
-2115.815532007982
 31
0.0
  0
LINE
  5
21F
330
2
100
AcDbEntity
  8
0
 62
     7
100
AcDbLine
 10
267.2750963295403
 20
-2111.455532007981
 30
0.0
 11
228.2750963295403
 21
-2111.455532007981
 31
0.0
  0
LINE
  5
220
330
2
100
AcDbEntity
  8
0
 62
     7
100
AcDbLine
 10
273.57509632954
 20
-2115.815532007982
 30
0.0
 11
273.57509632954
 21
-2154.815532007982
 31
0.0
  0
LINE
  5
221
330
2
100
AcDbEntity
  8
0
 62
     7
100
AcDbLine
 10
228.2750963295403
 20
-2112.415532007982
 30
0.0
 11
267.2750963295403
 21
-2112.415532007982
 31
0.0
  0
LWPOLYLINE
  5
222
330
2
100
AcDbEntity
  8
0
 62
     7
100
AcDbPolyline
 90
        6
 70
   128
 43
0.0
 10
272.1743041209243
 20
-2112.478415123048
 10
272.2000998448511
 20
-2112.478674669842
 10
272.2682780875893
 20
-2112.47612567889
 10
272.3131172598569
 20
-2112.471737358863
 10
272.3630697955746
 20
-2112.464123862687
 10
272.473276418993
 20
-2112.435849512067
  0
LWPOLYLINE
  5
223
330
2
100
AcDbEntity
  8
0
 62
     7
100
AcDbPolyline
 90
        5
 70
   128
 43
0.0
 10
272.4732764250721
 20
-2110.195214494069
 10
272.3628171393902
 20
-2110.166894014788
 10
272.2683734258449
 20
-2110.154945312141
 10
272.2002942732434
 20
-2110.152389876505
 10
272.1743041188806
 20
-2110.15264889496
  0
LWPOLYLINE
  5
224
330
2
100
AcDbEntity
  8
0
 62
     7
100
AcDbPolyline
 90
        6
 70
   128
 43
0.0
 10
270.6704816907954
 20
-2110.775580588102
 10
270.6520301591004
 20
-2110.793666467051
 10
270.605753943812
 20
-2110.843538659898
 10
270.5773229373099
 20
-2110.878127796693
 10
270.5474745460233
 20
-2110.918658887943
 10
270.4892243359573
 20
-2111.017035776034
  0
LWPOLYLINE
  5
225
330
2
100
AcDbEntity
  8
0
 62
     7
100
AcDbPolyline
 90
        5
 70
   128
 43
0.0
 10
272.8954138403319
 20
-2112.013712101584
 10
272.9237844677186
 20
-2111.902977726423
 10
272.9357111618938
 20
-2111.808423698342
 10
272.938239254971
 20
-2111.740433389465
 10
272.9379807877062
 20
-2111.71487170504
  0
LWPOLYLINE
  5
226
330
2
100
AcDbEntity
  8
0
 62
     7
100
AcDbPolyline
 90
        6
 70
   128
 43
0.0
 10
272.9379808261597
 20
-2110.916188967247
 10
272.9382394178756
 20
-2110.890695852315
 10
272.9357280430217
 20
-2110.822872609912
 10
272.9313590781994
 20
-2110.777951025498
 10
272.9238049003534
 20
-2110.728198529944
 10
272.8954138383847
 20
-2110.617351915585
  0
LWPOLYLINE
  5
227
330
2
100
AcDbEntity
  8
0
 62
     7
100
AcDbPolyline
 90
        6
 70
   128
 43
0.0
 10
270.4892243441227
 20
-2111.614028237746
 10
270.5474783780173
 20
-2111.712410666205
 10
270.6059499701382
 20
-2111.787752192495
 10
270.6521358004893
 20
-2111.837503755035
 10
270.6705311095616
 20
-2111.855531867299
 10
270.6704816907959
 20
-2111.855483427861
  0
LINE
  5
228
330
2
100
AcDbEntity
  8
0
 62
     7
100
AcDbLine
 10
274.0490950816393
 20
-2160.129745570355
 30
0.0
 11
273.5670963295401
 21
-2160.129745570355
 31
0.0
  0
LINE
  5
229
330
2
100
AcDbEntity
  8
0
 62
     7
100
AcDbLine
 10
278.5376852848312
 20
-2154.515468739136
 30
0.0
 11
279.3211595983858
 21
-2155.29894305269
 31
0.0
  0
LINE
  5
22A
330
2
100
AcDbEntity
  8
0
 62
     7
100
AcDbLine
 10
275.7338309790207
 20
-2107.778934776885
 30
0.0
 11
275.9045999316695
 21
-2107.949703729534
 31
0.0
  0
LINE
  5
22B
330
2
100
AcDbEntity
  8
0
 62
     7
100
AcDbLine
 10
275.7338309790207
 20
-2107.778934776885
 30
0.0
 11
275.3116935606367
 21
-2107.356797358502
 31
0.0
  0
LINE
  5
22C
330
2
100
AcDbEntity
  8
0
 62
     7
100
AcDbLine
 10
275.1409246079879
 20
-2107.186028405853
 30
0.0
 11
275.3116935606367
 21
-2107.356797358502
 31
0.0
  0
LWPOLYLINE
  5
22D
330
2
100
AcDbEntity
  8
0
 62
     7
100
AcDbPolyline
 90
        5
 70
   128
 43
0.0
 10
274.4468252283486
 20
-2113.565123470754
 10
274.518031873592
 20
-2113.493916824967
 10
274.5722041152994
 20
-2113.439744581661
 10
274.6060728343177
 20
-2113.405875860086
 10
274.6175941632623
 20
-2113.394354527781
  0
LINE
  5
22E
330
2
100
AcDbEntity
  8
0
 62
     7
100
AcDbLine
 10
274.0246877956574
 20
-2113.987260892483
 30
0.0
 11
273.8539188414302
 21
-2114.158029843554
 31
0.0
  0
LINE
  5
22F
330
2
100
AcDbEntity
  8
0
 62
     7
100
AcDbLine
 10
274.3766000984083
 20
-2114.836852351542
 30
0.0
 11
274.1350963295399
 21
-2114.836852351542
 31
0.0
  0
LINE
  5
230
330
2
100
AcDbEntity
  8
0
 62
     7
100
AcDbLine
 10
272.8783563812521
 20
-2163.800060969352
 30
0.0
 11
275.3783563812522
 21
-2163.800060969352
 31
0.0
  0
ARC
  5
231
330
2
100
AcDbEntity
  8
0
 62
     7
100
AcDbCircle
 10
336.0915489098863
 20
-2259.950060969353
 30
0.0
 40
0.2500000000000114
100
AcDbArc
 50
0.000000000000007
 51
90.0
  0
ARC
  5
232
330
2
100
AcDbEntity
  8
0
 62
     7
100
AcDbCircle
 10
304.5915489098864
 20
-2259.950060969353
 30
0.0
 40
0.2500000000000114
100
AcDbArc
 50
90.0
 51
180.0
  0
LINE
  5
233
330
2
100
AcDbEntity
  8
0
 62
     7
100
AcDbLine
 10
336.3415489098863
 20
-2259.950060969353
 30
0.0
 11
336.3415489098863
 21
-2261.300060969352
 31
0.0
  0
LINE
  5
234
330
2
100
AcDbEntity
  8
0
 62
     7
100
AcDbLine
 10
304.3415489098864
 20
-2261.300060969352
 30
0.0
 11
304.3415489098864
 21
-2259.950060969353
 31
0.0
  0
LINE
  5
235
330
2
100
AcDbEntity
  8
0
 62
     7
100
AcDbLine
 10
335.5915489098864
 20
-2261.300060969352
 30
0.0
 11
335.5915489098864
 21
-2261.900060969352
 31
0.0
  0
LINE
  5
236
330
2
100
AcDbEntity
  8
0
 62
     7
100
AcDbLine
 10
305.0915489098863
 20
-2261.900060969352
 30
0.0
 11
305.0915489098863
 21
-2261.300060969352
 31
0.0
  0
LINE
  5
237
330
2
100
AcDbEntity
  8
0
 62
     7
100
AcDbLine
 10
321.2415489098864
 20
-2261.900060969352
 30
0.0
 11
321.2415489098864
 21
-2262.300060969351
 31
0.0
  0
LINE
  5
238
330
2
100
AcDbEntity
  8
0
 62
     7
100
AcDbLine
 10
319.4415489098862
 20
-2262.300060969351
 30
0.0
 11
319.4415489098862
 21
-2261.900060969352
 31
0.0
  0
LINE
  5
239
330
2
100
AcDbEntity
  8
0
 62
     7
100
AcDbLine
 10
333.5808118798709
 20
-2261.900060969352
 30
0.0
 11
333.5808118798709
 21
-2262.300060969351
 31
0.0
  0
LINE
  5
23A
330
2
100
AcDbEntity
  8
0
 62
     7
100
AcDbLine
 10
331.7808118798709
 20
-2262.300060969351
 30
0.0
 11
331.7808118798709
 21
-2261.900060969352
 31
0.0
  0
LINE
  5
23B
330
2
100
AcDbEntity
  8
0
 62
     7
100
AcDbLine
 10
308.9022859399017
 20
-2261.900060969352
 30
0.0
 11
308.9022859399017
 21
-2262.300060969351
 31
0.0
  0
LINE
  5
23C
330
2
100
AcDbEntity
  8
0
 62
     7
100
AcDbLine
 10
307.1022859399018
 20
-2262.300060969351
 30
0.0
 11
307.1022859399018
 21
-2261.900060969352
 31
0.0
  0
ARC
  5
23D
330
2
100
AcDbEntity
  8
0
 62
     7
100
AcDbCircle
 10
322.5329400191551
 20
-2259.200060969352
 30
0.0
 40
0.5000000000000017
100
AcDbArc
 50
187.1250163489584
 51
270.0
  0
ARC
  5
23E
330
2
100
AcDbEntity
  8
0
 62
     7
100
AcDbCircle
 10
318.1501578006175
 20
-2259.200060969352
 30
0.0
 40
0.5000000000000025
100
AcDbArc
 50
270.0
 51
352.8749836510416
  0
LINE
  5
23F
330
2
100
AcDbEntity
  8
0
 62
     7
100
AcDbLine
 10
318.6462967389746
 20
-2259.262078336647
 30
0.0
 11
319.0915489098864
 21
-2255.700060969353
 31
0.0
  0
LINE
  5
240
330
2
100
AcDbEntity
  8
0
 62
     7
100
AcDbLine
 10
321.5915489098863
 20
-2255.700060969353
 30
0.0
 11
322.0368010807981
 21
-2259.262078336647
 31
0.0
  0
LINE
  5
241
330
2
100
AcDbEntity
  8
0
 62
     7
100
AcDbLine
 10
321.5915489098863
 20
-2163.800060969352
 30
0.0
 11
321.5915489098863
 21
-2255.700060969353
 31
0.0
  0
LINE
  5
242
330
2
100
AcDbEntity
  8
0
 62
     7
100
AcDbLine
 10
319.0915489098864
 20
-2255.700060969353
 30
0.0
 11
319.0915489098864
 21
-2163.800060969352
 31
0.0
  0
LINE
  5
243
330
2
100
AcDbEntity
  8
0
 62
     7
100
AcDbLine
 10
329.1766498158347
 20
-2261.900060969352
 30
0.0
 11
329.1766498158347
 21
-2262.300060969351
 31
0.0
  0
LINE
  5
244
330
2
100
AcDbEntity
  8
0
 62
     7
100
AcDbLine
 10
327.3766498158343
 20
-2262.300060969351
 30
0.0
 11
327.3766498158343
 21
-2261.900060969352
 31
0.0
  0
LINE
  5
245
330
2
100
AcDbEntity
  8
0
 62
     7
100
AcDbLine
 10
313.3064480039382
 20
-2261.900060969352
 30
0.0
 11
313.3064480039382
 21
-2262.300060969351
 31
0.0
  0
LINE
  5
246
330
2
100
AcDbEntity
  8
0
 62
     7
100
AcDbLine
 10
311.506448003938
 20
-2262.300060969351
 30
0.0
 11
311.506448003938
 21
-2261.900060969352
 31
0.0
  0
LINE
  5
247
330
2
100
AcDbEntity
  8
0
 62
     7
100
AcDbLine
 10
320.3415489098863
 20
-2259.700060969352
 30
0.0
 11
304.5915489098864
 21
-2259.700060969352
 31
0.0
  0
LINE
  5
248
330
2
100
AcDbEntity
  8
0
 62
     7
100
AcDbLine
 10
336.0915489098863
 20
-2259.700060969352
 30
0.0
 11
320.3415489098863
 21
-2259.700060969352
 31
0.0
  0
LINE
  5
249
330
2
100
AcDbEntity
  8
0
 62
     7
100
AcDbLine
 10
320.3415489098863
 20
-2261.300060969352
 30
0.0
 11
304.3415489098864
 21
-2261.300060969352
 31
0.0
  0
LINE
  5
24A
330
2
100
AcDbEntity
  8
0
 62
     7
100
AcDbLine
 10
336.3415489098863
 20
-2261.300060969352
 30
0.0
 11
320.3415489098863
 21
-2261.300060969352
 31
0.0
  0
LINE
  5
24B
330
2
100
AcDbEntity
  8
0
 62
     7
100
AcDbLine
 10
320.3415489098863
 20
-2261.900060969352
 30
0.0
 11
305.0915489098863
 21
-2261.900060969352
 31
0.0
  0
LINE
  5
24C
330
2
100
AcDbEntity
  8
0
 62
     7
100
AcDbLine
 10
335.5915489098864
 20
-2261.900060969352
 30
0.0
 11
320.3415489098863
 21
-2261.900060969352
 31
0.0
  0
LINE
  5
24D
330
2
100
AcDbEntity
  8
0
 62
     7
100
AcDbLine
 10
319.4415489098862
 20
-2262.300060969351
 30
0.0
 11
321.2415489098864
 21
-2262.300060969351
 31
0.0
  0
LINE
  5
24E
330
2
100
AcDbEntity
  8
0
 62
     7
100
AcDbLine
 10
331.7808118798709
 20
-2262.300060969351
 30
0.0
 11
333.5808118798709
 21
-2262.300060969351
 31
0.0
  0
LINE
  5
24F
330
2
100
AcDbEntity
  8
0
 62
     7
100
AcDbLine
 10
307.1022859399018
 20
-2262.300060969351
 30
0.0
 11
308.9022859399017
 21
-2262.300060969351
 31
0.0
  0
LINE
  5
250
330
2
100
AcDbEntity
  8
0
 62
     7
100
AcDbLine
 10
320.3415489098863
 20
-2255.700060969353
 30
0.0
 11
319.0915489098864
 21
-2255.700060969353
 31
0.0
  0
LINE
  5
251
330
2
100
AcDbEntity
  8
0
 62
     7
100
AcDbLine
 10
321.5915489098863
 20
-2255.700060969353
 30
0.0
 11
320.3415489098863
 21
-2255.700060969353
 31
0.0
  0
LINE
  5
252
330
2
100
AcDbEntity
  8
0
 62
     7
100
AcDbLine
 10
320.3415489098863
 20
-2163.800060969352
 30
0.0
 11
319.0915489098864
 21
-2163.800060969352
 31
0.0
  0
LINE
  5
253
330
2
100
AcDbEntity
  8
0
 62
     7
100
AcDbLine
 10
321.5915489098863
 20
-2163.800060969352
 30
0.0
 11
320.3415489098863
 21
-2163.800060969352
 31
0.0
  0
LINE
  5
254
330
2
100
AcDbEntity
  8
0
 62
     7
100
AcDbLine
 10
327.3766498158343
 20
-2262.300060969351
 30
0.0
 11
329.1766498158347
 21
-2262.300060969351
 31
0.0
  0
LINE
  5
255
330
2
100
AcDbEntity
  8
0
 62
     7
100
AcDbLine
 10
311.506448003938
 20
-2262.300060969351
 30
0.0
 11
313.3064480039382
 21
-2262.300060969351
 31
0.0
  0
LINE
  5
256
330
2
100
AcDbEntity
  8
0
 62
     7
100
AcDbLine
 10
320.3415489098863
 20
-2259.950060969353
 30
0.0
 11
336.3415489098863
 21
-2259.950060969353
 31
0.0
  0
LINE
  5
257
330
2
100
AcDbEntity
  8
0
 62
     7
100
AcDbLine
 10
304.3415489098864
 20
-2259.950060969353
 30
0.0
 11
320.3415489098863
 21
-2259.950060969353
 31
0.0
  0
LINE
  5
258
330
2
100
AcDbEntity
  8
0
 62
     7
100
AcDbLine
 10
322.0368010807981
 20
-2259.262078336647
 30
0.0
 11
318.6462967389746
 21
-2259.262078336647
 31
0.0
  0
LINE
  5
259
330
2
100
AcDbEntity
  8
0
 62
     7
100
AcDbLine
 10
290.1283563812522
 20
-2259.950060969353
 30
0.0
 11
290.1283563812522
 21
-2261.300060969352
 31
0.0
  0
LINE
  5
25A
330
2
100
AcDbEntity
  8
0
 62
     7
100
AcDbLine
 10
258.1283563812521
 20
-2261.300060969352
 30
0.0
 11
258.1283563812521
 21
-2259.950060969353
 31
0.0
  0
ARC
  5
25B
330
2
100
AcDbEntity
  8
0
 62
     7
100
AcDbCircle
 10
289.8783563812521
 20
-2259.950060969353
 30
0.0
 40
0.2500000000000114
100
AcDbArc
 50
0.000000000000007
 51
90.0
  0
ARC
  5
25C
330
2
100
AcDbEntity
  8
0
 62
     7
100
AcDbCircle
 10
258.3783563812521
 20
-2259.950060969353
 30
0.0
 40
0.2500000000000114
100
AcDbArc
 50
90.0
 51
180.0
  0
LINE
  5
25D
330
2
100
AcDbEntity
  8
0
 62
     7
100
AcDbLine
 10
289.3783563812521
 20
-2261.300060969352
 30
0.0
 11
289.3783563812521
 21
-2261.900060969352
 31
0.0
  0
LINE
  5
25E
330
2
100
AcDbEntity
  8
0
 62
     7
100
AcDbLine
 10
258.8783563812522
 20
-2261.900060969352
 30
0.0
 11
258.8783563812522
 21
-2261.300060969352
 31
0.0
  0
LINE
  5
25F
330
2
100
AcDbEntity
  8
0
 62
     7
100
AcDbLine
 10
270.8566269571902
 20
-2261.900060969352
 30
0.0
 11
270.8566269571902
 21
-2262.300060969351
 31
0.0
  0
LINE
  5
260
330
2
100
AcDbEntity
  8
0
 62
     7
100
AcDbLine
 10
269.0566269571903
 20
-2262.300060969351
 30
0.0
 11
269.0566269571903
 21
-2261.900060969352
 31
0.0
  0
LINE
  5
261
330
2
100
AcDbEntity
  8
0
 62
     7
100
AcDbLine
 10
285.9500858053143
 20
-2261.900060969352
 30
0.0
 11
285.9500858053143
 21
-2262.300060969351
 31
0.0
  0
LINE
  5
262
330
2
100
AcDbEntity
  8
0
 62
     7
100
AcDbLine
 10
284.1500858053137
 20
-2262.300060969351
 30
0.0
 11
284.1500858053137
 21
-2261.900060969352
 31
0.0
  0
ARC
  5
263
330
2
100
AcDbEntity
  8
0
 62
     7
100
AcDbCircle
 10
276.3197474905207
 20
-2259.200060969352
 30
0.0
 40
0.5000000000000096
100
AcDbArc
 50
187.1250163489584
 51
270.0
  0
ARC
  5
264
330
2
100
AcDbEntity
  8
0
 62
     7
100
AcDbCircle
 10
271.9369652719836
 20
-2259.200060969352
 30
0.0
 40
0.5
100
AcDbArc
 50
270.0
 51
352.8749836510416
  0
LINE
  5
265
330
2
100
AcDbEntity
  8
0
 62
     7
100
AcDbLine
 10
272.4331042103404
 20
-2259.262078336647
 30
0.0
 11
272.8783563812521
 21
-2255.700060969353
 31
0.0
  0
LINE
  5
266
330
2
100
AcDbEntity
  8
0
 62
     7
100
AcDbLine
 10
275.3783563812522
 20
-2255.700060969353
 30
0.0
 11
275.8236085521641
 21
-2259.262078336647
 31
0.0
  0
LINE
  5
267
330
2
100
AcDbEntity
  8
0
 62
     7
100
AcDbLine
 10
275.3783563812522
 20
-2163.800060969352
 30
0.0
 11
275.3783563812522
 21
-2255.700060969353
 31
0.0
  0
LINE
  5
268
330
2
100
AcDbEntity
  8
0
 62
     7
100
AcDbLine
 10
272.8783563812521
 20
-2255.700060969353
 30
0.0
 11
272.8783563812521
 21
-2163.800060969352
 31
0.0
  0
LINE
  5
269
330
2
100
AcDbEntity
  8
0
 62
     7
100
AcDbLine
 10
262.028356381252
 20
-2261.900060969352
 30
0.0
 11
262.028356381252
 21
-2262.300060969351
 31
0.0
  0
LINE
  5
26A
330
2
100
AcDbEntity
  8
0
 62
     7
100
AcDbLine
 10
260.2283563812523
 20
-2262.300060969351
 30
0.0
 11
260.2283563812523
 21
-2261.900060969352
 31
0.0
  0
LINE
  5
26B
330
2
100
AcDbEntity
  8
0
 62
     7
100
AcDbLine
 10
290.1283563812522
 20
-2261.300060969352
 30
0.0
 11
258.1283563812521
 21
-2261.300060969352
 31
0.0
  0
LINE
  5
26C
330
2
100
AcDbEntity
  8
0
 62
     7
100
AcDbLine
 10
289.878356380955
 20
-2259.700060969352
 30
0.0
 11
258.3783563812521
 21
-2259.700060969352
 31
0.0
  0
LINE
  5
26D
330
2
100
AcDbEntity
  8
0
 62
     7
100
AcDbLine
 10
289.3783563812521
 20
-2261.900060969352
 30
0.0
 11
258.8783563812522
 21
-2261.900060969352
 31
0.0
  0
LINE
  5
26E
330
2
100
AcDbEntity
  8
0
 62
     7
100
AcDbLine
 10
269.0566269571903
 20
-2262.300060969351
 30
0.0
 11
270.8566269571902
 21
-2262.300060969351
 31
0.0
  0
LINE
  5
26F
330
2
100
AcDbEntity
  8
0
 62
     7
100
AcDbLine
 10
284.1500858053137
 20
-2262.300060969351
 30
0.0
 11
285.9500858053143
 21
-2262.300060969351
 31
0.0
  0
LINE
  5
270
330
2
100
AcDbEntity
  8
0
 62
     7
100
AcDbLine
 10
275.3783563812522
 20
-2255.700060969353
 30
0.0
 11
272.8783563812521
 21
-2255.700060969353
 31
0.0
  0
LINE
  5
271
330
2
100
AcDbEntity
  8
0
 62
     7
100
AcDbLine
 10
275.3783563812522
 20
-2163.800060969352
 30
0.0
 11
272.8783563812521
 21
-2163.800060969352
 31
0.0
  0
LINE
  5
272
330
2
100
AcDbEntity
  8
0
 62
     7
100
AcDbLine
 10
260.2283563812523
 20
-2262.300060969351
 30
0.0
 11
262.028356381252
 21
-2262.300060969351
 31
0.0
  0
LINE
  5
273
330
2
100
AcDbEntity
  8
0
 62
     7
100
AcDbLine
 10
258.1283563812521
 20
-2259.950060969353
 30
0.0
 11
290.1283563812522
 21
-2259.950060969353
 31
0.0
  0
LINE
  5
274
330
2
100
AcDbEntity
  8
0
 62
     7
100
AcDbLine
 10
275.8236085521641
 20
-2259.262078336647
 30
0.0
 11
272.4331042103404
 21
-2259.262078336647
 31
0.0
  0
ENDSEC
  0
SECTION
  2
OBJECTS
  0
DICTIONARY
  5
9
330
0
100
AcDbDictionary
281
     1
  3
ACAD_CIP_PREVIOUS_PRODUCT_INFO
350
2C4
  3
ACAD_COLOR
350
2A
  3
ACAD_DETAILVIEWSTYLE
350
2C0
  3
ACAD_GROUP
350
26
  3
ACAD_LAYOUT
350
D
  3
ACAD_MATERIAL
350
29
  3
ACAD_MLEADERSTYLE
350
2BC
  3
ACAD_MLINESTYLE
350
27
  3
ACAD_PLOTSETTINGS
350
28
  3
ACAD_PLOTSTYLENAME
350
8
  3
ACAD_SCALELIST
350
2AA
  3
ACAD_SECTIONVIEWSTYLE
350
2BE
  3
ACAD_TABLESTYLE
350
2B
  3
ACAD_VISUALSTYLE
350
291
  3
ACDB_RECOMPOSE_DATA
350
2DC
  3
AcDbVariableDictionary
350
276
  3
AcDsDecomposeData
350
2E2
  0
DICTIONARY
  5
14
330
13
100
AcDbDictionary
280
     1
281
     1
  3
ACAD_LAYERFILTERS
360
15
  3
ACAD_LAYERSTATES
360
2CC
  3
ACLYDICTIONARY
360
16
  0
DICTIONARY
  5
2C5
330
6
100
AcDbDictionary
280
     1
281
     1
  3
ADSK_XREC_LAYER_RECONCILED
360
2C6
  0
DICTIONARY
  5
2C7
330
2C
100
AcDbDictionary
280
     1
281
     1
  3
ADSK_XREC_LAYER_RECONCILED
360
2C8
  0
DICTIONARY
  5
3
330
2
100
AcDbDictionary
280
     1
281
     1
  3
ACAD_SORTENTS
360
275
  0
XRECORD
  5
2C4
102
{ACAD_REACTORS
330
9
102
}
330
9
100
AcDbXrecord
280
     1
300
ACDMAC
300
2013
300

  0
DICTIONARY
  5
2A
102
{ACAD_REACTORS
330
9
102
}
330
9
100
AcDbDictionary
281
     1
  0
DICTIONARY
  5
2C0
102
{ACAD_REACTORS
330
9
102
}
330
9
100
AcDbDictionary
281
     1
  3
Metric50
350
2C1
  0
DICTIONARY
  5
26
102
{ACAD_REACTORS
330
9
102
}
330
9
100
AcDbDictionary
281
     1
  0
DICTIONARY
  5
D
102
{ACAD_REACTORS
330
9
102
}
330
9
100
AcDbDictionary
281
     1
  3
Layout1
350
12
  3
Model
350
C
  0
DICTIONARY
  5
29
102
{ACAD_REACTORS
330
9
102
}
330
9
100
AcDbDictionary
281
     1
  3
ByBlock
350
281
  3
ByLayer
350
279
  3
Global
350
289
  0
DICTIONARY
  5
2BC
102
{ACAD_REACTORS
330
9
102
}
330
9
100
AcDbDictionary
281
     1
  3
Standard
350
2BD
  0
DICTIONARY
  5
27
102
{ACAD_REACTORS
330
9
102
}
330
9
100
AcDbDictionary
281
     1
  3
Standard
350
2E
  0
DICTIONARY
  5
28
102
{ACAD_REACTORS
330
9
102
}
330
9
100
AcDbDictionary
281
     1
  0
ACDBDICTIONARYWDFLT
  5
8
102
{ACAD_REACTORS
330
9
102
}
330
9
100
AcDbDictionary
281
     1
  3
Normal
350
7
100
AcDbDictionaryWithDefault
340
7
  0
DICTIONARY
  5
2AA
102
{ACAD_REACTORS
330
9
102
}
330
9
100
AcDbDictionary
281
     1
  3
A0
350
2AB
  3
A1
350
2AC
  3
A2
350
2AD
  3
A3
350
2AE
  3
A4
350
2AF
  3
A5
350
2B0
  3
A6
350
2B1
  3
A7
350
2B2
  3
A8
350
2B3
  3
A9
350
2B4
  3
B0
350
2B5
  3
B1
350
2B6
  3
B2
350
2B7
  3
B3
350
2B8
  3
B4
350
2B9
  3
B5
350
2BA
  3
B6
350
2BB
  0
DICTIONARY
  5
2BE
102
{ACAD_REACTORS
330
9
102
}
330
9
100
AcDbDictionary
281
     1
  3
Metric50
350
2BF
  0
DICTIONARY
  5
2B
102
{ACAD_REACTORS
330
9
102
}
330
9
100
AcDbDictionary
281
     1
  3
Standard
350
2F
  0
DICTIONARY
  5
291
102
{ACAD_REACTORS
330
9
102
}
330
9
100
AcDbDictionary
281
     1
  3
2dWireframe
350
297
  3
Basic
350
296
  3
Brighten
350
29D
  3
ColorChange
350
2A1
  3
Conceptual
350
29A
  3
Dim
350
29C
  3
EdgeColorOff
350
2A9
  3
Facepattern
350
2A0
  3
Flat
350
292
  3
FlatWithEdges
350
293
  3
Gouraud
350
294
  3
GouraudWithEdges
350
295
  3
Hidden
350
299
  3
JitterOff
350
2A7
  3
Linepattern
350
29F
  3
OverhangOff
350
2A8
  3
Realistic
350
29B
  3
Shaded
350
2A6
  3
Shaded with edges
350
2A5
  3
Shades of Gray
350
2A2
  3
Sketchy
350
2A3
  3
Thicken
350
29E
  3
Wireframe
350
298
  3
X-Ray
350
2A4
  0
XRECORD
  5
2DC
102
{ACAD_REACTORS
330
9
102
}
330
9
100
AcDbXrecord
280
     1
 90
        1
330
2F
  0
DICTIONARY
  5
276
102
{ACAD_REACTORS
330
9
102
}
330
9
100
AcDbDictionary
281
     1
  3
CANNOSCALE
350
2D5
  3
CMLEADERSTYLE
350
2D1
  3
CTABLESTYLE
350
277
  3
CVIEWDETAILSTYLE
350
2D2
  3
CVIEWSECTIONSTYLE
350
2D3
  3
LAYEREVAL
350
2D7
  3
LAYERNOTIFY
350
2D8
  3
LIGHTINGUNITS
350
2D6
  3
MSLTSCALE
350
2D4
  0
DICTIONARY
  5
2E2
102
{ACAD_REACTORS
330
9
102
}
330
9
100
AcDbDictionary
281
     1
  3
AcDsRecords
350
2E4
  3
AcDsSchemas
350
2E3
1001
ACAD
1070
     2
  0
DICTIONARY
  5
15
102
{ACAD_REACTORS
330
14
102
}
330
14
100
AcDbDictionary
281
     1
  0
DICTIONARY
  5
2CC
102
{ACAD_REACTORS
330
14
102
}
330
14
100
AcDbDictionary
281
     1
  0
DICTIONARY
  5
16
102
{ACAD_REACTORS
330
14
102
}
330
14
100
AcDbDictionary
281
     1
1001
ACAD
1000
<All
  0
XRECORD
  5
2C6
102
{ACAD_REACTORS
330
2C5
102
}
330
2C5
100
AcDbXrecord
280
     1
290
     1
  0
XRECORD
  5
2C8
102
{ACAD_REACTORS
330
2C7
102
}
330
2C7
100
AcDbXrecord
280
     1
290
     1
  0
SORTENTSTABLE
  5
275
102
{ACAD_REACTORS
330
3
102
}
330
3
100
AcDbSortentsTable
330
2
  0
ACDBDETAILVIEWSTYLE
  5
2C1
102
{ACAD_REACTORS
330
2C0
102
}
330
2C0
100
AcDbModelDocViewStyle
 70
     0
  3
Metric50
290
     0
100
AcDbDetailViewStyle
 70
     0
 71
     0
 90
        3
 71
     1
340
19
 62
   256
 40
5.0
340
0
 62
   256
 40
5.0
300

 40
0.0
280
     1
 71
     2
340
A
 90
       25
 62
   256
 71
     3
340
19
 62
   256
 40
5.0
 90
        0
 40
15.0
 90
        1
300
%<\AcVar ViewDetailId>% (%<\AcVar ViewScale \f "%sn">%)
 71
     4
340
A
 90
       25
 62
   256
340
A
 90
       25
 62
   256
280
     0
  0
LAYOUT
  5
12
102
{ACAD_REACTORS
330
D
102
}
330
D
100
AcDbPlotSettings
  1

  2
C:\Documents and Settings\basas\Application Data\Autodesk\AutoCAD 2005\R16.1\enu\plotters\Default Windows System Printer.pc3
  4

  6

 40
0.0
 41
0.0
 42
0.0
 43
0.0
 44
0.0
 45
0.0
 46
0.0
 47
0.0
 48
0.0
 49
0.0
140
0.0
141
0.0
142
1.0
143
1.0
 70
   688
 72
     0
 73
     0
 74
     5
  7

 75
    16
147
1.0
 76
     0
 77
     2
 78
   300
148
0.0
149
0.0
100
AcDbLayout
  1
Layout1
 70
     1
 71
     1
 10
0.0
 20
0.0
 11
12.0
 21
9.0
 12
0.0
 22
0.0
 32
0.0
 14
0.0
 24
0.0
 34
0.0
 15
0.0
 25
0.0
 35
0.0
146
0.0
 13
0.0
 23
0.0
 33
0.0
 16
1.0
 26
0.0
 36
0.0
 17
0.0
 27
1.0
 37
0.0
 76
     0
330
F
  0
LAYOUT
  5
C
102
{ACAD_REACTORS
330
D
102
}
330
D
100
AcDbPlotSettings
  1

  2
none_device
  4
ISO_A4_(210.00_x_297.00_MM)
  6

 40
7.5
 41
20.0
 42
7.5
 43
20.0
 44
210.0
 45
297.0
 46
11.54999923706054
 47
-13.65000009536743
 48
0.0
 49
0.0
140
0.0
141
0.0
142
1.0
143
8.704084754739808
 70
 11952
 72
     1
 73
     0
 74
     0
  7

 75
     0
147
0.1148885871608098
 76
     0
 77
     2
 78
   300
148
0.0
149
0.0
100
AcDbLayout
  1
Model
 70
     1
 71
     0
 10
0.0
 20
0.0
 11
12.0
 21
9.0
 12
0.0
 22
0.0
 32
0.0
 14
0.0
 24
0.0
 34
0.0
 15
0.0
 25
0.0
 35
0.0
146
0.0
 13
0.0
 23
0.0
 33
0.0
 16
1.0
 26
0.0
 36
0.0
 17
0.0
 27
1.0
 37
0.0
 76
     0
330
2
331
21
1001
ACAD_PSEXT
1000
None
1000
None
1000
Not applicable
1000
The layout will not be plotted unless a new plotter configuration name is selected.
1070
     0
  0
MATERIAL
  5
281
102
{ACAD_XDICTIONARY
360
282
102
}
102
{ACAD_REACTORS
330
29
102
}
330
29
100
AcDbMaterial
  1
ByBlock
 72
     0
 43
0.0008202099737533
 43
0.0
 43
0.0
 43
0.0
 43
0.0
 43
0.0008202099737533
 43
0.0
 43
0.0
 43
0.0
 43
0.0
 43
1.0
 43
0.0
 43
0.0
 43
0.0
 43
0.0
 43
1.0
 77
     0
 47
0.0008202099737533
 47
0.0
 47
0.0
 47
0.0
 47
0.0
 47
0.0008202099737533
 47
0.0
 47
0.0
 47
0.0
 47
0.0
 47
1.0
 47
0.0
 47
0.0
 47
0.0
 47
0.0
 47
1.0
171
     0
 49
0.0008202099737533
 49
0.0
 49
0.0
 49
0.0
 49
0.0
 49
0.0008202099737533
 49
0.0
 49
0.0
 49
0.0
 49
0.0
 49
1.0
 49
0.0
 49
0.0
 49
0.0
 49
0.0
 49
1.0
175
     0
142
0.0008202099737533
142
0.0
142
0.0
142
0.0
142
0.0
142
0.0008202099737533
142
0.0
142
0.0
142
0.0
142
0.0
142
1.0
142
0.0
142
0.0
142
0.0
142
0.0
142
1.0
179
     0
144
0.0008202099737533
144
0.0
144
0.0
144
0.0
144
0.0
144
0.0008202099737533
144
0.0
144
0.0
144
0.0
144
0.0
144
1.0
144
0.0
144
0.0
144
0.0
144
0.0
144
1.0
147
0.0008202099737533
147
0.0
147
0.0
147
0.0
147
0.0
147
0.0008202099737533
147
0.0
147
0.0
147
0.0
147
0.0
147
1.0
147
0.0
147
0.0
147
0.0
147
0.0
147
1.0
  0
MATERIAL
  5
279
102
{ACAD_XDICTIONARY
360
27A
102
}
102
{ACAD_REACTORS
330
29
102
}
330
29
100
AcDbMaterial
  1
ByLayer
 72
     0
 43
0.0008202099737533
 43
0.0
 43
0.0
 43
0.0
 43
0.0
 43
0.0008202099737533
 43
0.0
 43
0.0
 43
0.0
 43
0.0
 43
1.0
 43
0.0
 43
0.0
 43
0.0
 43
0.0
 43
1.0
 77
     0
 47
0.0008202099737533
 47
0.0
 47
0.0
 47
0.0
 47
0.0
 47
0.0008202099737533
 47
0.0
 47
0.0
 47
0.0
 47
0.0
 47
1.0
 47
0.0
 47
0.0
 47
0.0
 47
0.0
 47
1.0
171
     0
 49
0.0008202099737533
 49
0.0
 49
0.0
 49
0.0
 49
0.0
 49
0.0008202099737533
 49
0.0
 49
0.0
 49
0.0
 49
0.0
 49
1.0
 49
0.0
 49
0.0
 49
0.0
 49
0.0
 49
1.0
175
     0
142
0.0008202099737533
142
0.0
142
0.0
142
0.0
142
0.0
142
0.0008202099737533
142
0.0
142
0.0
142
0.0
142
0.0
142
1.0
142
0.0
142
0.0
142
0.0
142
0.0
142
1.0
179
     0
144
0.0008202099737533
144
0.0
144
0.0
144
0.0
144
0.0
144
0.0008202099737533
144
0.0
144
0.0
144
0.0
144
0.0
144
1.0
144
0.0
144
0.0
144
0.0
144
0.0
144
1.0
147
0.0008202099737533
147
0.0
147
0.0
147
0.0
147
0.0
147
0.0008202099737533
147
0.0
147
0.0
147
0.0
147
0.0
147
1.0
147
0.0
147
0.0
147
0.0
147
0.0
147
1.0
  0
MATERIAL
  5
289
102
{ACAD_XDICTIONARY
360
28A
102
}
102
{ACAD_REACTORS
330
29
102
}
330
29
100
AcDbMaterial
  1
Global
 72
     0
 43
0.0008202099737533
 43
0.0
 43
0.0
 43
0.0
 43
0.0
 43
0.0008202099737533
 43
0.0
 43
0.0
 43
0.0
 43
0.0
 43
1.0
 43
0.0
 43
0.0
 43
0.0
 43
0.0
 43
1.0
 77
     0
 47
0.0008202099737533
 47
0.0
 47
0.0
 47
0.0
 47
0.0
 47
0.0008202099737533
 47
0.0
 47
0.0
 47
0.0
 47
0.0
 47
1.0
 47
0.0
 47
0.0
 47
0.0
 47
0.0
 47
1.0
171
     0
 49
0.0008202099737533
 49
0.0
 49
0.0
 49
0.0
 49
0.0
 49
0.0008202099737533
 49
0.0
 49
0.0
 49
0.0
 49
0.0
 49
1.0
 49
0.0
 49
0.0
 49
0.0
 49
0.0
 49
1.0
175
     0
142
0.0008202099737533
142
0.0
142
0.0
142
0.0
142
0.0
142
0.0008202099737533
142
0.0
142
0.0
142
0.0
142
0.0
142
1.0
142
0.0
142
0.0
142
0.0
142
0.0
142
1.0
179
     0
144
0.0008202099737533
144
0.0
144
0.0
144
0.0
144
0.0
144
0.0008202099737533
144
0.0
144
0.0
144
0.0
144
0.0
144
1.0
144
0.0
144
0.0
144
0.0
144
0.0
144
1.0
147
0.0008202099737533
147
0.0
147
0.0
147
0.0
147
0.0
147
0.0008202099737533
147
0.0
147
0.0
147
0.0
147
0.0
147
1.0
147
0.0
147
0.0
147
0.0
147
0.0
147
1.0
  0
MLEADERSTYLE
  5
2BD
102
{ACAD_XDICTIONARY
360
315
102
}
102
{ACAD_REACTORS
330
2BC
102
}
330
2BC
100
AcDbMLeaderStyle
179
     2
170
     2
171
     1
172
     0
 90
        2
 40
0.0
 41
0.0
173
     1
 91
-1056964608
340
1C
 92
       -2
290
     1
 42
2.0
291
     1
 43
0.36
  3
Standard
 44
4.0
300

342
19
174
     1
178
     6
175
     1
176
     0
 93
-1056964608
 45
4.0
292
     0
297
     0
 46
4.0
 94
-1056964608
 47
1.0
 49
1.0
140
1.0
293
     1
141
0.0
294
     1
177
     0
142
1.0
295
     0
296
     0
143
0.125
271
     0
272
     9
273
     9
  0
MLINESTYLE
  5
2E
102
{ACAD_REACTORS
330
27
102
}
330
27
100
AcDbMlineStyle
  2
STANDARD
 70
     0
  3

 62
   256
 51
90.0
 52
90.0
 71
     2
 49
0.5
 62
   256
  6
BYLAYER
 49
-0.5
 62
   256
  6
BYLAYER
  0
ACDBPLACEHOLDER
  5
7
102
{ACAD_REACTORS
330
8
102
}
330
8
  0
SCALE
  5
2AB
102
{ACAD_REACTORS
330
2AA
102
}
330
2AA
100
AcDbScale
 70
     0
300
1:1
140
1.0
141
1.0
290
     1
  0
SCALE
  5
2AC
102
{ACAD_REACTORS
330
2AA
102
}
330
2AA
100
AcDbScale
 70
     0
300
1:2
140
1.0
141
2.0
290
     0
  0
SCALE
  5
2AD
102
{ACAD_REACTORS
330
2AA
102
}
330
2AA
100
AcDbScale
 70
     0
300
1:4
140
1.0
141
4.0
290
     0
  0
SCALE
  5
2AE
102
{ACAD_REACTORS
330
2AA
102
}
330
2AA
100
AcDbScale
 70
     0
300
1:5
140
1.0
141
5.0
290
     0
  0
SCALE
  5
2AF
102
{ACAD_REACTORS
330
2AA
102
}
330
2AA
100
AcDbScale
 70
     0
300
1:8
140
1.0
141
8.0
290
     0
  0
SCALE
  5
2B0
102
{ACAD_REACTORS
330
2AA
102
}
330
2AA
100
AcDbScale
 70
     0
300
1:10
140
1.0
141
10.0
290
     0
  0
SCALE
  5
2B1
102
{ACAD_REACTORS
330
2AA
102
}
330
2AA
100
AcDbScale
 70
     0
300
1:16
140
1.0
141
16.0
290
     0
  0
SCALE
  5
2B2
102
{ACAD_REACTORS
330
2AA
102
}
330
2AA
100
AcDbScale
 70
     0
300
1:20
140
1.0
141
20.0
290
     0
  0
SCALE
  5
2B3
102
{ACAD_REACTORS
330
2AA
102
}
330
2AA
100
AcDbScale
 70
     0
300
1:30
140
1.0
141
30.0
290
     0
  0
SCALE
  5
2B4
102
{ACAD_REACTORS
330
2AA
102
}
330
2AA
100
AcDbScale
 70
     0
300
1:40
140
1.0
141
40.0
290
     0
  0
SCALE
  5
2B5
102
{ACAD_REACTORS
330
2AA
102
}
330
2AA
100
AcDbScale
 70
     0
300
1:50
140
1.0
141
50.0
290
     0
  0
SCALE
  5
2B6
102
{ACAD_REACTORS
330
2AA
102
}
330
2AA
100
AcDbScale
 70
     0
300
1:100
140
1.0
141
100.0
290
     0
  0
SCALE
  5
2B7
102
{ACAD_REACTORS
330
2AA
102
}
330
2AA
100
AcDbScale
 70
     0
300
2:1
140
2.0
141
1.0
290
     0
  0
SCALE
  5
2B8
102
{ACAD_REACTORS
330
2AA
102
}
330
2AA
100
AcDbScale
 70
     0
300
4:1
140
4.0
141
1.0
290
     0
  0
SCALE
  5
2B9
102
{ACAD_REACTORS
330
2AA
102
}
330
2AA
100
AcDbScale
 70
     0
300
8:1
140
8.0
141
1.0
290
     0
  0
SCALE
  5
2BA
102
{ACAD_REACTORS
330
2AA
102
}
330
2AA
100
AcDbScale
 70
     0
300
10:1
140
10.0
141
1.0
290
     0
  0
SCALE
  5
2BB
102
{ACAD_REACTORS
330
2AA
102
}
330
2AA
100
AcDbScale
 70
     0
300
100:1
140
100.0
141
1.0
290
     0
  0
ACDBSECTIONVIEWSTYLE
  5
2BF
102
{ACAD_REACTORS
330
2BE
102
}
330
2BE
100
AcDbModelDocViewStyle
 70
     0
  3
Metric50
290
     0
100
AcDbSectionViewStyle
 70
     0
 71
     0
 90
      102
 71
     1
340
19
 62
   256
 40
5.0
340
0
340
0
 62
   256
 40
5.0
300
I, O, Q, S, X, Z
 40
10.0
 90
        0
 40
2.5
 90
        0
 71
     2
340
A
 90
       25
 62
   256
340
A
 90
       50
 62
   256
 40
5.0
 40
2.5
 40
5.0
 71
     3
340
19
 62
   256
 40
5.0
 90
        0
 40
15.0
 90
        1
300
%<\AcVar ViewSectionStartId>%-%<\AcVar ViewSectionEndId>% (%<\AcVar ViewScale \f "%sn">%)
 71
     4
 62
   256
 62
   257
300
ANSI31
 40
1.0
 90
        0
290
     0
290
     0
 90
        6
 40
0.0
 40
1.570796326794896
 40
0.2617993877991494
 40
1.308996938995747
 40
-0.2617993877991494
 40
1.832595714594046
  0
TABLESTYLE
  5
2F
102
{ACAD_XDICTIONARY
360
2DA
102
}
102
{ACAD_REACTORS
330
2B
102
}
330
2B
100
AcDbTableStyle
280
     0
  3
Standard
 70
     0
 71
     0
 40
1.5
 41
1.5
280
     0
281
     0
  7
Standard
140
4.5
170
     2
 62
     0
 63
     7
283
     0
 90
        4
 91
        0
  1

274
    -2
284
     1
 64
     0
275
    -2
285
     1
 65
     0
276
    -2
286
     1
 66
     0
277
    -2
287
     1
 67
     0
278
    -2
288
     1
 68
     0
279
    -2
289
     1
 69
     0
  7
Standard
140
6.0
170
     5
 62
     0
 63
     7
283
     0
 90
        4
 91
        0
  1

274
    -2
284
     1
 64
     0
275
    -2
285
     1
 65
     0
276
    -2
286
     1
 66
     0
277
    -2
287
     1
 67
     0
278
    -2
288
     1
 68
     0
279
    -2
289
     1
 69
     0
  7
Standard
140
4.5
170
     5
 62
     0
 63
     7
283
     0
 90
        4
 91
        0
  1

274
    -2
284
     1
 64
     0
275
    -2
285
     1
 65
     0
276
    -2
286
     1
 66
     0
277
    -2
287
     1
 67
     0
278
    -2
288
     1
 68
     0
279
    -2
289
     1
 69
     0
  0
VISUALSTYLE
  5
297
102
{ACAD_XDICTIONARY
360
2EF
102
}
102
{ACAD_REACTORS
330
291
102
}
330
291
100
AcDbVisualStyle
  2
2dWireframe
 70
     4
177
     2
291
     0
 71
     0
176
     1
 72
     2
176
     1
 73
     0
176
     1
 90
        0
176
     1
 40
0.6
176
     1
 41
30.0
176
     1
 63
     7
421
 16777215
176
     1
 74
     1
176
     1
 91
        4
176
     1
 64
     7
176
     1
 65
   257
176
     1
 75
     1
176
     1
175
     1
176
     1
 42
1.0
176
     1
 92
        0
176
     1
 66
   257
176
     1
 43
1.0
176
     1
 76
     1
176
     1
 77
     6
176
     1
 78
     2
176
     1
 67
     7
176
     1
 79
     5
176
     1
170
     0
176
     1
171
     0
176
     1
290
     0
176
     1
 93
        1
176
     1
 44
0.0
176
     1
173
     0
176
     1
1001
ACAD
1000
AcDbSavedByObjectVersion
1070
     0
  0
VISUALSTYLE
  5
296
102
{ACAD_XDICTIONARY
360
2ED
102
}
102
{ACAD_REACTORS
330
291
102
}
330
291
100
AcDbVisualStyle
  2
Basic
 70
     7
177
     2
291
     1
 71
     1
176
     1
 72
     0
176
     1
 73
     1
176
     1
 90
        0
176
     1
 40
0.6
176
     1
 41
30.0
176
     1
 63
     7
421
 16777215
176
     1
 74
     0
176
     1
 91
        4
176
     1
 64
     7
176
     1
 65
   257
176
     1
 75
     1
176
     1
175
     1
176
     1
 42
1.0
176
     1
 92
        8
176
     1
 66
     7
176
     1
 43
1.0
176
     1
 76
     1
176
     1
 77
     6
176
     1
 78
     2
176
     1
 67
     7
176
     1
 79
     5
176
     1
170
     0
176
     1
171
     0
176
     1
290
     0
176
     1
 93
        1
176
     1
 44
0.0
176
     1
173
     0
176
     1
1001
ACAD
1000
AcDbSavedByObjectVersion
1070
     0
  0
VISUALSTYLE
  5
29D
102
{ACAD_XDICTIONARY
360
2FB
102
}
102
{ACAD_REACTORS
330
291
102
}
330
291
100
AcDbVisualStyle
  2
Brighten
 70
    12
177
     2
291
     1
 71
     2
176
     1
 72
     2
176
     1
 73
     0
176
     1
 90
        0
176
     1
 40
0.6
176
     1
 41
30.0
176
     1
 63
     7
421
 16777215
176
     1
 74
     1
176
     1
 91
        4
176
     1
 64
     7
176
     1
 65
   257
176
     1
 75
     1
176
     1
175
     1
176
     1
 42
1.0
176
     1
 92
        8
176
     1
 66
     7
176
     1
 43
1.0
176
     1
 76
     1
176
     1
 77
     6
176
     1
 78
     2
176
     1
 67
     7
176
     1
 79
     5
176
     1
170
     0
176
     1
171
     0
176
     1
290
     0
176
     1
 93
        1
176
     1
 44
50.0
176
     1
173
     0
176
     1
1001
ACAD
1000
AcDbSavedByObjectVersion
1070
     0
  0
VISUALSTYLE
  5
2A1
102
{ACAD_XDICTIONARY
360
303
102
}
102
{ACAD_REACTORS
330
291
102
}
330
291
100
AcDbVisualStyle
  2
ColorChange
 70
    16
177
     2
291
     1
 71
     2
176
     1
 72
     2
176
     1
 73
     3
176
     1
 90
        0
176
     1
 40
0.6
176
     1
 41
30.0
176
     1
 63
     8
421
  8421504
176
     1
 74
     1
176
     1
 91
        4
176
     1
 64
     7
176
     1
 65
   257
176
     1
 75
     1
176
     1
175
     1
176
     1
 42
1.0
176
     1
 92
        8
176
     1
 66
     8
424
  8421504
176
     1
 43
1.0
176
     1
 76
     1
176
     1
 77
     6
176
     1
 78
     2
176
     1
 67
     7
176
     1
 79
     5
176
     1
170
     0
176
     1
171
     0
176
     1
290
     0
176
     1
 93
        1
176
     1
 44
0.0
176
     1
173
     0
176
     1
1001
ACAD
1000
AcDbSavedByObjectVersion
1070
     0
  0
VISUALSTYLE
  5
29A
102
{ACAD_XDICTIONARY
360
2F5
102
}
102
{ACAD_REACTORS
330
291
102
}
330
291
100
AcDbVisualStyle
  2
Conceptual
 70
     9
177
     2
291
     0
 71
     3
176
     1
 72
     2
176
     1
 73
     0
176
     1
 90
        0
176
     1
 40
0.6
176
     1
 41
30.0
176
     1
 63
     7
421
 16777215
176
     1
 74
     2
176
     1
 91
        2
176
     1
 64
     7
176
     1
 65
   257
176
     1
 75
     1
176
     1
175
     1
176
     1
 42
179.0
176
     1
 92
        8
176
     1
 66
     7
176
     1
 43
1.0
176
     1
 76
     1
176
     1
 77
     6
176
     1
 78
     2
176
     1
 67
     7
176
     1
 79
     3
176
     1
170
     0
176
     1
171
     0
176
     1
290
     0
176
     1
 93
        1
176
     1
 44
0.0
176
     1
173
     0
176
     1
1001
ACAD
1000
AcDbSavedByObjectVersion
1070
     0
  0
VISUALSTYLE
  5
29C
102
{ACAD_XDICTIONARY
360
2F9
102
}
102
{ACAD_REACTORS
330
291
102
}
330
291
100
AcDbVisualStyle
  2
Dim
 70
    11
177
     2
291
     1
 71
     2
176
     1
 72
     2
176
     1
 73
     0
176
     1
 90
        0
176
     1
 40
0.6
176
     1
 41
30.0
176
     1
 63
     7
421
 16777215
176
     1
 74
     1
176
     1
 91
        4
176
     1
 64
     7
176
     1
 65
   257
176
     1
 75
     1
176
     1
175
     1
176
     1
 42
1.0
176
     1
 92
        8
176
     1
 66
     7
176
     1
 43
1.0
176
     1
 76
     1
176
     1
 77
     6
176
     1
 78
     2
176
     1
 67
     7
176
     1
 79
     5
176
     1
170
     0
176
     1
171
     0
176
     1
290
     0
176
     1
 93
        1
176
     1
 44
-50.0
176
     1
173
     0
176
     1
1001
ACAD
1000
AcDbSavedByObjectVersion
1070
     0
  0
VISUALSTYLE
  5
2A9
102
{ACAD_XDICTIONARY
360
313
102
}
102
{ACAD_REACTORS
330
291
102
}
330
291
100
AcDbVisualStyle
  2
EdgeColorOff
 70
    22
177
     2
291
     1
 71
     2
176
     0
 72
     2
176
     0
 73
     0
176
     0
 90
        0
176
     0
 40
0.6
176
     0
 41
30.0
176
     0
 63
     7
421
 16777215
176
     0
 74
     1
176
     0
 91
        4
176
     0
 64
     7
176
     0
 65
   257
176
     0
 75
     1
176
     0
175
     1
176
     0
 42
1.0
176
     0
 92
        8
176
     2
 66
     7
176
     0
 43
1.0
176
     0
 76
     1
176
     0
 77
     6
176
     0
 78
     2
176
     0
 67
     7
176
     0
 79
     5
176
     0
170
     0
176
     0
171
     0
176
     0
290
     0
176
     0
 93
        1
176
     0
 44
0.0
176
     0
173
     0
176
     0
1001
ACAD
1000
AcDbSavedByObjectVersion
1070
     0
  0
VISUALSTYLE
  5
2A0
102
{ACAD_XDICTIONARY
360
301
102
}
102
{ACAD_REACTORS
330
291
102
}
330
291
100
AcDbVisualStyle
  2
Facepattern
 70
    15
177
     2
291
     1
 71
     2
176
     1
 72
     2
176
     1
 73
     0
176
     1
 90
        0
176
     1
 40
0.6
176
     1
 41
30.0
176
     1
 63
     7
421
 16777215
176
     1
 74
     1
176
     1
 91
        4
176
     1
 64
     7
176
     1
 65
   257
176
     1
 75
     1
176
     1
175
     1
176
     1
 42
1.0
176
     1
 92
        8
176
     1
 66
     7
176
     1
 43
1.0
176
     1
 76
     1
176
     1
 77
     6
176
     1
 78
     2
176
     1
 67
     7
176
     1
 79
     5
176
     1
170
     0
176
     1
171
     0
176
     1
290
     0
176
     1
 93
        1
176
     1
 44
0.0
176
     1
173
     0
176
     1
1001
ACAD
1000
AcDbSavedByObjectVersion
1070
     0
  0
VISUALSTYLE
  5
292
102
{ACAD_XDICTIONARY
360
2E5
102
}
102
{ACAD_REACTORS
330
291
102
}
330
291
100
AcDbVisualStyle
  2
Flat
 70
     0
177
     2
291
     1
 71
     2
176
     1
 72
     1
176
     1
 73
     1
176
     1
 90
        2
176
     1
 40
0.6
176
     1
 41
30.0
176
     1
 63
     7
421
 16777215
176
     1
 74
     0
176
     1
 91
        0
176
     1
 64
     7
176
     1
 65
   257
176
     1
 75
     1
176
     1
175
     1
176
     1
 42
1.0
176
     1
 92
        8
176
     1
 66
     7
176
     1
 43
1.0
176
     1
 76
     1
176
     1
 77
     6
176
     1
 78
     2
176
     1
 67
     7
176
     1
 79
     5
176
     1
170
     0
176
     1
171
     0
176
     1
290
     0
176
     1
 93
       13
176
     1
 44
0.0
176
     1
173
     0
176
     1
1001
ACAD
1000
AcDbSavedByObjectVersion
1070
     0
  0
VISUALSTYLE
  5
293
102
{ACAD_XDICTIONARY
360
2E7
102
}
102
{ACAD_REACTORS
330
291
102
}
330
291
100
AcDbVisualStyle
  2
FlatWithEdges
 70
     1
177
     2
291
     1
 71
     2
176
     1
 72
     1
176
     1
 73
     1
176
     1
 90
        2
176
     1
 40
0.6
176
     1
 41
30.0
176
     1
 63
     7
421
 16777215
176
     1
 74
     1
176
     1
 91
        0
176
     1
 64
     7
176
     1
 65
   257
176
     1
 75
     1
176
     1
175
     1
176
     1
 42
1.0
176
     1
 92
        0
176
     1
 66
   257
176
     1
 43
1.0
176
     1
 76
     1
176
     1
 77
     6
176
     1
 78
     2
176
     1
 67
     7
176
     1
 79
     5
176
     1
170
     0
176
     1
171
     0
176
     1
290
     0
176
     1
 93
       13
176
     1
 44
0.0
176
     1
173
     0
176
     1
1001
ACAD
1000
AcDbSavedByObjectVersion
1070
     0
  0
VISUALSTYLE
  5
294
102
{ACAD_XDICTIONARY
360
2E9
102
}
102
{ACAD_REACTORS
330
291
102
}
330
291
100
AcDbVisualStyle
  2
Gouraud
 70
     2
177
     2
291
     1
 71
     2
176
     1
 72
     2
176
     1
 73
     1
176
     1
 90
        2
176
     1
 40
0.6
176
     1
 41
30.0
176
     1
 63
     7
421
 16777215
176
     1
 74
     0
176
     1
 91
        0
176
     1
 64
     7
176
     1
 65
   257
176
     1
 75
     1
176
     1
175
     1
176
     1
 42
1.0
176
     1
 92
        0
176
     1
 66
     7
176
     1
 43
1.0
176
     1
 76
     1
176
     1
 77
     6
176
     1
 78
     2
176
     1
 67
     7
176
     1
 79
     5
176
     1
170
     0
176
     1
171
     0
176
     1
290
     0
176
     1
 93
       13
176
     1
 44
0.0
176
     1
173
     0
176
     1
1001
ACAD
1000
AcDbSavedByObjectVersion
1070
     0
  0
VISUALSTYLE
  5
295
102
{ACAD_XDICTIONARY
360
2EB
102
}
102
{ACAD_REACTORS
330
291
102
}
330
291
100
AcDbVisualStyle
  2
GouraudWithEdges
 70
     3
177
     2
291
     1
 71
     2
176
     1
 72
     2
176
     1
 73
     1
176
     1
 90
        2
176
     1
 40
0.6
176
     1
 41
30.0
176
     1
 63
     7
421
 16777215
176
     1
 74
     1
176
     1
 91
        0
176
     1
 64
     7
176
     1
 65
   257
176
     1
 75
     1
176
     1
175
     1
176
     1
 42
1.0
176
     1
 92
        0
176
     1
 66
   257
176
     1
 43
1.0
176
     1
 76
     1
176
     1
 77
     6
176
     1
 78
     2
176
     1
 67
     7
176
     1
 79
     5
176
     1
170
     0
176
     1
171
     0
176
     1
290
     0
176
     1
 93
       13
176
     1
 44
0.0
176
     1
173
     0
176
     1
1001
ACAD
1000
AcDbSavedByObjectVersion
1070
     0
  0
VISUALSTYLE
  5
299
102
{ACAD_XDICTIONARY
360
2F3
102
}
102
{ACAD_REACTORS
330
291
102
}
330
291
100
AcDbVisualStyle
  2
Hidden
 70
     6
177
     2
291
     0
 71
     1
176
     1
 72
     2
176
     1
 73
     2
176
     1
 90
        0
176
     1
 40
0.6
176
     1
 41
30.0
176
     1
 63
     7
421
 16777215
176
     1
 74
     2
176
     1
 91
        2
176
     1
 64
     7
176
     1
 65
   257
176
     1
 75
     2
176
     1
175
     1
176
     1
 42
40.0
176
     1
 92
        0
176
     1
 66
   257
176
     1
 43
1.0
176
     1
 76
     1
176
     1
 77
     6
176
     1
 78
     2
176
     1
 67
     7
176
     1
 79
     3
176
     1
170
     0
176
     1
171
     0
176
     1
290
     0
176
     1
 93
        1
176
     1
 44
0.0
176
     1
173
     0
176
     1
1001
ACAD
1000
AcDbSavedByObjectVersion
1070
     0
  0
VISUALSTYLE
  5
2A7
102
{ACAD_XDICTIONARY
360
30F
102
}
102
{ACAD_REACTORS
330
291
102
}
330
291
100
AcDbVisualStyle
  2
JitterOff
 70
    20
177
     2
291
     1
 71
     2
176
     0
 72
     2
176
     0
 73
     0
176
     0
 90
        0
176
     0
 40
0.6
176
     0
 41
30.0
176
     0
 63
     7
421
 16777215
176
     0
 74
     1
176
     0
 91
        4
176
     0
 64
     7
176
     0
 65
   257
176
     0
 75
     1
176
     0
175
     1
176
     0
 42
1.0
176
     0
 92
       10
176
     2
 66
     7
176
     0
 43
1.0
176
     0
 76
     1
176
     0
 77
     6
176
     0
 78
     2
176
     0
 67
     7
176
     0
 79
     5
176
     0
170
     0
176
     0
171
     0
176
     0
290
     0
176
     0
 93
        1
176
     0
 44
0.0
176
     0
173
     0
176
     0
1001
ACAD
1000
AcDbSavedByObjectVersion
1070
     0
  0
VISUALSTYLE
  5
29F
102
{ACAD_XDICTIONARY
360
2FF
102
}
102
{ACAD_REACTORS
330
291
102
}
330
291
100
AcDbVisualStyle
  2
Linepattern
 70
    14
177
     2
291
     1
 71
     2
176
     1
 72
     2
176
     1
 73
     0
176
     1
 90
        0
176
     1
 40
0.6
176
     1
 41
30.0
176
     1
 63
     7
421
 16777215
176
     1
 74
     1
176
     1
 91
        4
176
     1
 64
     7
176
     1
 65
   257
176
     1
 75
     7
176
     1
175
     7
176
     1
 42
1.0
176
     1
 92
        8
176
     1
 66
     7
176
     1
 43
1.0
176
     1
 76
     1
176
     1
 77
     6
176
     1
 78
     2
176
     1
 67
     7
176
     1
 79
     5
176
     1
170
     0
176
     1
171
     0
176
     1
290
     0
176
     1
 93
        1
176
     1
 44
0.0
176
     1
173
     0
176
     1
1001
ACAD
1000
AcDbSavedByObjectVersion
1070
     0
  0
VISUALSTYLE
  5
2A8
102
{ACAD_XDICTIONARY
360
311
102
}
102
{ACAD_REACTORS
330
291
102
}
330
291
100
AcDbVisualStyle
  2
OverhangOff
 70
    21
177
     2
291
     1
 71
     2
176
     0
 72
     2
176
     0
 73
     0
176
     0
 90
        0
176
     0
 40
0.6
176
     0
 41
30.0
176
     0
 63
     7
421
 16777215
176
     0
 74
     1
176
     0
 91
        4
176
     0
 64
     7
176
     0
 65
   257
176
     0
 75
     1
176
     0
175
     1
176
     0
 42
1.0
176
     0
 92
        9
176
     2
 66
     7
176
     0
 43
1.0
176
     0
 76
     1
176
     0
 77
     6
176
     0
 78
     2
176
     0
 67
     7
176
     0
 79
     5
176
     0
170
     0
176
     0
171
     0
176
     0
290
     0
176
     0
 93
        1
176
     0
 44
0.0
176
     0
173
     0
176
     0
1001
ACAD
1000
AcDbSavedByObjectVersion
1070
     0
  0
VISUALSTYLE
  5
29B
102
{ACAD_XDICTIONARY
360
2F7
102
}
102
{ACAD_REACTORS
330
291
102
}
330
291
100
AcDbVisualStyle
  2
Realistic
 70
     8
177
     2
291
     0
 71
     2
176
     1
 72
     3
176
     1
 73
     0
176
     1
 90
        2
176
     1
 40
0.6
176
     1
 41
30.0
176
     1
 63
     7
421
 16777215
176
     1
 74
     0
176
     1
 91
        0
176
     1
 64
     7
176
     1
 65
   257
176
     1
 75
     1
176
     1
175
     1
176
     1
 42
1.0
176
     1
 92
        8
176
     1
 66
   257
176
     1
 43
1.0
176
     1
 76
     1
176
     1
 77
     6
176
     1
 78
     2
176
     1
 67
     7
176
     1
 79
     3
176
     1
170
     0
176
     1
171
     0
176
     1
290
     0
176
     1
 93
       13
176
     1
 44
0.0
176
     1
173
     0
176
     1
1001
ACAD
1000
AcDbSavedByObjectVersion
1070
     0
  0
VISUALSTYLE
  5
2A6
102
{ACAD_XDICTIONARY
360
30D
102
}
102
{ACAD_REACTORS
330
291
102
}
330
291
100
AcDbVisualStyle
  2
Shaded
 70
    27
177
     2
291
     0
 71
     2
176
     1
 72
     2
176
     1
 73
     1
176
     1
 90
        2
176
     1
 40
0.6
176
     1
 41
30.0
176
     1
 63
     7
421
 16777215
176
     1
 74
     0
176
     1
 91
        4
176
     1
 64
     7
176
     1
 65
   257
176
     1
 75
     1
176
     1
175
     1
176
     1
 42
1.0
176
     1
 92
        8
176
     1
 66
   257
176
     1
 43
1.0
176
     1
 76
     1
176
     1
 77
     6
176
     1
 78
     2
176
     1
 67
     8
425
  7895160
176
     1
 79
     3
176
     1
170
     0
176
     1
171
     0
176
     1
290
     0
176
     1
 93
        5
176
     1
 44
0.0
176
     1
173
     0
176
     1
1001
ACAD
1000
AcDbSavedByObjectVersion
1070
     0
  0
VISUALSTYLE
  5
2A5
102
{ACAD_XDICTIONARY
360
30B
102
}
102
{ACAD_REACTORS
330
291
102
}
330
291
100
AcDbVisualStyle
  2
Shaded with edges
 70
    26
177
     2
291
     0
 71
     2
176
     1
 72
     2
176
     1
 73
     1
176
     1
 90
        2
176
     1
 40
0.6
176
     1
 41
30.0
176
     1
 63
     7
421
 16777215
176
     1
 74
     1
176
     1
 91
       10
176
     1
 64
     7
176
     1
 65
   257
176
     1
 75
     2
176
     1
175
     1
176
     1
 42
1.0
176
     1
 92
        8
176
     1
 66
   257
176
     1
 43
1.0
176
     1
 76
     1
176
     1
 77
     6
176
     1
 78
     2
176
     1
 67
     7
176
     1
 79
     3
176
     1
170
     0
176
     1
171
     0
176
     1
290
     0
176
     1
 93
        5
176
     1
 44
0.0
176
     1
173
     0
176
     1
1001
ACAD
1000
AcDbSavedByObjectVersion
1070
     0
  0
VISUALSTYLE
  5
2A2
102
{ACAD_XDICTIONARY
360
305
102
}
102
{ACAD_REACTORS
330
291
102
}
330
291
100
AcDbVisualStyle
  2
Shades of Gray
 70
    23
177
     2
291
     0
 71
     2
176
     1
 72
     2
176
     1
 73
     3
176
     1
 90
        0
176
     1
 40
0.6
176
     1
 41
30.0
176
     1
 63
     7
421
 16777215
176
     1
 74
     2
176
     1
 91
        2
176
     1
 64
     7
176
     1
 65
     7
176
     1
 75
     1
176
     1
175
     1
176
     1
 42
40.0
176
     1
 92
        8
176
     1
 66
     7
176
     1
 43
1.0
176
     1
 76
     1
176
     1
 77
     6
176
     1
 78
     2
176
     1
 67
     7
176
     1
 79
     3
176
     1
170
     0
176
     1
171
     0
176
     1
290
     0
176
     1
 93
        1
176
     1
 44
0.0
176
     1
173
     0
176
     1
1001
ACAD
1000
AcDbSavedByObjectVersion
1070
     0
  0
VISUALSTYLE
  5
2A3
102
{ACAD_XDICTIONARY
360
307
102
}
102
{ACAD_REACTORS
330
291
102
}
330
291
100
AcDbVisualStyle
  2
Sketchy
 70
    24
177
     2
291
     0
 71
     1
176
     1
 72
     2
176
     1
 73
     2
176
     1
 90
        0
176
     1
 40
0.6
176
     1
 41
30.0
176
     1
 63
     7
421
 16777215
176
     1
 74
     2
176
     1
 91
        2
176
     1
 64
     7
176
     1
 65
     7
176
     1
 75
     1
176
     1
175
     1
176
     1
 42
40.0
176
     1
 92
       11
176
     1
 66
     7
176
     1
 43
1.0
176
     1
 76
     1
176
     1
 77
     6
176
     1
 78
     2
176
     1
 67
     7
176
     1
 79
     6
176
     1
170
     0
176
     1
171
     0
176
     1
290
     0
176
     1
 93
        1
176
     1
 44
0.0
176
     1
173
     0
176
     1
1001
ACAD
1000
AcDbSavedByObjectVersion
1070
     0
  0
VISUALSTYLE
  5
29E
102
{ACAD_XDICTIONARY
360
2FD
102
}
102
{ACAD_REACTORS
330
291
102
}
330
291
100
AcDbVisualStyle
  2
Thicken
 70
    13
177
     2
291
     1
 71
     2
176
     1
 72
     2
176
     1
 73
     0
176
     1
 90
        0
176
     1
 40
0.6
176
     1
 41
30.0
176
     1
 63
     7
421
 16777215
176
     1
 74
     1
176
     1
 91
        4
176
     1
 64
     7
176
     1
 65
   257
176
     1
 75
     1
176
     1
175
     1
176
     1
 42
1.0
176
     1
 92
       12
176
     1
 66
     7
176
     1
 43
1.0
176
     1
 76
     1
176
     1
 77
     6
176
     1
 78
     2
176
     1
 67
     7
176
     1
 79
     5
176
     1
170
     0
176
     1
171
     0
176
     1
290
     0
176
     1
 93
        1
176
     1
 44
0.0
176
     1
173
     0
176
     1
1001
ACAD
1000
AcDbSavedByObjectVersion
1070
     0
  0
VISUALSTYLE
  5
298
102
{ACAD_XDICTIONARY
360
2F1
102
}
102
{ACAD_REACTORS
330
291
102
}
330
291
100
AcDbVisualStyle
  2
Wireframe
 70
     5
177
     2
291
     0
 71
     0
176
     1
 72
     2
176
     1
 73
     0
176
     1
 90
        0
176
     1
 40
0.6
176
     1
 41
30.0
176
     1
 63
     7
421
 16777215
176
     1
 74
     1
176
     1
 91
        4
176
     1
 64
     7
176
     1
 65
   257
176
     1
 75
     1
176
     1
175
     1
176
     1
 42
1.0
176
     1
 92
        0
176
     1
 66
   257
176
     1
 43
1.0
176
     1
 76
     1
176
     1
 77
     6
176
     1
 78
     2
176
     1
 67
     7
176
     1
 79
     3
176
     1
170
     0
176
     1
171
     0
176
     1
290
     0
176
     1
 93
        1
176
     1
 44
0.0
176
     1
173
     0
176
     1
1001
ACAD
1000
AcDbSavedByObjectVersion
1070
     0
  0
VISUALSTYLE
  5
2A4
102
{ACAD_XDICTIONARY
360
309
102
}
102
{ACAD_REACTORS
330
291
102
}
330
291
100
AcDbVisualStyle
  2
X-Ray
 70
    25
177
     2
291
     0
 71
     2
176
     1
 72
     2
176
     1
 73
     1
176
     1
 90
        1
176
     1
 40
0.5
176
     1
 41
30.0
176
     1
 63
     7
421
 16777215
176
     1
 74
     1
176
     1
 91
        0
176
     1
 64
     7
176
     1
 65
   257
176
     1
 75
     1
176
     1
175
     1
176
     1
 42
1.0
176
     1
 92
        8
176
     1
 66
     7
176
     1
 43
1.0
176
     1
 76
     1
176
     1
 77
     6
176
     1
 78
     2
176
     1
 67
     7
176
     1
 79
     3
176
     1
170
     0
176
     1
171
     0
176
     1
290
     0
176
     1
 93
       13
176
     1
 44
0.0
176
     1
173
     0
176
     1
1001
ACAD
1000
AcDbSavedByObjectVersion
1070
     0
  0
DICTIONARYVAR
  5
2D5
102
{ACAD_REACTORS
330
276
102
}
330
276
100
DictionaryVariables
280
     0
  1
1:1
  0
DICTIONARYVAR
  5
2D1
102
{ACAD_REACTORS
330
276
102
}
330
276
100
DictionaryVariables
280
     0
  1
STANDARD
  0
DICTIONARYVAR
  5
277
102
{ACAD_REACTORS
330
276
102
}
330
276
100
DictionaryVariables
280
     0
  1
STANDARD
  0
DICTIONARYVAR
  5
2D2
102
{ACAD_REACTORS
330
276
102
}
330
276
100
DictionaryVariables
280
     0
  1
Metric50
  0
DICTIONARYVAR
  5
2D3
102
{ACAD_REACTORS
330
276
102
}
330
276
100
DictionaryVariables
280
     0
  1
Metric50
  0
DICTIONARYVAR
  5
2D7
102
{ACAD_REACTORS
330
276
102
}
330
276
100
DictionaryVariables
280
     0
  1
1
  0
DICTIONARYVAR
  5
2D8
102
{ACAD_REACTORS
330
276
102
}
330
276
100
DictionaryVariables
280
     0
  1
15
  0
DICTIONARYVAR
  5
2D6
102
{ACAD_REACTORS
330
276
102
}
330
276
100
DictionaryVariables
280
     0
  1
0
  0
DICTIONARYVAR
  5
2D4
102
{ACAD_REACTORS
330
276
102
}
330
276
100
DictionaryVariables
280
     0
  1
0
  0
DICTIONARY
  5
2E4
102
{ACAD_REACTORS
330
2E2
102
}
330
2E2
100
AcDbDictionary
281
     1
  0
DICTIONARY
  5
2E3
102
{ACAD_REACTORS
330
2E2
102
}
330
2E2
100
AcDbDictionary
281
     1
  3
4598003920
350
2DD
  3
4598003936
350
2DE
  3
4598003952
350
2DF
  3
4598003968
350
2E0
  3
4598003984
350
2E1
  0
DICTIONARY
  5
282
330
281
100
AcDbDictionary
280
     1
281
     1
  3
BUMPTILE
360
284
  3
DIFFUSETILE
360
283
  3
OPACITYTILE
360
287
  3
REFLECTIONTILE
360
286
  3
REFRACTIONTILE
360
288
  3
SPECULARTILE
360
285
  0
DICTIONARY
  5
27A
330
279
100
AcDbDictionary
280
     1
281
     1
  3
BUMPTILE
360
27C
  3
DIFFUSETILE
360
27B
  3
OPACITYTILE
360
27F
  3
REFLECTIONTILE
360
27E
  3
REFRACTIONTILE
360
280
  3
SPECULARTILE
360
27D
  0
DICTIONARY
  5
28A
330
289
100
AcDbDictionary
280
     1
281
     1
  3
BUMPTILE
360
28C
  3
DIFFUSETILE
360
28B
  3
OPACITYTILE
360
28F
  3
REFLECTIONTILE
360
28E
  3
REFRACTIONTILE
360
290
  3
SPECULARTILE
360
28D
  0
DICTIONARY
  5
315
330
2BD
100
AcDbDictionary
280
     1
281
     1
  3
ACAD_XREC_ROUNDTRIP
360
316
  0
DICTIONARY
  5
2DA
330
2F
100
AcDbDictionary
280
     1
281
     1
  3
ACAD_ROUNDTRIP_2008_TABLESTYLE_CELLSTYLEMAP
360
2DB
  0
DICTIONARY
  5
2EF
330
297
100
AcDbDictionary
280
     1
281
     1
  3
ACAD_XREC_ROUNDTRIP
360
2F0
  0
DICTIONARY
  5
2ED
330
296
100
AcDbDictionary
280
     1
281
     1
  3
ACAD_XREC_ROUNDTRIP
360
2EE
  0
DICTIONARY
  5
2FB
330
29D
100
AcDbDictionary
280
     1
281
     1
  3
ACAD_XREC_ROUNDTRIP
360
2FC
  0
DICTIONARY
  5
303
330
2A1
100
AcDbDictionary
280
     1
281
     1
  3
ACAD_XREC_ROUNDTRIP
360
304
  0
DICTIONARY
  5
2F5
330
29A
100
AcDbDictionary
280
     1
281
     1
  3
ACAD_XREC_ROUNDTRIP
360
2F6
  0
DICTIONARY
  5
2F9
330
29C
100
AcDbDictionary
280
     1
281
     1
  3
ACAD_XREC_ROUNDTRIP
360
2FA
  0
DICTIONARY
  5
313
330
2A9
100
AcDbDictionary
280
     1
281
     1
  3
ACAD_XREC_ROUNDTRIP
360
314
  0
DICTIONARY
  5
301
330
2A0
100
AcDbDictionary
280
     1
281
     1
  3
ACAD_XREC_ROUNDTRIP
360
302
  0
DICTIONARY
  5
2E5
330
292
100
AcDbDictionary
280
     1
281
     1
  3
ACAD_XREC_ROUNDTRIP
360
2E6
  0
DICTIONARY
  5
2E7
330
293
100
AcDbDictionary
280
     1
281
     1
  3
ACAD_XREC_ROUNDTRIP
360
2E8
  0
DICTIONARY
  5
2E9
330
294
100
AcDbDictionary
280
     1
281
     1
  3
ACAD_XREC_ROUNDTRIP
360
2EA
  0
DICTIONARY
  5
2EB
330
295
100
AcDbDictionary
280
     1
281
     1
  3
ACAD_XREC_ROUNDTRIP
360
2EC
  0
DICTIONARY
  5
2F3
330
299
100
AcDbDictionary
280
     1
281
     1
  3
ACAD_XREC_ROUNDTRIP
360
2F4
  0
DICTIONARY
  5
30F
330
2A7
100
AcDbDictionary
280
     1
281
     1
  3
ACAD_XREC_ROUNDTRIP
360
310
  0
DICTIONARY
  5
2FF
330
29F
100
AcDbDictionary
280
     1
281
     1
  3
ACAD_XREC_ROUNDTRIP
360
300
  0
DICTIONARY
  5
311
330
2A8
100
AcDbDictionary
280
     1
281
     1
  3
ACAD_XREC_ROUNDTRIP
360
312
  0
DICTIONARY
  5
2F7
330
29B
100
AcDbDictionary
280
     1
281
     1
  3
ACAD_XREC_ROUNDTRIP
360
2F8
  0
DICTIONARY
  5
30D
330
2A6
100
AcDbDictionary
280
     1
281
     1
  3
ACAD_XREC_ROUNDTRIP
360
30E
  0
DICTIONARY
  5
30B
330
2A5
100
AcDbDictionary
280
     1
281
     1
  3
ACAD_XREC_ROUNDTRIP
360
30C
  0
DICTIONARY
  5
305
330
2A2
100
AcDbDictionary
280
     1
281
     1
  3
ACAD_XREC_ROUNDTRIP
360
306
  0
DICTIONARY
  5
307
330
2A3
100
AcDbDictionary
280
     1
281
     1
  3
ACAD_XREC_ROUNDTRIP
360
308
  0
DICTIONARY
  5
2FD
330
29E
100
AcDbDictionary
280
     1
281
     1
  3
ACAD_XREC_ROUNDTRIP
360
2FE
  0
DICTIONARY
  5
2F1
330
298
100
AcDbDictionary
280
     1
281
     1
  3
ACAD_XREC_ROUNDTRIP
360
2F2
  0
DICTIONARY
  5
309
330
2A4
100
AcDbDictionary
280
     1
281
     1
  3
ACAD_XREC_ROUNDTRIP
360
30A
  0
XRECORD
  5
2DD
102
{ACAD_REACTORS
330
2E3
102
}
330
2E3
100
AcDbXrecord
280
     1
  1
AcDb_Thumbnail_Schema
102
{ATTRRECORD
341
2DE
  2
AcDbDs::TreatedAsObjectData
280
     1
291
     1
102
ATTRRECORD}
102
{ATTRRECORD
341
2DF
  2
AcDbDs::Legacy
280
     1
291
     1
102
ATTRRECORD}
  2
AcDbDs::ID
280
    10
 91
        8
102
{ATTRRECORD
341
2E0
  2
AcDs:Indexable
280
     1
291
     1
102
ATTRRECORD}
102
{ATTRRECORD
341
2E1
  2
AcDbDs::HandleAttribute
280
     7
282
     1
102
ATTRRECORD}
  2
Thumbnail_Data
280
    15
 91
        0
  0
XRECORD
  5
2DE
102
{ACAD_REACTORS
330
2E3
102
}
330
2E3
100
AcDbXrecord
280
     1
  1
AcDbDs::TreatedAsObjectDataSchema
  2
AcDbDs::TreatedAsObjectData
280
     1
 91
        0
  0
XRECORD
  5
2DF
102
{ACAD_REACTORS
330
2E3
102
}
330
2E3
100
AcDbXrecord
280
     1
  1
AcDbDs::LegacySchema
  2
AcDbDs::Legacy
280
     1
 91
        0
  0
XRECORD
  5
2E0
102
{ACAD_REACTORS
330
2E3
102
}
330
2E3
100
AcDbXrecord
280
     1
  1
AcDbDs::IndexedPropertySchema
  2
AcDs:Indexable
280
     1
 91
        0
  0
XRECORD
  5
2E1
102
{ACAD_REACTORS
330
2E3
102
}
330
2E3
100
AcDbXrecord
280
     1
  1
AcDbDs::HandleAttributeSchema
  2
AcDbDs::HandleAttribute
280
     7
 91
        1
284
     1
  0
XRECORD
  5
284
102
{ACAD_REACTORS
330
282
102
}
330
282
100
AcDbXrecord
280
     1
270
     1
271
     1
  0
XRECORD
  5
283
102
{ACAD_REACTORS
330
282
102
}
330
282
100
AcDbXrecord
280
     1
270
     1
271
     1
  0
XRECORD
  5
287
102
{ACAD_REACTORS
330
282
102
}
330
282
100
AcDbXrecord
280
     1
270
     1
271
     1
  0
XRECORD
  5
286
102
{ACAD_REACTORS
330
282
102
}
330
282
100
AcDbXrecord
280
     1
270
     1
271
     1
  0
XRECORD
  5
288
102
{ACAD_REACTORS
330
282
102
}
330
282
100
AcDbXrecord
280
     1
270
     1
271
     1
  0
XRECORD
  5
285
102
{ACAD_REACTORS
330
282
102
}
330
282
100
AcDbXrecord
280
     1
270
     1
271
     1
  0
XRECORD
  5
27C
102
{ACAD_REACTORS
330
27A
102
}
330
27A
100
AcDbXrecord
280
     1
270
     1
271
     1
  0
XRECORD
  5
27B
102
{ACAD_REACTORS
330
27A
102
}
330
27A
100
AcDbXrecord
280
     1
270
     1
271
     1
  0
XRECORD
  5
27F
102
{ACAD_REACTORS
330
27A
102
}
330
27A
100
AcDbXrecord
280
     1
270
     1
271
     1
  0
XRECORD
  5
27E
102
{ACAD_REACTORS
330
27A
102
}
330
27A
100
AcDbXrecord
280
     1
270
     1
271
     1
  0
XRECORD
  5
280
102
{ACAD_REACTORS
330
27A
102
}
330
27A
100
AcDbXrecord
280
     1
270
     1
271
     1
  0
XRECORD
  5
27D
102
{ACAD_REACTORS
330
27A
102
}
330
27A
100
AcDbXrecord
280
     1
270
     1
271
     1
  0
XRECORD
  5
28C
102
{ACAD_REACTORS
330
28A
102
}
330
28A
100
AcDbXrecord
280
     1
270
     1
271
     1
  0
XRECORD
  5
28B
102
{ACAD_REACTORS
330
28A
102
}
330
28A
100
AcDbXrecord
280
     1
270
     1
271
     1
  0
XRECORD
  5
28F
102
{ACAD_REACTORS
330
28A
102
}
330
28A
100
AcDbXrecord
280
     1
270
     1
271
     1
  0
XRECORD
  5
28E
102
{ACAD_REACTORS
330
28A
102
}
330
28A
100
AcDbXrecord
280
     1
270
     1
271
     1
  0
XRECORD
  5
290
102
{ACAD_REACTORS
330
28A
102
}
330
28A
100
AcDbXrecord
280
     1
270
     1
271
     1
  0
XRECORD
  5
28D
102
{ACAD_REACTORS
330
28A
102
}
330
28A
100
AcDbXrecord
280
     1
270
     1
271
     1
  0
XRECORD
  5
316
102
{ACAD_REACTORS
330
315
102
}
330
315
100
AcDbXrecord
280
     1
102
ACAD_ROUNDTRIP_2012_MLEADER_STYLE
298
     1
  0
CELLSTYLEMAP
  5
2DB
102
{ACAD_REACTORS
330
2DA
102
}
330
2DA
100
AcDbCellStyleMap
 90
        3
300
CELLSTYLE
  1
TABLEFORMAT_BEGIN
 90
        5
170
     1
 91
        0
 92
    32768
 62
   257
 93
        1
300
CONTENTFORMAT
  1
CONTENTFORMAT_BEGIN
 90
        0
 91
        0
 92
        4
 93
        0
300

 40
0.0
140
1.0
 94
        5
 62
     0
340
19
144
6.0
309
CONTENTFORMAT_END
171
     1
301
MARGIN
  1
CELLMARGIN_BEGIN
 40
1.5
 40
1.5
 40
1.5
 40
1.5
 40
0.18
 40
0.18
309
CELLMARGIN_END
 94
        6
 95
        1
302
GRIDFORMAT
  1
GRIDFORMAT_BEGIN
 90
        0
 91
        1
 62
     0
 92
       -2
340
0
 93
        0
 40
0.045
309
GRIDFORMAT_END
 95
        2
302
GRIDFORMAT
  1
GRIDFORMAT_BEGIN
 90
        0
 91
        1
 62
     0
 92
       -2
340
0
 93
        0
 40
0.045
309
GRIDFORMAT_END
 95
        4
302
GRIDFORMAT
  1
GRIDFORMAT_BEGIN
 90
        0
 91
        1
 62
     0
 92
       -2
340
0
 93
        0
 40
0.045
309
GRIDFORMAT_END
 95
        8
302
GRIDFORMAT
  1
GRIDFORMAT_BEGIN
 90
        0
 91
        1
 62
     0
 92
       -2
340
0
 93
        0
 40
0.045
309
GRIDFORMAT_END
 95
       16
302
GRIDFORMAT
  1
GRIDFORMAT_BEGIN
 90
        0
 91
        1
 62
     0
 92
       -2
340
0
 93
        0
 40
0.045
309
GRIDFORMAT_END
 95
       32
302
GRIDFORMAT
  1
GRIDFORMAT_BEGIN
 90
        0
 91
        1
 62
     0
 92
       -2
340
0
 93
        0
 40
0.045
309
GRIDFORMAT_END
309
TABLEFORMAT_END
  1
CELLSTYLE_BEGIN
 90
        1
 91
        1
300
_TITLE
309
CELLSTYLE_END
300
CELLSTYLE
  1
TABLEFORMAT_BEGIN
 90
        5
170
     1
 91
        0
 92
        0
 62
   257
 93
        1
300
CONTENTFORMAT
  1
CONTENTFORMAT_BEGIN
 90
        0
 91
        0
 92
        4
 93
        0
300

 40
0.0
140
1.0
 94
        5
 62
     0
340
19
144
4.5
309
CONTENTFORMAT_END
171
     1
301
MARGIN
  1
CELLMARGIN_BEGIN
 40
1.5
 40
1.5
 40
1.5
 40
1.5
 40
0.18
 40
0.18
309
CELLMARGIN_END
 94
        6
 95
        1
302
GRIDFORMAT
  1
GRIDFORMAT_BEGIN
 90
        0
 91
        1
 62
     0
 92
       -2
340
0
 93
        0
 40
0.045
309
GRIDFORMAT_END
 95
        2
302
GRIDFORMAT
  1
GRIDFORMAT_BEGIN
 90
        0
 91
        1
 62
     0
 92
       -2
340
0
 93
        0
 40
0.045
309
GRIDFORMAT_END
 95
        4
302
GRIDFORMAT
  1
GRIDFORMAT_BEGIN
 90
        0
 91
        1
 62
     0
 92
       -2
340
0
 93
        0
 40
0.045
309
GRIDFORMAT_END
 95
        8
302
GRIDFORMAT
  1
GRIDFORMAT_BEGIN
 90
        0
 91
        1
 62
     0
 92
       -2
340
0
 93
        0
 40
0.045
309
GRIDFORMAT_END
 95
       16
302
GRIDFORMAT
  1
GRIDFORMAT_BEGIN
 90
        0
 91
        1
 62
     0
 92
       -2
340
0
 93
        0
 40
0.045
309
GRIDFORMAT_END
 95
       32
302
GRIDFORMAT
  1
GRIDFORMAT_BEGIN
 90
        0
 91
        1
 62
     0
 92
       -2
340
0
 93
        0
 40
0.045
309
GRIDFORMAT_END
309
TABLEFORMAT_END
  1
CELLSTYLE_BEGIN
 90
        2
 91
        1
300
_HEADER
309
CELLSTYLE_END
300
CELLSTYLE
  1
TABLEFORMAT_BEGIN
 90
        5
170
     1
 91
        0
 92
        0
 62
   257
 93
        1
300
CONTENTFORMAT
  1
CONTENTFORMAT_BEGIN
 90
        0
 91
        0
 92
        4
 93
        0
300

 40
0.0
140
1.0
 94
        2
 62
     0
340
19
144
4.5
309
CONTENTFORMAT_END
171
     1
301
MARGIN
  1
CELLMARGIN_BEGIN
 40
1.5
 40
1.5
 40
1.5
 40
1.5
 40
0.18
 40
0.18
309
CELLMARGIN_END
 94
        6
 95
        1
302
GRIDFORMAT
  1
GRIDFORMAT_BEGIN
 90
        0
 91
        1
 62
     0
 92
       -2
340
0
 93
        0
 40
0.045
309
GRIDFORMAT_END
 95
        2
302
GRIDFORMAT
  1
GRIDFORMAT_BEGIN
 90
        0
 91
        1
 62
     0
 92
       -2
340
0
 93
        0
 40
0.045
309
GRIDFORMAT_END
 95
        4
302
GRIDFORMAT
  1
GRIDFORMAT_BEGIN
 90
        0
 91
        1
 62
     0
 92
       -2
340
0
 93
        0
 40
0.045
309
GRIDFORMAT_END
 95
        8
302
GRIDFORMAT
  1
GRIDFORMAT_BEGIN
 90
        0
 91
        1
 62
     0
 92
       -2
340
0
 93
        0
 40
0.045
309
GRIDFORMAT_END
 95
       16
302
GRIDFORMAT
  1
GRIDFORMAT_BEGIN
 90
        0
 91
        1
 62
     0
 92
       -2
340
0
 93
        0
 40
0.045
309
GRIDFORMAT_END
 95
       32
302
GRIDFORMAT
  1
GRIDFORMAT_BEGIN
 90
        0
 91
        1
 62
     0
 92
       -2
340
0
 93
        0
 40
0.045
309
GRIDFORMAT_END
309
TABLEFORMAT_END
  1
CELLSTYLE_BEGIN
 90
        3
 91
        2
300
_DATA
309
CELLSTYLE_END
  0
XRECORD
  5
2F0
102
{ACAD_REACTORS
330
2EF
102
}
330
2EF
100
AcDbXrecord
280
     1
102
RTVSPost2010Prop28
280
     1
102
RTVSPost2010PropOp28
 70
     1
102
RTVSPost2010Prop29
280
     1
102
RTVSPost2010PropOp29
 70
     1
102
RTVSPost2010Prop30
280
     0
102
RTVSPost2010PropOp30
 70
     1
102
RTVSPost2010Prop31
280
     0
102
RTVSPost2010PropOp31
 70
     1
102
RTVSPost2010Prop32
280
     0
102
RTVSPost2010PropOp32
 70
     1
102
RTVSPost2010Prop33
280
     0
102
RTVSPost2010PropOp33
 70
     1
102
RTVSPost2010Prop34
280
     0
102
RTVSPost2010PropOp34
 70
     1
102
RTVSPost2010Prop35
280
     0
102
RTVSPost2010PropOp35
 70
     1
102
RTVSPost2010Prop36
280
     0
102
RTVSPost2010PropOp36
 70
     1
102
RTVSPost2010Prop37
 90
       50
102
RTVSPost2010PropOp37
 70
     1
102
RTVSPost2010Prop38
140
0.0
102
RTVSPost2010PropOp38
 70
     1
102
RTVSPost2010Prop39
140
1.0
102
RTVSPost2010PropOp39
 70
     1
102
RTVSPost2010Prop40
 90
        0
102
RTVSPost2010PropOp40
 70
     1
102
RTVSPost2010Prop41ColorIndex
 90
       18
102
RTVSPost2010Prop41ColorRGB
 90
        0
102
RTVSPost2010PropOp41
 70
     1
102
RTVSPost2010Prop42
 90
       50
102
RTVSPost2010PropOp42
 70
     1
102
RTVSPost2010Prop43
 90
        3
102
RTVSPost2010PropOp43
 70
     1
102
RTVSPost2010Prop44ColorIndex
 90
        5
102
RTVSPost2010Prop44ColorRGB
 90
      255
102
RTVSPost2010PropOp44
 70
     1
102
RTVSPost2010Prop45
280
     0
102
RTVSPost2010PropOp45
 70
     1
102
RTVSPost2010Prop46
 90
       50
102
RTVSPost2010PropOp46
 70
     1
102
RTVSPost2010Prop47
 90
       50
102
RTVSPost2010PropOp47
 70
     1
102
RTVSPost2010Prop48
 90
       50
102
RTVSPost2010PropOp48
 70
     1
102
RTVSPost2010Prop49
280
     0
102
RTVSPost2010PropOp49
 70
     1
102
RTVSPost2010Prop50
 90
       50
102
RTVSPost2010PropOp50
 70
     1
102
RTVSPost2010Prop51ColorIndex
 90
      256
102
RTVSPost2010Prop51ColorRGB
 90
-16777216
102
RTVSPost2010PropOp51
 70
     0
102
RTVSPost2010Prop52
140
1.0
102
RTVSPost2010PropOp52
 70
     0
102
RTVSPost2010Prop53
 90
        2
102
RTVSPost2010PropOp53
 70
     1
102
RTVSPost2010Prop54
  1
strokes_ogs.tif
102
RTVSPost2010PropOp54
 70
     1
102
RTVSPost2010Prop55
280
     0
102
RTVSPost2010PropOp55
 70
     1
102
RTVSPost2010Prop56
140
1.0
102
RTVSPost2010PropOp56
 70
     1
102
RTVSPost2010Prop57
140
1.0
102
RTVSPost2010PropOp57
 70
     1
  0
XRECORD
  5
2EE
102
{ACAD_REACTORS
330
2ED
102
}
330
2ED
100
AcDbXrecord
280
     1
102
RTVSPost2010Prop28
280
     0
102
RTVSPost2010PropOp28
 70
     1
102
RTVSPost2010Prop29
280
     1
102
RTVSPost2010PropOp29
 70
     1
102
RTVSPost2010Prop30
280
     1
102
RTVSPost2010PropOp30
 70
     1
102
RTVSPost2010Prop31
280
     0
102
RTVSPost2010PropOp31
 70
     1
102
RTVSPost2010Prop32
280
     0
102
RTVSPost2010PropOp32
 70
     1
102
RTVSPost2010Prop33
280
     0
102
RTVSPost2010PropOp33
 70
     1
102
RTVSPost2010Prop34
280
     0
102
RTVSPost2010PropOp34
 70
     1
102
RTVSPost2010Prop35
280
     0
102
RTVSPost2010PropOp35
 70
     1
102
RTVSPost2010Prop36
280
     0
102
RTVSPost2010PropOp36
 70
     1
102
RTVSPost2010Prop37
 90
       50
102
RTVSPost2010PropOp37
 70
     1
102
RTVSPost2010Prop38
140
0.0
102
RTVSPost2010PropOp38
 70
     1
102
RTVSPost2010Prop39
140
1.0
102
RTVSPost2010PropOp39
 70
     1
102
RTVSPost2010Prop40
 90
        0
102
RTVSPost2010PropOp40
 70
     1
102
RTVSPost2010Prop41ColorIndex
 90
       18
102
RTVSPost2010Prop41ColorRGB
 90
        0
102
RTVSPost2010PropOp41
 70
     1
102
RTVSPost2010Prop42
 90
       50
102
RTVSPost2010PropOp42
 70
     1
102
RTVSPost2010Prop43
 90
        3
102
RTVSPost2010PropOp43
 70
     1
102
RTVSPost2010Prop44ColorIndex
 90
        5
102
RTVSPost2010Prop44ColorRGB
 90
      255
102
RTVSPost2010PropOp44
 70
     1
102
RTVSPost2010Prop45
280
     0
102
RTVSPost2010PropOp45
 70
     1
102
RTVSPost2010Prop46
 90
       50
102
RTVSPost2010PropOp46
 70
     1
102
RTVSPost2010Prop47
 90
       50
102
RTVSPost2010PropOp47
 70
     1
102
RTVSPost2010Prop48
 90
       50
102
RTVSPost2010PropOp48
 70
     1
102
RTVSPost2010Prop49
280
     0
102
RTVSPost2010PropOp49
 70
     1
102
RTVSPost2010Prop50
 90
       50
102
RTVSPost2010PropOp50
 70
     1
102
RTVSPost2010Prop51ColorIndex
 90
      256
102
RTVSPost2010Prop51ColorRGB
 90
-16777216
102
RTVSPost2010PropOp51
 70
     0
102
RTVSPost2010Prop52
140
1.0
102
RTVSPost2010PropOp52
 70
     0
102
RTVSPost2010Prop53
 90
        2
102
RTVSPost2010PropOp53
 70
     1
102
RTVSPost2010Prop54
  1
strokes_ogs.tif
102
RTVSPost2010PropOp54
 70
     1
102
RTVSPost2010Prop55
280
     0
102
RTVSPost2010PropOp55
 70
     1
102
RTVSPost2010Prop56
140
1.0
102
RTVSPost2010PropOp56
 70
     1
102
RTVSPost2010Prop57
140
1.0
102
RTVSPost2010PropOp57
 70
     1
  0
XRECORD
  5
2FC
102
{ACAD_REACTORS
330
2FB
102
}
330
2FB
100
AcDbXrecord
280
     1
102
RTVSPost2010Prop28
280
     0
102
RTVSPost2010PropOp28
 70
     1
102
RTVSPost2010Prop29
280
     1
102
RTVSPost2010PropOp29
 70
     1
102
RTVSPost2010Prop30
280
     1
102
RTVSPost2010PropOp30
 70
     1
102
RTVSPost2010Prop31
280
     0
102
RTVSPost2010PropOp31
 70
     1
102
RTVSPost2010Prop32
280
     0
102
RTVSPost2010PropOp32
 70
     1
102
RTVSPost2010Prop33
280
     0
102
RTVSPost2010PropOp33
 70
     1
102
RTVSPost2010Prop34
280
     0
102
RTVSPost2010PropOp34
 70
     1
102
RTVSPost2010Prop35
280
     0
102
RTVSPost2010PropOp35
 70
     1
102
RTVSPost2010Prop36
280
     0
102
RTVSPost2010PropOp36
 70
     1
102
RTVSPost2010Prop37
 90
       50
102
RTVSPost2010PropOp37
 70
     1
102
RTVSPost2010Prop38
140
0.0
102
RTVSPost2010PropOp38
 70
     1
102
RTVSPost2010Prop39
140
1.0
102
RTVSPost2010PropOp39
 70
     1
102
RTVSPost2010Prop40
 90
        0
102
RTVSPost2010PropOp40
 70
     1
102
RTVSPost2010Prop41ColorIndex
 90
       18
102
RTVSPost2010Prop41ColorRGB
 90
        0
102
RTVSPost2010PropOp41
 70
     1
102
RTVSPost2010Prop42
 90
       50
102
RTVSPost2010PropOp42
 70
     1
102
RTVSPost2010Prop43
 90
        3
102
RTVSPost2010PropOp43
 70
     1
102
RTVSPost2010Prop44ColorIndex
 90
        5
102
RTVSPost2010Prop44ColorRGB
 90
      255
102
RTVSPost2010PropOp44
 70
     1
102
RTVSPost2010Prop45
280
     0
102
RTVSPost2010PropOp45
 70
     1
102
RTVSPost2010Prop46
 90
       50
102
RTVSPost2010PropOp46
 70
     1
102
RTVSPost2010Prop47
 90
       50
102
RTVSPost2010PropOp47
 70
     1
102
RTVSPost2010Prop48
 90
       50
102
RTVSPost2010PropOp48
 70
     1
102
RTVSPost2010Prop49
280
     0
102
RTVSPost2010PropOp49
 70
     1
102
RTVSPost2010Prop50
 90
       50
102
RTVSPost2010PropOp50
 70
     1
102
RTVSPost2010Prop51ColorIndex
 90
      256
102
RTVSPost2010Prop51ColorRGB
 90
-16777216
102
RTVSPost2010PropOp51
 70
     0
102
RTVSPost2010Prop52
140
1.0
102
RTVSPost2010PropOp52
 70
     0
102
RTVSPost2010Prop53
 90
        2
102
RTVSPost2010PropOp53
 70
     1
102
RTVSPost2010Prop54
  1
strokes_ogs.tif
102
RTVSPost2010PropOp54
 70
     1
102
RTVSPost2010Prop55
280
     0
102
RTVSPost2010PropOp55
 70
     1
102
RTVSPost2010Prop56
140
1.0
102
RTVSPost2010PropOp56
 70
     1
102
RTVSPost2010Prop57
140
1.0
102
RTVSPost2010PropOp57
 70
     1
  0
XRECORD
  5
304
102
{ACAD_REACTORS
330
303
102
}
330
303
100
AcDbXrecord
280
     1
102
RTVSPost2010Prop28
280
     0
102
RTVSPost2010PropOp28
 70
     1
102
RTVSPost2010Prop29
280
     1
102
RTVSPost2010PropOp29
 70
     1
102
RTVSPost2010Prop30
280
     1
102
RTVSPost2010PropOp30
 70
     1
102
RTVSPost2010Prop31
280
     0
102
RTVSPost2010PropOp31
 70
     1
102
RTVSPost2010Prop32
280
     0
102
RTVSPost2010PropOp32
 70
     1
102
RTVSPost2010Prop33
280
     0
102
RTVSPost2010PropOp33
 70
     1
102
RTVSPost2010Prop34
280
     0
102
RTVSPost2010PropOp34
 70
     1
102
RTVSPost2010Prop35
280
     0
102
RTVSPost2010PropOp35
 70
     1
102
RTVSPost2010Prop36
280
     0
102
RTVSPost2010PropOp36
 70
     1
102
RTVSPost2010Prop37
 90
       50
102
RTVSPost2010PropOp37
 70
     1
102
RTVSPost2010Prop38
140
0.0
102
RTVSPost2010PropOp38
 70
     1
102
RTVSPost2010Prop39
140
1.0
102
RTVSPost2010PropOp39
 70
     1
102
RTVSPost2010Prop40
 90
        0
102
RTVSPost2010PropOp40
 70
     1
102
RTVSPost2010Prop41ColorIndex
 90
       18
102
RTVSPost2010Prop41ColorRGB
 90
        0
102
RTVSPost2010PropOp41
 70
     1
102
RTVSPost2010Prop42
 90
       50
102
RTVSPost2010PropOp42
 70
     1
102
RTVSPost2010Prop43
 90
        3
102
RTVSPost2010PropOp43
 70
     1
102
RTVSPost2010Prop44ColorIndex
 90
        5
102
RTVSPost2010Prop44ColorRGB
 90
      255
102
RTVSPost2010PropOp44
 70
     1
102
RTVSPost2010Prop45
280
     0
102
RTVSPost2010PropOp45
 70
     1
102
RTVSPost2010Prop46
 90
       50
102
RTVSPost2010PropOp46
 70
     1
102
RTVSPost2010Prop47
 90
       50
102
RTVSPost2010PropOp47
 70
     1
102
RTVSPost2010Prop48
 90
       50
102
RTVSPost2010PropOp48
 70
     1
102
RTVSPost2010Prop49
280
     0
102
RTVSPost2010PropOp49
 70
     1
102
RTVSPost2010Prop50
 90
       50
102
RTVSPost2010PropOp50
 70
     1
102
RTVSPost2010Prop51ColorIndex
 90
      256
102
RTVSPost2010Prop51ColorRGB
 90
-16777216
102
RTVSPost2010PropOp51
 70
     0
102
RTVSPost2010Prop52
140
1.0
102
RTVSPost2010PropOp52
 70
     0
102
RTVSPost2010Prop53
 90
        2
102
RTVSPost2010PropOp53
 70
     1
102
RTVSPost2010Prop54
  1
strokes_ogs.tif
102
RTVSPost2010PropOp54
 70
     1
102
RTVSPost2010Prop55
280
     0
102
RTVSPost2010PropOp55
 70
     1
102
RTVSPost2010Prop56
140
1.0
102
RTVSPost2010PropOp56
 70
     1
102
RTVSPost2010Prop57
140
1.0
102
RTVSPost2010PropOp57
 70
     1
  0
XRECORD
  5
2F6
102
{ACAD_REACTORS
330
2F5
102
}
330
2F5
100
AcDbXrecord
280
     1
102
RTVSPost2010Prop28
280
     0
102
RTVSPost2010PropOp28
 70
     1
102
RTVSPost2010Prop29
280
     1
102
RTVSPost2010PropOp29
 70
     1
102
RTVSPost2010Prop30
280
     1
102
RTVSPost2010PropOp30
 70
     1
102
RTVSPost2010Prop31
280
     0
102
RTVSPost2010PropOp31
 70
     1
102
RTVSPost2010Prop32
280
     0
102
RTVSPost2010PropOp32
 70
     1
102
RTVSPost2010Prop33
280
     0
102
RTVSPost2010PropOp33
 70
     1
102
RTVSPost2010Prop34
280
     0
102
RTVSPost2010PropOp34
 70
     1
102
RTVSPost2010Prop35
280
     0
102
RTVSPost2010PropOp35
 70
     1
102
RTVSPost2010Prop36
280
     0
102
RTVSPost2010PropOp36
 70
     1
102
RTVSPost2010Prop37
 90
       50
102
RTVSPost2010PropOp37
 70
     1
102
RTVSPost2010Prop38
140
0.0
102
RTVSPost2010PropOp38
 70
     1
102
RTVSPost2010Prop39
140
1.0
102
RTVSPost2010PropOp39
 70
     1
102
RTVSPost2010Prop40
 90
        0
102
RTVSPost2010PropOp40
 70
     1
102
RTVSPost2010Prop41ColorIndex
 90
       18
102
RTVSPost2010Prop41ColorRGB
 90
        0
102
RTVSPost2010PropOp41
 70
     1
102
RTVSPost2010Prop42
 90
       50
102
RTVSPost2010PropOp42
 70
     1
102
RTVSPost2010Prop43
 90
        3
102
RTVSPost2010PropOp43
 70
     1
102
RTVSPost2010Prop44ColorIndex
 90
        5
102
RTVSPost2010Prop44ColorRGB
 90
      255
102
RTVSPost2010PropOp44
 70
     1
102
RTVSPost2010Prop45
280
     0
102
RTVSPost2010PropOp45
 70
     1
102
RTVSPost2010Prop46
 90
       50
102
RTVSPost2010PropOp46
 70
     1
102
RTVSPost2010Prop47
 90
       50
102
RTVSPost2010PropOp47
 70
     1
102
RTVSPost2010Prop48
 90
       50
102
RTVSPost2010PropOp48
 70
     1
102
RTVSPost2010Prop49
280
     0
102
RTVSPost2010PropOp49
 70
     1
102
RTVSPost2010Prop50
 90
       50
102
RTVSPost2010PropOp50
 70
     1
102
RTVSPost2010Prop51ColorIndex
 90
      256
102
RTVSPost2010Prop51ColorRGB
 90
-16777216
102
RTVSPost2010PropOp51
 70
     0
102
RTVSPost2010Prop52
140
1.0
102
RTVSPost2010PropOp52
 70
     0
102
RTVSPost2010Prop53
 90
        2
102
RTVSPost2010PropOp53
 70
     1
102
RTVSPost2010Prop54
  1
strokes_ogs.tif
102
RTVSPost2010PropOp54
 70
     1
102
RTVSPost2010Prop55
280
     0
102
RTVSPost2010PropOp55
 70
     1
102
RTVSPost2010Prop56
140
1.0
102
RTVSPost2010PropOp56
 70
     1
102
RTVSPost2010Prop57
140
1.0
102
RTVSPost2010PropOp57
 70
     1
  0
XRECORD
  5
2FA
102
{ACAD_REACTORS
330
2F9
102
}
330
2F9
100
AcDbXrecord
280
     1
102
RTVSPost2010Prop28
280
     0
102
RTVSPost2010PropOp28
 70
     1
102
RTVSPost2010Prop29
280
     1
102
RTVSPost2010PropOp29
 70
     1
102
RTVSPost2010Prop30
280
     1
102
RTVSPost2010PropOp30
 70
     1
102
RTVSPost2010Prop31
280
     0
102
RTVSPost2010PropOp31
 70
     1
102
RTVSPost2010Prop32
280
     0
102
RTVSPost2010PropOp32
 70
     1
102
RTVSPost2010Prop33
280
     0
102
RTVSPost2010PropOp33
 70
     1
102
RTVSPost2010Prop34
280
     0
102
RTVSPost2010PropOp34
 70
     1
102
RTVSPost2010Prop35
280
     0
102
RTVSPost2010PropOp35
 70
     1
102
RTVSPost2010Prop36
280
     0
102
RTVSPost2010PropOp36
 70
     1
102
RTVSPost2010Prop37
 90
       50
102
RTVSPost2010PropOp37
 70
     1
102
RTVSPost2010Prop38
140
0.0
102
RTVSPost2010PropOp38
 70
     1
102
RTVSPost2010Prop39
140
1.0
102
RTVSPost2010PropOp39
 70
     1
102
RTVSPost2010Prop40
 90
        0
102
RTVSPost2010PropOp40
 70
     1
102
RTVSPost2010Prop41ColorIndex
 90
       18
102
RTVSPost2010Prop41ColorRGB
 90
        0
102
RTVSPost2010PropOp41
 70
     1
102
RTVSPost2010Prop42
 90
       50
102
RTVSPost2010PropOp42
 70
     1
102
RTVSPost2010Prop43
 90
        3
102
RTVSPost2010PropOp43
 70
     1
102
RTVSPost2010Prop44ColorIndex
 90
        5
102
RTVSPost2010Prop44ColorRGB
 90
      255
102
RTVSPost2010PropOp44
 70
     1
102
RTVSPost2010Prop45
280
     0
102
RTVSPost2010PropOp45
 70
     1
102
RTVSPost2010Prop46
 90
       50
102
RTVSPost2010PropOp46
 70
     1
102
RTVSPost2010Prop47
 90
       50
102
RTVSPost2010PropOp47
 70
     1
102
RTVSPost2010Prop48
 90
       50
102
RTVSPost2010PropOp48
 70
     1
102
RTVSPost2010Prop49
280
     0
102
RTVSPost2010PropOp49
 70
     1
102
RTVSPost2010Prop50
 90
       50
102
RTVSPost2010PropOp50
 70
     1
102
RTVSPost2010Prop51ColorIndex
 90
      256
102
RTVSPost2010Prop51ColorRGB
 90
-16777216
102
RTVSPost2010PropOp51
 70
     0
102
RTVSPost2010Prop52
140
1.0
102
RTVSPost2010PropOp52
 70
     0
102
RTVSPost2010Prop53
 90
        2
102
RTVSPost2010PropOp53
 70
     1
102
RTVSPost2010Prop54
  1
strokes_ogs.tif
102
RTVSPost2010PropOp54
 70
     1
102
RTVSPost2010Prop55
280
     0
102
RTVSPost2010PropOp55
 70
     1
102
RTVSPost2010Prop56
140
1.0
102
RTVSPost2010PropOp56
 70
     1
102
RTVSPost2010Prop57
140
1.0
102
RTVSPost2010PropOp57
 70
     1
  0
XRECORD
  5
314
102
{ACAD_REACTORS
330
313
102
}
330
313
100
AcDbXrecord
280
     1
102
RTVSPost2010Prop28
280
     0
102
RTVSPost2010PropOp28
 70
     0
102
RTVSPost2010Prop29
280
     1
102
RTVSPost2010PropOp29
 70
     0
102
RTVSPost2010Prop30
280
     1
102
RTVSPost2010PropOp30
 70
     0
102
RTVSPost2010Prop31
280
     0
102
RTVSPost2010PropOp31
 70
     0
102
RTVSPost2010Prop32
280
     0
102
RTVSPost2010PropOp32
 70
     0
102
RTVSPost2010Prop33
280
     0
102
RTVSPost2010PropOp33
 70
     0
102
RTVSPost2010Prop34
280
     0
102
RTVSPost2010PropOp34
 70
     0
102
RTVSPost2010Prop35
280
     0
102
RTVSPost2010PropOp35
 70
     0
102
RTVSPost2010Prop36
280
     0
102
RTVSPost2010PropOp36
 70
     0
102
RTVSPost2010Prop37
 90
       50
102
RTVSPost2010PropOp37
 70
     0
102
RTVSPost2010Prop38
140
0.0
102
RTVSPost2010PropOp38
 70
     0
102
RTVSPost2010Prop39
140
1.0
102
RTVSPost2010PropOp39
 70
     0
102
RTVSPost2010Prop40
 90
        0
102
RTVSPost2010PropOp40
 70
     0
102
RTVSPost2010Prop41ColorIndex
 90
       18
102
RTVSPost2010Prop41ColorRGB
 90
        0
102
RTVSPost2010PropOp41
 70
     0
102
RTVSPost2010Prop42
 90
       50
102
RTVSPost2010PropOp42
 70
     0
102
RTVSPost2010Prop43
 90
        3
102
RTVSPost2010PropOp43
 70
     0
102
RTVSPost2010Prop44ColorIndex
 90
        5
102
RTVSPost2010Prop44ColorRGB
 90
      255
102
RTVSPost2010PropOp44
 70
     0
102
RTVSPost2010Prop45
280
     0
102
RTVSPost2010PropOp45
 70
     0
102
RTVSPost2010Prop46
 90
       50
102
RTVSPost2010PropOp46
 70
     0
102
RTVSPost2010Prop47
 90
       50
102
RTVSPost2010PropOp47
 70
     0
102
RTVSPost2010Prop48
 90
       50
102
RTVSPost2010PropOp48
 70
     0
102
RTVSPost2010Prop49
280
     0
102
RTVSPost2010PropOp49
 70
     0
102
RTVSPost2010Prop50
 90
       50
102
RTVSPost2010PropOp50
 70
     0
102
RTVSPost2010Prop51ColorIndex
 90
      256
102
RTVSPost2010Prop51ColorRGB
 90
-16777216
102
RTVSPost2010PropOp51
 70
     0
102
RTVSPost2010Prop52
140
1.0
102
RTVSPost2010PropOp52
 70
     0
102
RTVSPost2010Prop53
 90
        2
102
RTVSPost2010PropOp53
 70
     0
102
RTVSPost2010Prop54
  1
strokes_ogs.tif
102
RTVSPost2010PropOp54
 70
     0
102
RTVSPost2010Prop55
280
     0
102
RTVSPost2010PropOp55
 70
     0
102
RTVSPost2010Prop56
140
1.0
102
RTVSPost2010PropOp56
 70
     0
102
RTVSPost2010Prop57
140
1.0
102
RTVSPost2010PropOp57
 70
     0
  0
XRECORD
  5
302
102
{ACAD_REACTORS
330
301
102
}
330
301
100
AcDbXrecord
280
     1
102
RTVSPost2010Prop28
280
     0
102
RTVSPost2010PropOp28
 70
     1
102
RTVSPost2010Prop29
280
     1
102
RTVSPost2010PropOp29
 70
     1
102
RTVSPost2010Prop30
280
     1
102
RTVSPost2010PropOp30
 70
     1
102
RTVSPost2010Prop31
280
     0
102
RTVSPost2010PropOp31
 70
     1
102
RTVSPost2010Prop32
280
     0
102
RTVSPost2010PropOp32
 70
     1
102
RTVSPost2010Prop33
280
     0
102
RTVSPost2010PropOp33
 70
     1
102
RTVSPost2010Prop34
280
     0
102
RTVSPost2010PropOp34
 70
     1
102
RTVSPost2010Prop35
280
     0
102
RTVSPost2010PropOp35
 70
     1
102
RTVSPost2010Prop36
280
     0
102
RTVSPost2010PropOp36
 70
     1
102
RTVSPost2010Prop37
 90
       50
102
RTVSPost2010PropOp37
 70
     1
102
RTVSPost2010Prop38
140
0.0
102
RTVSPost2010PropOp38
 70
     1
102
RTVSPost2010Prop39
140
1.0
102
RTVSPost2010PropOp39
 70
     1
102
RTVSPost2010Prop40
 90
        0
102
RTVSPost2010PropOp40
 70
     1
102
RTVSPost2010Prop41ColorIndex
 90
       18
102
RTVSPost2010Prop41ColorRGB
 90
        0
102
RTVSPost2010PropOp41
 70
     1
102
RTVSPost2010Prop42
 90
       50
102
RTVSPost2010PropOp42
 70
     1
102
RTVSPost2010Prop43
 90
        3
102
RTVSPost2010PropOp43
 70
     1
102
RTVSPost2010Prop44ColorIndex
 90
        5
102
RTVSPost2010Prop44ColorRGB
 90
      255
102
RTVSPost2010PropOp44
 70
     1
102
RTVSPost2010Prop45
280
     0
102
RTVSPost2010PropOp45
 70
     1
102
RTVSPost2010Prop46
 90
       50
102
RTVSPost2010PropOp46
 70
     1
102
RTVSPost2010Prop47
 90
       50
102
RTVSPost2010PropOp47
 70
     1
102
RTVSPost2010Prop48
 90
       50
102
RTVSPost2010PropOp48
 70
     1
102
RTVSPost2010Prop49
280
     0
102
RTVSPost2010PropOp49
 70
     1
102
RTVSPost2010Prop50
 90
       50
102
RTVSPost2010PropOp50
 70
     1
102
RTVSPost2010Prop51ColorIndex
 90
      256
102
RTVSPost2010Prop51ColorRGB
 90
-16777216
102
RTVSPost2010PropOp51
 70
     0
102
RTVSPost2010Prop52
140
1.0
102
RTVSPost2010PropOp52
 70
     0
102
RTVSPost2010Prop53
 90
        2
102
RTVSPost2010PropOp53
 70
     1
102
RTVSPost2010Prop54
  1
strokes_ogs.tif
102
RTVSPost2010PropOp54
 70
     1
102
RTVSPost2010Prop55
280
     0
102
RTVSPost2010PropOp55
 70
     1
102
RTVSPost2010Prop56
140
1.0
102
RTVSPost2010PropOp56
 70
     1
102
RTVSPost2010Prop57
140
1.0
102
RTVSPost2010PropOp57
 70
     1
  0
XRECORD
  5
2E6
102
{ACAD_REACTORS
330
2E5
102
}
330
2E5
100
AcDbXrecord
280
     1
102
RTVSPost2010Prop28
280
     0
102
RTVSPost2010PropOp28
 70
     1
102
RTVSPost2010Prop29
280
     1
102
RTVSPost2010PropOp29
 70
     1
102
RTVSPost2010Prop30
280
     1
102
RTVSPost2010PropOp30
 70
     1
102
RTVSPost2010Prop31
280
     0
102
RTVSPost2010PropOp31
 70
     1
102
RTVSPost2010Prop32
280
     0
102
RTVSPost2010PropOp32
 70
     1
102
RTVSPost2010Prop33
280
     0
102
RTVSPost2010PropOp33
 70
     1
102
RTVSPost2010Prop34
280
     0
102
RTVSPost2010PropOp34
 70
     1
102
RTVSPost2010Prop35
280
     0
102
RTVSPost2010PropOp35
 70
     1
102
RTVSPost2010Prop36
280
     0
102
RTVSPost2010PropOp36
 70
     1
102
RTVSPost2010Prop37
 90
       50
102
RTVSPost2010PropOp37
 70
     1
102
RTVSPost2010Prop38
140
0.0
102
RTVSPost2010PropOp38
 70
     1
102
RTVSPost2010Prop39
140
1.0
102
RTVSPost2010PropOp39
 70
     1
102
RTVSPost2010Prop40
 90
        0
102
RTVSPost2010PropOp40
 70
     1
102
RTVSPost2010Prop41ColorIndex
 90
       18
102
RTVSPost2010Prop41ColorRGB
 90
        0
102
RTVSPost2010PropOp41
 70
     1
102
RTVSPost2010Prop42
 90
       50
102
RTVSPost2010PropOp42
 70
     1
102
RTVSPost2010Prop43
 90
        3
102
RTVSPost2010PropOp43
 70
     1
102
RTVSPost2010Prop44ColorIndex
 90
        5
102
RTVSPost2010Prop44ColorRGB
 90
      255
102
RTVSPost2010PropOp44
 70
     1
102
RTVSPost2010Prop45
280
     0
102
RTVSPost2010PropOp45
 70
     1
102
RTVSPost2010Prop46
 90
       50
102
RTVSPost2010PropOp46
 70
     1
102
RTVSPost2010Prop47
 90
       50
102
RTVSPost2010PropOp47
 70
     1
102
RTVSPost2010Prop48
 90
       50
102
RTVSPost2010PropOp48
 70
     1
102
RTVSPost2010Prop49
280
     0
102
RTVSPost2010PropOp49
 70
     1
102
RTVSPost2010Prop50
 90
       50
102
RTVSPost2010PropOp50
 70
     1
102
RTVSPost2010Prop51ColorIndex
 90
      256
102
RTVSPost2010Prop51ColorRGB
 90
-16777216
102
RTVSPost2010PropOp51
 70
     0
102
RTVSPost2010Prop52
140
1.0
102
RTVSPost2010PropOp52
 70
     0
102
RTVSPost2010Prop53
 90
        2
102
RTVSPost2010PropOp53
 70
     1
102
RTVSPost2010Prop54
  1
strokes_ogs.tif
102
RTVSPost2010PropOp54
 70
     1
102
RTVSPost2010Prop55
280
     0
102
RTVSPost2010PropOp55
 70
     1
102
RTVSPost2010Prop56
140
1.0
102
RTVSPost2010PropOp56
 70
     1
102
RTVSPost2010Prop57
140
1.0
102
RTVSPost2010PropOp57
 70
     1
  0
XRECORD
  5
2E8
102
{ACAD_REACTORS
330
2E7
102
}
330
2E7
100
AcDbXrecord
280
     1
102
RTVSPost2010Prop28
280
     0
102
RTVSPost2010PropOp28
 70
     1
102
RTVSPost2010Prop29
280
     1
102
RTVSPost2010PropOp29
 70
     1
102
RTVSPost2010Prop30
280
     1
102
RTVSPost2010PropOp30
 70
     1
102
RTVSPost2010Prop31
280
     0
102
RTVSPost2010PropOp31
 70
     1
102
RTVSPost2010Prop32
280
     0
102
RTVSPost2010PropOp32
 70
     1
102
RTVSPost2010Prop33
280
     0
102
RTVSPost2010PropOp33
 70
     1
102
RTVSPost2010Prop34
280
     0
102
RTVSPost2010PropOp34
 70
     1
102
RTVSPost2010Prop35
280
     0
102
RTVSPost2010PropOp35
 70
     1
102
RTVSPost2010Prop36
280
     0
102
RTVSPost2010PropOp36
 70
     1
102
RTVSPost2010Prop37
 90
       50
102
RTVSPost2010PropOp37
 70
     1
102
RTVSPost2010Prop38
140
0.0
102
RTVSPost2010PropOp38
 70
     1
102
RTVSPost2010Prop39
140
1.0
102
RTVSPost2010PropOp39
 70
     1
102
RTVSPost2010Prop40
 90
        0
102
RTVSPost2010PropOp40
 70
     1
102
RTVSPost2010Prop41ColorIndex
 90
       18
102
RTVSPost2010Prop41ColorRGB
 90
        0
102
RTVSPost2010PropOp41
 70
     1
102
RTVSPost2010Prop42
 90
       50
102
RTVSPost2010PropOp42
 70
     1
102
RTVSPost2010Prop43
 90
        3
102
RTVSPost2010PropOp43
 70
     1
102
RTVSPost2010Prop44ColorIndex
 90
        5
102
RTVSPost2010Prop44ColorRGB
 90
      255
102
RTVSPost2010PropOp44
 70
     1
102
RTVSPost2010Prop45
280
     0
102
RTVSPost2010PropOp45
 70
     1
102
RTVSPost2010Prop46
 90
       50
102
RTVSPost2010PropOp46
 70
     1
102
RTVSPost2010Prop47
 90
       50
102
RTVSPost2010PropOp47
 70
     1
102
RTVSPost2010Prop48
 90
       50
102
RTVSPost2010PropOp48
 70
     1
102
RTVSPost2010Prop49
280
     0
102
RTVSPost2010PropOp49
 70
     1
102
RTVSPost2010Prop50
 90
       50
102
RTVSPost2010PropOp50
 70
     1
102
RTVSPost2010Prop51ColorIndex
 90
      256
102
RTVSPost2010Prop51ColorRGB
 90
-16777216
102
RTVSPost2010PropOp51
 70
     0
102
RTVSPost2010Prop52
140
1.0
102
RTVSPost2010PropOp52
 70
     0
102
RTVSPost2010Prop53
 90
        2
102
RTVSPost2010PropOp53
 70
     1
102
RTVSPost2010Prop54
  1
strokes_ogs.tif
102
RTVSPost2010PropOp54
 70
     1
102
RTVSPost2010Prop55
280
     0
102
RTVSPost2010PropOp55
 70
     1
102
RTVSPost2010Prop56
140
1.0
102
RTVSPost2010PropOp56
 70
     1
102
RTVSPost2010Prop57
140
1.0
102
RTVSPost2010PropOp57
 70
     1
  0
XRECORD
  5
2EA
102
{ACAD_REACTORS
330
2E9
102
}
330
2E9
100
AcDbXrecord
280
     1
102
RTVSPost2010Prop28
280
     0
102
RTVSPost2010PropOp28
 70
     1
102
RTVSPost2010Prop29
280
     1
102
RTVSPost2010PropOp29
 70
     1
102
RTVSPost2010Prop30
280
     1
102
RTVSPost2010PropOp30
 70
     1
102
RTVSPost2010Prop31
280
     0
102
RTVSPost2010PropOp31
 70
     1
102
RTVSPost2010Prop32
280
     0
102
RTVSPost2010PropOp32
 70
     1
102
RTVSPost2010Prop33
280
     0
102
RTVSPost2010PropOp33
 70
     1
102
RTVSPost2010Prop34
280
     0
102
RTVSPost2010PropOp34
 70
     1
102
RTVSPost2010Prop35
280
     0
102
RTVSPost2010PropOp35
 70
     1
102
RTVSPost2010Prop36
280
     0
102
RTVSPost2010PropOp36
 70
     1
102
RTVSPost2010Prop37
 90
       50
102
RTVSPost2010PropOp37
 70
     1
102
RTVSPost2010Prop38
140
0.0
102
RTVSPost2010PropOp38
 70
     1
102
RTVSPost2010Prop39
140
1.0
102
RTVSPost2010PropOp39
 70
     1
102
RTVSPost2010Prop40
 90
        0
102
RTVSPost2010PropOp40
 70
     1
102
RTVSPost2010Prop41ColorIndex
 90
       18
102
RTVSPost2010Prop41ColorRGB
 90
        0
102
RTVSPost2010PropOp41
 70
     1
102
RTVSPost2010Prop42
 90
       50
102
RTVSPost2010PropOp42
 70
     1
102
RTVSPost2010Prop43
 90
        3
102
RTVSPost2010PropOp43
 70
     1
102
RTVSPost2010Prop44ColorIndex
 90
        5
102
RTVSPost2010Prop44ColorRGB
 90
      255
102
RTVSPost2010PropOp44
 70
     1
102
RTVSPost2010Prop45
280
     0
102
RTVSPost2010PropOp45
 70
     1
102
RTVSPost2010Prop46
 90
       50
102
RTVSPost2010PropOp46
 70
     1
102
RTVSPost2010Prop47
 90
       50
102
RTVSPost2010PropOp47
 70
     1
102
RTVSPost2010Prop48
 90
       50
102
RTVSPost2010PropOp48
 70
     1
102
RTVSPost2010Prop49
280
     0
102
RTVSPost2010PropOp49
 70
     1
102
RTVSPost2010Prop50
 90
       50
102
RTVSPost2010PropOp50
 70
     1
102
RTVSPost2010Prop51ColorIndex
 90
      256
102
RTVSPost2010Prop51ColorRGB
 90
-16777216
102
RTVSPost2010PropOp51
 70
     0
102
RTVSPost2010Prop52
140
1.0
102
RTVSPost2010PropOp52
 70
     0
102
RTVSPost2010Prop53
 90
        2
102
RTVSPost2010PropOp53
 70
     1
102
RTVSPost2010Prop54
  1
strokes_ogs.tif
102
RTVSPost2010PropOp54
 70
     1
102
RTVSPost2010Prop55
280
     0
102
RTVSPost2010PropOp55
 70
     1
102
RTVSPost2010Prop56
140
1.0
102
RTVSPost2010PropOp56
 70
     1
102
RTVSPost2010Prop57
140
1.0
102
RTVSPost2010PropOp57
 70
     1
  0
XRECORD
  5
2EC
102
{ACAD_REACTORS
330
2EB
102
}
330
2EB
100
AcDbXrecord
280
     1
102
RTVSPost2010Prop28
280
     0
102
RTVSPost2010PropOp28
 70
     1
102
RTVSPost2010Prop29
280
     1
102
RTVSPost2010PropOp29
 70
     1
102
RTVSPost2010Prop30
280
     1
102
RTVSPost2010PropOp30
 70
     1
102
RTVSPost2010Prop31
280
     0
102
RTVSPost2010PropOp31
 70
     1
102
RTVSPost2010Prop32
280
     0
102
RTVSPost2010PropOp32
 70
     1
102
RTVSPost2010Prop33
280
     0
102
RTVSPost2010PropOp33
 70
     1
102
RTVSPost2010Prop34
280
     0
102
RTVSPost2010PropOp34
 70
     1
102
RTVSPost2010Prop35
280
     0
102
RTVSPost2010PropOp35
 70
     1
102
RTVSPost2010Prop36
280
     0
102
RTVSPost2010PropOp36
 70
     1
102
RTVSPost2010Prop37
 90
       50
102
RTVSPost2010PropOp37
 70
     1
102
RTVSPost2010Prop38
140
0.0
102
RTVSPost2010PropOp38
 70
     1
102
RTVSPost2010Prop39
140
1.0
102
RTVSPost2010PropOp39
 70
     1
102
RTVSPost2010Prop40
 90
        0
102
RTVSPost2010PropOp40
 70
     1
102
RTVSPost2010Prop41ColorIndex
 90
       18
102
RTVSPost2010Prop41ColorRGB
 90
        0
102
RTVSPost2010PropOp41
 70
     1
102
RTVSPost2010Prop42
 90
       50
102
RTVSPost2010PropOp42
 70
     1
102
RTVSPost2010Prop43
 90
        3
102
RTVSPost2010PropOp43
 70
     1
102
RTVSPost2010Prop44ColorIndex
 90
        5
102
RTVSPost2010Prop44ColorRGB
 90
      255
102
RTVSPost2010PropOp44
 70
     1
102
RTVSPost2010Prop45
280
     0
102
RTVSPost2010PropOp45
 70
     1
102
RTVSPost2010Prop46
 90
       50
102
RTVSPost2010PropOp46
 70
     1
102
RTVSPost2010Prop47
 90
       50
102
RTVSPost2010PropOp47
 70
     1
102
RTVSPost2010Prop48
 90
       50
102
RTVSPost2010PropOp48
 70
     1
102
RTVSPost2010Prop49
280
     0
102
RTVSPost2010PropOp49
 70
     1
102
RTVSPost2010Prop50
 90
       50
102
RTVSPost2010PropOp50
 70
     1
102
RTVSPost2010Prop51ColorIndex
 90
      256
102
RTVSPost2010Prop51ColorRGB
 90
-16777216
102
RTVSPost2010PropOp51
 70
     0
102
RTVSPost2010Prop52
140
1.0
102
RTVSPost2010PropOp52
 70
     0
102
RTVSPost2010Prop53
 90
        2
102
RTVSPost2010PropOp53
 70
     1
102
RTVSPost2010Prop54
  1
strokes_ogs.tif
102
RTVSPost2010PropOp54
 70
     1
102
RTVSPost2010Prop55
280
     0
102
RTVSPost2010PropOp55
 70
     1
102
RTVSPost2010Prop56
140
1.0
102
RTVSPost2010PropOp56
 70
     1
102
RTVSPost2010Prop57
140
1.0
102
RTVSPost2010PropOp57
 70
     1
  0
XRECORD
  5
2F4
102
{ACAD_REACTORS
330
2F3
102
}
330
2F3
100
AcDbXrecord
280
     1
102
RTVSPost2010Prop28
280
     0
102
RTVSPost2010PropOp28
 70
     1
102
RTVSPost2010Prop29
280
     1
102
RTVSPost2010PropOp29
 70
     1
102
RTVSPost2010Prop30
280
     1
102
RTVSPost2010PropOp30
 70
     1
102
RTVSPost2010Prop31
280
     0
102
RTVSPost2010PropOp31
 70
     1
102
RTVSPost2010Prop32
280
     0
102
RTVSPost2010PropOp32
 70
     1
102
RTVSPost2010Prop33
280
     0
102
RTVSPost2010PropOp33
 70
     1
102
RTVSPost2010Prop34
280
     0
102
RTVSPost2010PropOp34
 70
     1
102
RTVSPost2010Prop35
280
     0
102
RTVSPost2010PropOp35
 70
     1
102
RTVSPost2010Prop36
280
     0
102
RTVSPost2010PropOp36
 70
     1
102
RTVSPost2010Prop37
 90
       50
102
RTVSPost2010PropOp37
 70
     1
102
RTVSPost2010Prop38
140
0.0
102
RTVSPost2010PropOp38
 70
     1
102
RTVSPost2010Prop39
140
1.0
102
RTVSPost2010PropOp39
 70
     1
102
RTVSPost2010Prop40
 90
        0
102
RTVSPost2010PropOp40
 70
     1
102
RTVSPost2010Prop41ColorIndex
 90
       18
102
RTVSPost2010Prop41ColorRGB
 90
        0
102
RTVSPost2010PropOp41
 70
     1
102
RTVSPost2010Prop42
 90
       50
102
RTVSPost2010PropOp42
 70
     1
102
RTVSPost2010Prop43
 90
        3
102
RTVSPost2010PropOp43
 70
     1
102
RTVSPost2010Prop44ColorIndex
 90
        5
102
RTVSPost2010Prop44ColorRGB
 90
      255
102
RTVSPost2010PropOp44
 70
     1
102
RTVSPost2010Prop45
280
     0
102
RTVSPost2010PropOp45
 70
     1
102
RTVSPost2010Prop46
 90
       50
102
RTVSPost2010PropOp46
 70
     1
102
RTVSPost2010Prop47
 90
       50
102
RTVSPost2010PropOp47
 70
     1
102
RTVSPost2010Prop48
 90
       50
102
RTVSPost2010PropOp48
 70
     1
102
RTVSPost2010Prop49
280
     0
102
RTVSPost2010PropOp49
 70
     1
102
RTVSPost2010Prop50
 90
       50
102
RTVSPost2010PropOp50
 70
     1
102
RTVSPost2010Prop51ColorIndex
 90
      256
102
RTVSPost2010Prop51ColorRGB
 90
-16777216
102
RTVSPost2010PropOp51
 70
     0
102
RTVSPost2010Prop52
140
1.0
102
RTVSPost2010PropOp52
 70
     0
102
RTVSPost2010Prop53
 90
        2
102
RTVSPost2010PropOp53
 70
     1
102
RTVSPost2010Prop54
  1
strokes_ogs.tif
102
RTVSPost2010PropOp54
 70
     1
102
RTVSPost2010Prop55
280
     0
102
RTVSPost2010PropOp55
 70
     1
102
RTVSPost2010Prop56
140
1.0
102
RTVSPost2010PropOp56
 70
     1
102
RTVSPost2010Prop57
140
1.0
102
RTVSPost2010PropOp57
 70
     1
  0
XRECORD
  5
310
102
{ACAD_REACTORS
330
30F
102
}
330
30F
100
AcDbXrecord
280
     1
102
RTVSPost2010Prop28
280
     0
102
RTVSPost2010PropOp28
 70
     0
102
RTVSPost2010Prop29
280
     1
102
RTVSPost2010PropOp29
 70
     0
102
RTVSPost2010Prop30
280
     1
102
RTVSPost2010PropOp30
 70
     0
102
RTVSPost2010Prop31
280
     0
102
RTVSPost2010PropOp31
 70
     0
102
RTVSPost2010Prop32
280
     0
102
RTVSPost2010PropOp32
 70
     0
102
RTVSPost2010Prop33
280
     0
102
RTVSPost2010PropOp33
 70
     0
102
RTVSPost2010Prop34
280
     0
102
RTVSPost2010PropOp34
 70
     0
102
RTVSPost2010Prop35
280
     0
102
RTVSPost2010PropOp35
 70
     0
102
RTVSPost2010Prop36
280
     0
102
RTVSPost2010PropOp36
 70
     0
102
RTVSPost2010Prop37
 90
       50
102
RTVSPost2010PropOp37
 70
     0
102
RTVSPost2010Prop38
140
0.0
102
RTVSPost2010PropOp38
 70
     0
102
RTVSPost2010Prop39
140
1.0
102
RTVSPost2010PropOp39
 70
     0
102
RTVSPost2010Prop40
 90
        0
102
RTVSPost2010PropOp40
 70
     0
102
RTVSPost2010Prop41ColorIndex
 90
       18
102
RTVSPost2010Prop41ColorRGB
 90
        0
102
RTVSPost2010PropOp41
 70
     0
102
RTVSPost2010Prop42
 90
       50
102
RTVSPost2010PropOp42
 70
     0
102
RTVSPost2010Prop43
 90
        3
102
RTVSPost2010PropOp43
 70
     0
102
RTVSPost2010Prop44ColorIndex
 90
        5
102
RTVSPost2010Prop44ColorRGB
 90
      255
102
RTVSPost2010PropOp44
 70
     0
102
RTVSPost2010Prop45
280
     0
102
RTVSPost2010PropOp45
 70
     0
102
RTVSPost2010Prop46
 90
       50
102
RTVSPost2010PropOp46
 70
     0
102
RTVSPost2010Prop47
 90
       50
102
RTVSPost2010PropOp47
 70
     0
102
RTVSPost2010Prop48
 90
       50
102
RTVSPost2010PropOp48
 70
     0
102
RTVSPost2010Prop49
280
     0
102
RTVSPost2010PropOp49
 70
     0
102
RTVSPost2010Prop50
 90
       50
102
RTVSPost2010PropOp50
 70
     0
102
RTVSPost2010Prop51ColorIndex
 90
      256
102
RTVSPost2010Prop51ColorRGB
 90
-16777216
102
RTVSPost2010PropOp51
 70
     0
102
RTVSPost2010Prop52
140
1.0
102
RTVSPost2010PropOp52
 70
     0
102
RTVSPost2010Prop53
 90
        2
102
RTVSPost2010PropOp53
 70
     0
102
RTVSPost2010Prop54
  1
strokes_ogs.tif
102
RTVSPost2010PropOp54
 70
     0
102
RTVSPost2010Prop55
280
     0
102
RTVSPost2010PropOp55
 70
     0
102
RTVSPost2010Prop56
140
1.0
102
RTVSPost2010PropOp56
 70
     0
102
RTVSPost2010Prop57
140
1.0
102
RTVSPost2010PropOp57
 70
     0
  0
XRECORD
  5
300
102
{ACAD_REACTORS
330
2FF
102
}
330
2FF
100
AcDbXrecord
280
     1
102
RTVSPost2010Prop28
280
     0
102
RTVSPost2010PropOp28
 70
     1
102
RTVSPost2010Prop29
280
     1
102
RTVSPost2010PropOp29
 70
     1
102
RTVSPost2010Prop30
280
     1
102
RTVSPost2010PropOp30
 70
     1
102
RTVSPost2010Prop31
280
     0
102
RTVSPost2010PropOp31
 70
     1
102
RTVSPost2010Prop32
280
     0
102
RTVSPost2010PropOp32
 70
     1
102
RTVSPost2010Prop33
280
     0
102
RTVSPost2010PropOp33
 70
     1
102
RTVSPost2010Prop34
280
     0
102
RTVSPost2010PropOp34
 70
     1
102
RTVSPost2010Prop35
280
     0
102
RTVSPost2010PropOp35
 70
     1
102
RTVSPost2010Prop36
280
     0
102
RTVSPost2010PropOp36
 70
     1
102
RTVSPost2010Prop37
 90
       50
102
RTVSPost2010PropOp37
 70
     1
102
RTVSPost2010Prop38
140
0.0
102
RTVSPost2010PropOp38
 70
     1
102
RTVSPost2010Prop39
140
1.0
102
RTVSPost2010PropOp39
 70
     1
102
RTVSPost2010Prop40
 90
        0
102
RTVSPost2010PropOp40
 70
     1
102
RTVSPost2010Prop41ColorIndex
 90
       18
102
RTVSPost2010Prop41ColorRGB
 90
        0
102
RTVSPost2010PropOp41
 70
     1
102
RTVSPost2010Prop42
 90
       50
102
RTVSPost2010PropOp42
 70
     1
102
RTVSPost2010Prop43
 90
        3
102
RTVSPost2010PropOp43
 70
     1
102
RTVSPost2010Prop44ColorIndex
 90
        5
102
RTVSPost2010Prop44ColorRGB
 90
      255
102
RTVSPost2010PropOp44
 70
     1
102
RTVSPost2010Prop45
280
     0
102
RTVSPost2010PropOp45
 70
     1
102
RTVSPost2010Prop46
 90
       50
102
RTVSPost2010PropOp46
 70
     1
102
RTVSPost2010Prop47
 90
       50
102
RTVSPost2010PropOp47
 70
     1
102
RTVSPost2010Prop48
 90
       50
102
RTVSPost2010PropOp48
 70
     1
102
RTVSPost2010Prop49
280
     0
102
RTVSPost2010PropOp49
 70
     1
102
RTVSPost2010Prop50
 90
       50
102
RTVSPost2010PropOp50
 70
     1
102
RTVSPost2010Prop51ColorIndex
 90
      256
102
RTVSPost2010Prop51ColorRGB
 90
-16777216
102
RTVSPost2010PropOp51
 70
     0
102
RTVSPost2010Prop52
140
1.0
102
RTVSPost2010PropOp52
 70
     0
102
RTVSPost2010Prop53
 90
        2
102
RTVSPost2010PropOp53
 70
     1
102
RTVSPost2010Prop54
  1
strokes_ogs.tif
102
RTVSPost2010PropOp54
 70
     1
102
RTVSPost2010Prop55
280
     0
102
RTVSPost2010PropOp55
 70
     1
102
RTVSPost2010Prop56
140
1.0
102
RTVSPost2010PropOp56
 70
     1
102
RTVSPost2010Prop57
140
1.0
102
RTVSPost2010PropOp57
 70
     1
  0
XRECORD
  5
312
102
{ACAD_REACTORS
330
311
102
}
330
311
100
AcDbXrecord
280
     1
102
RTVSPost2010Prop28
280
     0
102
RTVSPost2010PropOp28
 70
     0
102
RTVSPost2010Prop29
280
     1
102
RTVSPost2010PropOp29
 70
     0
102
RTVSPost2010Prop30
280
     1
102
RTVSPost2010PropOp30
 70
     0
102
RTVSPost2010Prop31
280
     0
102
RTVSPost2010PropOp31
 70
     0
102
RTVSPost2010Prop32
280
     0
102
RTVSPost2010PropOp32
 70
     0
102
RTVSPost2010Prop33
280
     0
102
RTVSPost2010PropOp33
 70
     0
102
RTVSPost2010Prop34
280
     0
102
RTVSPost2010PropOp34
 70
     0
102
RTVSPost2010Prop35
280
     0
102
RTVSPost2010PropOp35
 70
     0
102
RTVSPost2010Prop36
280
     0
102
RTVSPost2010PropOp36
 70
     0
102
RTVSPost2010Prop37
 90
       50
102
RTVSPost2010PropOp37
 70
     0
102
RTVSPost2010Prop38
140
0.0
102
RTVSPost2010PropOp38
 70
     0
102
RTVSPost2010Prop39
140
1.0
102
RTVSPost2010PropOp39
 70
     0
102
RTVSPost2010Prop40
 90
        0
102
RTVSPost2010PropOp40
 70
     0
102
RTVSPost2010Prop41ColorIndex
 90
       18
102
RTVSPost2010Prop41ColorRGB
 90
        0
102
RTVSPost2010PropOp41
 70
     0
102
RTVSPost2010Prop42
 90
       50
102
RTVSPost2010PropOp42
 70
     0
102
RTVSPost2010Prop43
 90
        3
102
RTVSPost2010PropOp43
 70
     0
102
RTVSPost2010Prop44ColorIndex
 90
        5
102
RTVSPost2010Prop44ColorRGB
 90
      255
102
RTVSPost2010PropOp44
 70
     0
102
RTVSPost2010Prop45
280
     0
102
RTVSPost2010PropOp45
 70
     0
102
RTVSPost2010Prop46
 90
       50
102
RTVSPost2010PropOp46
 70
     0
102
RTVSPost2010Prop47
 90
       50
102
RTVSPost2010PropOp47
 70
     0
102
RTVSPost2010Prop48
 90
       50
102
RTVSPost2010PropOp48
 70
     0
102
RTVSPost2010Prop49
280
     0
102
RTVSPost2010PropOp49
 70
     0
102
RTVSPost2010Prop50
 90
       50
102
RTVSPost2010PropOp50
 70
     0
102
RTVSPost2010Prop51ColorIndex
 90
      256
102
RTVSPost2010Prop51ColorRGB
 90
-16777216
102
RTVSPost2010PropOp51
 70
     0
102
RTVSPost2010Prop52
140
1.0
102
RTVSPost2010PropOp52
 70
     0
102
RTVSPost2010Prop53
 90
        2
102
RTVSPost2010PropOp53
 70
     0
102
RTVSPost2010Prop54
  1
strokes_ogs.tif
102
RTVSPost2010PropOp54
 70
     0
102
RTVSPost2010Prop55
280
     0
102
RTVSPost2010PropOp55
 70
     0
102
RTVSPost2010Prop56
140
1.0
102
RTVSPost2010PropOp56
 70
     0
102
RTVSPost2010Prop57
140
1.0
102
RTVSPost2010PropOp57
 70
     0
  0
XRECORD
  5
2F8
102
{ACAD_REACTORS
330
2F7
102
}
330
2F7
100
AcDbXrecord
280
     1
102
RTVSPost2010Prop28
280
     0
102
RTVSPost2010PropOp28
 70
     1
102
RTVSPost2010Prop29
280
     1
102
RTVSPost2010PropOp29
 70
     1
102
RTVSPost2010Prop30
280
     1
102
RTVSPost2010PropOp30
 70
     1
102
RTVSPost2010Prop31
280
     0
102
RTVSPost2010PropOp31
 70
     1
102
RTVSPost2010Prop32
280
     0
102
RTVSPost2010PropOp32
 70
     1
102
RTVSPost2010Prop33
280
     0
102
RTVSPost2010PropOp33
 70
     1
102
RTVSPost2010Prop34
280
     0
102
RTVSPost2010PropOp34
 70
     1
102
RTVSPost2010Prop35
280
     0
102
RTVSPost2010PropOp35
 70
     1
102
RTVSPost2010Prop36
280
     0
102
RTVSPost2010PropOp36
 70
     1
102
RTVSPost2010Prop37
 90
       50
102
RTVSPost2010PropOp37
 70
     1
102
RTVSPost2010Prop38
140
0.0
102
RTVSPost2010PropOp38
 70
     1
102
RTVSPost2010Prop39
140
1.0
102
RTVSPost2010PropOp39
 70
     1
102
RTVSPost2010Prop40
 90
        0
102
RTVSPost2010PropOp40
 70
     1
102
RTVSPost2010Prop41ColorIndex
 90
       18
102
RTVSPost2010Prop41ColorRGB
 90
        0
102
RTVSPost2010PropOp41
 70
     1
102
RTVSPost2010Prop42
 90
       50
102
RTVSPost2010PropOp42
 70
     1
102
RTVSPost2010Prop43
 90
        3
102
RTVSPost2010PropOp43
 70
     1
102
RTVSPost2010Prop44ColorIndex
 90
        5
102
RTVSPost2010Prop44ColorRGB
 90
      255
102
RTVSPost2010PropOp44
 70
     1
102
RTVSPost2010Prop45
280
     0
102
RTVSPost2010PropOp45
 70
     1
102
RTVSPost2010Prop46
 90
       50
102
RTVSPost2010PropOp46
 70
     1
102
RTVSPost2010Prop47
 90
       50
102
RTVSPost2010PropOp47
 70
     1
102
RTVSPost2010Prop48
 90
       50
102
RTVSPost2010PropOp48
 70
     1
102
RTVSPost2010Prop49
280
     0
102
RTVSPost2010PropOp49
 70
     1
102
RTVSPost2010Prop50
 90
       50
102
RTVSPost2010PropOp50
 70
     1
102
RTVSPost2010Prop51ColorIndex
 90
      256
102
RTVSPost2010Prop51ColorRGB
 90
-16777216
102
RTVSPost2010PropOp51
 70
     0
102
RTVSPost2010Prop52
140
1.0
102
RTVSPost2010PropOp52
 70
     0
102
RTVSPost2010Prop53
 90
        2
102
RTVSPost2010PropOp53
 70
     1
102
RTVSPost2010Prop54
  1
strokes_ogs.tif
102
RTVSPost2010PropOp54
 70
     1
102
RTVSPost2010Prop55
280
     0
102
RTVSPost2010PropOp55
 70
     1
102
RTVSPost2010Prop56
140
1.0
102
RTVSPost2010PropOp56
 70
     1
102
RTVSPost2010Prop57
140
1.0
102
RTVSPost2010PropOp57
 70
     1
  0
XRECORD
  5
30E
102
{ACAD_REACTORS
330
30D
102
}
330
30D
100
AcDbXrecord
280
     1
102
RTVSPost2010Prop28
280
     0
102
RTVSPost2010PropOp28
 70
     1
102
RTVSPost2010Prop29
280
     1
102
RTVSPost2010PropOp29
 70
     1
102
RTVSPost2010Prop30
280
     1
102
RTVSPost2010PropOp30
 70
     1
102
RTVSPost2010Prop31
280
     0
102
RTVSPost2010PropOp31
 70
     1
102
RTVSPost2010Prop32
280
     0
102
RTVSPost2010PropOp32
 70
     1
102
RTVSPost2010Prop33
280
     0
102
RTVSPost2010PropOp33
 70
     1
102
RTVSPost2010Prop34
280
     0
102
RTVSPost2010PropOp34
 70
     1
102
RTVSPost2010Prop35
280
     0
102
RTVSPost2010PropOp35
 70
     1
102
RTVSPost2010Prop36
280
     0
102
RTVSPost2010PropOp36
 70
     1
102
RTVSPost2010Prop37
 90
       50
102
RTVSPost2010PropOp37
 70
     1
102
RTVSPost2010Prop38
140
0.0
102
RTVSPost2010PropOp38
 70
     1
102
RTVSPost2010Prop39
140
1.0
102
RTVSPost2010PropOp39
 70
     1
102
RTVSPost2010Prop40
 90
        0
102
RTVSPost2010PropOp40
 70
     1
102
RTVSPost2010Prop41ColorIndex
 90
       18
102
RTVSPost2010Prop41ColorRGB
 90
        0
102
RTVSPost2010PropOp41
 70
     1
102
RTVSPost2010Prop42
 90
       50
102
RTVSPost2010PropOp42
 70
     1
102
RTVSPost2010Prop43
 90
        3
102
RTVSPost2010PropOp43
 70
     1
102
RTVSPost2010Prop44ColorIndex
 90
        5
102
RTVSPost2010Prop44ColorRGB
 90
      255
102
RTVSPost2010PropOp44
 70
     1
102
RTVSPost2010Prop45
280
     0
102
RTVSPost2010PropOp45
 70
     1
102
RTVSPost2010Prop46
 90
       50
102
RTVSPost2010PropOp46
 70
     1
102
RTVSPost2010Prop47
 90
       50
102
RTVSPost2010PropOp47
 70
     1
102
RTVSPost2010Prop48
 90
       50
102
RTVSPost2010PropOp48
 70
     1
102
RTVSPost2010Prop49
280
     0
102
RTVSPost2010PropOp49
 70
     1
102
RTVSPost2010Prop50
 90
       50
102
RTVSPost2010PropOp50
 70
     1
102
RTVSPost2010Prop51ColorIndex
 90
      256
102
RTVSPost2010Prop51ColorRGB
 90
-16777216
102
RTVSPost2010PropOp51
 70
     0
102
RTVSPost2010Prop52
140
1.0
102
RTVSPost2010PropOp52
 70
     0
102
RTVSPost2010Prop53
 90
        2
102
RTVSPost2010PropOp53
 70
     1
102
RTVSPost2010Prop54
  1
strokes_ogs.tif
102
RTVSPost2010PropOp54
 70
     1
102
RTVSPost2010Prop55
280
     0
102
RTVSPost2010PropOp55
 70
     1
102
RTVSPost2010Prop56
140
1.0
102
RTVSPost2010PropOp56
 70
     1
102
RTVSPost2010Prop57
140
1.0
102
RTVSPost2010PropOp57
 70
     1
  0
XRECORD
  5
30C
102
{ACAD_REACTORS
330
30B
102
}
330
30B
100
AcDbXrecord
280
     1
102
RTVSPost2010Prop28
280
     0
102
RTVSPost2010PropOp28
 70
     1
102
RTVSPost2010Prop29
280
     1
102
RTVSPost2010PropOp29
 70
     1
102
RTVSPost2010Prop30
280
     1
102
RTVSPost2010PropOp30
 70
     1
102
RTVSPost2010Prop31
280
     0
102
RTVSPost2010PropOp31
 70
     1
102
RTVSPost2010Prop32
280
     0
102
RTVSPost2010PropOp32
 70
     1
102
RTVSPost2010Prop33
280
     0
102
RTVSPost2010PropOp33
 70
     1
102
RTVSPost2010Prop34
280
     0
102
RTVSPost2010PropOp34
 70
     1
102
RTVSPost2010Prop35
280
     0
102
RTVSPost2010PropOp35
 70
     1
102
RTVSPost2010Prop36
280
     0
102
RTVSPost2010PropOp36
 70
     1
102
RTVSPost2010Prop37
 90
       50
102
RTVSPost2010PropOp37
 70
     1
102
RTVSPost2010Prop38
140
0.0
102
RTVSPost2010PropOp38
 70
     1
102
RTVSPost2010Prop39
140
1.0
102
RTVSPost2010PropOp39
 70
     1
102
RTVSPost2010Prop40
 90
        0
102
RTVSPost2010PropOp40
 70
     1
102
RTVSPost2010Prop41ColorIndex
 90
       18
102
RTVSPost2010Prop41ColorRGB
 90
        0
102
RTVSPost2010PropOp41
 70
     1
102
RTVSPost2010Prop42
 90
       50
102
RTVSPost2010PropOp42
 70
     1
102
RTVSPost2010Prop43
 90
        3
102
RTVSPost2010PropOp43
 70
     1
102
RTVSPost2010Prop44ColorIndex
 90
        5
102
RTVSPost2010Prop44ColorRGB
 90
      255
102
RTVSPost2010PropOp44
 70
     1
102
RTVSPost2010Prop45
280
     0
102
RTVSPost2010PropOp45
 70
     1
102
RTVSPost2010Prop46
 90
       50
102
RTVSPost2010PropOp46
 70
     1
102
RTVSPost2010Prop47
 90
       50
102
RTVSPost2010PropOp47
 70
     1
102
RTVSPost2010Prop48
 90
       50
102
RTVSPost2010PropOp48
 70
     1
102
RTVSPost2010Prop49
280
     0
102
RTVSPost2010PropOp49
 70
     1
102
RTVSPost2010Prop50
 90
       50
102
RTVSPost2010PropOp50
 70
     1
102
RTVSPost2010Prop51ColorIndex
 90
      256
102
RTVSPost2010Prop51ColorRGB
 90
-16777216
102
RTVSPost2010PropOp51
 70
     0
102
RTVSPost2010Prop52
140
1.0
102
RTVSPost2010PropOp52
 70
     0
102
RTVSPost2010Prop53
 90
        2
102
RTVSPost2010PropOp53
 70
     1
102
RTVSPost2010Prop54
  1
strokes_ogs.tif
102
RTVSPost2010PropOp54
 70
     1
102
RTVSPost2010Prop55
280
     0
102
RTVSPost2010PropOp55
 70
     1
102
RTVSPost2010Prop56
140
1.0
102
RTVSPost2010PropOp56
 70
     1
102
RTVSPost2010Prop57
140
1.0
102
RTVSPost2010PropOp57
 70
     1
  0
XRECORD
  5
306
102
{ACAD_REACTORS
330
305
102
}
330
305
100
AcDbXrecord
280
     1
102
RTVSPost2010Prop28
280
     0
102
RTVSPost2010PropOp28
 70
     1
102
RTVSPost2010Prop29
280
     1
102
RTVSPost2010PropOp29
 70
     1
102
RTVSPost2010Prop30
280
     1
102
RTVSPost2010PropOp30
 70
     1
102
RTVSPost2010Prop31
280
     0
102
RTVSPost2010PropOp31
 70
     1
102
RTVSPost2010Prop32
280
     0
102
RTVSPost2010PropOp32
 70
     1
102
RTVSPost2010Prop33
280
     0
102
RTVSPost2010PropOp33
 70
     1
102
RTVSPost2010Prop34
280
     0
102
RTVSPost2010PropOp34
 70
     1
102
RTVSPost2010Prop35
280
     0
102
RTVSPost2010PropOp35
 70
     1
102
RTVSPost2010Prop36
280
     0
102
RTVSPost2010PropOp36
 70
     1
102
RTVSPost2010Prop37
 90
       50
102
RTVSPost2010PropOp37
 70
     1
102
RTVSPost2010Prop38
140
0.0
102
RTVSPost2010PropOp38
 70
     1
102
RTVSPost2010Prop39
140
1.0
102
RTVSPost2010PropOp39
 70
     1
102
RTVSPost2010Prop40
 90
        0
102
RTVSPost2010PropOp40
 70
     1
102
RTVSPost2010Prop41ColorIndex
 90
       18
102
RTVSPost2010Prop41ColorRGB
 90
        0
102
RTVSPost2010PropOp41
 70
     1
102
RTVSPost2010Prop42
 90
       50
102
RTVSPost2010PropOp42
 70
     1
102
RTVSPost2010Prop43
 90
        3
102
RTVSPost2010PropOp43
 70
     1
102
RTVSPost2010Prop44ColorIndex
 90
        5
102
RTVSPost2010Prop44ColorRGB
 90
      255
102
RTVSPost2010PropOp44
 70
     1
102
RTVSPost2010Prop45
280
     0
102
RTVSPost2010PropOp45
 70
     1
102
RTVSPost2010Prop46
 90
       50
102
RTVSPost2010PropOp46
 70
     1
102
RTVSPost2010Prop47
 90
       50
102
RTVSPost2010PropOp47
 70
     1
102
RTVSPost2010Prop48
 90
       50
102
RTVSPost2010PropOp48
 70
     1
102
RTVSPost2010Prop49
280
     0
102
RTVSPost2010PropOp49
 70
     1
102
RTVSPost2010Prop50
 90
       50
102
RTVSPost2010PropOp50
 70
     1
102
RTVSPost2010Prop51ColorIndex
 90
      256
102
RTVSPost2010Prop51ColorRGB
 90
-16777216
102
RTVSPost2010PropOp51
 70
     0
102
RTVSPost2010Prop52
140
1.0
102
RTVSPost2010PropOp52
 70
     0
102
RTVSPost2010Prop53
 90
        2
102
RTVSPost2010PropOp53
 70
     1
102
RTVSPost2010Prop54
  1
strokes_ogs.tif
102
RTVSPost2010PropOp54
 70
     1
102
RTVSPost2010Prop55
280
     0
102
RTVSPost2010PropOp55
 70
     1
102
RTVSPost2010Prop56
140
1.0
102
RTVSPost2010PropOp56
 70
     1
102
RTVSPost2010Prop57
140
1.0
102
RTVSPost2010PropOp57
 70
     1
  0
XRECORD
  5
308
102
{ACAD_REACTORS
330
307
102
}
330
307
100
AcDbXrecord
280
     1
102
RTVSPost2010Prop28
280
     0
102
RTVSPost2010PropOp28
 70
     1
102
RTVSPost2010Prop29
280
     1
102
RTVSPost2010PropOp29
 70
     1
102
RTVSPost2010Prop30
280
     1
102
RTVSPost2010PropOp30
 70
     1
102
RTVSPost2010Prop31
280
     0
102
RTVSPost2010PropOp31
 70
     1
102
RTVSPost2010Prop32
280
     0
102
RTVSPost2010PropOp32
 70
     1
102
RTVSPost2010Prop33
280
     0
102
RTVSPost2010PropOp33
 70
     1
102
RTVSPost2010Prop34
280
     0
102
RTVSPost2010PropOp34
 70
     1
102
RTVSPost2010Prop35
280
     0
102
RTVSPost2010PropOp35
 70
     1
102
RTVSPost2010Prop36
280
     0
102
RTVSPost2010PropOp36
 70
     1
102
RTVSPost2010Prop37
 90
       50
102
RTVSPost2010PropOp37
 70
     1
102
RTVSPost2010Prop38
140
0.0
102
RTVSPost2010PropOp38
 70
     1
102
RTVSPost2010Prop39
140
1.0
102
RTVSPost2010PropOp39
 70
     1
102
RTVSPost2010Prop40
 90
        0
102
RTVSPost2010PropOp40
 70
     1
102
RTVSPost2010Prop41ColorIndex
 90
       18
102
RTVSPost2010Prop41ColorRGB
 90
        0
102
RTVSPost2010PropOp41
 70
     1
102
RTVSPost2010Prop42
 90
       50
102
RTVSPost2010PropOp42
 70
     1
102
RTVSPost2010Prop43
 90
        3
102
RTVSPost2010PropOp43
 70
     1
102
RTVSPost2010Prop44ColorIndex
 90
        5
102
RTVSPost2010Prop44ColorRGB
 90
      255
102
RTVSPost2010PropOp44
 70
     1
102
RTVSPost2010Prop45
280
     0
102
RTVSPost2010PropOp45
 70
     1
102
RTVSPost2010Prop46
 90
       50
102
RTVSPost2010PropOp46
 70
     1
102
RTVSPost2010Prop47
 90
       50
102
RTVSPost2010PropOp47
 70
     1
102
RTVSPost2010Prop48
 90
       50
102
RTVSPost2010PropOp48
 70
     1
102
RTVSPost2010Prop49
280
     0
102
RTVSPost2010PropOp49
 70
     1
102
RTVSPost2010Prop50
 90
       50
102
RTVSPost2010PropOp50
 70
     1
102
RTVSPost2010Prop51ColorIndex
 90
      256
102
RTVSPost2010Prop51ColorRGB
 90
-16777216
102
RTVSPost2010PropOp51
 70
     0
102
RTVSPost2010Prop52
140
1.0
102
RTVSPost2010PropOp52
 70
     0
102
RTVSPost2010Prop53
 90
        2
102
RTVSPost2010PropOp53
 70
     1
102
RTVSPost2010Prop54
  1
strokes_ogs.tif
102
RTVSPost2010PropOp54
 70
     1
102
RTVSPost2010Prop55
280
     0
102
RTVSPost2010PropOp55
 70
     1
102
RTVSPost2010Prop56
140
1.0
102
RTVSPost2010PropOp56
 70
     1
102
RTVSPost2010Prop57
140
1.0
102
RTVSPost2010PropOp57
 70
     1
  0
XRECORD
  5
2FE
102
{ACAD_REACTORS
330
2FD
102
}
330
2FD
100
AcDbXrecord
280
     1
102
RTVSPost2010Prop28
280
     0
102
RTVSPost2010PropOp28
 70
     1
102
RTVSPost2010Prop29
280
     1
102
RTVSPost2010PropOp29
 70
     1
102
RTVSPost2010Prop30
280
     1
102
RTVSPost2010PropOp30
 70
     1
102
RTVSPost2010Prop31
280
     0
102
RTVSPost2010PropOp31
 70
     1
102
RTVSPost2010Prop32
280
     0
102
RTVSPost2010PropOp32
 70
     1
102
RTVSPost2010Prop33
280
     0
102
RTVSPost2010PropOp33
 70
     1
102
RTVSPost2010Prop34
280
     0
102
RTVSPost2010PropOp34
 70
     1
102
RTVSPost2010Prop35
280
     0
102
RTVSPost2010PropOp35
 70
     1
102
RTVSPost2010Prop36
280
     0
102
RTVSPost2010PropOp36
 70
     1
102
RTVSPost2010Prop37
 90
       50
102
RTVSPost2010PropOp37
 70
     1
102
RTVSPost2010Prop38
140
0.0
102
RTVSPost2010PropOp38
 70
     1
102
RTVSPost2010Prop39
140
1.0
102
RTVSPost2010PropOp39
 70
     1
102
RTVSPost2010Prop40
 90
        0
102
RTVSPost2010PropOp40
 70
     1
102
RTVSPost2010Prop41ColorIndex
 90
       18
102
RTVSPost2010Prop41ColorRGB
 90
        0
102
RTVSPost2010PropOp41
 70
     1
102
RTVSPost2010Prop42
 90
       50
102
RTVSPost2010PropOp42
 70
     1
102
RTVSPost2010Prop43
 90
        3
102
RTVSPost2010PropOp43
 70
     1
102
RTVSPost2010Prop44ColorIndex
 90
        5
102
RTVSPost2010Prop44ColorRGB
 90
      255
102
RTVSPost2010PropOp44
 70
     1
102
RTVSPost2010Prop45
280
     0
102
RTVSPost2010PropOp45
 70
     1
102
RTVSPost2010Prop46
 90
       50
102
RTVSPost2010PropOp46
 70
     1
102
RTVSPost2010Prop47
 90
       50
102
RTVSPost2010PropOp47
 70
     1
102
RTVSPost2010Prop48
 90
       50
102
RTVSPost2010PropOp48
 70
     1
102
RTVSPost2010Prop49
280
     0
102
RTVSPost2010PropOp49
 70
     1
102
RTVSPost2010Prop50
 90
       50
102
RTVSPost2010PropOp50
 70
     1
102
RTVSPost2010Prop51ColorIndex
 90
      256
102
RTVSPost2010Prop51ColorRGB
 90
-16777216
102
RTVSPost2010PropOp51
 70
     0
102
RTVSPost2010Prop52
140
1.0
102
RTVSPost2010PropOp52
 70
     0
102
RTVSPost2010Prop53
 90
        2
102
RTVSPost2010PropOp53
 70
     1
102
RTVSPost2010Prop54
  1
strokes_ogs.tif
102
RTVSPost2010PropOp54
 70
     1
102
RTVSPost2010Prop55
280
     0
102
RTVSPost2010PropOp55
 70
     1
102
RTVSPost2010Prop56
140
1.0
102
RTVSPost2010PropOp56
 70
     1
102
RTVSPost2010Prop57
140
1.0
102
RTVSPost2010PropOp57
 70
     1
  0
XRECORD
  5
2F2
102
{ACAD_REACTORS
330
2F1
102
}
330
2F1
100
AcDbXrecord
280
     1
102
RTVSPost2010Prop28
280
     0
102
RTVSPost2010PropOp28
 70
     1
102
RTVSPost2010Prop29
280
     1
102
RTVSPost2010PropOp29
 70
     1
102
RTVSPost2010Prop30
280
     1
102
RTVSPost2010PropOp30
 70
     1
102
RTVSPost2010Prop31
280
     0
102
RTVSPost2010PropOp31
 70
     1
102
RTVSPost2010Prop32
280
     0
102
RTVSPost2010PropOp32
 70
     1
102
RTVSPost2010Prop33
280
     0
102
RTVSPost2010PropOp33
 70
     1
102
RTVSPost2010Prop34
280
     0
102
RTVSPost2010PropOp34
 70
     1
102
RTVSPost2010Prop35
280
     0
102
RTVSPost2010PropOp35
 70
     1
102
RTVSPost2010Prop36
280
     0
102
RTVSPost2010PropOp36
 70
     1
102
RTVSPost2010Prop37
 90
       50
102
RTVSPost2010PropOp37
 70
     1
102
RTVSPost2010Prop38
140
0.0
102
RTVSPost2010PropOp38
 70
     1
102
RTVSPost2010Prop39
140
1.0
102
RTVSPost2010PropOp39
 70
     1
102
RTVSPost2010Prop40
 90
        0
102
RTVSPost2010PropOp40
 70
     1
102
RTVSPost2010Prop41ColorIndex
 90
       18
102
RTVSPost2010Prop41ColorRGB
 90
        0
102
RTVSPost2010PropOp41
 70
     1
102
RTVSPost2010Prop42
 90
       50
102
RTVSPost2010PropOp42
 70
     1
102
RTVSPost2010Prop43
 90
        3
102
RTVSPost2010PropOp43
 70
     1
102
RTVSPost2010Prop44ColorIndex
 90
        5
102
RTVSPost2010Prop44ColorRGB
 90
      255
102
RTVSPost2010PropOp44
 70
     1
102
RTVSPost2010Prop45
280
     0
102
RTVSPost2010PropOp45
 70
     1
102
RTVSPost2010Prop46
 90
       50
102
RTVSPost2010PropOp46
 70
     1
102
RTVSPost2010Prop47
 90
       50
102
RTVSPost2010PropOp47
 70
     1
102
RTVSPost2010Prop48
 90
       50
102
RTVSPost2010PropOp48
 70
     1
102
RTVSPost2010Prop49
280
     0
102
RTVSPost2010PropOp49
 70
     1
102
RTVSPost2010Prop50
 90
       50
102
RTVSPost2010PropOp50
 70
     1
102
RTVSPost2010Prop51ColorIndex
 90
      256
102
RTVSPost2010Prop51ColorRGB
 90
-16777216
102
RTVSPost2010PropOp51
 70
     0
102
RTVSPost2010Prop52
140
1.0
102
RTVSPost2010PropOp52
 70
     0
102
RTVSPost2010Prop53
 90
        2
102
RTVSPost2010PropOp53
 70
     1
102
RTVSPost2010Prop54
  1
strokes_ogs.tif
102
RTVSPost2010PropOp54
 70
     1
102
RTVSPost2010Prop55
280
     0
102
RTVSPost2010PropOp55
 70
     1
102
RTVSPost2010Prop56
140
1.0
102
RTVSPost2010PropOp56
 70
     1
102
RTVSPost2010Prop57
140
1.0
102
RTVSPost2010PropOp57
 70
     1
  0
XRECORD
  5
30A
102
{ACAD_REACTORS
330
309
102
}
330
309
100
AcDbXrecord
280
     1
102
RTVSPost2010Prop28
280
     0
102
RTVSPost2010PropOp28
 70
     1
102
RTVSPost2010Prop29
280
     1
102
RTVSPost2010PropOp29
 70
     1
102
RTVSPost2010Prop30
280
     1
102
RTVSPost2010PropOp30
 70
     1
102
RTVSPost2010Prop31
280
     0
102
RTVSPost2010PropOp31
 70
     1
102
RTVSPost2010Prop32
280
     0
102
RTVSPost2010PropOp32
 70
     1
102
RTVSPost2010Prop33
280
     0
102
RTVSPost2010PropOp33
 70
     1
102
RTVSPost2010Prop34
280
     0
102
RTVSPost2010PropOp34
 70
     1
102
RTVSPost2010Prop35
280
     0
102
RTVSPost2010PropOp35
 70
     1
102
RTVSPost2010Prop36
280
     0
102
RTVSPost2010PropOp36
 70
     1
102
RTVSPost2010Prop37
 90
       50
102
RTVSPost2010PropOp37
 70
     1
102
RTVSPost2010Prop38
140
0.0
102
RTVSPost2010PropOp38
 70
     1
102
RTVSPost2010Prop39
140
1.0
102
RTVSPost2010PropOp39
 70
     1
102
RTVSPost2010Prop40
 90
        0
102
RTVSPost2010PropOp40
 70
     1
102
RTVSPost2010Prop41ColorIndex
 90
       18
102
RTVSPost2010Prop41ColorRGB
 90
        0
102
RTVSPost2010PropOp41
 70
     1
102
RTVSPost2010Prop42
 90
       50
102
RTVSPost2010PropOp42
 70
     1
102
RTVSPost2010Prop43
 90
        3
102
RTVSPost2010PropOp43
 70
     1
102
RTVSPost2010Prop44ColorIndex
 90
        5
102
RTVSPost2010Prop44ColorRGB
 90
      255
102
RTVSPost2010PropOp44
 70
     1
102
RTVSPost2010Prop45
280
     0
102
RTVSPost2010PropOp45
 70
     1
102
RTVSPost2010Prop46
 90
       50
102
RTVSPost2010PropOp46
 70
     1
102
RTVSPost2010Prop47
 90
       50
102
RTVSPost2010PropOp47
 70
     1
102
RTVSPost2010Prop48
 90
       50
102
RTVSPost2010PropOp48
 70
     1
102
RTVSPost2010Prop49
280
     0
102
RTVSPost2010PropOp49
 70
     1
102
RTVSPost2010Prop50
 90
       50
102
RTVSPost2010PropOp50
 70
     1
102
RTVSPost2010Prop51ColorIndex
 90
      256
102
RTVSPost2010Prop51ColorRGB
 90
-16777216
102
RTVSPost2010PropOp51
 70
     0
102
RTVSPost2010Prop52
140
1.0
102
RTVSPost2010PropOp52
 70
     0
102
RTVSPost2010Prop53
 90
        2
102
RTVSPost2010PropOp53
 70
     1
102
RTVSPost2010Prop54
  1
strokes_ogs.tif
102
RTVSPost2010PropOp54
 70
     1
102
RTVSPost2010Prop55
280
     0
102
RTVSPost2010PropOp55
 70
     1
102
RTVSPost2010Prop56
140
1.0
102
RTVSPost2010PropOp56
 70
     1
102
RTVSPost2010Prop57
140
1.0
102
RTVSPost2010PropOp57
 70
     1
  0
ENDSEC
  0
EOF
