  0
SECTION
  2
HEADER
  9
$ACADVER
  1
AC1015
  9
$ACADMAINTVER
 70
    20
  9
$DWGCODEPAGE
  3
ANSI_1252
  9
$INSBASE
 10
0.0
 20
0.0
 30
0.0
  9
$EXTMIN
 10
-15.67412102794584
 20
-642.6689849312425
 30
0.0
  9
$EXTMAX
 10
757.6248404408419
 20
354.4319140542284
 30
0.0
  9
$LIMMIN
 10
0.0
 20
0.0
  9
$LIMMAX
 10
0.0
 20
0.0
  9
$ORTHOMODE
 70
     0
  9
$REGENMODE
 70
     1
  9
$FILLMODE
 70
     1
  9
$QTEXTMODE
 70
     0
  9
$MIRRTEXT
 70
     1
  9
$LTSCALE
 40
1.0
  9
$ATTMODE
 70
     1
  9
$TEXTSIZE
 40
0.0
  9
$TRACEWID
 40
0.05
  9
$TEXTSTYLE
  7
STANDARD
  9
$CLAYER
  8
0
  9
$CELTYPE
  6
CONTINUOUS
  9
$CECOLOR
 62
   256
  9
$CELTSCALE
 40
1.0
  9
$DISPSILH
 70
     0
  9
$DIMSCALE
 40
1.0
  9
$DIMASZ
 40
6.0
  9
$DIMEXO
 40
1.0
  9
$DIMDLI
 40
0.38
  9
$DIMRND
 40
0.0
  9
$DIMDLE
 40
1.0
  9
$DIMEXE
 40
0.18
  9
$DIMTP
 40
0.0
  9
$DIMTM
 40
0.0
  9
$DIMTXT
 40
3.5
  9
$DIMCEN
 40
0.09
  9
$DIMTSZ
 40
0.0
  9
$DIMTOL
 70
     0
  9
$DIMLIM
 70
     0
  9
$DIMTIH
 70
     1
  9
$DIMTOH
 70
     1
  9
$DIMSE1
 70
     0
  9
$DIMSE2
 70
     0
  9
$DIMTAD
 70
     1
  9
$DIMZIN
 70
     0
  9
$DIMBLK
  1

  9
$DIMASO
 70
     1
  9
$DIMSHO
 70
     1
  9
$DIMPOST
  1

  9
$DIMAPOST
  1

  9
$DIMALT
 70
     0
  9
$DIMALTD
 70
     2
  9
$DIMALTF
 40
0.0394
  9
$DIMLFAC
 40
5.0
  9
$DIMTOFL
 70
     0
  9
$DIMTVP
 40
0.0
  9
$DIMTIX
 70
     0
  9
$DIMSOXD
 70
     0
  9
$DIMSAH
 70
     0
  9
$DIMBLK1
  1

  9
$DIMBLK2
  1

  9
$DIMSTYLE
  2
STANDARD
  9
$DIMCLRD
 70
     0
  9
$DIMCLRE
 70
     0
  9
$DIMCLRT
 70
     0
  9
$DIMTFAC
 40
1.0
  9
$DIMGAP
 40
1.0
  9
$DIMJUST
 70
     0
  9
$DIMSD1
 70
     0
  9
$DIMSD2
 70
     0
  9
$DIMTOLJ
 70
     1
  9
$DIMTZIN
 70
     0
  9
$DIMALTZ
 70
     0
  9
$DIMALTTZ
 70
     0
  9
$DIMUPT
 70
     0
  9
$DIMDEC
 70
     4
  9
$DIMTDEC
 70
     4
  9
$DIMALTU
 70
     2
  9
$DIMALTTD
 70
     2
  9
$DIMTXSTY
  7
STANDARD
  9
$DIMAUNIT
 70
     0
  9
$DIMADEC
 70
     0
  9
$DIMALTRND
 40
0.0
  9
$DIMAZIN
 70
     0
  9
$DIMDSEP
 70
    46
  9
$DIMATFIT
 70
     3
  9
$DIMFRAC
 70
     0
  9
$DIMLDRBLK
  1

  9
$DIMLUNIT
 70
     2
  9
$DIMLWD
 70
    -2
  9
$DIMLWE
 70
    -2
  9
$DIMTMOVE
 70
     0
  9
$LUNITS
 70
     2
  9
$LUPREC
 70
     2
  9
$SKETCHINC
 40
0.1
  9
$FILLETRAD
 40
0.0
  9
$AUNITS
 70
     0
  9
$AUPREC
 70
     2
  9
$MENU
  1
acad
  9
$ELEVATION
 40
0.0
  9
$PELEVATION
 40
0.0
  9
$THICKNESS
 40
0.0
  9
$LIMCHECK
 70
     0
  9
$CHAMFERA
 40
0.0
  9
$CHAMFERB
 40
0.0
  9
$CHAMFERC
 40
0.0
  9
$CHAMFERD
 40
0.0
  9
$SKPOLY
 70
     0
  9
$TDCREATE
 40
2444972.041666667
  9
$TDUCREATE
 40
2444972.000000000
  9
$TDUPDATE
 40
2453768.828878935
  9
$TDUUPDATE
 40
2453768.787212268
  9
$TDINDWG
 40
0.0030917130
  9
$TDUSRTIMER
 40
0.0030917130
  9
$USRTIMER
 70
     1
  9
$ANGBASE
 50
0.0
  9
$ANGDIR
 70
     0
  9
$PDMODE
 70
     0
  9
$PDSIZE
 40
-1.0
  9
$PLINEWID
 40
0.0
  9
$SPLFRAME
 70
     0
  9
$SPLINETYPE
 70
     6
  9
$SPLINESEGS
 70
     8
  9
$HANDSEED
  5
7FF
  9
$SURFTAB1
 70
     6
  9
$SURFTAB2
 70
     6
  9
$SURFTYPE
 70
     6
  9
$SURFU
 70
     6
  9
$SURFV
 70
     6
  9
$UCSBASE
  2

  9
$UCSNAME
  2

  9
$UCSORG
 10
0.0
 20
0.0
 30
0.0
  9
$UCSXDIR
 10
1.0
 20
0.0
 30
0.0
  9
$UCSYDIR
 10
0.0
 20
1.0
 30
0.0
  9
$UCSORTHOREF
  2

  9
$UCSORTHOVIEW
 70
     1
  9
$UCSORGTOP
 10
0.0
 20
0.0
 30
0.0
  9
$UCSORGBOTTOM
 10
0.0
 20
0.0
 30
0.0
  9
$UCSORGLEFT
 10
0.0
 20
0.0
 30
0.0
  9
$UCSORGRIGHT
 10
0.0
 20
0.0
 30
0.0
  9
$UCSORGFRONT
 10
0.0
 20
0.0
 30
0.0
  9
$UCSORGBACK
 10
0.0
 20
0.0
 30
0.0
  9
$PUCSBASE
  2

  9
$PUCSNAME
  2

  9
$PUCSORG
 10
0.0
 20
0.0
 30
0.0
  9
$PUCSXDIR
 10
1.0
 20
0.0
 30
0.0
  9
$PUCSYDIR
 10
0.0
 20
1.0
 30
0.0
  9
$PUCSORTHOREF
  2

  9
$PUCSORTHOVIEW
 70
     0
  9
$PUCSORGTOP
 10
0.0
 20
0.0
 30
0.0
  9
$PUCSORGBOTTOM
 10
0.0
 20
0.0
 30
0.0
  9
$PUCSORGLEFT
 10
0.0
 20
0.0
 30
0.0
  9
$PUCSORGRIGHT
 10
0.0
 20
0.0
 30
0.0
  9
$PUCSORGFRONT
 10
0.0
 20
0.0
 30
0.0
  9
$PUCSORGBACK
 10
0.0
 20
0.0
 30
0.0
  9
$USERI1
 70
     0
  9
$USERI2
 70
     0
  9
$USERI3
 70
     0
  9
$USERI4
 70
     0
  9
$USERI5
 70
     0
  9
$USERR1
 40
0.0
  9
$USERR2
 40
0.0
  9
$USERR3
 40
0.0
  9
$USERR4
 40
0.0
  9
$USERR5
 40
0.0
  9
$WORLDVIEW
 70
     1
  9
$SHADEDGE
 70
     3
  9
$SHADEDIF
 70
    70
  9
$TILEMODE
 70
     1
  9
$MAXACTVP
 70
    16
  9
$PINSBASE
 10
0.0
 20
0.0
 30
0.0
  9
$PLIMCHECK
 70
     0
  9
$PEXTMIN
 10
1.000000000000000E+20
 20
1.000000000000000E+20
 30
1.000000000000000E+20
  9
$PEXTMAX
 10
-1.000000000000000E+20
 20
-1.000000000000000E+20
 30
-1.000000000000000E+20
  9
$PLIMMIN
 10
0.0
 20
0.0
  9
$PLIMMAX
 10
12.0
 20
9.0
  9
$UNITMODE
 70
     0
  9
$VISRETAIN
 70
     0
  9
$PLINEGEN
 70
     1
  9
$PSLTSCALE
 70
     1
  9
$TREEDEPTH
 70
  3020
  9
$CMLSTYLE
  2
STANDARD
  9
$CMLJUST
 70
     0
  9
$CMLSCALE
 40
1.0
  9
$PROXYGRAPHICS
 70
     0
  9
$MEASUREMENT
 70
     0
  9
$CELWEIGHT
370
    -1
  9
$ENDCAPS
280
     0
  9
$JOINSTYLE
280
     0
  9
$LWDISPLAY
290
     0
  9
$INSUNITS
 70
     0
  9
$HYPERLINKBASE
  1

  9
$STYLESHEET
  1

  9
$XEDIT
290
     1
  9
$CEPSNTYPE
380
     0
  9
$PSTYLEMODE
290
     1
  9
$FINGERPRINTGUID
  2
{FB3FFE98-3DD8-476C-B817-8AE0635AB08E}
  9
$VERSIONGUID
  2
{52EA6C52-062B-471D-809D-DD1CDE2BACC7}
  9
$EXTNAMES
290
     1
  9
$PSVPSCALE
 40
0.0
  9
$OLESTARTUP
290
     0
  0
ENDSEC
  0
SECTION
  2
CLASSES
  0
CLASS
  1
IMAGE
  2
AcDbRasterImage
  3
ISM
 90
    32895
280
     0
281
     1
  0
CLASS
  1
DICTIONARYVAR
  2
AcDbDictionaryVar
  3
ObjectDBX Classes
 90
        0
280
     0
281
     0
  0
CLASS
  1
RASTERVARIABLES
  2
AcDbRasterVariables
  3
ISM
 90
    32768
280
     0
281
     0
  0
CLASS
  1
IMAGEDEF
  2
AcDbRasterImageDef
  3
ISM
 90
    32768
280
     0
281
     0
  0
CLASS
  1
IMAGEDEF_REACTOR
  2
AcDbRasterImageDefReactor
  3
ISM
 90
    32769
280
     0
281
     0
  0
CLASS
  1
IDBUFFER
  2
AcDbIdBuffer
  3
ObjectDBX Classes
 90
    32768
280
     0
281
     0
  0
CLASS
  1
SPATIAL_FILTER
  2
AcDbSpatialFilter
  3
ObjectDBX Classes
 90
    32768
280
     0
281
     0
  0
CLASS
  1
SORTENTSTABLE
  2
AcDbSortentsTable
  3
ObjectDBX Classes
 90
    32768
280
     0
281
     0
  0
CLASS
  1
LAYER_INDEX
  2
AcDbLayerIndex
  3
ObjectDBX Classes
 90
    32768
280
     0
281
     0
  0
CLASS
  1
SPATIAL_INDEX
  2
AcDbSpatialIndex
  3
ObjectDBX Classes
 90
    32768
280
     0
281
     0
  0
CLASS
  1
OBJECT_PTR
  2
CAseDLPNTableRecord
  3
ASE-LPNTableRecord
 90
    32769
280
     0
281
     0
  0
CLASS
  1
LAYOUT
  2
AcDbLayout
  3
ObjectDBX Classes
 90
        0
280
     0
281
     0
  0
CLASS
  1
PLOTSETTINGS
  2
AcDbPlotSettings
  3
ObjectDBX Classes
 90
    32768
280
     0
281
     0
  0
CLASS
  1
ACDBDICTIONARYWDFLT
  2
AcDbDictionaryWithDefault
  3
ObjectDBX Classes
 90
        0
280
     0
281
     0
  0
CLASS
  1
ACDBPLACEHOLDER
  2
AcDbPlaceHolder
  3
ObjectDBX Classes
 90
        0
280
     0
281
     0
  0
CLASS
  1
VBA_PROJECT
  2
AcDbVbaProject
  3
acad
 90
    32768
280
     0
281
     0
  0
CLASS
  1
WIPEOUT
  2
AcDbWipeout
  3
"WipeOut|Product Desc: Object Enabler for WipeOut entity^I^I^I^I^I^I|Company: Autodesk, Inc.^I^I^I^I^I^I|WEB Address: www.autodesk.com"
 90
    32895
280
     0
281
     1
  0
CLASS
  1
WIPEOUTVARIABLES
  2
AcDbWipeoutVariables
  3
"WipeOut|Product Desc:     WipeOut Dbx Application|Company:          Autodesk, Inc.|WEB Address:      www.autodesk.com"
 90
    32768
280
     0
281
     0
  0
CLASS
  1
RTEXT
  2
RText
  3
RText|AutoCAD Express Tool|expresstools@autodesk.com
 90
    32768
280
     0
281
     1
  0
CLASS
  1
ARCALIGNEDTEXT
  2
AcDbArcAlignedText
  3
ATEXT|AutoCAD Express Tool|expresstools@autodesk.com
 90
    32768
280
     0
281
     1
  0
ENDSEC
  0
SECTION
  2
TABLES
  0
TABLE
  2
VPORT
  5
7
330
0
100
AcDbSymbolTable
 70
     2
  0
VPORT
  5
7F7
330
7
100
AcDbSymbolTableRecord
100
AcDbViewportTableRecord
  2
*Active
 70
     0
 10
0.0
 20
0.0
 11
1.0
 21
1.0
 12
424.828053640546
 22
-144.1435183717926
 13
0.0
 23
0.0
 14
1.0
 24
1.0
 15
0.0
 25
0.0
 16
0.0
 26
0.0
 36
1.0
 17
0.0
 27
0.0
 37
0.0
 40
1005.606647816792
 41
1.569570871261378
 42
50.0
 43
0.0
 44
0.0
 50
0.0
 51
0.0
 71
     0
 72
  2000
 73
     1
 74
     1
 75
     0
 76
     0
 77
     0
 78
     0
281
     0
 65
     1
110
0.0
120
0.0
130
0.0
111
1.0
121
0.0
131
0.0
112
0.0
122
1.0
132
0.0
 79
     1
146
0.0
  0
ENDTAB
  0
TABLE
  2
LTYPE
  5
4
330
0
100
AcDbSymbolTable
 70
     6
  0
LTYPE
  5
11
330
4
100
AcDbSymbolTableRecord
100
AcDbLinetypeTableRecord
  2
BYBLOCK
 70
     0
  3

 72
    65
 73
     0
 40
0.0
  0
LTYPE
  5
12
330
4
100
AcDbSymbolTableRecord
100
AcDbLinetypeTableRecord
  2
BYLAYER
 70
     0
  3

 72
    65
 73
     0
 40
0.0
  0
LTYPE
  5
13
330
4
100
AcDbSymbolTableRecord
100
AcDbLinetypeTableRecord
  2
CONTINUOUS
 70
     0
  3
Solid line
 72
    65
 73
     0
 40
0.0
  0
LTYPE
  5
1E
330
4
100
AcDbSymbolTableRecord
100
AcDbLinetypeTableRecord
  2
HIDDEN
 70
     0
  3
Hidden __ __ __ __ __ __ __ __ __ __ __ __ __ __
 72
    65
 73
     2
 40
1.905
 49
1.27
 74
     0
 49
-0.635
 74
     0
  0
LTYPE
  5
1F
330
4
100
AcDbSymbolTableRecord
100
AcDbLinetypeTableRecord
  2
PHANTOM
 70
     0
  3
Phantom ______  __  __  ______  __  __  ______
 72
    65
 73
     6
 40
12.7
 49
6.349999999999999
 74
     0
 49
-1.27
 74
     0
 49
1.27
 74
     0
 49
-1.27
 74
     0
 49
1.27
 74
     0
 49
-1.27
 74
     0
  0
LTYPE
  5
20
330
4
100
AcDbSymbolTableRecord
100
AcDbLinetypeTableRecord
  2
CENTER
 70
     0
  3
Center ____ _ ____ _ ____ _ ____ _ ____ _ ____
 72
    65
 73
     4
 40
10.16
 49
6.349999999999999
 74
     0
 49
-1.27
 74
     0
 49
1.27
 74
     0
 49
-1.27
 74
     0
  0
LTYPE
  5
21
330
4
100
AcDbSymbolTableRecord
100
AcDbLinetypeTableRecord
  2
CENTERX2
 70
     0
  3
Center (2x) ________  __  ________  __  _____
 72
    65
 73
     4
 40
20.32
 49
12.7
 74
     0
 49
-2.54
 74
     0
 49
2.54
 74
     0
 49
-2.54
 74
     0
  0
LTYPE
  5
22
330
4
100
AcDbSymbolTableRecord
100
AcDbLinetypeTableRecord
  2
DOT2
 70
     0
  3
Dot (.5x) ........................................
 72
    65
 73
     2
 40
0.635
 49
0.0
 74
     0
 49
-0.635
 74
     0
  0
ENDTAB
  0
TABLE
  2
LAYER
  5
2
330
0
100
AcDbSymbolTable
 70
     2
  0
LAYER
  5
14
330
2
100
AcDbSymbolTableRecord
100
AcDbLayerTableRecord
  2
0
 70
     0
 62
     7
  6
CONTINUOUS
370
    -3
390
7DC
  0
LAYER
  5
26
330
2
100
AcDbSymbolTableRecord
100
AcDbLayerTableRecord
  2
DEFPOINTS
 70
     0
 62
     7
  6
CONTINUOUS
290
     0
370
    -3
390
7DC
  0
ENDTAB
  0
TABLE
  2
STYLE
  5
3
330
0
100
AcDbSymbolTable
 70
     1
  0
STYLE
  5
17
330
3
100
AcDbSymbolTableRecord
100
AcDbTextStyleTableRecord
  2
STANDARD
 70
     0
 40
0.0
 41
1.0
 50
0.0
 71
     0
 42
0.0
  3
Century Gothic
  4

  0
ENDTAB
  0
TABLE
  2
VIEW
  5
5
330
0
100
AcDbSymbolTable
 70
     0
  0
ENDTAB
  0
TABLE
  2
UCS
  5
6
330
0
100
AcDbSymbolTable
 70
     0
  0
ENDTAB
  0
TABLE
  2
APPID
  5
8
330
0
100
AcDbSymbolTable
 70
     2
  0
APPID
  5
16
330
8
100
AcDbSymbolTableRecord
100
AcDbRegAppTableRecord
  2
ACAD
 70
     0
  0
APPID
  5
7E7
330
8
100
AcDbSymbolTableRecord
100
AcDbRegAppTableRecord
  2
DCO15
 70
     0
  0
ENDTAB
  0
TABLE
  2
DIMSTYLE
  5
9
330
0
100
AcDbSymbolTable
 70
     1
100
AcDbDimStyleTable
 71
     0
  0
DIMSTYLE
105
18
330
9
100
AcDbSymbolTableRecord
100
AcDbDimStyleTableRecord
  2
STANDARD
 70
     0
289
     0
340
17
  0
ENDTAB
  0
TABLE
  2
BLOCK_RECORD
  5
1
330
0
100
AcDbSymbolTable
 70
     0
  0
BLOCK_RECORD
  5
A
330
1
100
AcDbSymbolTableRecord
100
AcDbBlockTableRecord
  2
*MODEL_SPACE
340
7E1
  0
BLOCK_RECORD
  5
B
330
1
100
AcDbSymbolTableRecord
100
AcDbBlockTableRecord
  2
*PAPER_SPACE
340
7E2
  0
ENDTAB
  0
ENDSEC
  0
SECTION
  2
BLOCKS
  0
BLOCK
  5
D
330
A
100
AcDbEntity
  8
0
100
AcDbBlockBegin
  2
*MODEL_SPACE
 70
     0
 10
0.0
 20
0.0
 30
0.0
  3
*MODEL_SPACE
  1

  0
ENDBLK
  5
E
330
A
100
AcDbEntity
  8
0
100
AcDbBlockEnd
  0
BLOCK
  5
F
330
B
100
AcDbEntity
 67
     1
  8
0
100
AcDbBlockBegin
  2
*PAPER_SPACE
 70
     0
 10
0.0
 20
0.0
 30
0.0
  3
*PAPER_SPACE
  1

  0
ENDBLK
  5
10
330
B
100
AcDbEntity
 67
     1
  8
0
100
AcDbBlockEnd
  0
ENDSEC
  0
SECTION
  2
ENTITIES
  0
LWPOLYLINE
  5
27
330
A
100
AcDbEntity
  8
0
  6
Continuous
 62
     7
100
AcDbPolyline
 90
       13
 70
   128
 43
0.0
 10
73.83556366802107
 20
214.3274662849919
 10
73.75971316170525
 20
213.8794903554304
 10
73.36881164640129
 20
212.9423161080014
 10
72.69509777717684
 20
212.1349791583589
 10
71.79774588241774
 20
211.5288284827443
 10
70.75088040868745
 20
211.1699459425438
 10
69.6377870357471
 20
211.0835107050494
 10
68.54579832313864
 20
211.2729907923825
 10
67.559634914805
 20
211.719417428953
 10
66.75273992247368
 20
212.3840239220222
 10
66.18169931886476
 20
213.2148134644213
 10
65.89124983415267
 20
214.1206178463207
 10
65.86443633198129
 20
214.3274662849919
  0
LWPOLYLINE
  5
36
330
A
100
AcDbEntity
  8
0
  6
Continuous
 62
     7
100
AcDbPolyline
 90
       15
 70
   128
 43
0.0
 10
63.87361668710359
 20
214.1360579738627
 10
63.99724086086651
 20
213.4055997250196
 10
64.44959127261654
 20
212.2087069264953
 10
65.18262540471344
 20
211.139488789169
 10
66.15899049724262
 20
210.2518122965642
 10
67.33019175891425
 20
209.591083880245
 10
68.63690454718223
 20
209.1929753427666
 10
70.01138736384703
 20
209.0805030434235
 10
71.38118376973583
 20
209.2620403546624
 10
72.6727705999097
 20
209.7303627223063
 10
73.81568258161748
 20
210.4623939247403
 10
74.74651596941566
 20
211.4195259879341
 10
75.41339936621844
 20
212.5488232464267
 10
75.78066160726736
 20
213.7864739826733
 10
75.82638331289878
 20
214.1360579738627
  0
LINE
  5
47
330
A
100
AcDbEntity
  8
0
  6
Continuous
 62
     7
100
AcDbLine
 10
59.02361449591967
 20
264.5804696242468
 30
0.0
 11
63.87361306381858
 21
214.1360957032842
 31
0.0
  0
LINE
  5
48
330
A
100
AcDbEntity
  8
0
  6
Continuous
 62
     7
100
AcDbLine
 10
65.86443633198129
 20
214.3274662849918
 30
0.0
 11
61.01443414079738
 21
264.771877935376
 31
0.0
  0
LINE
  5
49
330
A
100
AcDbEntity
  8
0
  6
Continuous
 62
     7
100
AcDbLine
 10
78.6855658592048
 20
264.771877935376
 30
0.0
 11
73.83556366802107
 21
214.3274662849919
 31
0.0
  0
LINE
  5
4A
330
A
100
AcDbEntity
  8
0
  6
Continuous
 62
     7
100
AcDbLine
 10
75.82638713066818
 20
214.136097730952
 30
0.0
 11
80.67638550408252
 21
264.5804696242468
 31
0.0
  0
LWPOLYLINE
  5
4B
330
A
100
AcDbEntity
  8
0
  6
Continuous
 62
     7
100
AcDbPolyline
 90
       41
 70
   128
 43
0.0
 10
69.85000000000145
 20
310.3836575013724
 10
67.64447610656633
 20
310.3653038464241
 10
63.46745136556014
 20
310.229498464887
 10
59.32547676452552
 20
309.9620381851789
 10
55.24219236150774
 20
309.5642837433952
 10
51.24014257275636
 20
309.0382041011098
 10
47.3413586212664
 20
308.3863554137103
 10
43.56722067716101
 20
307.6118338280029
 10
39.93832827200357
 20
306.7182117607862
 10
36.47438466752667
 20
305.7094547510401
 10
33.19410415135763
 20
304.5898159407523
 10
30.11515743164241
 20
303.3637069273179
 10
27.25418050498747
 20
302.0355499271762
 10
24.62688767396526
 20
300.609633178019
 10
22.24834741283018
 20
299.0900320802895
 10
20.13348416989769
 20
297.4807439694351
 10
18.29832322679351
 20
295.7868647312445
 10
16.76064461858165
 20
294.0168760405313
 10
15.53766534935178
 20
292.1838326008619
 10
14.64354600273963
 20
290.3075522554654
 10
14.084497759587
 20
288.4124322932205
 10
13.85666864863229
 20
286.5209392202118
 10
13.95018132597231
 20
284.64763425533
 10
14.35563291099775
 20
282.8007073741151
 10
15.066934082177
 20
280.9857156127341
 10
16.08471093282022
 20
279.2021566288656
 10
17.41169486102996
 20
277.4544555704916
 10
19.04635219815551
 20
275.7532785598051
 10
20.97971478034018
 20
274.1126886028551
 10
23.19682056712521
 20
272.546157175451
 10
25.6799506964107
 20
271.0644668846305
 10
28.40971472697962
 20
269.6762712725083
 10
31.36885724571378
 20
268.3873256433681
 10
34.54000605061787
 20
267.2026743798209
 10
37.90531400747256
 20
266.12698042407
 10
41.44622130125269
 20
265.1646225106586
 10
45.14334685361909
 20
264.3196781807836
 10
48.9764759187982
 20
263.5958627403971
 10
52.92461101877974
 20
262.9964586901085
 10
56.96606255004521
 20
262.5242505295949
 10
59.23952977904721
 20
262.3347552937474
  0
LWPOLYLINE
  5
76
330
A
100
AcDbEntity
  8
0
  6
Continuous
 62
     7
100
AcDbPolyline
 90
        6
 70
   128
 43
0.0
 10
61.26439925037112
 20
262.1720145974806
 10
65.23940058595866
 20
261.9697559451729
 10
69.42555047580244
 20
261.8901201655567
 10
73.61382646672502
 20
261.9429327536801
 10
77.78094586118088
 20
262.1279076266284
 10
78.43619166345908
 20
262.1781606360215
  0
LWPOLYLINE
  5
7E
330
A
100
AcDbEntity
  8
0
  6
Continuous
 62
     7
100
AcDbPolyline
 90
       41
 70
   128
 43
0.0
 10
80.46033985638858
 20
262.3333993842875
 10
81.90371858616774
 20
262.444096964666
 10
85.95935165027986
 20
262.8899179823303
 10
89.92547547029293
 20
263.463178405924
 10
93.78028557811935
 20
264.1611145774223
 10
97.50267806583892
 20
264.9804445097085
 10
101.0723747506447
 20
265.9174384827044
 10
104.4700315756996
 20
266.9680102152587
 10
107.6773193375671
 20
268.127831229204
 10
110.6769583158563
 20
269.3924681149925
 10
113.4526763340885
 20
270.7575331981276
 10
115.9890427893631
 20
272.218815284128
 10
118.2711149632115
 20
273.7723027289591
 10
120.2838446982058
 20
275.4139032499818
 10
122.0102205777632
 20
277.13727975946
 10
123.4326115704816
 20
278.9326357792152
 10
124.5344127297257
 20
280.7844498832144
 10
125.3038798154505
 20
282.6706638550557
 10
125.738617482678
 20
284.5667217369449
 10
125.8454909022303
 20
286.4526345666787
 10
125.6347581180827
 20
288.3172727381861
 10
125.115060995465
 20
290.1521361656712
 10
124.2899252574747
 20
291.9555394062083
 10
123.1571813228559
 20
293.7266141017342
 10
121.7150260978043
 20
295.4585044308741
 10
119.9676619553011
 20
297.1388003037421
 10
117.9266409442752
 20
298.7532511123155
 10
115.6082982787115
 20
300.2892877261228
 10
113.0312880744632
 20
301.7368990214777
 10
110.2140813510618
 20
303.0887542349438
 10
107.1739315288321
 20
304.3394219930493
 10
103.9283510276167
 20
305.4840229819309
 10
100.4954320887124
 20
306.5180033038426
 10
96.89403364655113
 20
307.4370909839674
 10
93.14384982923552
 20
308.2373352590827
 10
89.26539538992361
 20
308.9151738617361
 10
85.27993773133919
 20
309.467502664465
 10
81.20939579975789
 20
309.8917371785373
 10
77.07621869568552
 20
310.1858624038243
 10
72.90325194322888
 20
310.3484704411602
 10
69.85000000000145
 20
310.3836575013724
  0
LINE
  5
A9
330
A
100
AcDbEntity
  8
0
  6
Continuous
 62
     7
100
AcDbLine
 10
119.4368198012753
 20
297.558697276954
 30
0.0
 11
94.4935457666812
 21
345.9338980313285
 31
0.0
  0
LINE
  5
AA
330
A
100
AcDbEntity
  8
0
  6
Continuous
 62
     7
100
AcDbLine
 10
45.20645423332114
 20
345.9338980313284
 30
0.0
 11
20.28077750428529
 21
297.592825643099
 31
0.0
  0
LWPOLYLINE
  5
AB
330
A
100
AcDbEntity
  8
0
  6
Continuous
 62
     7
100
AcDbPolyline
 90
        9
 70
   128
 43
0.0
 10
87.56299159103368
 20
351.2859827299226
 10
86.43652838352625
 20
351.7534602001505
 10
84.20104601651482
 20
352.4905018592301
 10
81.79046155427975
 20
353.1142137716813
 10
79.23416622168024
 20
353.6185832610754
 10
76.56326389796688
 20
353.9985393797657
 10
73.81034573474962
 20
354.2501387690149
 10
71.00912001386596
 20
354.3707225225473
 10
69.85000000000124
 20
354.3819481876575
  0
LWPOLYLINE
  5
B6
330
A
100
AcDbEntity
  8
0
  6
Continuous
 62
     7
100
AcDbPolyline
 90
        8
 70
   128
 43
0.0
 10
69.85000000000124
 20
354.3819481876575
 10
68.37019840007991
 20
354.3636457029531
 10
65.5744871711509
 20
354.2281616245094
 10
62.83080323891408
 20
353.9620485644533
 10
60.17383117112975
 20
353.5682996487484
 10
57.6359709854307
 20
353.0511766492051
 10
55.24796868417006
 20
352.4160614309612
 10
53.19787896686718
 20
351.7230572826505
  0
LINE
  5
C0
330
A
100
AcDbEntity
  8
0
  6
Continuous
 62
     7
100
AcDbLine
 10
78.84999999999998
 20
28.46805181234247
 30
0.0
 11
83.84999999999998
 21
28.46805181234247
 31
0.0
  0
LINE
  5
C1
330
A
100
AcDbEntity
  8
0
  6
Continuous
 62
     7
100
AcDbLine
 10
83.84999999999998
 20
48.46805181234246
 30
0.0
 11
78.84999999999998
 21
48.46805181234246
 31
0.0
  0
LINE
  5
C2
330
A
100
AcDbEntity
  8
0
  6
Continuous
 62
     7
100
AcDbLine
 10
73.94999999999999
 20
30.26805181234249
 30
0.0
 11
75.84999999999997
 21
30.26805181234249
 31
0.0
  0
LINE
  5
C3
330
A
100
AcDbEntity
  8
0
  6
Continuous
 62
     7
100
AcDbLine
 10
63.84999999999998
 20
30.26805181234249
 30
0.0
 11
65.74999999999999
 21
30.26805181234249
 31
0.0
  0
LINE
  5
C4
330
A
100
AcDbEntity
  8
0
  6
Continuous
 62
     7
100
AcDbLine
 10
65.88354718082432
 20
46.66805181234248
 30
0.0
 11
63.84999999999998
 21
46.66805181234248
 31
0.0
  0
LINE
  5
C5
330
A
100
AcDbEntity
  8
0
  6
Continuous
 62
     7
100
AcDbLine
 10
75.84999999999997
 20
46.66805181234248
 30
0.0
 11
73.79788319780789
 21
46.66805181234248
 31
0.0
  0
LINE
  5
C6
330
A
100
AcDbEntity
  8
0
  6
Continuous
 62
     7
100
AcDbLine
 10
73.94999999999999
 20
13.46805181234245
 30
0.0
 11
73.94999999999999
 21
31.40186511486795
 31
0.0
  0
LINE
  5
C7
330
A
100
AcDbEntity
  8
0
  6
Continuous
 62
     7
100
AcDbLine
 10
65.75
 20
31.38832615032425
 30
0.0
 11
65.75
 21
13.46805181234245
 31
0.0
  0
LINE
  5
C8
330
A
100
AcDbEntity
  8
0
  6
Continuous
 62
     7
100
AcDbLine
 10
75.84999999999997
 20
32.46805181234247
 30
0.0
 11
78.84999999999998
 21
32.46805181234247
 31
0.0
  0
LINE
  5
C9
330
A
100
AcDbEntity
  8
0
  6
Continuous
 62
     7
100
AcDbLine
 10
78.84999999999998
 20
44.46805181234248
 30
0.0
 11
75.84999999999997
 21
44.46805181234248
 31
0.0
  0
LINE
  5
CA
330
A
100
AcDbEntity
  8
0
  6
Continuous
 62
     7
100
AcDbLine
 10
65.84999999999998
 20
82.46805181234247
 30
0.0
 11
65.84999999999998
 21
46.65201462262857
 31
0.0
  0
LINE
  5
CB
330
A
100
AcDbEntity
  8
0
  6
Continuous
 62
     7
100
AcDbLine
 10
73.84999999999997
 20
46.64275931550789
 30
0.0
 11
73.84999999999997
 21
82.46805181234247
 31
0.0
  0
LINE
  5
CC
330
A
100
AcDbEntity
  8
0
  6
Continuous
 62
     7
100
AcDbLine
 10
74.84999999999998
 20
82.46805181234247
 30
0.0
 11
74.84999999999998
 21
211.5947653665075
 31
0.0
  0
LINE
  5
CD
330
A
100
AcDbEntity
  8
0
  6
Continuous
 62
     7
100
AcDbLine
 10
74.84999999999998
 20
224.8785221208988
 30
0.0
 11
74.84999999999998
 21
261.9978054416486
 31
0.0
  0
LINE
  5
CE
330
A
100
AcDbEntity
  8
0
  6
Continuous
 62
     7
100
AcDbLine
 10
64.84999999999998
 20
261.9895696838548
 30
0.0
 11
64.84999999999998
 21
224.8785221209233
 31
0.0
  0
LINE
  5
CF
330
A
100
AcDbEntity
  8
0
  6
Continuous
 62
     7
100
AcDbLine
 10
64.84999999999998
 20
211.6246628077891
 30
0.0
 11
64.84999999999998
 21
82.46805181234247
 31
0.0
  0
LINE
  5
D0
330
A
100
AcDbEntity
  8
0
  6
Continuous
 62
     7
100
AcDbLine
 10
65.74999999999992
 20
58.59546881031194
 30
0.0
 11
65.74999999999995
 21
46.66805181234248
 31
0.0
  0
LINE
  5
D1
330
A
100
AcDbEntity
  8
0
  6
Continuous
 62
     7
100
AcDbLine
 10
65.7499999999999
 20
63.54521627861778
 30
0.0
 11
65.7499999999999
 21
62.13100271624472
 31
0.0
  0
LINE
  5
D2
330
A
100
AcDbEntity
  8
0
  6
Continuous
 62
     7
100
AcDbLine
 10
73.9499999999999
 20
62.13100271624472
 30
0.0
 11
73.9499999999999
 21
63.54521627861781
 31
0.0
  0
LINE
  5
D3
330
A
100
AcDbEntity
  8
0
  6
Continuous
 62
     7
100
AcDbLine
 10
73.94999999999996
 20
46.66805181234248
 30
0.0
 11
73.94999999999992
 21
58.59546881031199
 31
0.0
  0
LWPOLYLINE
  5
D4
330
A
100
AcDbEntity
  8
0
  6
Continuous
 62
     7
100
AcDbPolyline
 90
        3
 70
   128
 43
0.0
 10
73.91557820931324
 20
63.53770769102866
 10
73.93811609973699
 20
63.81424212338431
 10
73.84999999999997
 20
64.16476708643202
  0
LWPOLYLINE
  5
D9
330
A
100
AcDbEntity
  8
0
  6
Continuous
 62
     7
100
AcDbPolyline
 90
        3
 70
   128
 43
0.0
 10
65.84999999999998
 20
64.16663650639479
 10
65.75476005631891
 20
63.71556177335283
 10
65.77600909111416
 20
63.51783690940194
  0
ARC
  5
DE
330
A
100
AcDbEntity
  8
0
  6
Continuous
 62
     7
100
AcDbCircle
 10
-13.65000000000002
 20
-18.03194818765752
 30
0.0
 40
1.500000000000001
100
AcDbArc
 50
90.0
 51
180.0000000000004
  0
ARC
  5
DF
330
A
100
AcDbEntity
  8
0
  6
Continuous
 62
     7
100
AcDbCircle
 10
153.35
 20
-18.03194818765752
 30
0.0
 40
1.5
100
AcDbArc
 50
0.0
 51
90.0
  0
ARC
  5
E0
330
A
100
AcDbEntity
  8
0
  6
Continuous
 62
     7
100
AcDbCircle
 10
-14.15000000000002
 20
-27.03194818765753
 30
0.0
 40
1.000000000000003
100
AcDbArc
 50
180.0000000000004
 51
270.0000000000008
  0
ARC
  5
E1
330
A
100
AcDbEntity
  8
0
  6
Continuous
 62
     7
100
AcDbCircle
 10
153.85
 20
-27.03194818765753
 30
0.0
 40
1.000000000000003
100
AcDbArc
 50
270.0000000000008
 51
0.0
  0
LINE
  5
E2
330
A
100
AcDbEntity
  8
0
  6
Continuous
 62
     7
100
AcDbLine
 10
154.85
 20
-27.03194818765753
 30
0.0
 11
154.85
 21
-18.03194818765752
 31
0.0
  0
LINE
  5
E3
330
A
100
AcDbEntity
  8
0
  6
Continuous
 62
     7
100
AcDbLine
 10
-15.15000000000002
 20
-18.03194818765752
 30
0.0
 11
-15.15000000000002
 21
-27.03194818765753
 31
0.0
  0
LINE
  5
E4
330
A
100
AcDbEntity
  8
0
  6
Continuous
 62
     7
100
AcDbLine
 10
47.35
 20
-30.53194818765753
 30
0.0
 11
47.35
 21
-28.03194818765753
 31
0.0
  0
LINE
  5
E5
330
A
100
AcDbEntity
  8
0
  6
Continuous
 62
     7
100
AcDbLine
 10
27.35
 20
-28.03194818765753
 30
0.0
 11
27.35
 21
-30.53194818765753
 31
0.0
  0
LINE
  5
E6
330
A
100
AcDbEntity
  8
0
  6
Continuous
 62
     7
100
AcDbLine
 10
112.35
 20
-30.53194818765753
 30
0.0
 11
112.35
 21
-28.03194818765753
 31
0.0
  0
LINE
  5
E7
330
A
100
AcDbEntity
  8
0
  6
Continuous
 62
     7
100
AcDbLine
 10
92.34999999999999
 20
-28.03194818765753
 30
0.0
 11
92.34999999999999
 21
-30.53194818765753
 31
0.0
  0
LINE
  5
E8
330
A
100
AcDbEntity
  8
0
  6
Continuous
 62
     7
100
AcDbLine
 10
144.8499999999999
 20
-30.53194818765753
 30
0.0
 11
144.8499999999999
 21
-28.03194818765753
 31
0.0
  0
LINE
  5
E9
330
A
100
AcDbEntity
  8
0
  6
Continuous
 62
     7
100
AcDbLine
 10
124.85
 20
-28.03194818765753
 30
0.0
 11
124.85
 21
-30.53194818765753
 31
0.0
  0
LINE
  5
EA
330
A
100
AcDbEntity
  8
0
  6
Continuous
 62
     7
100
AcDbLine
 10
14.84999999999998
 20
-30.53194818765753
 30
0.0
 11
14.84999999999998
 21
-28.03194818765753
 31
0.0
  0
LINE
  5
EB
330
A
100
AcDbEntity
  8
0
  6
Continuous
 62
     7
100
AcDbLine
 10
-5.149999999999987
 20
-28.03194818765753
 30
0.0
 11
-5.149999999999987
 21
-30.53194818765753
 31
0.0
  0
ARC
  5
EC
330
A
100
AcDbEntity
  8
0
  6
Continuous
 62
     7
100
AcDbCircle
 10
53.13881791054893
 20
-14.53194818765752
 30
0.0
 40
2.000000000000001
100
AcDbArc
 50
270.0000000000008
 51
351.0999999999996
  0
ARC
  5
ED
330
A
100
AcDbEntity
  8
0
  6
Continuous
 62
     7
100
AcDbCircle
 10
86.56118208945107
 20
-14.53194818765752
 30
0.0
 40
2.000000000000006
100
AcDbArc
 50
188.9000000000016
 51
270.0000000000008
  0
LINE
  5
EE
330
A
100
AcDbEntity
  8
0
  6
Continuous
 62
     7
100
AcDbLine
 10
84.58526235791229
 20
-14.84136896025648
 30
0.0
 11
80.28449419091446
 21
12.62276219864194
 31
0.0
  0
LINE
  5
EF
330
A
100
AcDbEntity
  8
0
  6
Continuous
 62
     7
100
AcDbLine
 10
59.41550580908554
 20
12.62276219864194
 30
0.0
 11
55.11473764208769
 21
-14.84136896025648
 31
0.0
  0
ARC
  5
F0
330
A
100
AcDbEntity
  8
0
  6
Continuous
 62
     7
100
AcDbCircle
 10
60.40346567485492
 20
12.46805181234245
 30
0.0
 40
1.000000000000005
100
AcDbArc
 50
90.0
 51
171.0999999999986
  0
ARC
  5
F1
330
A
100
AcDbEntity
  8
0
  6
Continuous
 62
     7
100
AcDbCircle
 10
79.29653432514506
 20
12.46805181234245
 30
0.0
 40
1.000000000000012
100
AcDbArc
 50
8.900000000001362
 51
90.0
  0
ARC
  5
F2
330
A
100
AcDbEntity
  8
0
  6
Continuous
 62
     7
100
AcDbCircle
 10
69.84999999999999
 20
310.2085758123449
 30
0.0
 40
20.00000000000003
100
AcDbArc
 50
193.4819435855437
 51
346.5180564144593
  0
LWPOLYLINE
  5
F3
330
A
100
AcDbEntity
  8
0
  6
Continuous
 62
     7
100
AcDbPolyline
 90
        6
 70
   128
 43
0.0
 10
60.01902431835853
 20
265.0908670224676
 10
59.63779711198885
 20
265.0289503872127
 10
59.31460829195572
 20
264.9133267114087
 10
59.09866042639524
 20
264.7615986515658
 10
59.02282962026671
 20
264.5968654293765
 10
59.02361449591967
 20
264.5804696242468
  0
LWPOLYLINE
  5
FB
330
A
100
AcDbEntity
  8
0
  6
Continuous
 62
     7
100
AcDbPolyline
 90
        5
 70
   128
 43
0.0
 10
61.01443414079738
 20
264.771877935376
 10
60.93938821032182
 20
264.9081413750137
 10
60.72344034476133
 20
265.0254856562031
 10
60.4002515247282
 20
265.0896503707318
 10
60.01902431835853
 20
265.0908670224676
  0
LWPOLYLINE
  5
102
330
A
100
AcDbEntity
  8
0
  6
Continuous
 62
     7
100
AcDbPolyline
 90
        6
 70
   128
 43
0.0
 10
79.68097568164367
 20
265.0908670224676
 10
80.06220288801335
 20
265.0289503872127
 10
80.38539170804646
 20
264.9133267114087
 10
80.60133957360696
 20
264.7615986515658
 10
80.67717037973547
 20
264.5968654293765
 10
80.67638550408252
 20
264.5804696242468
  0
LWPOLYLINE
  5
10A
330
A
100
AcDbEntity
  8
0
  6
Continuous
 62
     7
100
AcDbPolyline
 90
        5
 70
   128
 43
0.0
 10
78.6855658592048
 20
264.771877935376
 10
78.76061178968038
 20
264.9081413750137
 10
78.97655965524086
 20
265.0254856562031
 10
79.299748475274
 20
265.0896503707318
 10
79.68097568164367
 20
265.0908670224676
  0
LWPOLYLINE
  5
111
330
A
100
AcDbEntity
  8
0
  6
Continuous
 62
     7
100
AcDbPolyline
 90
        3
 70
   128
 43
0.0
 10
69.85000000000109
 20
262.047008449137
 10
74.21531135288347
 20
262.1199596395952
 10
78.45093926047863
 20
262.3315489904146
  0
LWPOLYLINE
  5
116
330
A
100
AcDbEntity
  8
0
  6
Continuous
 62
     7
100
AcDbPolyline
 90
       75
 70
   128
 43
0.0
 10
80.47469216454903
 20
262.4826763768409
 10
82.83287478760115
 20
262.7007335328199
 10
87.02923866373103
 20
263.2047896940275
 10
91.11418858491024
 20
263.8472395805012
 10
95.06123208337562
 20
264.6239166581988
 10
98.84477106743442
 20
265.529783878236
 10
102.4402678349116
 20
266.558966344081
 10
105.8244042095644
 20
267.7047894125129
 10
108.9752327684031
 20
268.9598219812445
 10
111.8723191791515
 20
270.315924682472
 10
114.4968747247321
 20
271.7643026697984
 10
116.831878155307
 20
273.2955626561875
 10
118.8621860776145
 20
274.8997738330348
 10
120.574631165685
 20
276.566532275272
 10
121.9581075560032
 20
278.2850284148133
 10
123.0036428732943
 20
280.0441171447525
 10
123.7044564198207
 20
281.8323900996581
 10
124.0560031508089
 20
283.6382496432008
 10
124.0560031508089
 20
285.4499840832751
 10
123.7044564198207
 20
287.2558436268178
 10
123.0036428732943
 20
289.0441165817234
 10
121.9581075560032
 20
290.8032053116626
 10
120.574631165685
 20
292.5217014512039
 10
118.8621860776145
 20
294.1884598934411
 10
116.831878155307
 20
295.7926710702884
 10
114.4968747247321
 20
297.3239310566776
 10
111.8723191791515
 20
298.7723090440039
 10
108.9752327684031
 20
300.1284117452314
 10
105.8244042095643
 20
301.383444313963
 10
102.4402678349115
 20
302.5292673823949
 10
98.84477106743437
 20
303.5584498482399
 10
95.06123208337559
 20
304.464317068277
 10
91.11418858491019
 20
305.2409941459746
 10
87.02923866373096
 20
305.8834440324483
 10
82.8328747876011
 20
306.3875001936559
 10
78.55231198653456
 20
306.7498936319698
 10
74.21531135288343
 20
306.9682740868806
 10
69.85000000000105
 20
307.0412252773387
 10
65.48468864711866
 20
306.9682740868805
 10
61.14768801346754
 20
306.7498936319697
 10
56.86712521240102
 20
306.3875001936559
 10
52.67076133627114
 20
305.8834440324482
 10
48.58581141509195
 20
305.2409941459745
 10
44.63876791662658
 20
304.4643170682769
 10
40.85522893256782
 20
303.5584498482397
 10
37.25973216509068
 20
302.5292673823947
 10
33.87559579043792
 20
301.3834443139627
 10
30.72476723159913
 20
300.1284117452311
 10
27.82768082085082
 20
298.7723090440036
 10
25.20312527527025
 20
297.3239310566773
 10
22.86812184469533
 20
295.7926710702881
 10
20.83781392238791
 20
294.1884598934408
 10
19.12536883431742
 20
292.5217014512036
 10
17.74189244399925
 20
290.8032053116623
 10
16.69635712670821
 20
289.0441165817231
 10
15.99554358018183
 20
287.2558436268175
 10
15.64399684919363
 20
285.4499840832748
 10
15.64399684919367
 20
283.6382496432004
 10
15.99554358018192
 20
281.8323900996578
 10
16.69635712670836
 20
280.0441171447523
 10
17.74189244399948
 20
278.285028414813
 10
19.12536883431771
 20
276.5665322752717
 10
20.83781392238826
 20
274.8997738330345
 10
22.86812184469574
 20
273.2955626561873
 10
25.20312527527071
 20
271.7643026697981
 10
27.82768082085135
 20
270.3159246824718
 10
30.72476723159971
 20
268.9598219812444
 10
33.87559579043854
 20
267.7047894125128
 10
37.25973216509136
 20
266.5589663440808
 10
40.85522893256852
 20
265.5297838782358
 10
44.63876791662731
 20
264.6239166581986
 10
48.58581141509271
 20
263.847239580501
 10
52.67076133627192
 20
263.2047896940274
 10
56.86712521240181
 20
262.7007335328199
 10
59.22530783545318
 20
262.4826763768409
  0
LWPOLYLINE
  5
163
330
A
100
AcDbEntity
  8
0
  6
Continuous
 62
     7
100
AcDbPolyline
 90
        3
 70
   128
 43
0.0
 10
61.24906073952355
 20
262.3315489904146
 10
65.48468864711947
 20
262.1199596395953
 10
69.85000000000109
 20
262.047008449137
  0
LWPOLYLINE
  5
168
330
A
100
AcDbEntity
  8
0
  6
Continuous
 62
     7
100
AcDbPolyline
 90
        7
 70
   128
 43
0.0
 10
87.7915718497165
 20
351.0873899892965
 10
88.4438507163397
 20
350.8026410721547
 10
90.32516715191167
 20
349.8411560710959
 10
91.91905712279071
 20
348.794146554252
 10
93.20314590763564
 20
347.6763102401662
 10
94.15940771466452
 20
346.5033391003608
 10
94.4935457666812
 20
345.9338980313285
  0
LWPOLYLINE
  5
171
330
A
100
AcDbEntity
  8
0
  6
Continuous
 62
     7
100
AcDbPolyline
 90
        7
 70
   128
 43
0.0
 10
45.20645423332114
 20
345.9338980313284
 10
45.54059228533796
 20
346.5033391003609
 10
46.49685409236691
 20
347.6763102401664
 10
47.78094287721187
 20
348.7941465542522
 10
49.37483284809098
 20
349.8411560710961
 10
51.25614928366299
 20
350.8026410721548
 10
52.99554672462527
 20
351.5179715903667
  0
LINE
  5
17A
330
A
100
AcDbEntity
  8
0
  6
Continuous
 62
     7
100
AcDbLine
 10
66.94526249034445
 20
82.46805181234247
 30
0.0
 11
72.75473750965557
 21
82.46805181234247
 31
0.0
  0
LINE
  5
17B
330
A
100
AcDbEntity
  8
0
  6
Continuous
 62
     7
100
AcDbLine
 10
78.84999999999998
 20
48.46805181234246
 30
0.0
 11
78.84999999999998
 21
28.46805181234247
 31
0.0
  0
LINE
  5
17C
330
A
100
AcDbEntity
  8
0
  6
Continuous
 62
     7
100
AcDbLine
 10
83.84999999999998
 20
48.46805181234246
 30
0.0
 11
83.84999999999998
 21
28.46805181234247
 31
0.0
  0
LINE
  5
17D
330
A
100
AcDbEntity
  8
0
  6
Continuous
 62
     7
100
AcDbLine
 10
65.00877081724071
 20
82.46805181234247
 30
0.0
 11
66.94526249034445
 21
82.46805181234247
 31
0.0
  0
LINE
  5
17E
330
A
100
AcDbEntity
  8
0
  6
Continuous
 62
     7
100
AcDbLine
 10
72.75473750965557
 20
82.46805181234247
 30
0.0
 11
74.69122918275925
 21
82.46805181234247
 31
0.0
  0
LINE
  5
17F
330
A
100
AcDbEntity
  8
0
  6
Continuous
 62
     7
100
AcDbLine
 10
63.84999999999998
 20
46.66805181234248
 30
0.0
 11
63.84999999999998
 21
30.26805181234249
 31
0.0
  0
LINE
  5
180
330
A
100
AcDbEntity
  8
0
  6
Continuous
 62
     7
100
AcDbLine
 10
75.84999999999997
 20
46.66805181234248
 30
0.0
 11
75.84999999999997
 21
30.26805181234249
 31
0.0
  0
LINE
  5
181
330
A
100
AcDbEntity
  8
0
  6
Continuous
 62
     7
100
AcDbLine
 10
73.8883133106438
 20
31.82591618861153
 30
0.0
 11
73.90412777075216
 21
31.40186511486795
 31
0.0
  0
LINE
  5
182
330
A
100
AcDbEntity
  8
0
  6
Continuous
 62
     7
100
AcDbLine
 10
65.77829707749479
 20
31.38832615032425
 30
0.0
 11
65.81168668935619
 21
31.82591618861153
 31
0.0
  0
LWPOLYLINE
  5
183
330
A
100
AcDbEntity
  8
0
  6
Continuous
 62
     7
100
AcDbPolyline
 90
       11
 70
   128
 43
0.0
 10
73.8883133106438
 20
31.82591618861153
 10
73.27858785284155
 20
33.18640045575449
 10
72.26659436471954
 20
34.4536997702665
 10
71.28240011046108
 20
35.20507576071846
 10
70.4094766331934
 20
35.54438516896799
 10
69.45622197714449
 20
35.57512299430224
 10
68.67530895538647
 20
35.33643230141625
 10
67.66820440766522
 20
34.67034076401021
 10
66.59384299016214
 20
33.45015776919594
 10
65.92983778699762
 20
32.20640561578914
 10
65.81168668935619
 20
31.82591618861153
  0
LWPOLYLINE
  5
190
330
A
100
AcDbEntity
  8
0
  6
Continuous
 62
     7
100
AcDbPolyline
 90
       12
 70
   128
 43
0.0
 10
73.79788319780789
 20
46.64275745706365
 10
73.80383343149431
 20
46.64563084308269
 10
73.44593668333949
 20
46.47871724229188
 10
72.74191288521868
 20
46.18836010513064
 10
71.66195173125449
 20
45.85203238357883
 10
70.32035566451849
 20
45.6417004273183
 10
69.84999999999999
 20
45.62626387961176
 10
68.61851164687222
 20
45.73142317582715
 10
67.52908468837684
 20
45.99311977773167
 10
66.60524748312397
 20
46.32734051398545
 10
65.99708358976091
 20
46.59731776101764
 10
65.88354718082432
 20
46.65187812100492
  0
LINE
  5
19E
330
A
100
AcDbEntity
  8
0
  6
Continuous
 62
     7
100
AcDbLine
 10
74.69122918275925
 20
82.46805181234247
 30
0.0
 11
74.84999999999998
 21
82.46805181234247
 31
0.0
  0
LINE
  5
19F
330
A
100
AcDbEntity
  8
0
  6
Continuous
 62
     7
100
AcDbLine
 10
64.84999999999998
 20
82.46805181234247
 30
0.0
 11
65.00877081724071
 21
82.46805181234247
 31
0.0
  0
LINE
  5
1A0
330
A
100
AcDbEntity
  8
0
  6
Continuous
 62
     7
100
AcDbLine
 10
65.7499999999999
 20
62.13100271624472
 30
0.0
 11
65.84999999999991
 21
61.4946066131768
 31
0.0
  0
LINE
  5
1A1
330
A
100
AcDbEntity
  8
0
  6
Continuous
 62
     7
100
AcDbLine
 10
73.8499999999999
 20
61.4946066131768
 30
0.0
 11
73.9499999999999
 21
62.13100271624472
 31
0.0
  0
LWPOLYLINE
  5
1A2
330
A
100
AcDbEntity
  8
0
  6
Continuous
 62
     7
100
AcDbPolyline
 90
        3
 70
   128
 43
0.0
 10
73.9499999999999
 20
62.13100271624472
 10
73.92250233381711
 20
62.43413587422233
 10
73.84999999999997
 20
62.60026693924332
  0
LWPOLYLINE
  5
1A7
330
A
100
AcDbEntity
  8
0
  6
Continuous
 62
     7
100
AcDbPolyline
 90
        3
 70
   128
 43
0.0
 10
73.8499999999999
 20
59.27791184745314
 10
73.92569279520085
 20
58.93902100439338
 10
73.94999999999992
 20
58.59546881031199
  0
LWPOLYLINE
  5
1AC
330
A
100
AcDbEntity
  8
0
  6
Continuous
 62
     7
100
AcDbPolyline
 90
        3
 70
   128
 43
0.0
 10
65.74999999999992
 20
58.59546881031199
 10
65.78189080736887
 20
58.99359242874369
 10
65.84999999999992
 20
59.30473720513265
  0
LWPOLYLINE
  5
1B1
330
A
100
AcDbEntity
  8
0
  6
Continuous
 62
     7
100
AcDbPolyline
 90
        3
 70
   128
 43
0.0
 10
65.84999999999991
 20
62.56974059115169
 10
65.77045138029768
 20
62.39639331903569
 10
65.7499999999999
 20
62.13100271624472
  0
LINE
  5
1B6
330
A
100
AcDbEntity
  8
0
  6
Continuous
 62
     7
100
AcDbLine
 10
69.84999999999999
 20
-16.53194818765752
 30
0.0
 11
153.35
 21
-16.53194818765752
 31
0.0
  0
LINE
  5
1B7
330
A
100
AcDbEntity
  8
0
  6
Continuous
 62
     7
100
AcDbLine
 10
-13.65000000000002
 20
-16.53194818765752
 30
0.0
 11
69.84999999999999
 21
-16.53194818765752
 31
0.0
  0
LINE
  5
1B8
330
A
100
AcDbEntity
  8
0
  6
Continuous
 62
     7
100
AcDbLine
 10
69.84999999999999
 20
-28.03194818765753
 30
0.0
 11
-14.15000000000002
 21
-28.03194818765753
 31
0.0
  0
LINE
  5
1B9
330
A
100
AcDbEntity
  8
0
  6
Continuous
 62
     7
100
AcDbLine
 10
153.85
 20
-28.03194818765753
 30
0.0
 11
69.84999999999999
 21
-28.03194818765753
 31
0.0
  0
LINE
  5
1BA
330
A
100
AcDbEntity
  8
0
  6
Continuous
 62
     7
100
AcDbLine
 10
37.35
 20
-30.53194818765753
 30
0.0
 11
47.35
 21
-30.53194818765753
 31
0.0
  0
LINE
  5
1BB
330
A
100
AcDbEntity
  8
0
  6
Continuous
 62
     7
100
AcDbLine
 10
27.35
 20
-30.53194818765753
 30
0.0
 11
37.35
 21
-30.53194818765753
 31
0.0
  0
LINE
  5
1BC
330
A
100
AcDbEntity
  8
0
  6
Continuous
 62
     7
100
AcDbLine
 10
102.35
 20
-30.53194818765753
 30
0.0
 11
112.35
 21
-30.53194818765753
 31
0.0
  0
LINE
  5
1BD
330
A
100
AcDbEntity
  8
0
  6
Continuous
 62
     7
100
AcDbLine
 10
92.34999999999999
 20
-30.53194818765753
 30
0.0
 11
102.35
 21
-30.53194818765753
 31
0.0
  0
LINE
  5
1BE
330
A
100
AcDbEntity
  8
0
  6
Continuous
 62
     7
100
AcDbLine
 10
134.85
 20
-30.53194818765753
 30
0.0
 11
144.8499999999999
 21
-30.53194818765753
 31
0.0
  0
LINE
  5
1BF
330
A
100
AcDbEntity
  8
0
  6
Continuous
 62
     7
100
AcDbLine
 10
124.85
 20
-30.53194818765753
 30
0.0
 11
134.85
 21
-30.53194818765753
 31
0.0
  0
LINE
  5
1C0
330
A
100
AcDbEntity
  8
0
  6
Continuous
 62
     7
100
AcDbLine
 10
4.849999999999993
 20
-30.53194818765753
 30
0.0
 11
14.84999999999998
 21
-30.53194818765753
 31
0.0
  0
LINE
  5
1C1
330
A
100
AcDbEntity
  8
0
  6
Continuous
 62
     7
100
AcDbLine
 10
-5.149999999999987
 20
-30.53194818765753
 30
0.0
 11
4.849999999999993
 21
-30.53194818765753
 31
0.0
  0
LINE
  5
1C2
330
A
100
AcDbEntity
  8
0
  6
Continuous
 62
     7
100
AcDbLine
 10
69.84999999999999
 20
13.46805181234245
 30
0.0
 11
79.29653432514506
 21
13.46805181234245
 31
0.0
  0
LINE
  5
1C3
330
A
100
AcDbEntity
  8
0
  6
Continuous
 62
     7
100
AcDbLine
 10
60.40346567485492
 20
13.46805181234245
 30
0.0
 11
69.84999999999999
 21
13.46805181234245
 31
0.0
  0
LWPOLYLINE
  5
1C4
330
A
100
AcDbEntity
  8
0
  6
PHANTOM
 62
     7
100
AcDbPolyline
 90
        6
 70
   128
 43
0.0
 10
64.86902650954245
 20
214.6464553720835
 10
64.48779930317276
 20
214.5845387368285
 10
64.16461048313964
 20
214.4689150610245
 10
63.94866261757916
 20
214.3171870011816
 10
63.87283181145063
 20
214.1524537789924
 10
63.87361306381858
 20
214.1360957032842
  0
LWPOLYLINE
  5
1CC
330
A
100
AcDbEntity
  8
0
  6
PHANTOM
 62
     7
100
AcDbPolyline
 90
        5
 70
   128
 43
0.0
 10
65.86390623360796
 20
214.332266061021
 10
65.78939040150574
 20
214.4637297246295
 10
65.57344253594525
 20
214.5810740058189
 10
65.25025371591211
 20
214.6452387203477
 10
64.86902650954245
 20
214.6464553720835
  0
LWPOLYLINE
  5
1D3
330
A
100
AcDbEntity
  8
0
  6
PHANTOM
 62
     7
100
AcDbPolyline
 90
        6
 70
   128
 43
0.0
 10
74.83097349045991
 20
214.6464553720836
 10
75.2122006968296
 20
214.5845387368285
 10
75.53538951686272
 20
214.4689150610246
 10
75.7513373824232
 20
214.3171870011816
 10
75.82716818855172
 20
214.1524537789925
 10
75.82638713066818
 20
214.136097730952
  0
LWPOLYLINE
  5
1DB
330
A
100
AcDbEntity
  8
0
  6
PHANTOM
 62
     7
100
AcDbPolyline
 90
        5
 70
   128
 43
0.0
 10
73.83610602041272
 20
214.3323640362463
 10
73.91060959849665
 20
214.4637297246296
 10
74.12655746405713
 20
214.581074005819
 10
74.44974628409027
 20
214.6452387203478
 10
74.83097349045991
 20
214.6464553720836
  0
LWPOLYLINE
  5
1E2
330
A
100
AcDbEntity
  8
0
  6
PHANTOM
 62
     7
100
AcDbPolyline
 90
        8
 70
   128
 43
0.0
 10
69.85000000000124
 20
354.1992389519406
 10
72.83055637544157
 20
354.1258877287422
 10
75.76927227283086
 20
353.9068637495329
 10
78.62489456271449
 20
353.5452416308743
 10
81.35733656774368
 20
353.0460977546268
 10
83.92824079175465
 20
352.416439006676
 10
86.30151737493378
 20
351.6651044156145
 10
87.7915718497165
 20
351.0873899892965
  0
LWPOLYLINE
  5
1EC
330
A
100
AcDbEntity
  8
0
  6
PHANTOM
 62
     7
100
AcDbPolyline
 90
        8
 70
   128
 43
0.0
 10
52.99554672462527
 20
351.5179715903667
 10
53.39848262506895
 20
351.6651044156146
 10
55.77175920824813
 20
352.4164390066762
 10
58.34266343225911
 20
353.0460977546268
 10
61.07510543728834
 20
353.5452416308743
 10
63.93072772717196
 20
353.9068637495329
 10
66.86944362456127
 20
354.1258877287422
 10
69.85000000000124
 20
354.1992389519406
  0
LINE
  5
1F6
330
A
100
AcDbEntity
  8
0
  6
PHANTOM
 62
     7
100
AcDbLine
 10
66.94526249034445
 20
261.9373042541805
 30
0.0
 11
66.94526249034445
 21
212.2254509355923
 31
0.0
  0
LINE
  5
1F7
330
A
100
AcDbEntity
  8
0
  6
PHANTOM
 62
     7
100
AcDbLine
 10
66.94526249034445
 20
209.8082401575991
 30
0.0
 11
66.94526249034445
 21
82.46805181234247
 31
0.0
  0
LINE
  5
1F8
330
A
100
AcDbEntity
  8
0
  6
PHANTOM
 62
     7
100
AcDbLine
 10
72.75473750965557
 20
261.9320999644013
 30
0.0
 11
72.75473750965557
 21
212.2064477177821
 31
0.0
  0
LINE
  5
1F9
330
A
100
AcDbEntity
  8
0
  6
PHANTOM
 62
     7
100
AcDbLine
 10
72.75473750965557
 20
209.7828622467329
 30
0.0
 11
72.75473750965557
 21
82.46805181234247
 31
0.0
  0
LINE
  5
1FA
330
A
100
AcDbEntity
  8
0
  6
PHANTOM
 62
     7
100
AcDbLine
 10
65.00877081724071
 20
261.9814910019099
 30
0.0
 11
65.00877081724071
 21
223.2271619467944
 31
0.0
  0
LINE
  5
1FB
330
A
100
AcDbEntity
  8
0
  6
PHANTOM
 62
     7
100
AcDbLine
 10
65.00877081724071
 20
211.3930765418313
 30
0.0
 11
65.00877081724071
 21
82.46805181234247
 31
0.0
  0
LINE
  5
1FC
330
A
100
AcDbEntity
  8
0
  6
PHANTOM
 62
     7
100
AcDbLine
 10
74.69122918275925
 20
261.990757740595
 30
0.0
 11
74.69122918275925
 21
223.2271619467698
 31
0.0
  0
LINE
  5
1FD
330
A
100
AcDbEntity
  8
0
  6
PHANTOM
 62
     7
100
AcDbLine
 10
74.69122918275925
 20
211.3626771932159
 30
0.0
 11
74.69122918275925
 21
82.46805181234247
 31
0.0
  0
LINE
  5
1FE
330
A
100
AcDbEntity
  8
0
  6
PHANTOM
 62
     7
100
AcDbLine
 10
65.81168668935619
 20
31.82591618861153
 30
0.0
 11
73.8883133106438
 21
31.82591618861153
 31
0.0
  0
LWPOLYLINE
  5
1FF
330
A
100
AcDbEntity
  8
0
  6
PHANTOM
 62
     7
100
AcDbPolyline
 90
        3
 70
   128
 43
0.0
 10
65.84999999999998
 20
64.18161238168595
 10
65.75446655083391
 20
63.68050442806663
 10
65.7499999999999
 20
63.54521627861778
  0
LWPOLYLINE
  5
204
330
A
100
AcDbEntity
  8
0
  6
PHANTOM
 62
     7
100
AcDbPolyline
 90
        3
 70
   128
 43
0.0
 10
73.9499999999999
 20
63.54521627861781
 10
73.94553344916589
 20
63.68050442806667
 10
73.84999999999997
 20
64.18161238168544
  0
LINE
  5
209
330
A
100
AcDbEntity
  8
0
  6
PHANTOM
 62
     7
100
AcDbLine
 10
65.7499999999999
 20
62.13100271624472
 30
0.0
 11
65.84999999999992
 21
62.13100271624472
 31
0.0
  0
LINE
  5
20A
330
A
100
AcDbEntity
  8
0
  6
PHANTOM
 62
     7
100
AcDbLine
 10
73.8499999999999
 20
62.13100271624472
 30
0.0
 11
73.9499999999999
 21
62.13100271624472
 31
0.0
  0
LINE
  5
20B
330
A
100
AcDbEntity
  8
0
  6
PHANTOM
 62
     7
100
AcDbLine
 10
69.84999999999999
 20
-18.03194818765752
 30
0.0
 11
-15.15000000000002
 21
-18.03194818765752
 31
0.0
  0
LINE
  5
20C
330
A
100
AcDbEntity
  8
0
  6
PHANTOM
 62
     7
100
AcDbLine
 10
154.85
 20
-18.03194818765752
 30
0.0
 11
69.84999999999999
 21
-18.03194818765752
 31
0.0
  0
LINE
  5
20D
330
A
100
AcDbEntity
  8
0
  6
PHANTOM
 62
     7
100
AcDbLine
 10
69.84999999999999
 20
-27.03194818765753
 30
0.0
 11
154.85
 21
-27.03194818765753
 31
0.0
  0
LINE
  5
20E
330
A
100
AcDbEntity
  8
0
  6
PHANTOM
 62
     7
100
AcDbLine
 10
-15.15000000000002
 20
-27.03194818765753
 30
0.0
 11
69.84999999999999
 21
-27.03194818765753
 31
0.0
  0
LINE
  5
20F
330
A
100
AcDbEntity
  8
0
  6
PHANTOM
 62
     7
100
AcDbLine
 10
69.84999999999999
 20
-14.84136896025648
 30
0.0
 11
84.58526235791227
 21
-14.84136896025648
 31
0.0
  0
LINE
  5
210
330
A
100
AcDbEntity
  8
0
  6
PHANTOM
 62
     7
100
AcDbLine
 10
55.11473764208771
 20
-14.84136896025648
 30
0.0
 11
69.84999999999999
 21
-14.84136896025648
 31
0.0
  0
LINE
  5
211
330
A
100
AcDbEntity
  8
0
  6
PHANTOM
 62
     7
100
AcDbLine
 10
80.28449419091446
 20
12.62276219864194
 30
0.0
 11
59.41550580908554
 21
12.62276219864194
 31
0.0
  0
LINE
  5
212
330
A
100
AcDbEntity
  8
0
  6
Continuous
 62
     7
100
AcDbLine
 10
65.84999999999999
 20
-227.9049247710092
 30
0.0
 11
66.34999999999995
 21
-227.9049247710092
 31
0.0
  0
LINE
  5
213
330
A
100
AcDbEntity
  8
0
  6
Continuous
 62
     7
100
AcDbLine
 10
73.34999999999995
 20
-227.9049247710091
 30
0.0
 11
73.84999999999998
 21
-227.9049247710091
 31
0.0
  0
LINE
  5
214
330
A
100
AcDbEntity
  8
0
  6
Continuous
 62
     7
100
AcDbLine
 10
73.84999999999997
 20
-223.0049247710091
 30
0.0
 11
73.34999999999992
 21
-223.0049247710091
 31
0.0
  0
LINE
  5
215
330
A
100
AcDbEntity
  8
0
  6
Continuous
 62
     7
100
AcDbLine
 10
66.34999999999994
 20
-223.0049247710091
 30
0.0
 11
65.84999999999997
 21
-223.0049247710091
 31
0.0
  0
LINE
  5
216
330
A
100
AcDbEntity
  8
0
  6
Continuous
 62
     7
100
AcDbLine
 10
42.85000000000102
 20
-522.3752349877921
 30
0.0
 11
53.35000000000103
 21
-522.3752349877921
 31
0.0
  0
LINE
  5
217
330
A
100
AcDbEntity
  8
0
  6
Continuous
 62
     7
100
AcDbLine
 10
86.35000000000101
 20
-522.3752349877919
 30
0.0
 11
96.85000000000101
 21
-522.3752349877919
 31
0.0
  0
LINE
  5
218
330
A
100
AcDbEntity
  8
0
  6
Continuous
 62
     7
100
AcDbLine
 10
96.85000000000099
 20
-512.3752349877919
 30
0.0
 11
94.85000000000098
 21
-512.3752349877919
 31
0.0
  0
LINE
  5
219
330
A
100
AcDbEntity
  8
0
  6
Continuous
 62
     7
100
AcDbLine
 10
91.85000000000099
 20
-512.3752349877919
 30
0.0
 11
86.35000000000095
 21
-512.3752349877919
 31
0.0
  0
LINE
  5
21A
330
A
100
AcDbEntity
  8
0
  6
Continuous
 62
     7
100
AcDbLine
 10
53.350000000001
 20
-512.3752349877921
 30
0.0
 11
47.85000000000098
 21
-512.3752349877921
 31
0.0
  0
LINE
  5
21B
330
A
100
AcDbEntity
  8
0
  6
Continuous
 62
     7
100
AcDbLine
 10
44.85000000000098
 20
-512.3752349877921
 30
0.0
 11
42.85000000000098
 21
-512.3752349877921
 31
0.0
  0
ARC
  5
21C
330
A
100
AcDbEntity
  8
0
  6
Continuous
 62
     7
100
AcDbCircle
 10
86.85000000000099
 20
-539.8752349877919
 30
0.0
 40
0.6249999999998864
100
AcDbArc
 50
270.0000000000047
 51
90.0
  0
ARC
  5
21D
330
A
100
AcDbEntity
  8
0
  6
Continuous
 62
     7
100
AcDbCircle
 10
52.85000000000117
 20
-539.875234987792
 30
0.0
 40
0.6249999999998864
100
AcDbArc
 50
90.0
 51
269.9999999999956
  0
LINE
  5
21E
330
A
100
AcDbEntity
  8
0
  6
Continuous
 62
     7
100
AcDbLine
 10
86.85000000000099
 20
-539.2502349877921
 30
0.0
 11
52.85000000000117
 21
-539.2502349877922
 31
0.0
  0
LINE
  5
21F
330
A
100
AcDbEntity
  8
0
  6
Continuous
 62
     7
100
AcDbLine
 10
86.85000000000103
 20
-546.2037395628696
 30
0.0
 11
86.85000000000103
 21
-540.5002349877918
 31
0.0
  0
LINE
  5
220
330
A
100
AcDbEntity
  8
0
  6
Continuous
 62
     7
100
AcDbLine
 10
52.85000000000112
 20
-540.5002349877919
 30
0.0
 11
52.85000000000117
 21
-546.2037395628698
 31
0.0
  0
LINE
  5
221
330
A
100
AcDbEntity
  8
0
  6
Continuous
 62
     7
100
AcDbLine
 10
86.35000000000102
 20
-524.8752349877919
 30
0.0
 11
86.35000000000101
 21
-522.3752349877919
 31
0.0
  0
LINE
  5
222
330
A
100
AcDbEntity
  8
0
  6
Continuous
 62
     7
100
AcDbLine
 10
86.35000000000095
 20
-512.3752349877919
 30
0.0
 11
86.35000000000093
 21
-509.8752349877919
 31
0.0
  0
LINE
  5
223
330
A
100
AcDbEntity
  8
0
  6
Continuous
 62
     7
100
AcDbLine
 10
53.35000000000099
 20
-509.875234987792
 30
0.0
 11
53.350000000001
 21
-512.3752349877921
 31
0.0
  0
LINE
  5
224
330
A
100
AcDbEntity
  8
0
  6
Continuous
 62
     7
100
AcDbLine
 10
53.35000000000103
 20
-522.3752349877921
 30
0.0
 11
53.35000000000103
 21
-524.875234987792
 31
0.0
  0
ARC
  5
225
330
A
100
AcDbEntity
  8
0
  6
Continuous
 62
     7
100
AcDbCircle
 10
77.35000000000088
 20
-497.1252349877921
 30
0.0
 40
6.0
100
AcDbArc
 50
0.0
 51
90.00000000000014
  0
ARC
  5
226
330
A
100
AcDbEntity
  8
0
  6
Continuous
 62
     7
100
AcDbCircle
 10
62.35000000000098
 20
-497.1252349877921
 30
0.0
 40
6.0
100
AcDbArc
 50
90.00000000000019
 51
180.0000000000004
  0
LINE
  5
227
330
A
100
AcDbEntity
  8
0
  6
Continuous
 62
     7
100
AcDbLine
 10
83.35000000000093
 20
-509.875234987792
 30
0.0
 11
83.35000000000087
 21
-497.1252349877921
 31
0.0
  0
LINE
  5
228
330
A
100
AcDbEntity
  8
0
  6
Continuous
 62
     7
100
AcDbLine
 10
56.35000000000099
 20
-497.1252349877921
 30
0.0
 11
56.35000000000101
 21
-509.8752349877921
 31
0.0
  0
LINE
  5
229
330
A
100
AcDbEntity
  8
0
  6
Continuous
 62
     7
100
AcDbLine
 10
83.35000000000098
 20
-539.2502349877921
 30
0.0
 11
83.35000000000091
 21
-524.8752349877919
 31
0.0
  0
LINE
  5
22A
330
A
100
AcDbEntity
  8
0
  6
Continuous
 62
     7
100
AcDbLine
 10
56.35000000000113
 20
-524.875234987792
 30
0.0
 11
56.35000000000117
 21
-539.2502349877924
 31
0.0
  0
LINE
  5
22B
330
A
100
AcDbEntity
  8
0
  6
Continuous
 62
     7
100
AcDbLine
 10
76.35000000000089
 20
-491.125234987792
 30
0.0
 11
76.35000000000087
 21
-481.125234987792
 31
0.0
  0
LINE
  5
22C
330
A
100
AcDbEntity
  8
0
  6
Continuous
 62
     7
100
AcDbLine
 10
63.35000000000089
 20
-481.125234987792
 30
0.0
 11
63.35000000000093
 21
-491.125234987792
 31
0.0
  0
LWPOLYLINE
  5
22D
330
A
100
AcDbEntity
  8
0
  6
Continuous
 62
     7
100
AcDbPolyline
 90
       40
 70
   128
 43
0.0
 10
69.85000000000145
 20
-642.6689849312425
 10
72.09028417564539
 20
-642.6280768790931
 10
76.28713558509216
 20
-642.3302525575628
 10
80.44851698329066
 20
-641.745427493326
 10
84.55019519622217
 20
-640.8768821183739
 10
88.56897138180267
 20
-639.7294726787784
 10
92.48210111871907
 20
-638.3096337309687
 10
96.26742180148209
 20
-636.6253469738166
 10
99.90347877359889
 20
-634.6861018932222
 10
103.3696494383748
 20
-632.5028479149477
 10
106.6462647829197
 20
-630.0879376245352
 10
109.7147275323917
 20
-627.4550605534211
 10
112.5576258654586
 20
-624.6191670520994
 10
115.1588412938047
 20
-621.5963819198163
 10
117.5036489909615
 20
-618.4039077746343
 10
119.578808629214
 20
-615.0599186427474
 10
121.372643744809
 20
-611.5834448937603
 10
122.87510789097
 20
-607.9942513646486
 10
124.0778364033711
 20
-604.3127111591549
 10
124.9741834652486
 20
-600.5596780093018
 10
125.5592451943206
 20
-596.7563600843464
 10
125.8298704708705
 20
-592.9241976462596
 10
125.7846619385098
 20
-589.0847460186261
 10
125.4239719073993
 20
-585.2595794347248
 10
124.7499104686678
 20
-581.4702419433667
 10
123.7663094819416
 20
-577.737968965794
 10
122.4786993265074
 20
-574.0836772615174
 10
120.8942850297204
 20
-570.5278630116975
 10
119.0219174743289
 20
-567.0904978819637
 10
116.8720575022256
 20
-563.7909224892869
 10
114.4567306929808
 20
-560.6477377975437
 10
111.7894710638489
 20
-557.6786959545836
 10
108.8852527345639
 20
-554.9005927205694
 10
105.7604095009316
 20
-552.329163850293
 10
102.4325430658661
 20
-549.9789876240924
 10
98.92042125580907
 20
-547.8633952916903
 10
95.24386785956711
 20
-545.9943906444014
 10
91.42364579053849
 20
-544.3825793894061
 10
87.48133515832684
 20
-543.0371085491385
 10
86.85000000000101
 20
-542.8697533516147
  0
LWPOLYLINE
  5
257
330
A
100
AcDbEntity
  8
0
  6
Continuous
 62
     7
100
AcDbPolyline
 90
       39
 70
   128
 43
0.0
 10
52.85000000000118
 20
-542.8849012753807
 10
50.3071090769078
 20
-543.6510125235962
 10
46.41877643018696
 20
-545.1266013708933
 10
42.66278084562855
 20
-546.8647857059706
 10
39.06041394849923
 20
-548.8557679426008
 10
35.63210977515383
 20
-551.0883016204714
 10
32.3973238773015
 20
-553.5497501067323
 10
29.37441599302144
 20
-556.2261548364009
 10
26.5805374196966
 20
-559.1023135517795
 10
24.03152455529554
 20
-562.1618688206122
 10
21.74180038046378
 20
-565.3874067608207
 10
19.72428584947081
 20
-568.7605653687838
 10
17.99032314534409
 20
-572.2621511771295
 10
16.54961244929917
 20
-575.8722622538661
 10
15.41016324212853
 20
-579.5704149469274
 10
14.57826024324634
 20
-583.3356714504064
 10
14.05844304645508
 20
-587.1467653676424
 10
13.85349755332151
 20
-590.9822230332211
 10
13.96445668121947
 20
-594.8204793630949
 10
14.39060198318659
 20
-598.639950788278
 10
15.12946216942641
 20
-602.4191519983864
 10
16.17685006957365
 20
-606.1369055450288
 10
17.5268846485517
 20
-609.77237375676
 10
19.17201574345359
 20
-613.3051609731916
 10
21.10305414500452
 20
-616.7154180095543
 10
23.30920926056148
 20
-619.9839492009072
 10
25.77813651992836
 20
-623.0923212747174
 10
28.49599613128704
 20
-626.0229723731485
 10
31.44752395763821
 20
-628.7593189959282
 10
34.61611438881814
 20
-631.2858585078226
 10
37.98391431858661
 20
-633.5882650887725
 10
41.53192681219492
 20
-635.6534774714902
 10
45.24012279569887
 20
-637.4697773679192
 10
49.08755907780609
 20
-639.0268580140622
 10
53.05250115738565
 20
-640.3158826882077
 10
57.11254949754212
 20
-641.3295333515826
 10
61.24476819613633
 20
-642.0620497287905
 10
65.42581521016966
 20
-642.5092592135662
 10
69.85000000000145
 20
-642.6689849312425
  0
LWPOLYLINE
  5
280
330
A
100
AcDbEntity
  8
0
  6
Continuous
 62
     7
100
AcDbPolyline
 90
        9
 70
   128
 43
0.0
 10
73.18799360665384
 20
-217.4010803896027
 10
72.6389802718797
 20
-216.8725779128164
 10
71.76567984820637
 20
-216.353440621433
 10
70.734251866687
 20
-216.0392754437971
 10
69.60088885231217
 20
-215.9658424520412
 10
68.45428294104687
 20
-216.162130424556
 10
67.37979723129358
 20
-216.6481439731821
 10
66.60366845697194
 20
-217.2961617455076
 10
66.51200639334603
 20
-217.4010803896028
  0
LINE
  5
28B
330
A
100
AcDbEntity
  8
0
  6
Continuous
 62
     7
100
AcDbLine
 10
68.35000000000002
 20
-237.7431498703999
 30
0.0
 11
69.25000000000003
 21
-237.7431498703999
 31
0.0
  0
LINE
  5
28C
330
A
100
AcDbEntity
  8
0
  6
Continuous
 62
     7
100
AcDbLine
 10
70.45000000000001
 20
-237.7431498703999
 30
0.0
 11
71.35000000000002
 21
-237.7431498703999
 31
0.0
  0
LINE
  5
28D
330
A
100
AcDbEntity
  8
0
  6
Continuous
 62
     7
100
AcDbLine
 10
70.45000000000077
 20
-456.6987684700346
 30
0.0
 11
70.45
 21
-235.7043282358755
 31
0.0
  0
LINE
  5
28E
330
A
100
AcDbEntity
  8
0
  6
Continuous
 62
     7
100
AcDbLine
 10
69.25000000000003
 20
-235.7043371514913
 30
0.0
 11
69.25000000000079
 21
-456.7064887871343
 31
0.0
  0
LINE
  5
28F
330
A
100
AcDbEntity
  8
0
  6
Continuous
 62
     7
100
AcDbLine
 10
69.87716667631883
 20
-466.875234987792
 30
0.0
 11
73.85000000000083
 21
-466.875234987792
 31
0.0
  0
LINE
  5
290
330
A
100
AcDbEntity
  8
0
  6
Continuous
 62
     7
100
AcDbLine
 10
65.85000000000082
 20
-466.875234987792
 30
0.0
 11
69.87716667631883
 21
-466.875234987792
 31
0.0
  0
LINE
  5
291
330
A
100
AcDbEntity
  8
0
  6
Continuous
 62
     7
100
AcDbLine
 10
69.25000000000078
 20
-452.875234987792
 30
0.0
 11
65.85000000000078
 21
-452.875234987792
 31
0.0
  0
LINE
  5
292
330
A
100
AcDbEntity
  8
0
  6
Continuous
 62
     7
100
AcDbLine
 10
73.85000000000077
 20
-452.875234987792
 30
0.0
 11
70.45000000000076
 21
-452.875234987792
 31
0.0
  0
LINE
  5
293
330
A
100
AcDbEntity
  8
0
  6
Continuous
 62
     7
100
AcDbLine
 10
74.85000000000008
 20
-257.375234987792
 30
0.0
 11
79.8500000000001
 21
-257.375234987792
 31
0.0
  0
LINE
  5
294
330
A
100
AcDbEntity
  8
0
  6
Continuous
 62
     7
100
AcDbLine
 10
79.85000000000002
 20
-237.375234987792
 30
0.0
 11
74.85000000000001
 21
-237.375234987792
 31
0.0
  0
LINE
  5
295
330
A
100
AcDbEntity
  8
0
  6
Continuous
 62
     7
100
AcDbLine
 10
73.35000000000004
 20
-252.375234987792
 30
0.0
 11
74.85000000000006
 21
-252.375234987792
 31
0.0
  0
LINE
  5
296
330
A
100
AcDbEntity
  8
0
  6
Continuous
 62
     7
100
AcDbLine
 10
74.85000000000003
 20
-242.375234987792
 30
0.0
 11
73.35
 21
-242.375234987792
 31
0.0
  0
LINE
  5
297
330
A
100
AcDbEntity
  8
0
  6
Continuous
 62
     7
100
AcDbLine
 10
64.85000000000008
 20
-252.3752349877921
 30
0.0
 11
66.35000000000004
 21
-252.375234987792
 31
0.0
  0
LINE
  5
298
330
A
100
AcDbEntity
  8
0
  6
Continuous
 62
     7
100
AcDbLine
 10
66.35000000000001
 20
-242.3752349877921
 30
0.0
 11
64.85000000000003
 21
-242.375234987792
 31
0.0
  0
LINE
  5
299
330
A
100
AcDbEntity
  8
0
  6
Continuous
 62
     7
100
AcDbLine
 10
64.85000000000015
 20
-272.3752349877921
 30
0.0
 11
64.85000000000077
 21
-452.3752349877921
 31
0.0
  0
LINE
  5
29A
330
A
100
AcDbEntity
  8
0
  6
Continuous
 62
     7
100
AcDbLine
 10
74.85000000000076
 20
-452.375234987792
 30
0.0
 11
74.85000000000013
 21
-272.3752349877921
 31
0.0
  0
LINE
  5
29B
330
A
100
AcDbEntity
  8
0
  6
Continuous
 62
     7
100
AcDbLine
 10
66.35000000000077
 20
-452.375234987792
 30
0.0
 11
66.35000000000077
 21
-452.875234987792
 31
0.0
  0
LINE
  5
29C
330
A
100
AcDbEntity
  8
0
  6
Continuous
 62
     7
100
AcDbLine
 10
73.35000000000078
 20
-452.875234987792
 30
0.0
 11
73.35000000000078
 21
-452.375234987792
 31
0.0
  0
LINE
  5
29D
330
A
100
AcDbEntity
  8
0
  6
Continuous
 62
     7
100
AcDbLine
 10
66.35000000000082
 20
-466.875234987792
 30
0.0
 11
66.35000000000082
 21
-468.3752349877919
 31
0.0
  0
LINE
  5
29E
330
A
100
AcDbEntity
  8
0
  6
Continuous
 62
     7
100
AcDbLine
 10
73.35000000000083
 20
-468.3752349877919
 30
0.0
 11
73.35000000000083
 21
-466.875234987792
 31
0.0
  0
LINE
  5
29F
330
A
100
AcDbEntity
  8
0
  6
Continuous
 62
     7
100
AcDbLine
 10
69.49595461427112
 20
-214.775234987792
 30
0.0
 11
66.3499999999999
 21
-214.775234987792
 31
0.0
  0
LINE
  5
2A0
330
A
100
AcDbEntity
  8
0
  6
Continuous
 62
     7
100
AcDbLine
 10
73.3499999999999
 20
-214.775234987792
 30
0.0
 11
70.21004855716812
 21
-214.775234987792
 31
0.0
  0
LINE
  5
2A1
330
A
100
AcDbEntity
  8
0
  6
Continuous
 62
     7
100
AcDbLine
 10
64.84999999999998
 20
-225.275234987792
 30
0.0
 11
65.84999999999998
 21
-225.275234987792
 31
0.0
  0
LINE
  5
2A2
330
A
100
AcDbEntity
  8
0
  6
Continuous
 62
     7
100
AcDbLine
 10
66.3499999999999
 20
-215.275234987792
 30
0.0
 11
64.84999999999994
 21
-215.275234987792
 31
0.0
  0
LINE
  5
2A3
330
A
100
AcDbEntity
  8
0
  6
Continuous
 62
     7
100
AcDbLine
 10
73.84999999999997
 20
-225.275234987792
 30
0.0
 11
74.84999999999996
 21
-225.275234987792
 31
0.0
  0
LINE
  5
2A4
330
A
100
AcDbEntity
  8
0
  6
Continuous
 62
     7
100
AcDbLine
 10
74.84999999999994
 20
-215.2752349877919
 30
0.0
 11
73.34999999999991
 21
-215.2752349877919
 31
0.0
  0
LINE
  5
2A5
330
A
100
AcDbEntity
  8
0
  6
Continuous
 62
     7
100
AcDbLine
 10
70.44999999999994
 20
-214.775234987792
 30
0.0
 11
70.44999999999991
 21
-205.2256422327507
 31
0.0
  0
LINE
  5
2A6
330
A
100
AcDbEntity
  8
0
  6
Continuous
 62
     7
100
AcDbLine
 10
69.24999999999991
 20
-205.2257040615137
 30
0.0
 11
69.24999999999996
 21
-214.775234987792
 31
0.0
  0
LWPOLYLINE
  5
2A7
330
A
100
AcDbEntity
  8
0
  6
Continuous
 62
     7
100
AcDbPolyline
 90
       13
 70
   128
 43
0.0
 10
73.92527800305552
 20
-201.782667720746
 10
73.83927734009602
 20
-200.9824210484989
 10
73.45334748593734
 20
-200.1165146922404
 10
72.84230003861882
 20
-199.3968589874593
 10
72.03106838621772
 20
-198.8347989892128
 10
71.04185618661851
 20
-198.4594870926455
 10
69.92873618736282
 20
-198.3137700433777
 10
68.77750861703297
 20
-198.4310959866609
 10
67.67314590700052
 20
-198.8325901667502
 10
66.83067371808021
 20
-199.4214806427127
 10
66.21173003669082
 20
-200.1726878056842
 10
65.84566455405142
 20
-201.0391281269213
 10
65.78520376147415
 20
-201.780967342605
  0
LINE
  5
2B6
330
A
100
AcDbEntity
  8
0
  6
Continuous
 62
     7
100
AcDbLine
 10
65.74999999999992
 20
-206.7478179898216
 30
0.0
 11
65.74999999999994
 21
-215.275234987792
 31
0.0
  0
LINE
  5
2B7
330
A
100
AcDbEntity
  8
0
  6
Continuous
 62
     7
100
AcDbLine
 10
65.7499999999999
 20
-201.7980705215158
 30
0.0
 11
65.7499999999999
 21
-203.2122840838889
 31
0.0
  0
LINE
  5
2B8
330
A
100
AcDbEntity
  8
0
  6
Continuous
 62
     7
100
AcDbLine
 10
73.9499999999999
 20
-203.2122840838889
 30
0.0
 11
73.9499999999999
 21
-201.7980705215158
 31
0.0
  0
LINE
  5
2B9
330
A
100
AcDbEntity
  8
0
  6
Continuous
 62
     7
100
AcDbLine
 10
73.94999999999995
 20
-215.2752349877919
 30
0.0
 11
73.94999999999992
 21
-206.7478179898216
 31
0.0
  0
LINE
  5
2BA
330
A
100
AcDbEntity
  8
0
  6
Continuous
 62
     7
100
AcDbLine
 10
68.34999999999993
 20
-214.7076159644663
 30
0.0
 11
69.24999999999996
 21
-214.7076159644663
 31
0.0
  0
LINE
  5
2BB
330
A
100
AcDbEntity
  8
0
  6
Continuous
 62
     7
100
AcDbLine
 10
70.44999999999994
 20
-214.7076159644663
 30
0.0
 11
71.34999999999994
 21
-214.7076159644663
 31
0.0
  0
LINE
  5
2BC
330
A
100
AcDbEntity
  8
0
  6
Continuous
 62
     7
100
AcDbLine
 10
65.84999999999992
 20
-207.4300510368553
 30
0.0
 11
66.17554828768994
 21
-207.4300510368553
 31
0.0
  0
LINE
  5
2BD
330
A
100
AcDbEntity
  8
0
  6
Continuous
 62
     7
100
AcDbLine
 10
73.49977201723816
 20
-207.4300510368552
 30
0.0
 11
73.8499999999999
 21
-207.4300510368552
 31
0.0
  0
LINE
  5
2BE
330
A
100
AcDbEntity
  8
0
  6
Continuous
 62
     7
100
AcDbLine
 10
78.85000000000002
 20
-235.275234987791
 30
0.0
 11
83.85000000000003
 21
-235.275234987791
 31
0.0
  0
LINE
  5
2BF
330
A
100
AcDbEntity
  8
0
  6
Continuous
 62
     7
100
AcDbLine
 10
83.84999999999996
 20
-215.2752349877911
 30
0.0
 11
78.84999999999995
 21
-215.2752349877911
 31
0.0
  0
LINE
  5
2C0
330
A
100
AcDbEntity
  8
0
  6
Continuous
 62
     7
100
AcDbLine
 10
63.85
 20
-233.4752349877911
 30
0.0
 11
66.34999999999997
 21
-233.4752349877911
 31
0.0
  0
LINE
  5
2C1
330
A
100
AcDbEntity
  8
0
  6
Continuous
 62
     7
100
AcDbLine
 10
73.34999999999997
 20
-233.4752349877911
 30
0.0
 11
75.84999999999999
 21
-233.4752349877911
 31
0.0
  0
LINE
  5
2C2
330
A
100
AcDbEntity
  8
0
  6
Continuous
 62
     7
100
AcDbLine
 10
75.84999999999995
 20
-217.0752349877911
 30
0.0
 11
74.84999999999994
 21
-217.0752349877911
 31
0.0
  0
LINE
  5
2C3
330
A
100
AcDbEntity
  8
0
  6
Continuous
 62
     7
100
AcDbLine
 10
64.84999999999995
 20
-217.0752349877911
 30
0.0
 11
63.84999999999995
 21
-217.0752349877911
 31
0.0
  0
LINE
  5
2C4
330
A
100
AcDbEntity
  8
0
  6
Continuous
 62
     7
100
AcDbLine
 10
75.84999999999999
 20
-231.2752349877911
 30
0.0
 11
78.85000000000001
 21
-231.275234987791
 31
0.0
  0
LINE
  5
2C5
330
A
100
AcDbEntity
  8
0
  6
Continuous
 62
     7
100
AcDbLine
 10
78.84999999999997
 20
-219.275234987791
 30
0.0
 11
75.84999999999997
 21
-219.2752349877911
 31
0.0
  0
LINE
  5
2C6
330
A
100
AcDbEntity
  8
0
  6
Continuous
 62
     7
100
AcDbLine
 10
73.84999999999997
 20
-223.0049247710091
 30
0.0
 11
73.84999999999998
 21
-227.9049247710091
 31
0.0
  0
LINE
  5
2C7
330
A
100
AcDbEntity
  8
0
  6
Continuous
 62
     7
100
AcDbLine
 10
65.84999999999997
 20
-223.0049247710091
 30
0.0
 11
65.84999999999999
 21
-227.9049247710092
 31
0.0
  0
LINE
  5
2C8
330
A
100
AcDbEntity
  8
0
  6
Continuous
 62
     7
100
AcDbLine
 10
47.85000000000098
 20
-513.5755639493994
 30
0.0
 11
47.85000000000091
 21
-493.3752349877921
 31
0.0
  0
LINE
  5
2C9
330
A
100
AcDbEntity
  8
0
  6
Continuous
 62
     7
100
AcDbLine
 10
44.85000000000091
 20
-493.3752349877921
 30
0.0
 11
44.85000000000098
 21
-513.5755639493996
 31
0.0
  0
LINE
  5
2CA
330
A
100
AcDbEntity
  8
0
  6
Continuous
 62
     7
100
AcDbLine
 10
94.85000000000098
 20
-513.5755639493993
 30
0.0
 11
94.85000000000091
 21
-493.3752349877918
 31
0.0
  0
LINE
  5
2CB
330
A
100
AcDbEntity
  8
0
  6
Continuous
 62
     7
100
AcDbLine
 10
91.85000000000092
 20
-493.3752349877919
 30
0.0
 11
91.85000000000099
 21
-513.5755639493993
 31
0.0
  0
ARC
  5
2CC
330
A
100
AcDbEntity
  8
0
  6
Continuous
 62
     7
100
AcDbCircle
 10
69.85000000000091
 20
-493.3752349877919
 30
0.0
 40
22.0
100
AcDbArc
 50
0.0
 51
180.0000000000004
  0
ARC
  5
2CD
330
A
100
AcDbEntity
  8
0
  6
Continuous
 62
     7
100
AcDbCircle
 10
69.85000000000091
 20
-493.3752349877919
 30
0.0
 40
25.0
100
AcDbArc
 50
0.0
 51
180.0000000000004
  0
LINE
  5
2CE
330
A
100
AcDbEntity
  8
0
  6
Continuous
 62
     7
100
AcDbLine
 10
96.85000000000101
 20
-522.3752349877919
 30
0.0
 11
96.85000000000099
 21
-512.3752349877919
 31
0.0
  0
LINE
  5
2CF
330
A
100
AcDbEntity
  8
0
  6
Continuous
 62
     7
100
AcDbLine
 10
42.85000000000102
 20
-522.3752349877921
 30
0.0
 11
42.85000000000098
 21
-512.3752349877921
 31
0.0
  0
LINE
  5
2D0
330
A
100
AcDbEntity
  8
0
  6
Continuous
 62
     7
100
AcDbLine
 10
86.85000000000108
 20
-540.5002349877918
 30
0.0
 11
52.85000008633404
 21
-540.5002349877919
 31
0.0
  0
LINE
  5
2D1
330
A
100
AcDbEntity
  8
0
  6
Continuous
 62
     7
100
AcDbLine
 10
86.35000000000093
 20
-509.8752349877919
 30
0.0
 11
53.35000000000099
 21
-509.875234987792
 31
0.0
  0
LINE
  5
2D2
330
A
100
AcDbEntity
  8
0
  6
Continuous
 62
     7
100
AcDbLine
 10
86.35000000000102
 20
-524.8752349877919
 30
0.0
 11
53.35000000000103
 21
-524.875234987792
 31
0.0
  0
LINE
  5
2D3
330
A
100
AcDbEntity
  8
0
  6
Continuous
 62
     7
100
AcDbLine
 10
77.35000000000086
 20
-491.1252349877921
 30
0.0
 11
62.35000090340118
 21
-491.1252349877921
 31
0.0
  0
LINE
  5
2D4
330
A
100
AcDbEntity
  8
0
  6
Continuous
 62
     7
100
AcDbLine
 10
76.35000000000087
 20
-481.125234987792
 30
0.0
 11
63.35000000000089
 21
-481.125234987792
 31
0.0
  0
LWPOLYLINE
  5
2D5
330
A
100
AcDbEntity
  8
0
  6
Continuous
 62
     7
100
AcDbPolyline
 90
       52
 70
   128
 43
0.0
 10
69.85000000000124
 20
-587.0119435392909
 10
72.77242510054356
 20
-586.8479239206982
 10
75.65054921551777
 20
-586.358351435146
 10
78.44074291713903
 20
-585.5506475024723
 10
81.10070971305765
 20
-584.4370560909687
 10
83.59012721806832
 20
-583.0344581113006
 10
85.87125840036755
 20
-581.3641155191103
 10
87.90952363648882
 20
-579.451349005442
 10
89.67402490314565
 20
-577.3251541608762
 10
91.1380141597691
 20
-575.0177619319324
 10
92.27929882153725
 20
-572.5641500327756
 10
93.08057817633921
 20
-570.0015127187226
 10
93.52970564593537
 20
-567.3686969592459
 10
93.619872915702
 20
-564.7056135575147
 10
93.34971314174088
 20
-562.0526321433012
 10
92.72332167083957
 20
-559.4499692105448
 10
91.75019395918861
 20
-556.9370784762972
 10
90.44508163094485
 20
-554.5520528025901
 10
88.82776885864625
 20
-552.3310467474757
 10
86.92277245532295
 20
-550.3077284987806
 10
84.75897022460296
 20
-548.5127694986977
 10
82.36916320264542
 20
-546.9733794959879
 10
79.78957842786811
 20
-545.7128940739247
 10
77.05931977597265
 20
-544.7504209066384
 10
74.21977518504943
 20
-544.1005501062537
 10
71.31398925662439
 20
-543.7731330516629
 10
68.38601074337745
 20
-543.7731330516629
 10
65.48022481495244
 20
-544.1005501062538
 10
62.64068022402922
 20
-544.7504209066384
 10
59.91042157213381
 20
-545.712894073925
 10
57.33083679735649
 20
-546.9733794959883
 10
54.94102977539899
 20
-548.5127694986979
 10
52.77722754467903
 20
-550.3077284987809
 10
50.87223114135579
 20
-552.3310467474762
 10
49.25491836905723
 20
-554.5520528025906
 10
47.94980604081353
 20
-556.9370784762976
 10
46.97667832916263
 20
-559.4499692105451
 10
46.35028685826137
 20
-562.0526321433017
 10
46.08012708430031
 20
-564.7056135575151
 10
46.170294354067
 20
-567.3686969592464
 10
46.61942182366323
 20
-570.0015127187231
 10
47.42070117846523
 20
-572.564150032776
 10
48.56198584023344
 20
-575.0177619319328
 10
50.02597509685696
 20
-577.3251541608765
 10
51.79047636351383
 20
-579.4513490054424
 10
53.82874159963512
 20
-581.3641155191106
 10
56.10987278193441
 20
-583.0344581113009
 10
58.5992902869451
 20
-584.4370560909688
 10
61.25925708286374
 20
-585.5506475024725
 10
64.04945078448503
 20
-586.3583514351461
 10
66.92757489945925
 20
-586.8479239206982
 10
69.85000000000124
 20
-587.0119435392909
  0
LWPOLYLINE
  5
30B
330
A
100
AcDbEntity
  8
0
  6
Continuous
 62
     7
100
AcDbPolyline
 90
       29
 70
   128
 43
0.0
 10
95.04658414290938
 20
-564.8881922537571
 10
94.95106633259245
 20
-563.2619789575959
 10
94.51022318612793
 20
-560.5747937761558
 10
93.72320456200609
 20
-557.9539149944631
 10
92.60105847654346
 20
-555.4361340055757
 10
91.15953740100541
 20
-553.0567949355336
 10
89.41887713143932
 20
-550.8492984893044
 10
87.40351272245552
 20
-548.8446330781019
 10
85.14173547262291
 20
-547.0709398100177
 10
82.66529577665224
 20
-545.5531174505527
 10
80.00895741945218
 20
-544.3124728985261
 10
77.21000956879231
 20
-543.3664220839218
 10
74.30774331712656
 20
-542.7282454864081
 10
71.34290012078224
 20
-542.4069017065134
 10
68.35709987921958
 20
-542.4069017065134
 10
65.39225668287527
 20
-542.7282454864082
 10
62.48999043120953
 20
-543.366422083922
 10
59.6910425805497
 20
-544.3124728985264
 10
57.03470422334966
 20
-545.553117450553
 10
54.55826452737902
 20
-547.0709398100181
 10
52.29648727754645
 20
-548.844633078102
 10
50.2811228685627
 20
-550.8492984893049
 10
48.54046259899666
 20
-553.056794935534
 10
47.09894152345866
 20
-555.4361340055762
 10
45.9767954379961
 20
-557.9539149944637
 10
45.1897768138743
 20
-560.5747937761562
 10
44.74893366740984
 20
-563.2619789575963
 10
44.66045447003897
 20
-565.9777483492191
 10
44.66472014287471
 20
-566.0980232693737
  0
LWPOLYLINE
  5
32A
330
A
100
AcDbEntity
  8
0
  6
Continuous
 62
     7
100
AcDbPolyline
 90
       36
 70
   128
 43
0.0
 10
69.85000000000143
 20
-639.4626263832138
 10
74.20643147240504
 20
-639.3007982527889
 10
78.53387161212044
 20
-638.8163908010223
 10
82.80352201899512
 20
-638.0126276795837
 10
86.98696887401411
 20
-636.8948577994349
 10
91.05637202857737
 20
-635.4705197347091
 10
94.98465027609558
 20
-633.749092220228
 10
98.74566157295177
 20
-631.7420310720847
 10
102.3143770094885
 20
-629.4626929510786
 10
105.6670473732723
 20
-626.9262464763405
 10
108.7813611961839
 20
-624.1495712806754
 10
111.6365932335573
 20
-621.1511456793918
 10
114.213742387264
 20
-617.9509237001603
 10
116.4956581548858
 20
-614.5702022922535
 10
118.4671547634787
 20
-611.0314795988613
 10
120.1151122283865
 20
-607.3583052356597
 10
121.4285636645742
 20
-603.5751235720052
 10
122.3987682694382
 20
-599.7071110576881
 10
123.0192694914055
 20
-595.780008677814
 10
123.2859379972195
 20
-591.8199506507948
 10
123.1969991519713
 20
-587.8532905094369
 10
122.753044829002
 20
-583.9064257225278
 10
121.9570294710837
 20
-580.0056220240377
 10
120.8142504290901
 20
-576.1768386189927
 10
119.3323127090003
 20
-572.4455554292486
 10
117.521078361839
 20
-568.8366035288149
 10
115.3926008533541
 20
-565.3739998971537
 10
112.9610448501903
 20
-562.0807875901443
 10
110.2425919563702
 20
-558.978882392348
 10
107.2553330273891
 20
-556.0889269710781
 10
104.0191477785562
 20
-553.4301535028536
 10
100.5555724887696
 20
-551.0202556864393
 10
96.88765668013319
 20
-548.8752709941979
 10
93.03980972718978
 20
-547.0094739453588
 10
89.03763841656124
 20
-545.4352811114473
 10
86.85000000000101
 20
-544.7188853439325
  0
LWPOLYLINE
  5
350
330
A
100
AcDbEntity
  8
0
  6
Continuous
 62
     7
100
AcDbPolyline
 90
       36
 70
   128
 43
0.0
 10
52.85000000000117
 20
-544.7188853439325
 10
50.66236158344027
 20
-545.4352811114477
 10
46.66019027281175
 20
-547.0094739453593
 10
42.8123433198684
 20
-548.8752709941984
 10
39.14442751123197
 20
-551.0202556864398
 10
35.68085222144544
 20
-553.4301535028544
 10
32.44466697261264
 20
-556.0889269710787
 10
29.45740804363158
 20
-558.9788823923489
 10
26.73895514981157
 20
-562.0807875901452
 10
24.30739914664786
 20
-565.3739998971546
 10
22.17892163816298
 20
-568.8366035288159
 10
20.36768729100182
 20
-572.4455554292496
 10
18.88574957091213
 20
-576.1768386189937
 10
17.74297052891858
 20
-580.0056220240387
 10
16.94695517100036
 20
-583.9064257225288
 10
16.50300084803116
 20
-587.8532905094378
 10
16.41406200278298
 20
-591.8199506507959
 10
16.68073050859712
 20
-595.780008677815
 10
17.30123173056457
 20
-599.7071110576891
 10
18.27143633542862
 20
-603.5751235720062
 10
19.58488777161641
 20
-607.3583052356609
 10
21.23284523652434
 20
-611.0314795988622
 10
23.20434184511729
 20
-614.5702022922543
 10
25.48625761273911
 20
-617.9509237001613
 10
28.06340676644588
 20
-621.1511456793926
 10
30.91863880381938
 20
-624.1495712806762
 10
34.03295262673101
 20
-626.9262464763412
 10
37.38562299051488
 20
-629.4626929510791
 10
40.95433842705171
 20
-631.7420310720854
 10
44.71534972390793
 20
-633.7490922202285
 10
48.64362797142618
 20
-635.4705197347094
 10
52.71303112598947
 20
-636.8948577994351
 10
56.89647798100847
 20
-638.0126276795839
 10
61.16612838788317
 20
-638.8163908010223
 10
65.49356852759856
 20
-639.3007982527889
 10
69.85000000000143
 20
-639.4626263832138
  0
LWPOLYLINE
  5
376
330
A
100
AcDbEntity
  8
0
  6
Continuous
 62
     7
100
AcDbPolyline
 90
        8
 70
   128
 43
0.0
 10
91.54643999855521
 20
-574.2322394432263
 10
92.0958790275646
 20
-572.94677735132
 10
92.8906057702969
 20
-570.4050964840964
 10
93.33606041585177
 20
-567.7938110688365
 10
93.42549032587411
 20
-565.1525055306383
 10
93.15753983408781
 20
-562.5212193690621
 10
92.53627079681463
 20
-559.9398402001318
 10
91.66689037795402
 20
-557.6564983234744
  0
LWPOLYLINE
  5
380
330
A
100
AcDbEntity
  8
0
  6
Continuous
 62
     7
100
AcDbPolyline
 90
        8
 70
   128
 43
0.0
 10
47.77645002433689
 20
-558.2498398147204
 10
47.16372920318757
 20
-559.9398402001322
 10
46.54246016591446
 20
-562.5212193690624
 10
46.2745096741282
 20
-565.1525055306388
 10
46.36393958415059
 20
-567.7938110688369
 10
46.80939422970554
 20
-570.4050964840968
 10
47.60412097243788
 20
-572.9467773513204
 10
48.15356000144717
 20
-574.2322394432265
  0
LWPOLYLINE
  5
38A
330
A
100
AcDbEntity
  8
0
  6
Continuous
 62
     7
100
AcDbPolyline
 90
       34
 70
   128
 43
0.0
 10
69.8500000000012
 20
-575.2532375822613
 10
71.7425124436053
 20
-575.0887957262091
 10
73.56662455660449
 20
-574.6014135151792
 10
75.2564081745572
 20
-573.8087062121403
 10
76.75079011482235
 20
-572.7393243244029
 10
77.99575952050457
 20
-571.4319180996369
 10
78.9463199535464
 20
-569.9337406052197
 10
79.56811568323662
 20
-568.2989398792624
 10
79.83867339183129
 20
-566.5866018794328
 10
79.74821441881052
 20
-564.8586149624982
 10
79.30000818714785
 20
-563.1774330778624
 10
78.51025403784554
 20
-561.603818519113
 10
77.40749574354372
 20
-560.1946458164158
 10
76.03158986220718
 20
-559.0008461428099
 10
74.43226521727521
 20
-558.0655665289142
 10
72.66732556841538
 20
-557.4226104168221
 10
70.80056043304288
 20
-557.0952159156306
 10
68.89943956695923
 20
-557.0952159156306
 10
67.03267443158676
 20
-557.4226104168221
 10
65.26773478272694
 20
-558.0655665289142
 10
63.66841013779501
 20
-559.00084614281
 10
62.29250425645848
 20
-560.1946458164158
 10
61.1897459621567
 20
-561.6038185191132
 10
60.39999181285441
 20
-563.1774330778626
 10
59.9517855811918
 20
-564.8586149624984
 10
59.86132660817108
 20
-566.5866018794331
 10
60.13188431676576
 20
-568.2989398792626
 10
60.75368004645603
 20
-569.9337406052198
 10
61.70424047949787
 20
-571.4319180996372
 10
62.94920988518015
 20
-572.739324324403
 10
64.44359182544532
 20
-573.8087062121405
 10
66.13337544339805
 20
-574.6014135151794
 10
67.95748755639722
 20
-575.0887957262092
 10
69.8500000000012
 20
-575.2532375822613
  0
LWPOLYLINE
  5
3AE
330
A
100
AcDbEntity
  8
0
  6
Continuous
 62
     7
100
AcDbPolyline
 90
       18
 70
   128
 43
0.0
 10
79.84740358268258
 20
-566.3609714948371
 10
79.74821441881052
 20
-565.2733082051546
 10
79.30000818714785
 20
-563.5921263205188
 10
78.51025403784554
 20
-562.0185117617693
 10
77.40749574354372
 20
-560.6093390590721
 10
76.03158986220718
 20
-559.4155393854663
 10
74.43226521727521
 20
-558.4802597715706
 10
72.66732556841538
 20
-557.8373036594785
 10
70.8005604330429
 20
-557.5099091582869
 10
68.89943956695923
 20
-557.5099091582869
 10
67.03267443158677
 20
-557.8373036594785
 10
65.26773478272696
 20
-558.4802597715706
 10
63.66841013779501
 20
-559.4155393854663
 10
62.29250425645849
 20
-560.6093390590723
 10
61.1897459621567
 20
-562.0185117617695
 10
60.39999181285442
 20
-563.5921263205189
 10
59.95178558119181
 20
-565.2733082051549
 10
59.85259641731976
 20
-566.3609714948372
  0
LWPOLYLINE
  5
3C2
330
A
100
AcDbEntity
  8
0
  6
Continuous
 62
     7
100
AcDbPolyline
 90
        7
 70
   128
 43
0.0
 10
71.3499999999999
 20
-219.0695340530915
 10
71.35990040347491
 20
-219.0724054616676
 10
71.88100591290425
 20
-219.2636853293607
 10
72.47329297191249
 20
-219.5988064157066
 10
72.94093658020769
 20
-220.0138911968974
 10
73.2440650213671
 20
-220.4791308111592
 10
73.34999999999992
 20
-220.9544840179774
  0
LWPOLYLINE
  5
3CB
330
A
100
AcDbEntity
  8
0
  6
Continuous
 62
     7
100
AcDbPolyline
 90
        7
 70
   128
 43
0.0
 10
66.34999999999994
 20
-220.9544840179774
 10
66.45593497863275
 20
-220.4791308111592
 10
66.75906341979213
 20
-220.0138911968974
 10
67.22670702808729
 20
-219.5988064157065
 10
67.81899408709555
 20
-219.2636853293608
 10
68.34009959652485
 20
-219.0724054616675
 10
68.34999999999993
 20
-219.0695340530915
  0
LWPOLYLINE
  5
3D4
330
A
100
AcDbEntity
  8
0
  6
Continuous
 62
     7
100
AcDbPolyline
 90
        9
 70
   128
 43
0.0
 10
71.34999999999999
 20
-228.1530722836553
 10
71.16977265372097
 20
-228.1997562906554
 10
70.98665290206603
 20
-228.2404247423089
 10
70.80104206912126
 20
-228.2749885098951
 10
70.61334693841073
 20
-228.3033718436802
 10
70.42397886139226
 20
-228.3255125389299
 10
70.23335285594218
 20
-228.3413620722369
 10
70.04188669680484
 20
-228.3508857078647
 10
69.84999999999999
 20
-228.3540625738738
  0
LWPOLYLINE
  5
3DF
330
A
100
AcDbEntity
  8
0
  6
Continuous
 62
     7
100
AcDbPolyline
 90
        9
 70
   128
 43
0.0
 10
69.84999999999999
 20
-228.3540625738738
 10
69.65811330319514
 20
-228.3508857078647
 10
69.4666471440578
 20
-228.3413620722369
 10
69.27602113860773
 20
-228.3255125389298
 10
69.08665306158926
 20
-228.3033718436802
 10
68.89895793087873
 20
-228.2749885098951
 10
68.71334709793396
 20
-228.2404247423089
 10
68.53022734627902
 20
-228.1997562906554
 10
68.34999999999999
 20
-228.1530722836553
  0
LINE
  5
3EA
330
A
100
AcDbEntity
  8
0
  6
Continuous
 62
     7
100
AcDbLine
 10
66.34999999999995
 20
-227.8841304736059
 30
0.0
 11
66.35000000000001
 21
-242.0315112230682
 31
0.0
  0
LWPOLYLINE
  5
3EB
330
A
100
AcDbEntity
  8
0
  6
Continuous
 62
     7
100
AcDbPolyline
 90
        5
 70
   128
 43
0.0
 10
66.34999999999995
 20
-226.0456528425201
 10
66.54181324352011
 20
-226.7292757138568
 10
66.597293191585
 20
-227.3201002737173
 10
66.50165832294162
 20
-227.6987346558918
 10
66.34999999999992
 20
-227.884130473606
  0
LINE
  5
3F2
330
A
100
AcDbEntity
  8
0
  6
Continuous
 62
     7
100
AcDbLine
 10
66.34999999999994
 20
-220.9544840179774
 30
0.0
 11
66.34999999999995
 21
-226.0456528425201
 31
0.0
  0
LINE
  5
3F3
330
A
100
AcDbEntity
  8
0
  6
Continuous
 62
     7
100
AcDbLine
 10
73.34999999999995
 20
-226.0456528425203
 30
0.0
 11
73.34999999999992
 21
-220.9544840179774
 31
0.0
  0
LWPOLYLINE
  5
3F4
330
A
100
AcDbEntity
  8
0
  6
Continuous
 62
     7
100
AcDbPolyline
 90
        5
 70
   128
 43
0.0
 10
73.34999999999997
 20
-227.8841304736059
 10
73.15818675647982
 20
-227.605745468897
 10
73.10270680841497
 20
-227.1195930094569
 10
73.19834167705839
 20
-226.5573390309417
 10
73.34999999999995
 20
-226.0456528425203
  0
LINE
  5
3FB
330
A
100
AcDbEntity
  8
0
  6
Continuous
 62
     7
100
AcDbLine
 10
73.34999999999999
 20
-242.0315112230682
 30
0.0
 11
73.34999999999997
 21
-227.8841304736059
 31
0.0
  0
LWPOLYLINE
  5
3FC
330
A
100
AcDbEntity
  8
0
  6
Continuous
 62
     7
100
AcDbPolyline
 90
        7
 70
   128
 43
0.0
 10
71.34999999999992
 20
-216.9910730840088
 10
71.35990040347462
 20
-216.9882363302368
 10
71.88100591290432
 20
-216.898433928141
 10
72.47329297191257
 20
-216.9500514001208
 10
72.9409365802077
 20
-217.1611297640925
 10
73.2440650213671
 20
-217.5015888632966
 10
73.34999999999991
 20
-217.9345502438691
  0
LINE
  5
405
330
A
100
AcDbEntity
  8
0
  6
Continuous
 62
     7
100
AcDbLine
 10
73.34999999999991
 20
-217.9345502438691
 30
0.0
 11
73.34999999999992
 21
-220.9544840179774
 31
0.0
  0
LINE
  5
406
330
A
100
AcDbEntity
  8
0
  6
Continuous
 62
     7
100
AcDbLine
 10
66.34999999999994
 20
-220.9544840179774
 30
0.0
 11
66.34999999999992
 21
-217.9345502438692
 31
0.0
  0
LWPOLYLINE
  5
407
330
A
100
AcDbEntity
  8
0
  6
Continuous
 62
     7
100
AcDbPolyline
 90
        7
 70
   128
 43
0.0
 10
66.34999999999992
 20
-217.9345502438692
 10
66.45593497863274
 20
-217.5015888632967
 10
66.75906341979213
 20
-217.1611297640926
 10
67.22670702808726
 20
-216.9500514001208
 10
67.81899408709548
 20
-216.898433928141
 10
68.34009959652441
 20
-216.9882363302384
 10
68.34999999999992
 20
-216.9910730840089
  0
LWPOLYLINE
  5
410
330
A
100
AcDbEntity
  8
0
  6
Continuous
 62
     7
100
AcDbPolyline
 90
       13
 70
   128
 43
0.0
 10
70.43983841496606
 20
-235.7044375042305
 10
70.44769394307519
 20
-235.6395128863042
 10
70.3088499388994
 20
-235.1021789389704
 10
70.21635217968508
 20
-234.92939458188
 10
70.06571529431695
 20
-234.7468827505728
 10
69.9847198238698
 20
-234.6895992355312
 10
69.88731971789507
 20
-234.6560018196711
 10
69.81014514068312
 20
-234.6563933826218
 10
69.7373013906817
 20
-234.6786603421601
 10
69.63465137379315
 20
-234.7465621259065
 10
69.48739119814195
 20
-234.9235252215418
 10
69.30007161758583
 20
-235.356947709377
 10
69.26810672365795
 20
-235.7041704603406
  0
LINE
  5
41F
330
A
100
AcDbEntity
  8
0
  6
Continuous
 62
     7
100
AcDbLine
 10
71.34999999999999
 20
-228.3540625738738
 30
0.0
 11
71.35000000000002
 21
-237.7431498703999
 31
0.0
  0
LINE
  5
420
330
A
100
AcDbEntity
  8
0
  6
Continuous
 62
     7
100
AcDbLine
 10
68.34999999999999
 20
-228.3540625738738
 30
0.0
 11
68.35000000000002
 21
-237.7431498703999
 31
0.0
  0
LWPOLYLINE
  5
421
330
A
100
AcDbEntity
  8
0
  6
Continuous
 62
     7
100
AcDbPolyline
 90
       12
 70
   128
 43
0.0
 10
69.26094968026532
 20
-456.7066216389254
 10
69.25225211995608
 20
-456.7885381443891
 10
69.42077638883003
 20
-457.5384368312448
 10
69.61411241266455
 20
-457.8736930151203
 10
69.71122398399711
 20
-457.9626354865582
 10
69.78571336299921
 20
-457.999229147178
 10
69.8546776952828
 20
-458.0091443976768
 10
69.9231821245276
 20
-457.9962773866395
 10
70.00616927616073
 20
-457.9501802405967
 10
70.12228330340279
 20
-457.8278256747291
 10
70.32948941149578
 20
-457.4036860024177
 10
70.44108276598625
 20
-456.6985773554459
  0
LINE
  5
42F
330
A
100
AcDbEntity
  8
0
  6
Continuous
 62
     7
100
AcDbLine
 10
68.34999999999999
 20
-228.1530722836553
 30
0.0
 11
68.34999999999999
 21
-228.3540625738738
 31
0.0
  0
LINE
  5
430
330
A
100
AcDbEntity
  8
0
  6
Continuous
 62
     7
100
AcDbLine
 10
71.34999999999999
 20
-228.1530722836553
 30
0.0
 11
71.34999999999999
 21
-228.3540625738738
 31
0.0
  0
LINE
  5
431
330
A
100
AcDbEntity
  8
0
  6
Continuous
 62
     7
100
AcDbLine
 10
65.85000000000078
 20
-452.875234987792
 30
0.0
 11
65.85000000000082
 21
-466.875234987792
 31
0.0
  0
LINE
  5
432
330
A
100
AcDbEntity
  8
0
  6
Continuous
 62
     7
100
AcDbLine
 10
73.85000000000077
 20
-452.875234987792
 30
0.0
 11
73.85000000000083
 21
-466.875234987792
 31
0.0
  0
LINE
  5
433
330
A
100
AcDbEntity
  8
0
  6
Continuous
 62
     7
100
AcDbLine
 10
74.85000000000001
 20
-237.375234987792
 30
0.0
 11
74.85000000000008
 21
-257.375234987792
 31
0.0
  0
LINE
  5
434
330
A
100
AcDbEntity
  8
0
  6
Continuous
 62
     7
100
AcDbLine
 10
79.85000000000002
 20
-237.375234987792
 30
0.0
 11
79.8500000000001
 21
-257.375234987792
 31
0.0
  0
LINE
  5
435
330
A
100
AcDbEntity
  8
0
  6
Continuous
 62
     7
100
AcDbLine
 10
66.35000000000002
 20
-245.1601258796091
 30
0.0
 11
66.35000000000001
 21
-242.0315112230682
 31
0.0
  0
LINE
  5
436
330
A
100
AcDbEntity
  8
0
  6
Continuous
 62
     7
100
AcDbLine
 10
73.35
 20
-242.0315112230682
 30
0.0
 11
73.35
 21
-245.1601258796091
 31
0.0
  0
LINE
  5
437
330
A
100
AcDbEntity
  8
0
  6
Continuous
 62
     7
100
AcDbLine
 10
66.35000000000005
 20
-254.5242632002787
 30
0.0
 11
66.35000000000002
 21
-245.1601258796091
 31
0.0
  0
LINE
  5
438
330
A
100
AcDbEntity
  8
0
  6
Continuous
 62
     7
100
AcDbLine
 10
73.35000000000004
 20
-254.5242632002786
 30
0.0
 11
73.35
 21
-245.1601258796091
 31
0.0
  0
LINE
  5
439
330
A
100
AcDbEntity
  8
0
  6
Continuous
 62
     7
100
AcDbLine
 10
66.35000000000006
 20
-257.067817259846
 30
0.0
 11
66.35000000000005
 21
-254.5242632002787
 31
0.0
  0
LINE
  5
43A
330
A
100
AcDbEntity
  8
0
  6
Continuous
 62
     7
100
AcDbLine
 10
73.35000000000004
 20
-254.5242632002786
 30
0.0
 11
73.35000000000005
 21
-257.067817259846
 31
0.0
  0
LINE
  5
43B
330
A
100
AcDbEntity
  8
0
  6
Continuous
 62
     7
100
AcDbLine
 10
64.85000000000003
 20
-242.375234987792
 30
0.0
 11
64.85000000000008
 21
-252.3752349877921
 31
0.0
  0
LINE
  5
43C
330
A
100
AcDbEntity
  8
0
  6
Continuous
 62
     7
100
AcDbLine
 10
74.85000000000076
 20
-452.375234987792
 30
0.0
 11
70.45000000000076
 21
-452.375234987792
 31
0.0
  0
LINE
  5
43D
330
A
100
AcDbEntity
  8
0
  6
Continuous
 62
     7
100
AcDbLine
 10
69.25000000000078
 20
-452.375234987792
 30
0.0
 11
64.85000000000077
 21
-452.3752349877921
 31
0.0
  0
LINE
  5
43E
330
A
100
AcDbEntity
  8
0
  6
Continuous
 62
     7
100
AcDbLine
 10
74.85000000000013
 20
-272.3752349877921
 30
0.0
 11
70.45000000000013
 21
-272.3752349877921
 31
0.0
  0
LINE
  5
43F
330
A
100
AcDbEntity
  8
0
  6
Continuous
 62
     7
100
AcDbLine
 10
69.25000000000015
 20
-272.3752349877921
 30
0.0
 11
64.85000000000015
 21
-272.3752349877921
 31
0.0
  0
LINE
  5
440
330
A
100
AcDbEntity
  8
0
  6
Continuous
 62
     7
100
AcDbLine
 10
66.35000000000012
 20
-272.3752349877921
 30
0.0
 11
66.35000000000006
 21
-257.067817259846
 31
0.0
  0
LINE
  5
441
330
A
100
AcDbEntity
  8
0
  6
Continuous
 62
     7
100
AcDbLine
 10
73.35000000000005
 20
-257.067817259846
 30
0.0
 11
73.35000000000011
 21
-272.3752349877921
 31
0.0
  0
LINE
  5
442
330
A
100
AcDbEntity
  8
0
  6
Continuous
 62
     7
100
AcDbLine
 10
73.35000000000083
 20
-468.3752349877919
 30
0.0
 11
66.35000000000082
 21
-468.3752349877919
 31
0.0
  0
LINE
  5
443
330
A
100
AcDbEntity
  8
0
  6
Continuous
 62
     7
100
AcDbLine
 10
66.34999999999999
 20
-239.01157744896
 30
0.0
 11
66.34999999999997
 21
-229.4053678888784
 31
0.0
  0
LINE
  5
444
330
A
100
AcDbEntity
  8
0
  6
Continuous
 62
     7
100
AcDbLine
 10
69.51833752096445
 20
-214.7807263109901
 30
0.0
 11
70.18166247903542
 21
-214.7807263109901
 31
0.0
  0
LINE
  5
445
330
A
100
AcDbEntity
  8
0
  6
Continuous
 62
     7
100
AcDbLine
 10
70.18166247903542
 20
-214.7807263109901
 30
0.0
 11
70.21004855716812
 21
-214.7955994363791
 31
0.0
  0
LINE
  5
446
330
A
100
AcDbEntity
  8
0
  6
Continuous
 62
     7
100
AcDbLine
 10
69.49595461427112
 20
-214.7871695379587
 30
0.0
 11
69.51833752096445
 21
-214.7807263109901
 31
0.0
  0
LINE
  5
447
330
A
100
AcDbEntity
  8
0
  6
Continuous
 62
     7
100
AcDbLine
 10
66.34999999999992
 20
-217.9345502438692
 30
0.0
 11
66.3499999999999
 21
-214.775234987792
 31
0.0
  0
LINE
  5
448
330
A
100
AcDbEntity
  8
0
  6
Continuous
 62
     7
100
AcDbLine
 10
73.34999999999991
 20
-217.8942963254804
 30
0.0
 11
73.3499999999999
 21
-214.775234987792
 31
0.0
  0
LINE
  5
449
330
A
100
AcDbEntity
  8
0
  6
Continuous
 62
     7
100
AcDbLine
 10
64.84999999999994
 20
-215.275234987792
 30
0.0
 11
64.84999999999998
 21
-225.275234987792
 31
0.0
  0
LINE
  5
44A
330
A
100
AcDbEntity
  8
0
  6
Continuous
 62
     7
100
AcDbLine
 10
74.84999999999994
 20
-215.2752349877919
 30
0.0
 11
74.84999999999996
 21
-225.275234987792
 31
0.0
  0
LWPOLYLINE
  5
44B
330
A
100
AcDbEntity
  8
0
  6
Continuous
 62
     7
100
AcDbPolyline
 90
        9
 70
   128
 43
0.0
 10
69.51833752096445
 20
-214.7807263109901
 10
69.59483584289865
 20
-214.7377303764569
 10
69.67679491924307
 20
-214.7063443851387
 10
69.76246074821048
 20
-214.687240026949
 10
69.84999999999994
 20
-214.6808261532301
 10
69.93753925178939
 20
-214.687240026949
 10
70.02320508075681
 20
-214.7063443851387
 10
70.10516415710124
 20
-214.7377303764569
 10
70.18166247903542
 20
-214.7807263109901
  0
LWPOLYLINE
  5
456
330
A
100
AcDbEntity
  8
0
  6
Continuous
 62
     7
100
AcDbPolyline
 90
        5
 70
   128
 43
0.0
 10
70.06998088506691
 20
-204.6930323874309
 10
70.2373847468807
 20
-204.7881276795023
 10
70.38059818923304
 20
-204.9577664223202
 10
70.4497351913197
 20
-205.2085002065823
 10
70.44614443130028
 20
-205.2248291589264
  0
LWPOLYLINE
  5
45D
330
A
100
AcDbEntity
  8
0
  6
Continuous
 62
     7
100
AcDbPolyline
 90
        5
 70
   128
 43
0.0
 10
69.26480651518784
 20
-205.2257756909219
 10
69.26546222674464
 20
-205.0960412025756
 10
69.38360488920186
 20
-204.8649738155082
 10
69.52459931919918
 20
-204.7444634131905
 10
69.63001911493289
 20
-204.6930323874309
  0
LWPOLYLINE
  5
464
330
A
100
AcDbEntity
  8
0
  6
Continuous
 62
     7
100
AcDbPolyline
 90
        5
 70
   128
 43
0.0
 10
69.6300191149329
 20
-204.6930323874309
 10
69.75268117147983
 20
-204.6608626904558
 10
69.89841627497222
 20
-204.6551632885945
 10
70.03266887938067
 20
-204.6803957418372
 10
70.06998088506691
 20
-204.6930323874309
  0
ARC
  5
46B
330
A
100
AcDbEntity
  8
0
  6
Continuous
 62
     7
100
AcDbCircle
 10
69.84999999999998
 20
-225.275234987792
 30
0.0
 40
5.0
100
AcDbArc
 50
345.5224878140706
 51
0.0
  0
ARC
  5
46C
330
A
100
AcDbEntity
  8
0
  6
Continuous
 62
     7
100
AcDbCircle
 10
69.84999999999998
 20
-225.275234987792
 30
0.0
 40
5.0
100
AcDbArc
 50
180.0000000000004
 51
194.477512185931
  0
LINE
  5
46D
330
A
100
AcDbEntity
  8
0
  6
Continuous
 62
     7
100
AcDbLine
 10
73.34999999999997
 20
-231.7197932760661
 30
0.0
 11
74.69122918275925
 21
-226.5252349877919
 31
0.0
  0
LINE
  5
46E
330
A
100
AcDbEntity
  8
0
  6
Continuous
 62
     7
100
AcDbLine
 10
65.00877081724071
 20
-226.525234987792
 30
0.0
 11
66.34999999999997
 21
-231.7197932760659
 31
0.0
  0
LWPOLYLINE
  5
46F
330
A
100
AcDbEntity
  8
0
  6
Continuous
 62
     7
100
AcDbPolyline
 90
       12
 70
   128
 43
0.0
 10
73.9499999999999
 20
-203.2122840838889
 10
73.92250233381711
 20
-203.5795608617765
 10
73.7873963982899
 20
-204.2163016682235
 10
73.55973979524183
 20
-204.9491809439612
 10
73.28339163671898
 20
-205.7809980996681
 10
73.12515862884097
 20
-206.4354160108113
 10
73.11818154980311
 20
-206.9765991465445
 10
73.2454486291488
 20
-207.3010875746187
 10
73.46813716817519
 20
-207.4686270826864
 10
73.74301233070079
 20
-207.405412040054
 10
73.92569279520085
 20
-207.0347072904836
 10
73.94999999999992
 20
-206.7478179898216
  0
LINE
  5
47D
330
A
100
AcDbEntity
  8
0
  6
Continuous
 62
     7
100
AcDbLine
 10
73.94999999999992
 20
-206.7478179898216
 30
0.0
 11
73.8499999999999
 21
-206.1114218867537
 31
0.0
  0
LINE
  5
47E
330
A
100
AcDbEntity
  8
0
  6
Continuous
 62
     7
100
AcDbLine
 10
65.84999999999991
 20
-206.1114218867537
 30
0.0
 11
65.74999999999992
 21
-206.7478179898216
 31
0.0
  0
LWPOLYLINE
  5
47F
330
A
100
AcDbEntity
  8
0
  6
Continuous
 62
     7
100
AcDbPolyline
 90
       12
 70
   128
 43
0.0
 10
65.74999999999992
 20
-206.7478179898216
 10
65.78189080736888
 20
-207.0714804849039
 10
65.92217890686805
 20
-207.3714744472313
 10
66.15395481405373
 20
-207.4800322185268
 10
66.42987220212685
 20
-207.3329943317848
 10
66.57945425883903
 20
-206.9896295453163
 10
66.57849724619656
 20
-206.4603737706092
 10
66.44680187052769
 20
-205.8821176403589
 10
66.22031988448736
 20
-205.1849088760799
 10
65.94588945856958
 20
-204.3354208351547
 10
65.77045138029768
 20
-203.5253103886754
 10
65.7499999999999
 20
-203.2122840838889
  0
LWPOLYLINE
  5
48D
330
A
100
AcDbEntity
  8
0
  6
Continuous
 62
     7
100
AcDbPolyline
 90
        6
 70
   128
 43
0.0
 10
70.44999999999991
 20
-207.8479771167952
 10
70.61334693841065
 20
-207.8284981095265
 10
70.80104206912121
 20
-207.8001147757415
 10
70.98665290206596
 20
-207.7655510081553
 10
71.16977265372091
 20
-207.7248825565018
 10
71.34999999999992
 20
-207.6781985495016
  0
LWPOLYLINE
  5
495
330
A
100
AcDbEntity
  8
0
  6
Continuous
 62
     7
100
AcDbPolyline
 90
        6
 70
   128
 43
0.0
 10
68.34999999999992
 20
-207.6781985495017
 10
68.53022734627893
 20
-207.7248825565018
 10
68.71334709793387
 20
-207.7655510081553
 10
68.89895793087865
 20
-207.8001147757414
 10
69.08665306158919
 20
-207.8284981095265
 10
69.24999999999993
 20
-207.8479771167952
  0
LINE
  5
49D
330
A
100
AcDbEntity
  8
0
  6
Continuous
 62
     7
100
AcDbLine
 10
71.3499999999999
 20
-207.87918883972
 30
0.0
 11
71.34999999999994
 21
-214.7076159644663
 31
0.0
  0
LINE
  5
49E
330
A
100
AcDbEntity
  8
0
  6
Continuous
 62
     7
100
AcDbLine
 10
68.34999999999992
 20
-207.8791888397201
 30
0.0
 11
68.34999999999993
 21
-214.7076159644663
 31
0.0
  0
LINE
  5
49F
330
A
100
AcDbEntity
  8
0
  6
Continuous
 62
     7
100
AcDbLine
 10
68.34999999999992
 20
-207.6781985495017
 30
0.0
 11
68.34999999999992
 21
-207.8791888397201
 31
0.0
  0
LINE
  5
4A0
330
A
100
AcDbEntity
  8
0
  6
Continuous
 62
     7
100
AcDbLine
 10
71.34999999999992
 20
-207.6781985495016
 30
0.0
 11
71.3499999999999
 21
-207.87918883972
 31
0.0
  0
LINE
  5
4A1
330
A
100
AcDbEntity
  8
0
  6
Continuous
 62
     7
100
AcDbLine
 10
73.8499999999999
 20
-203.90458447883
 30
0.0
 11
73.8499999999999
 21
-207.4300510368552
 31
0.0
  0
LINE
  5
4A2
330
A
100
AcDbEntity
  8
0
  6
Continuous
 62
     7
100
AcDbLine
 10
65.84999999999991
 20
-203.873958531908
 30
0.0
 11
65.84999999999992
 21
-207.4300510368553
 31
0.0
  0
LINE
  5
4A3
330
A
100
AcDbEntity
  8
0
  6
Continuous
 62
     7
100
AcDbLine
 10
83.84999999999996
 20
-215.2752349877911
 30
0.0
 11
83.85000000000003
 21
-235.275234987791
 31
0.0
  0
LINE
  5
4A4
330
A
100
AcDbEntity
  8
0
  6
Continuous
 62
     7
100
AcDbLine
 10
78.84999999999995
 20
-215.2752349877911
 30
0.0
 11
78.85000000000002
 21
-235.275234987791
 31
0.0
  0
LINE
  5
4A5
330
A
100
AcDbEntity
  8
0
  6
Continuous
 62
     7
100
AcDbLine
 10
63.84999999999995
 20
-217.0752349877911
 30
0.0
 11
63.85
 21
-233.4752349877911
 31
0.0
  0
LINE
  5
4A6
330
A
100
AcDbEntity
  8
0
  6
Continuous
 62
     7
100
AcDbLine
 10
75.84999999999995
 20
-217.0752349877911
 30
0.0
 11
75.84999999999999
 21
-233.4752349877911
 31
0.0
  0
ARC
  5
4A7
330
A
100
AcDbEntity
  8
0
  6
Continuous
 62
     7
100
AcDbCircle
 10
69.84999999999999
 20
-229.375234987791
 30
0.0
 40
7.000000000000007
100
AcDbArc
 50
148.9972808661262
 51
180.0000000000004
  0
ARC
  5
4A8
330
A
100
AcDbEntity
  8
0
  6
Continuous
 62
     7
100
AcDbCircle
 10
69.84999999999999
 20
-229.375234987791
 30
0.0
 40
7.000000000000007
100
AcDbArc
 50
328.9972808661267
 51
344.2507071322061
  0
ARC
  5
4A9
330
A
100
AcDbEntity
  8
0
  6
Continuous
 62
     7
100
AcDbCircle
 10
69.84999999999999
 20
-229.375234987791
 30
0.0
 40
7.0
100
AcDbArc
 50
300.0000000000007
 51
324.1465329365341
  0
ARC
  5
4AA
330
A
100
AcDbEntity
  8
0
  6
Continuous
 62
     7
100
AcDbCircle
 10
69.84999999999999
 20
-229.375234987791
 30
0.0
 40
6.999999999999995
100
AcDbArc
 50
215.8534670634678
 51
240.0000000000007
  0
ARC
  5
4AB
330
A
100
AcDbEntity
  8
0
  6
Continuous
 62
     7
100
AcDbCircle
 10
69.84999999999999
 20
-229.375234987791
 30
0.0
 40
7.000000000000007
100
AcDbArc
 50
180.0000000000004
 51
211.002719133875
  0
ARC
  5
4AC
330
A
100
AcDbEntity
  8
0
  6
Continuous
 62
     7
100
AcDbCircle
 10
69.84999999999999
 20
-229.375234987791
 30
0.0
 40
7.250000000000003
100
AcDbArc
 50
298.8657274150078
 51
344.8071372749889
  0
ARC
  5
4AD
330
A
100
AcDbEntity
  8
0
  6
Continuous
 62
     7
100
AcDbCircle
 10
69.84999999999999
 20
-229.375234987791
 30
0.0
 40
7.250000000000025
100
AcDbArc
 50
145.8515756550529
 51
241.1342725849936
  0
ARC
  5
4AE
330
A
100
AcDbEntity
  8
0
  6
Continuous
 62
     7
100
AcDbCircle
 10
69.84999999999999
 20
-290.8752349877909
 30
0.0
 40
85.00000000000003
100
AcDbArc
 50
92.66251355940282
 51
266.6277133165673
  0
ARC
  5
4AF
330
A
100
AcDbEntity
  8
0
  6
Continuous
 62
     7
100
AcDbCircle
 10
69.84999999999999
 20
-290.8752349877909
 30
0.0
 40
85.00000000000005
100
AcDbArc
 50
273.3722866834351
 51
87.33748644059728
  0
LINE
  5
4B0
330
A
100
AcDbEntity
  8
0
  6
PHANTOM
 62
     7
100
AcDbLine
 10
83.35000000000087
 20
-497.1252349877921
 30
0.0
 11
56.35000000000099
 21
-497.1252349877921
 31
0.0
  0
LWPOLYLINE
  5
4B1
330
A
100
AcDbEntity
  8
0
  6
PHANTOM
 62
     7
100
AcDbPolyline
 90
       15
 70
   128
 43
0.0
 10
69.85000000000124
 20
-588.2297908515385
 10
72.83055637544157
 20
-588.0688362821937
 10
75.76927227283086
 20
-587.5882320234959
 10
78.62489456271449
 20
-586.7947247057399
 10
81.35733656774368
 20
-585.6994534322774
 10
83.92824079175465
 20
-584.3177934109236
 10
86.30151737493378
 20
-582.6691401197421
 10
88.4438507163397
 20
-580.7766370370486
 10
90.32516715191167
 20
-578.6668507577062
 10
91.91905712279071
 20
-576.3693980563682
 10
93.20314590763564
 20
-573.9165301328832
 10
94.15940771466452
 20
-571.3426798761438
 10
94.7744187242584
 20
-568.6839785018054
 10
95.03954552996338
 20
-565.9777483492186
 10
95.04658414290938
 20
-564.8881922537571
  0
LWPOLYLINE
  5
4C2
330
A
100
AcDbEntity
  8
0
  6
PHANTOM
 62
     7
100
AcDbPolyline
 90
       14
 70
   128
 43
0.0
 10
44.66472014287471
 20
-566.0980232693737
 10
44.925581275744
 20
-568.6839785018061
 10
45.54059228533796
 20
-571.3426798761442
 10
46.49685409236691
 20
-573.9165301328836
 10
47.78094287721187
 20
-576.3693980563687
 10
49.37483284809098
 20
-578.6668507577066
 10
51.25614928366299
 20
-580.7766370370489
 10
53.39848262506895
 20
-582.6691401197423
 10
55.77175920824813
 20
-584.3177934109238
 10
58.34266343225911
 20
-585.6994534322776
 10
61.07510543728834
 20
-586.7947247057401
 10
63.93072772717196
 20
-587.5882320234961
 10
66.86944362456127
 20
-588.0688362821937
 10
69.85000000000124
 20
-588.2297908515385
  0
LWPOLYLINE
  5
4D2
330
A
100
AcDbEntity
  8
0
  6
PHANTOM
 62
     7
100
AcDbPolyline
 90
       22
 70
   128
 43
0.0
 10
91.66689037795402
 20
-557.6564983234744
 10
91.57110101937284
 20
-557.4474991007355
 10
90.27666149174862
 20
-555.0819774213875
 10
88.6725745977017
 20
-552.8791340594666
 10
86.78315665942969
 20
-550.8723618748846
 10
84.63704932691021
 20
-549.092081488369
 10
82.2667853996829
 20
-547.5652801358612
 10
79.70829566277052
 20
-546.3151025695298
 10
77.00036421260382
 20
-545.3605002069196
 10
74.18404052965401
 20
-544.7159438467797
 10
71.30201721015231
 20
-544.3912043065051
 10
68.39798278984955
 20
-544.3912043065051
 10
65.51595947034785
 20
-544.7159438467797
 10
62.69963578739805
 20
-545.3605002069196
 10
59.99170433723138
 20
-546.31510256953
 10
57.43321460031903
 20
-547.5652801358615
 10
55.06295067309174
 20
-549.0920814883692
 10
52.91684334057231
 20
-550.872361874885
 10
51.02742540230035
 20
-552.8791340594669
 10
49.42333850825348
 20
-555.0819774213879
 10
48.12889898062929
 20
-557.4474991007358
 10
47.77645002433689
 20
-558.2498398147204
  0
LWPOLYLINE
  5
4EA
330
A
100
AcDbEntity
  8
0
  6
PHANTOM
 62
     7
100
AcDbPolyline
 90
       51
 70
   128
 43
0.0
 10
69.85000000000124
 20
-586.7214417338995
 10
72.68290187942921
 20
-586.5592583546462
 10
75.47112720392504
 20
-586.0752659456604
 10
78.17070399451637
 20
-585.2770973563552
 10
80.73905831256656
 20
-584.1773401821864
 10
83.13568567621944
 20
-582.793338250754
 10
85.32278984027444
 20
-581.1469180992792
 10
87.2658788655517
 20
-579.2640447570748
 10
88.9343090773775
 20
-577.1744122615208
 10
90.3017683346394
 20
-574.9109753653585
 10
91.34669098796987
 20
-572.5094298205521
 10
92.05259798291931
 20
-570.0076494349566
 10
92.408356744489
 20
-567.4450887797442
 10
92.40835674448897
 20
-564.8621609672471
 10
92.05259798291926
 20
-562.2996003120348
 10
91.34669098796976
 20
-559.7978199264392
 10
90.30176833463926
 20
-557.3962743816328
 10
88.93430907737734
 20
-555.1328374854705
 10
87.26587886555151
 20
-553.0432049899167
 10
85.32278984027421
 20
-551.1603316477121
 10
83.13568567621919
 20
-549.5139114962374
 10
80.73905831256627
 20
-548.1299095648051
 10
78.17070399451607
 20
-547.0301523906363
 10
75.47112720392473
 20
-546.2319838013312
 10
72.6829018794289
 20
-545.7479913923454
 10
69.85000000000093
 20
-545.5858080130919
 10
67.01709812057297
 20
-545.7479913923455
 10
64.22887279607714
 20
-546.2319838013312
 10
61.52929600548581
 20
-547.0301523906365
 10
58.96094168743564
 20
-548.1299095648052
 10
56.56431432378276
 20
-549.5139114962377
 10
54.37721015972778
 20
-551.1603316477125
 10
52.43412113445053
 20
-553.043204989917
 10
50.76569092262477
 20
-555.1328374854709
 10
49.39823166536288
 20
-557.3962743816332
 10
48.35330901203244
 20
-559.7978199264397
 10
47.64740201708301
 20
-562.2996003120351
 10
47.29164325551336
 20
-564.8621609672475
 10
47.2916432555134
 20
-567.4450887797446
 10
47.64740201708313
 20
-570.0076494349571
 10
48.35330901203264
 20
-572.5094298205524
 10
49.39823166536316
 20
-574.9109753653589
 10
50.76569092262513
 20
-577.1744122615212
 10
52.43412113445096
 20
-579.2640447570749
 10
54.37721015972826
 20
-581.1469180992796
 10
56.5643143237833
 20
-582.7933382507543
 10
58.96094168743623
 20
-584.1773401821866
 10
61.52929600548644
 20
-585.2770973563553
 10
64.22887279607778
 20
-586.0752659456604
 10
67.01709812057362
 20
-586.5592583546462
 10
69.85000000000124
 20
-586.7214417338995
  0
LWPOLYLINE
  5
51F
330
A
100
AcDbEntity
  8
0
  6
PHANTOM
 62
     7
100
AcDbPolyline
 90
       37
 70
   128
 43
0.0
 10
69.85000000000143
 20
-640.1932717565943
 10
74.21531135288382
 20
-640.0331949789837
 10
78.55231198653491
 20
-639.5540028054811
 10
82.83287478760144
 20
-638.758802981213
 10
87.02923866373133
 20
-637.6527526821831
 10
91.11418858491051
 20
-636.243025069007
 10
95.06123208337587
 20
-634.538762766213
 10
98.84477106743464
 20
-632.5510185688141
 10
102.4402678349118
 20
-630.2926837606906
 10
105.8244042095645
 20
-627.7784045096677
 10
108.9752327684033
 20
-625.0244868814966
 10
111.8723191791516
 20
-622.0487910887608
 10
114.4968747247322
 20
-618.8706156605452
 10
116.8318781553071
 20
-615.5105722840677
 10
118.8621860776145
 20
-611.9904521299798
 10
120.574631165685
 20
-608.3330845282615
 10
121.9581075560032
 20
-604.5621889112577
 10
123.0036428732942
 20
-600.7022209840568
 10
123.7044564198206
 20
-596.7782141198576
 10
124.0560031508088
 20
-592.8156170089403
 10
124.0560031508088
 20
-588.8401286141425
 10
123.7044564198205
 20
-584.877531503225
 10
123.0036428732941
 20
-580.953524639026
 10
121.958107556003
 20
-577.0935567118249
 10
120.5746311656848
 20
-573.3226610948213
 10
118.8621860776142
 20
-569.6652934931032
 10
116.8318781553067
 20
-566.145173339015
 10
114.4968747247318
 20
-562.7851299625376
 10
111.8723191791511
 20
-559.6069545343221
 10
108.9752327684028
 20
-556.6312587415865
 10
105.8244042095639
 20
-553.8773411134152
 10
102.4402678349112
 20
-551.3630618623923
 10
98.844771067434
 20
-549.104727054269
 10
95.0612320833752
 20
-547.1169828568702
 10
91.11418858490981
 20
-545.4127205540762
 10
87.0292386637306
 20
-544.0029929409002
 10
86.85000000000101
 20
-543.9488574281629
  0
LWPOLYLINE
  5
546
330
A
100
AcDbEntity
  8
0
  6
PHANTOM
 62
     7
100
AcDbPolyline
 90
       37
 70
   128
 43
0.0
 10
52.85000000000116
 20
-543.948857428163
 10
52.67076133627085
 20
-544.0029929409005
 10
48.58581141509167
 20
-545.4127205540766
 10
44.63876791662634
 20
-547.1169828568706
 10
40.85522893256759
 20
-549.1047270542696
 10
37.25973216509049
 20
-551.3630618623929
 10
33.87559579043773
 20
-553.877341113416
 10
30.72476723159898
 20
-556.6312587415872
 10
27.8276808208507
 20
-559.606954534323
 10
25.20312527527015
 20
-562.7851299625385
 10
22.86812184469526
 20
-566.1451733390162
 10
20.83781392238787
 20
-569.6652934931042
 10
19.12536883431741
 20
-573.3226610948223
 10
17.74189244399927
 20
-577.093556711826
 10
16.69635712670825
 20
-580.9535246390271
 10
15.9955435801819
 20
-584.8775315032262
 10
15.64399684919373
 20
-588.8401286141436
 10
15.6439968491938
 20
-592.8156170089413
 10
15.99554358018208
 20
-596.7782141198587
 10
16.69635712670855
 20
-600.7022209840577
 10
17.74189244399968
 20
-604.5621889112588
 10
19.12536883431794
 20
-608.3330845282624
 10
20.83781392238852
 20
-611.9904521299805
 10
22.86812184469601
 20
-615.5105722840686
 10
25.20312527527101
 20
-618.8706156605461
 10
27.82768082085167
 20
-622.0487910887617
 10
30.72476723160003
 20
-625.0244868814973
 10
33.87559579043887
 20
-627.7784045096683
 10
37.2597321650917
 20
-630.2926837606912
 10
40.85522893256888
 20
-632.5510185688146
 10
44.63876791662768
 20
-634.5387627662135
 10
48.58581141509308
 20
-636.2430250690073
 10
52.67076133627228
 20
-637.6527526821834
 10
56.86712521240218
 20
-638.7588029812132
 10
61.1476880134687
 20
-639.5540028054812
 10
65.48468864711981
 20
-640.0331949789837
 10
69.85000000000143
 20
-640.1932717565943
  0
LWPOLYLINE
  5
56D
330
A
100
AcDbEntity
  8
0
  6
PHANTOM
 62
     7
100
AcDbPolyline
 90
        9
 70
   128
 43
0.0
 10
68.34999999999992
 20
-219.0695340530915
 10
68.66997297981012
 20
-219.2586227924537
 10
69.03647589952925
 20
-219.3992773699711
 10
69.43505709106904
 20
-219.485951599897
 10
69.84999999999991
 20
-219.5152278090419
 10
70.26494290893078
 20
-219.485951599897
 10
70.66352410047056
 20
-219.3992773699711
 10
71.0300270201897
 20
-219.2586227924537
 10
71.3499999999999
 20
-219.0695340530915
  0
LWPOLYLINE
  5
578
330
A
100
AcDbEntity
  8
0
  6
PHANTOM
 62
     7
100
AcDbPolyline
 90
        9
 70
   128
 43
0.0
 10
73.34999999999992
 20
-220.9544840179774
 10
72.69598233163683
 20
-221.5314268759782
 10
71.85683779032257
 20
-221.9726193918428
 10
70.8871514671734
 20
-222.2493626555591
 10
69.84999999999989
 20
-222.3436549337881
 10
68.81284853282642
 20
-222.2493626555591
 10
67.84316220967724
 20
-221.9726193918428
 10
67.00401766836302
 20
-221.5314268759782
 10
66.34999999999994
 20
-220.9544840179774
  0
LINE
  5
583
330
A
100
AcDbEntity
  8
0
  6
PHANTOM
 62
     7
100
AcDbLine
 10
68.34999999999992
 20
-216.9910730840089
 30
0.0
 11
68.34999999999992
 21
-219.0695340530915
 31
0.0
  0
LWPOLYLINE
  5
584
330
A
100
AcDbEntity
  8
0
  6
PHANTOM
 62
     7
100
AcDbPolyline
 90
        9
 70
   128
 43
0.0
 10
71.34999999999992
 20
-216.9910730840088
 10
71.0300270201897
 20
-216.8019843446466
 10
70.66352410047056
 20
-216.6613297671293
 10
70.26494290893078
 20
-216.5746555372033
 10
69.84999999999989
 20
-216.5453793280585
 10
69.43505709106904
 20
-216.5746555372034
 10
69.03647589952924
 20
-216.6613297671293
 10
68.66997297981011
 20
-216.8019843446467
 10
68.34999999999992
 20
-216.9910730840089
  0
LINE
  5
58F
330
A
100
AcDbEntity
  8
0
  6
PHANTOM
 62
     7
100
AcDbLine
 10
71.3499999999999
 20
-219.0695340530915
 30
0.0
 11
71.34999999999992
 21
-216.9910730840088
 31
0.0
  0
LWPOLYLINE
  5
590
330
A
100
AcDbEntity
  8
0
  6
PHANTOM
 62
     7
100
AcDbPolyline
 90
        5
 70
   128
 43
0.0
 10
66.35000000000001
 20
-242.0315112230682
 10
66.37245264035481
 20
-242.0698918816377
 10
67.19730057516703
 20
-243.1668257062476
 10
68.43342545820188
 20
-244.1262475825914
 10
69.25000000000006
 20
-244.3801603082812
  0
LWPOLYLINE
  5
597
330
A
100
AcDbEntity
  8
0
  6
PHANTOM
 62
     7
100
AcDbPolyline
 90
        6
 70
   128
 43
0.0
 10
70.45000000000005
 20
-244.3881115455035
 10
70.78542985768295
 20
-244.3341668074085
 10
71.00338984706642
 20
-244.2507404957886
 10
72.07397040404952
 20
-243.5746802940125
 10
73.03692745751838
 20
-242.5166549795829
 10
73.35000000000002
 20
-242.0315112230682
  0
LINE
  5
59F
330
A
100
AcDbEntity
  8
0
  6
PHANTOM
 62
     7
100
AcDbLine
 10
69.84999999999999
 20
-228.3540625738738
 30
0.0
 11
68.34999999999999
 21
-228.3540625738738
 31
0.0
  0
LINE
  5
5A0
330
A
100
AcDbEntity
  8
0
  6
PHANTOM
 62
     7
100
AcDbLine
 10
71.34999999999999
 20
-228.3540625738738
 30
0.0
 11
69.84999999999999
 21
-228.3540625738738
 31
0.0
  0
LWPOLYLINE
  5
5A1
330
A
100
AcDbEntity
  8
0
  6
PHANTOM
 62
     7
100
AcDbPolyline
 90
        4
 70
   128
 43
0.0
 10
73.35
 20
-245.1601258796091
 10
73.15883401578097
 20
-245.2750107027465
 10
71.56601904075735
 20
-245.9543895565396
 10
70.45000000000005
 20
-246.1039986894526
  0
LWPOLYLINE
  5
5A7
330
A
100
AcDbEntity
  8
0
  6
PHANTOM
 62
     7
100
AcDbPolyline
 90
        3
 70
   128
 43
0.0
 10
69.25000000000006
 20
-246.1435846023518
 10
67.74241348659304
 20
-245.8302054594115
 10
66.35000000000002
 20
-245.1601258796091
  0
LWPOLYLINE
  5
5AC
330
A
100
AcDbEntity
  8
0
  6
PHANTOM
 62
     7
100
AcDbPolyline
 90
        4
 70
   128
 43
0.0
 10
66.35000000000004
 20
-254.5242632002787
 10
66.37569532218447
 20
-254.5161582269251
 10
67.96075596590696
 20
-254.1204791584964
 10
69.25000000000008
 20
-253.997259948438
  0
LWPOLYLINE
  5
5B2
330
A
100
AcDbEntity
  8
0
  6
PHANTOM
 62
     7
100
AcDbPolyline
 90
        3
 70
   128
 43
0.0
 10
70.45000000000007
 20
-254.0033355246251
 10
71.61658492489817
 20
-254.0989623129474
 10
73.35000000000007
 20
-254.5242632002786
  0
LWPOLYLINE
  5
5B7
330
A
100
AcDbEntity
  8
0
  6
PHANTOM
 62
     7
100
AcDbPolyline
 90
        5
 70
   128
 43
0.0
 10
73.35000000000005
 20
-257.067817259846
 10
73.22120363062416
 20
-256.9662296360083
 10
72.33238515176387
 20
-256.3457700826266
 10
71.03737675280044
 20
-255.7388958068878
 10
70.45000000000007
 20
-255.6373420067644
  0
LWPOLYLINE
  5
5BE
330
A
100
AcDbEntity
  8
0
  6
PHANTOM
 62
     7
100
AcDbPolyline
 90
        6
 70
   128
 43
0.0
 10
69.2500000000001
 20
-255.6321295614714
 10
68.79086605814295
 20
-255.7006837593632
 10
68.58018023938011
 20
-255.7656606635463
 10
67.51481160999287
 20
-256.2578468218356
 10
66.56493037322386
 20
-256.8998385395319
 10
66.34999999999971
 20
-257.067817259846
  0
LWPOLYLINE
  5
5C6
330
A
100
AcDbEntity
  8
0
  6
PHANTOM
 62
     7
100
AcDbPolyline
 90
        7
 70
   128
 43
0.0
 10
69.6300191149329
 20
-204.6930323874309
 10
68.45272425632022
 20
-204.5236549080395
 10
67.39540731025373
 20
-204.1202435046767
 10
66.54885542498433
 20
-203.5174373373589
 10
65.98575828149737
 20
-202.7669967160695
 10
65.75446655083391
 20
-201.9333586709646
 10
65.750026671109
 20
-201.787613409504
  0
LWPOLYLINE
  5
5CF
330
A
100
AcDbEntity
  8
0
  6
PHANTOM
 62
     7
100
AcDbPolyline
 90
        7
 70
   128
 43
0.0
 10
73.94997218595134
 20
-201.7873917007804
 10
73.94553344916589
 20
-201.9333586709646
 10
73.71424171850242
 20
-202.7669967160695
 10
73.15114457501545
 20
-203.5174373373589
 10
72.30459268974605
 20
-204.1202435046767
 10
71.24727574367955
 20
-204.5236549080395
 10
70.06998088506691
 20
-204.6930323874309
  0
LWPOLYLINE
  5
5D8
330
A
100
AcDbEntity
  8
0
  6
PHANTOM
 62
     7
100
AcDbPolyline
 90
       17
 70
   128
 43
0.0
 10
69.84999999999989
 20
-201.8687811996344
 10
70.6536352079666
 20
-201.7557480722629
 10
71.33492424049165
 20
-201.4338569591427
 10
71.7901470182736
 20
-200.9521128642961
 10
71.94999999999989
 20
-200.3838569591427
 10
71.79014701827359
 20
-199.8156010539891
 10
71.33492424049163
 20
-199.3338569591426
 10
70.65363520796657
 20
-199.0119658460225
 10
69.84999999999986
 20
-198.8989327186509
 10
69.04636479203318
 20
-199.0119658460225
 10
68.36507575950813
 20
-199.3338569591426
 10
67.90985298172618
 20
-199.8156010539892
 10
67.7499999999999
 20
-200.3838569591427
 10
67.9098529817262
 20
-200.9521128642962
 10
68.36507575950816
 20
-201.4338569591427
 10
69.04636479203323
 20
-201.7557480722629
 10
69.84999999999989
 20
-201.8687811996344
  0
LINE
  5
5EB
330
A
100
AcDbEntity
  8
0
  6
PHANTOM
 62
     7
100
AcDbLine
 10
69.24999999999993
 20
-207.87918883972
 30
0.0
 11
68.34999999999992
 21
-207.8791888397201
 31
0.0
  0
LINE
  5
5EC
330
A
100
AcDbEntity
  8
0
  6
PHANTOM
 62
     7
100
AcDbLine
 10
71.3499999999999
 20
-207.87918883972
 30
0.0
 11
70.44999999999991
 21
-207.87918883972
 31
0.0
  0
LINE
  5
5ED
330
A
100
AcDbEntity
  8
0
  6
PHANTOM
 62
     7
100
AcDbLine
 10
65.74999999999992
 20
-206.7478179898216
 30
0.0
 11
65.84999999999992
 21
-206.7478179898216
 31
0.0
  0
LINE
  5
5EE
330
A
100
AcDbEntity
  8
0
  6
PHANTOM
 62
     7
100
AcDbLine
 10
73.8499999999999
 20
-206.7478179898216
 30
0.0
 11
73.94999999999992
 21
-206.7478179898216
 31
0.0
  0
ARC
  5
5EF
330
A
100
AcDbEntity
  8
0
  6
PHANTOM
 62
     7
100
AcDbCircle
 10
69.84999999999999
 20
-229.375234987791
 30
0.0
 40
9.446534325145066
100
AcDbArc
 50
291.7468423597675
 51
342.312984014904
  0
ARC
  5
5F0
330
A
100
AcDbEntity
  8
0
  6
PHANTOM
 62
     7
100
AcDbCircle
 10
69.84999999999999
 20
-229.375234987791
 30
0.0
 40
9.446534325145071
100
AcDbArc
 50
129.4313753915734
 51
248.2531576402341
  0
ARC
  5
5F1
330
A
100
AcDbEntity
  8
0
  6
PHANTOM
 62
     7
100
AcDbCircle
 10
69.84999999999999
 20
-229.375234987791
 30
0.0
 40
10.43449419091446
100
AcDbArc
 50
309.942614054068
 51
329.6011516315237
  0
ARC
  5
5F2
330
A
100
AcDbEntity
  8
0
  6
PHANTOM
 62
     7
100
AcDbCircle
 10
69.84999999999999
 20
-229.375234987791
 30
0.0
 40
10.43449419091445
100
AcDbArc
 50
289.9538528625346
 51
298.631854413986
  0
ARC
  5
5F3
330
A
100
AcDbEntity
  8
0
  6
PHANTOM
 62
     7
100
AcDbCircle
 10
69.84999999999999
 20
-229.375234987791
 30
0.0
 40
10.43449419091448
100
AcDbArc
 50
125.1007452316914
 51
250.0567267962082
  0
ARC
  5
5F4
330
A
100
AcDbEntity
  8
0
  6
PHANTOM
 62
     7
100
AcDbCircle
 10
69.84999999999999
 20
-229.3752349877909
 30
0.0
 40
14.7352623579123
100
AcDbArc
 50
312.7377849095381
 51
336.3968091715822
  0
ARC
  5
5F5
330
A
100
AcDbEntity
  8
0
  6
PHANTOM
 62
     7
100
AcDbCircle
 10
69.84999999999999
 20
-229.3752349877909
 30
0.0
 40
14.73526235791229
100
AcDbArc
 50
341.823825411328
 51
18.17617458867313
  0
ARC
  5
5F6
330
A
100
AcDbEntity
  8
0
  6
PHANTOM
 62
     7
100
AcDbCircle
 10
69.84999999999999
 20
-229.3752349877909
 30
0.0
 40
14.73526235791231
100
AcDbArc
 50
52.35409396327633
 51
70.16442256167029
  0
ARC
  5
5F7
330
A
100
AcDbEntity
  8
0
  6
PHANTOM
 62
     7
100
AcDbCircle
 10
69.84999999999999
 20
-229.3752349877909
 30
0.0
 40
14.73526235791229
100
AcDbArc
 50
73.11473035183971
 51
73.84456421629991
  0
ARC
  5
5F8
330
A
100
AcDbEntity
  8
0
  6
PHANTOM
 62
     7
100
AcDbCircle
 10
69.84999999999999
 20
-229.3752349877909
 30
0.0
 40
14.73526235791229
100
AcDbArc
 50
106.1554357837005
 51
106.8852696481607
  0
ARC
  5
5F9
330
A
100
AcDbEntity
  8
0
  6
PHANTOM
 62
     7
100
AcDbCircle
 10
69.84999999999999
 20
-229.3752349877909
 30
0.0
 40
14.7352623579123
100
AcDbArc
 50
109.8355774383302
 51
250.164422561671
  0
ARC
  5
5FA
330
A
100
AcDbEntity
  8
0
  6
PHANTOM
 62
     7
100
AcDbCircle
 10
69.84999999999999
 20
-229.3752349877909
 30
0.0
 40
16.71118208945108
100
AcDbArc
 50
104.2022054895861
 51
252.5903889345002
  0
ARC
  5
5FB
330
A
100
AcDbEntity
  8
0
  6
PHANTOM
 62
     7
100
AcDbCircle
 10
69.84999999999999
 20
-229.3752349877909
 30
0.0
 40
16.71118208945108
100
AcDbArc
 50
57.41422961262588
 51
75.79779451041436
  0
ARC
  5
5FC
330
A
100
AcDbEntity
  8
0
  6
PHANTOM
 62
     7
100
AcDbCircle
 10
69.84999999999999
 20
-229.3752349877909
 30
0.0
 40
16.71118208945107
100
AcDbArc
 50
306.7555143758521
 51
33.09541664614073
  0
ARC
  5
5FD
330
A
100
AcDbEntity
  8
0
  6
PHANTOM
 62
     7
100
AcDbCircle
 10
69.84999999999999
 20
-290.8752349877909
 30
0.0
 40
83.50000000000004
100
AcDbArc
 50
273.4329386376503
 51
87.1855425894134
  0
ARC
  5
5FE
330
A
100
AcDbEntity
  8
0
  6
PHANTOM
 62
     7
100
AcDbCircle
 10
69.84999999999999
 20
-290.8752349877909
 30
0.0
 40
83.50000000000003
100
AcDbArc
 50
92.81445741058673
 51
266.567061362352
  0
LINE
  5
5FF
330
A
100
AcDbEntity
  8
0
  6
Continuous
 62
     7
100
AcDbLine
 10
658.6665522330179
 20
262.6690483131215
 30
0.0
 11
680.9296818923434
 21
213.817068886771
 31
0.0
  0
LINE
  5
600
330
A
100
AcDbEntity
  8
0
  6
Continuous
 62
     7
100
AcDbLine
 10
682.7496044340965
 20
214.6464553720835
 30
0.0
 11
660.4864747747711
 21
263.4984347984339
 31
0.0
  0
ARC
  5
601
330
A
100
AcDbEntity
  8
0
  6
Continuous
 62
     7
100
AcDbCircle
 10
683.7323948886204
 20
210.0784975272188
 30
0.0
 40
1.000000000000142
100
AcDbArc
 50
204.5000000000138
 51
24.49999999999731
  0
LINE
  5
602
330
A
100
AcDbEntity
  8
0
  6
Continuous
 62
     7
100
AcDbLine
 10
684.6423561594971
 20
210.493190769875
 30
0.0
 11
682.7496044340965
 21
214.6464553720835
 31
0.0
  0
LINE
  5
603
330
A
100
AcDbEntity
  8
0
  6
Continuous
 62
     7
100
AcDbLine
 10
680.9296818923434
 20
213.817068886771
 30
0.0
 11
682.8224336177438
 21
209.6638042845626
 31
0.0
  0
ARC
  5
604
330
A
100
AcDbEntity
  8
0
  6
Continuous
 62
     7
100
AcDbCircle
 10
654.2629450987091
 20
326.5680518123425
 30
0.0
 40
0.6249999999998864
100
AcDbArc
 50
0.0
 51
180.0000000000004
  0
ARC
  5
605
330
A
100
AcDbEntity
  8
0
  6
Continuous
 62
     7
100
AcDbCircle
 10
654.2629450987091
 20
292.5680518123426
 30
0.0
 40
0.6249999999998864
100
AcDbArc
 50
180.0000000000004
 51
360.0000000000008
  0
LINE
  5
606
330
A
100
AcDbEntity
  8
0
  6
Continuous
 62
     7
100
AcDbLine
 10
653.6379450987092
 20
326.5680518123425
 30
0.0
 11
653.6379450987092
 21
292.5680518123426
 31
0.0
  0
LINE
  5
607
330
A
100
AcDbEntity
  8
0
  6
Continuous
 62
     7
100
AcDbLine
 10
656.7370976130417
 20
326.5680518123425
 30
0.0
 11
654.8879450987089
 21
326.5680518123425
 31
0.0
  0
LINE
  5
608
330
A
100
AcDbEntity
  8
0
  6
Continuous
 62
     7
100
AcDbLine
 10
654.8879450987089
 20
292.5680518123426
 30
0.0
 11
656.6500018457214
 21
292.5680518123426
 31
0.0
  0
LINE
  5
609
330
A
100
AcDbEntity
  8
0
  6
Continuous
 62
     7
100
AcDbLine
 10
639.2629450987091
 20
326.0680518123425
 30
0.0
 11
624.2629450987091
 21
326.0680518123425
 31
0.0
  0
LINE
  5
60A
330
A
100
AcDbEntity
  8
0
  6
Continuous
 62
     7
100
AcDbLine
 10
624.2629450987091
 20
293.0680518123426
 30
0.0
 11
639.2629450987091
 21
293.0680518123426
 31
0.0
  0
ARC
  5
60B
330
A
100
AcDbEntity
  8
0
  6
Continuous
 62
     7
100
AcDbCircle
 10
611.512945098709
 20
317.0680518123425
 30
0.0
 40
6.0
100
AcDbArc
 50
90.0
 51
180.0000000000004
  0
ARC
  5
60C
330
A
100
AcDbEntity
  8
0
  6
Continuous
 62
     7
100
AcDbCircle
 10
611.512945098709
 20
302.0680518123425
 30
0.0
 40
6.0
100
AcDbArc
 50
180.0000000000004
 51
270.0000000000008
  0
LINE
  5
60D
330
A
100
AcDbEntity
  8
0
  6
Continuous
 62
     7
100
AcDbLine
 10
624.2629450987091
 20
323.0680518123425
 30
0.0
 11
611.512945098709
 21
323.0680518123425
 31
0.0
  0
LINE
  5
60E
330
A
100
AcDbEntity
  8
0
  6
Continuous
 62
     7
100
AcDbLine
 10
611.512945098709
 20
296.0680518123425
 30
0.0
 11
624.2629450987091
 21
296.0680518123425
 31
0.0
  0
LINE
  5
60F
330
A
100
AcDbEntity
  8
0
  6
Continuous
 62
     7
100
AcDbLine
 10
653.6379450987093
 20
323.0680518123425
 30
0.0
 11
639.2629450987091
 21
323.0680518123425
 31
0.0
  0
LINE
  5
610
330
A
100
AcDbEntity
  8
0
  6
Continuous
 62
     7
100
AcDbLine
 10
639.2629450987091
 20
296.0680518123426
 30
0.0
 11
653.6379450987093
 21
296.0680518123426
 31
0.0
  0
LINE
  5
611
330
A
100
AcDbEntity
  8
0
  6
Continuous
 62
     7
100
AcDbLine
 10
605.5129450987091
 20
316.0680518123425
 30
0.0
 11
595.5129450987091
 21
316.0680518123425
 31
0.0
  0
LINE
  5
612
330
A
100
AcDbEntity
  8
0
  6
Continuous
 62
     7
100
AcDbLine
 10
595.5129450987091
 20
303.0680518123426
 30
0.0
 11
605.5129450987091
 21
303.0680518123426
 31
0.0
  0
ARC
  5
613
330
A
100
AcDbEntity
  8
0
  6
Continuous
 62
     7
100
AcDbCircle
 10
656.5758971520547
 20
263.6394406731707
 30
0.0
 40
1.749999999999957
100
AcDbArc
 50
114.5000000000032
 51
294.4999999999999
  0
ARC
  5
614
330
A
100
AcDbEntity
  8
0
  6
Continuous
 62
     7
100
AcDbCircle
 10
755.3066950421595
 20
308.6336575013723
 30
0.0
 40
1.7499999999999
100
AcDbArc
 50
294.500000000009
 51
114.4999999999958
  0
LINE
  5
615
330
A
100
AcDbEntity
  8
0
  6
Continuous
 62
     7
100
AcDbLine
 10
753.8503364941309
 20
309.8931154452734
 30
0.0
 11
702.6175009624555
 21
354.1992389519406
 31
0.0
  0
LINE
  5
616
330
A
100
AcDbEntity
  8
0
  6
Continuous
 62
     7
100
AcDbLine
 10
656.7543378091134
 20
333.2981913411881
 30
0.0
 11
656.7370976130417
 21
326.5680518123425
 31
0.0
  0
LINE
  5
617
330
A
100
AcDbEntity
  8
0
  6
Continuous
 62
     7
100
AcDbLine
 10
656.6500018457214
 20
292.5680518123426
 30
0.0
 11
656.5808293507866
 21
265.5648471773375
 31
0.0
  0
ARC
  5
618
330
A
100
AcDbEntity
  8
0
  6
Continuous
 62
     7
100
AcDbCircle
 10
657.5043353483752
 20
333.2962701173303
 30
0.0
 40
0.7499999999999979
100
AcDbArc
 50
114.4999999999999
 51
179.8532291458743
  0
ARC
  5
619
330
A
100
AcDbEntity
  8
0
  6
Continuous
 62
     7
100
AcDbCircle
 10
702.1269082711533
 20
353.6319481876575
 30
0.0
 40
0.75000000000002
100
AcDbArc
 50
49.14677085192639
 51
114.4999999999991
  0
LINE
  5
61A
330
A
100
AcDbEntity
  8
0
  6
Continuous
 62
     7
100
AcDbLine
 10
701.8158883391612
 20
354.3144191408149
 30
0.0
 11
657.193315416383
 21
333.9787410704877
 31
0.0
  0
LINE
  5
61B
330
A
100
AcDbEntity
  8
0
  6
Continuous
 62
     7
100
AcDbLine
 10
334.6629450987091
 20
282.4680518123425
 30
0.0
 11
334.662945098709
 21
82.46805181234247
 31
0.0
  0
LINE
  5
61C
330
A
100
AcDbEntity
  8
0
  6
Continuous
 62
     7
100
AcDbLine
 10
566.7629450987091
 20
314.5680518123425
 30
0.0
 11
386.762945098709
 21
314.5680518123425
 31
0.0
  0
ARC
  5
61D
330
A
100
AcDbEntity
  8
0
  6
Continuous
 62
     7
100
AcDbCircle
 10
333.762945098709
 20
31.82591618861153
 30
0.0
 40
14.10000000000005
100
AcDbArc
 50
0.0
 51
15.39818744479758
  0
LINE
  5
61E
330
A
100
AcDbEntity
  8
0
  6
Continuous
 62
     7
100
AcDbLine
 10
318.2363902978746
 20
55.69633100744711
 30
0.0
 11
332.1475901780055
 21
41.78513112731632
 31
0.0
  0
LINE
  5
61F
330
A
100
AcDbEntity
  8
0
  6
Continuous
 62
     7
100
AcDbLine
 10
313.2866428295688
 20
60.64607847575294
 30
0.0
 11
314.7008563919419
 21
59.23186491337985
 31
0.0
  0
LINE
  5
620
330
A
100
AcDbEntity
  8
0
  6
Continuous
 62
     7
100
AcDbLine
 10
322.266898950638
 20
63.2623735661432
 30
0.0
 11
320.1853046379572
 21
65.34396787882402
 31
0.0
  0
LINE
  5
621
330
A
100
AcDbEntity
  8
0
  6
Continuous
 62
     7
100
AcDbLine
 10
335.6806756980268
 20
49.84859681875434
 30
0.0
 11
327.9237532001304
 21
57.60551931665077
 31
0.0
  0
ARC
  5
622
330
A
100
AcDbEntity
  8
0
  6
Continuous
 62
     7
100
AcDbCircle
 10
314.7008563919419
 20
62.06029203812605
 30
0.0
 40
2.000000000000015
100
AcDbArc
 50
135.0
 51
225.0000000000008
  0
ARC
  5
623
330
A
100
AcDbEntity
  8
0
  6
Continuous
 62
     7
100
AcDbCircle
 10
317.6707048729253
 20
65.03014051910955
 30
0.0
 40
2.00000000000003
100
AcDbArc
 50
46.5886242331676
 51
134.9999999999972
  0
LINE
  5
624
330
A
100
AcDbEntity
  8
0
  6
Continuous
 62
     7
100
AcDbLine
 10
347.862945098709
 20
13.46805181234245
 30
0.0
 11
347.862945098709
 21
31.82591618861153
 31
0.0
  0
LINE
  5
625
330
A
100
AcDbEntity
  8
0
  6
Continuous
 62
     7
100
AcDbLine
 10
339.662945098709
 20
30.26805181234249
 30
0.0
 11
339.662945098709
 21
13.46805181234245
 31
0.0
  0
LINE
  5
626
330
A
100
AcDbEntity
  8
0
  6
Continuous
 62
     7
100
AcDbLine
 10
335.662945098709
 20
82.46805181234247
 30
0.0
 11
335.662945098709
 21
49.84135948837313
 31
0.0
  0
LINE
  5
627
330
A
100
AcDbEntity
  8
0
  6
Continuous
 62
     7
100
AcDbLine
 10
343.662945098709
 20
45.62626387961176
 30
0.0
 11
343.662945098709
 21
82.46805181234247
 31
0.0
  0
LINE
  5
628
330
A
100
AcDbEntity
  8
0
  6
Continuous
 62
     7
100
AcDbLine
 10
342.7417726847906
 20
334.3874998319902
 30
0.0
 11
336.731365044705
 21
340.3979074720758
 31
0.0
  0
LINE
  5
629
330
A
100
AcDbEntity
  8
0
  6
Continuous
 62
     7
100
AcDbLine
 10
358.8767740849527
 20
318.2524984318285
 30
0.0
 11
350.5199472778428
 21
326.609325238938
 31
0.0
  0
ARC
  5
62A
330
A
100
AcDbEntity
  8
0
  6
Continuous
 62
     7
100
AcDbCircle
 10
332.3473030013484
 20
336.0138454287192
 30
0.0
 40
2.000000000000056
100
AcDbArc
 50
134.9999999999988
 51
225.0000000000019
  0
ARC
  5
62B
330
A
100
AcDbEntity
  8
0
  6
Continuous
 62
     7
100
AcDbCircle
 10
335.317151482332
 20
338.9836939097027
 30
0.0
 40
2.000000000000015
100
AcDbArc
 50
45.0000000000023
 51
135.0
  0
LINE
  5
62C
330
A
100
AcDbEntity
  8
0
  6
Continuous
 62
     7
100
AcDbLine
 10
330.9330894389753
 20
334.599631866346
 30
0.0
 11
335.1757301260947
 21
330.3569911792268
 31
0.0
  0
LWPOLYLINE
  5
62D
330
A
100
AcDbEntity
  8
0
  6
Continuous
 62
     7
100
AcDbPolyline
 90
        9
 70
   128
 43
0.0
 10
333.2269926159987
 20
285.1579253814072
 10
333.2368795585431
 20
285.1550432481827
 10
333.2787861408204
 20
285.1424138359126
 10
333.4045828478482
 20
285.1014497675958
 10
333.7170015930649
 20
284.9790744880384
 10
334.1576785339482
 20
284.7511349476662
 10
334.8728786499961
 20
284.2050284459789
 10
335.425525191027
 20
283.5466160653616
 10
335.559540557249
 20
283.2830106841322
  0
LINE
  5
638
330
A
100
AcDbEntity
  8
0
  6
Continuous
 62
     7
100
AcDbLine
 10
335.562946778681
 20
283.3259161886113
 30
0.0
 11
335.5629450987091
 21
282.4680518123425
 31
0.0
  0
LWPOLYLINE
  5
639
330
A
100
AcDbEntity
  8
0
  6
Continuous
 62
     7
100
AcDbPolyline
 90
       13
 70
   128
 43
0.0
 10
342.2455398384492
 20
295.8974347542271
 10
341.9385262350512
 20
295.5733750441774
 10
341.1490783656213
 20
295.0765351451948
 10
340.3641533045898
 20
294.7983702850684
 10
339.627810182373
 20
294.6922276393001
 10
338.9730502285542
 20
294.7131518313751
 10
338.4229873553581
 20
294.8154766349761
 10
337.9924813249369
 20
294.9536016077535
 10
337.6913829518126
 20
295.0837717780279
 10
337.5612071385268
 20
295.1494685252244
 10
337.5088048310642
 20
295.1776376948673
 10
337.480479187143
 20
295.1932970054649
 10
337.4762924023733
 20
295.1956552516093
  0
LINE
  5
648
330
A
100
AcDbEntity
  8
0
  6
Continuous
 62
     7
100
AcDbLine
 10
338.7112640320274
 20
326.8214572732941
 30
0.0
 11
353.0784984792231
 21
312.4542228260986
 31
0.0
  0
LINE
  5
649
330
A
100
AcDbEntity
  8
0
  6
Continuous
 62
     7
100
AcDbLine
 10
343.7629450987091
 20
282.4680518123425
 30
0.0
 11
343.7629450987091
 21
283.3259161886113
 31
0.0
  0
ARC
  5
64A
330
A
100
AcDbEntity
  8
0
  6
Continuous
 62
     7
100
AcDbCircle
 10
349.662945098709
 20
283.3259161886114
 30
0.0
 40
5.899999999999983
100
AcDbArc
 50
135.0000000000008
 51
180.0000000000004
  0
LINE
  5
64B
330
A
100
AcDbEntity
  8
0
  6
Continuous
 62
     7
100
AcDbLine
 10
353.0830549976122
 20
306.6864373169754
 30
0.0
 11
342.2715285753362
 21
295.8749108946991
 31
0.0
  0
LINE
  5
64C
330
A
100
AcDbEntity
  8
0
  6
Continuous
 62
     7
100
AcDbLine
 10
345.4910150897084
 20
287.497846197612
 30
0.0
 11
358.8800524107418
 21
300.8868835186456
 31
0.0
  0
LWPOLYLINE
  5
64D
330
A
100
AcDbEntity
  8
0
  6
Continuous
 62
     7
100
AcDbPolyline
 90
       10
 70
   128
 43
0.0
 10
353.6526018591086
 20
308.3563864117563
 10
353.6529572903927
 20
308.3536871119009
 10
353.6543682233827
 20
308.3423916899314
 10
353.6559331148982
 20
308.3291814166462
 10
353.6583334390738
 20
308.3072451278466
 10
353.6644064406473
 20
308.2365425167099
 10
353.6658510413265
 20
307.9882780979586
 10
353.5905079545915
 20
307.5459319031256
 10
353.2941242628847
 20
306.9350260903919
 10
353.062664750761
 20
306.7071404982603
  0
LWPOLYLINE
  5
659
330
A
100
AcDbEntity
  8
0
  6
Continuous
 62
     7
100
AcDbPolyline
 90
       12
 70
   128
 43
0.0
 10
353.066101982572
 20
312.4410112013239
 10
353.2589260835117
 20
312.2486424783001
 10
353.491503883695
 20
311.8590428057658
 10
353.6141610048674
 20
311.5005146376725
 10
353.6620666292294
 20
311.2019185051166
 10
353.6682958876505
 20
310.9815391315318
 10
353.6601652907693
 20
310.8473397900404
 10
353.6567788078211
 20
310.8143980752161
 10
353.6551209560187
 20
310.7999709779738
 10
353.6540166157331
 20
310.7908452724579
 10
353.6529851240886
 20
310.7826340760289
 10
353.6522823578684
 20
310.7772371454816
  0
LWPOLYLINE
  5
667
330
A
100
AcDbEntity
  8
0
  6
Continuous
 62
     7
100
AcDbPolyline
 90
       13
 70
   128
 43
0.0
 10
358.8874948357464
 20
300.8812881404418
 10
358.9332356339304
 20
300.9382679933912
 10
359.3241087726173
 20
301.2222749694694
 10
359.6982120771802
 20
301.3827946738559
 10
360.022074717115
 20
301.4553204058923
 10
360.2735025209713
 20
301.4740019700341
 10
360.4406254176628
 20
301.4688657027465
 10
360.5018303546675
 20
301.4634706293644
 10
360.523446935131
 20
301.4611099142113
 10
360.5338313730808
 20
301.4598902057056
 10
360.5426697544725
 20
301.4588073366998
 10
360.5511435140274
 20
301.4577283940629
 10
360.5511653316063
 20
301.4577255026629
  0
LWPOLYLINE
  5
676
330
A
100
AcDbEntity
  8
0
  6
Continuous
 62
     7
100
AcDbPolyline
 90
       10
 70
   128
 43
0.0
 10
360.5512796981287
 20
317.6783950519436
 10
360.5485803982869
 20
317.6780396206614
 10
360.5372849762685
 20
317.6766286876652
 10
360.5240747030455
 20
317.6750637961571
 10
360.5021384142406
 20
317.6726634719806
 10
360.431435803199
 20
317.6665904704125
 10
360.1831713877319
 20
317.6651458695331
 10
359.7408251963884
 20
317.7404889544686
 10
359.1299193790038
 20
318.0368726465561
 10
358.8980302541345
 20
318.2723984780473
  0
LWPOLYLINE
  5
682
330
A
100
AcDbEntity
  8
0
  6
Continuous
 62
     7
100
AcDbPolyline
 90
       10
 70
   128
 43
0.0
 10
368.3545903109638
 20
304.6899251117554
 10
368.3580200677283
 20
304.6943829799629
 10
368.3643333474588
 20
304.7024791007822
 10
368.373065354204
 20
304.7135335431115
 10
368.3876552080067
 20
304.7316503304132
 10
368.4369629261462
 20
304.7898459398517
 10
368.6552866539988
 20
305.0026138994896
 10
369.1055404878708
 20
305.2866216420802
 10
369.6841765126945
 20
305.4519083005004
 10
369.9368584783952
 20
305.4374446558804
  0
LWPOLYLINE
  5
68E
330
A
100
AcDbEntity
  8
0
  6
Continuous
 62
     7
100
AcDbPolyline
 90
       12
 70
   128
 43
0.0
 10
369.9388852651862
 20
313.6693625959334
 10
369.4571557225018
 20
313.7266783465284
 10
369.0632260353024
 20
313.8694522125342
 10
368.7678540707658
 20
314.0460218035236
 10
368.5634795839583
 20
314.2151455532007
 10
368.4377376068119
 20
314.3453784825122
 10
368.3861514606093
 20
314.4063006495693
 10
368.372432552282
 20
314.4233657555911
 10
368.3654652444825
 20
314.4321823511851
 10
368.3600376567828
 20
314.4391234847461
 10
368.3549274674785
 20
314.4457204698749
 10
368.3539338170709
 20
314.4470161407334
  0
LINE
  5
69C
330
A
100
AcDbEntity
  8
0
  6
Continuous
 62
     7
100
AcDbLine
 10
369.938669440959
 20
305.4680518123425
 30
0.0
 11
386.762945098709
 21
305.4680518123425
 31
0.0
  0
LINE
  5
69D
330
A
100
AcDbEntity
  8
0
  6
Continuous
 62
     7
100
AcDbLine
 10
386.762945098709
 20
313.6680518123425
 30
0.0
 11
369.938669440959
 21
313.6680518123425
 31
0.0
  0
LINE
  5
69E
330
A
100
AcDbEntity
  8
0
  6
Continuous
 62
     7
100
AcDbLine
 10
566.7629450987091
 20
306.0680518123426
 30
0.0
 11
574.262945098709
 21
306.0680518123426
 31
0.0
  0
LINE
  5
69F
330
A
100
AcDbEntity
  8
0
  6
Continuous
 62
     7
100
AcDbLine
 10
567.262945098709
 20
313.0680518123426
 30
0.0
 11
566.7629450987091
 21
313.0680518123426
 31
0.0
  0
LINE
  5
6A0
330
A
100
AcDbEntity
  8
0
  6
Continuous
 62
     7
100
AcDbLine
 10
574.262945098709
 20
306.0680518123426
 30
0.0
 11
582.7629450987091
 21
306.0680518123426
 31
0.0
  0
LINE
  5
6A1
330
A
100
AcDbEntity
  8
0
  6
Continuous
 62
     7
100
AcDbLine
 10
582.7629450987091
 20
313.0680518123426
 30
0.0
 11
581.2629450987089
 21
313.0680518123426
 31
0.0
  0
LINE
  5
6A2
330
A
100
AcDbEntity
  8
0
  6
Continuous
 62
     7
100
AcDbLine
 10
350.6629450987091
 20
82.46805181234247
 30
0.0
 11
350.6629450987091
 21
282.4680518123425
 31
0.0
  0
LINE
  5
6A3
330
A
100
AcDbEntity
  8
0
  6
Continuous
 62
     7
100
AcDbLine
 10
386.762945098709
 20
298.5680518123425
 30
0.0
 11
566.7629450987091
 21
298.5680518123425
 31
0.0
  0
LINE
  5
6A4
330
A
100
AcDbEntity
  8
0
  6
Continuous
 62
     7
100
AcDbLine
 10
329.0685362641472
 20
290.7182313314409
 30
0.0
 11
319.040824996264
 21
66.48278348316229
 31
0.0
  0
LINE
  5
6A5
330
A
100
AcDbEntity
  8
0
  6
Continuous
 62
     7
100
AcDbLine
 10
320.1910546046207
 20
65.34302065100722
 30
0.0
 11
330.1199109406561
 21
287.3679162284101
 31
0.0
  0
LINE
  5
6A6
330
A
100
AcDbEntity
  8
0
  6
Continuous
 62
     7
100
AcDbLine
 10
572.396201268962
 20
319.8147968996154
 30
0.0
 11
349.0439878677253
 21
335.4420415633666
 31
0.0
  0
LINE
  5
6A7
330
A
100
AcDbEntity
  8
0
  6
Continuous
 62
     7
100
AcDbLine
 10
350.7717512798833
 20
334.1182218195917
 30
0.0
 11
570.1964956575456
 21
318.7657696837768
 31
0.0
  0
LINE
  5
6A8
330
A
100
AcDbEntity
  8
0
  6
Continuous
 62
     7
100
AcDbLine
 10
490.262945098709
 20
-27.03194818765753
 30
0.0
 11
490.262945098709
 21
-18.03194818765752
 31
0.0
  0
LINE
  5
6A9
330
A
100
AcDbEntity
  8
0
  6
Continuous
 62
     7
100
AcDbLine
 10
320.262945098709
 20
-18.03194818765752
 30
0.0
 11
320.262945098709
 21
-27.03194818765753
 31
0.0
  0
ARC
  5
6AA
330
A
100
AcDbEntity
  8
0
  6
Continuous
 62
     7
100
AcDbCircle
 10
321.762945098709
 20
-18.03194818765752
 30
0.0
 40
1.5
100
AcDbArc
 50
90.0
 51
180.0000000000004
  0
ARC
  5
6AB
330
A
100
AcDbEntity
  8
0
  6
Continuous
 62
     7
100
AcDbCircle
 10
488.762945098709
 20
-18.03194818765752
 30
0.0
 40
1.5
100
AcDbArc
 50
0.0
 51
90.0
  0
ARC
  5
6AC
330
A
100
AcDbEntity
  8
0
  6
Continuous
 62
     7
100
AcDbCircle
 10
321.262945098709
 20
-27.03194818765753
 30
0.0
 40
1.000000000000003
100
AcDbArc
 50
180.0000000000004
 51
270.0000000000008
  0
ARC
  5
6AD
330
A
100
AcDbEntity
  8
0
  6
Continuous
 62
     7
100
AcDbCircle
 10
489.262945098709
 20
-27.03194818765753
 30
0.0
 40
1.000000000000003
100
AcDbArc
 50
270.0000000000008
 51
0.0
  0
LINE
  5
6AE
330
A
100
AcDbEntity
  8
0
  6
Continuous
 62
     7
100
AcDbLine
 10
415.2629450987093
 20
-30.53194818765753
 30
0.0
 11
415.2629450987093
 21
-28.03194818765753
 31
0.0
  0
LINE
  5
6AF
330
A
100
AcDbEntity
  8
0
  6
Continuous
 62
     7
100
AcDbLine
 10
395.2629450987093
 20
-28.03194818765753
 30
0.0
 11
395.2629450987093
 21
-30.53194818765753
 31
0.0
  0
LINE
  5
6B0
330
A
100
AcDbEntity
  8
0
  6
Continuous
 62
     7
100
AcDbLine
 10
358.9712938527207
 20
-30.53194818765753
 30
0.0
 11
358.9712938527207
 21
-28.03194818765753
 31
0.0
  0
LINE
  5
6B1
330
A
100
AcDbEntity
  8
0
  6
Continuous
 62
     7
100
AcDbLine
 10
338.9712938527206
 20
-28.03194818765753
 30
0.0
 11
338.9712938527206
 21
-30.53194818765753
 31
0.0
  0
LINE
  5
6B2
330
A
100
AcDbEntity
  8
0
  6
Continuous
 62
     7
100
AcDbLine
 10
471.5545963446976
 20
-30.53194818765753
 30
0.0
 11
471.5545963446976
 21
-28.03194818765753
 31
0.0
  0
LINE
  5
6B3
330
A
100
AcDbEntity
  8
0
  6
Continuous
 62
     7
100
AcDbLine
 10
451.5545963446976
 20
-28.03194818765753
 30
0.0
 11
451.5545963446976
 21
-30.53194818765753
 31
0.0
  0
ARC
  5
6B4
330
A
100
AcDbEntity
  8
0
  6
Continuous
 62
     7
100
AcDbCircle
 10
327.051763009258
 20
-14.53194818765752
 30
0.0
 40
2.00000000000002
100
AcDbArc
 50
270.0000000000008
 51
351.1000000000002
  0
ARC
  5
6B5
330
A
100
AcDbEntity
  8
0
  6
Continuous
 62
     7
100
AcDbCircle
 10
360.4741271881601
 20
-14.53194818765752
 30
0.0
 40
2.00000000000002
100
AcDbArc
 50
188.9000000000014
 51
270.0000000000008
  0
LINE
  5
6B6
330
A
100
AcDbEntity
  8
0
  6
Continuous
 62
     7
100
AcDbLine
 10
358.4982074566213
 20
-14.84136896025648
 30
0.0
 11
354.1974392896235
 21
12.62276219864194
 31
0.0
  0
LINE
  5
6B7
330
A
100
AcDbEntity
  8
0
  6
Continuous
 62
     7
100
AcDbLine
 10
333.3284509077945
 20
12.62276219864194
 30
0.0
 11
329.0276827407968
 21
-14.84136896025648
 31
0.0
  0
ARC
  5
6B8
330
A
100
AcDbEntity
  8
0
  6
Continuous
 62
     7
100
AcDbCircle
 10
334.3164107735639
 20
12.46805181234245
 30
0.0
 40
1.0
100
AcDbArc
 50
90.0
 51
171.0999999999925
  0
ARC
  5
6B9
330
A
100
AcDbEntity
  8
0
  6
Continuous
 62
     7
100
AcDbCircle
 10
353.2094794238541
 20
12.46805181234245
 30
0.0
 40
1.0
100
AcDbArc
 50
8.900000000007405
 51
90.0
  0
CIRCLE
  5
6BA
330
A
100
AcDbEntity
  8
0
  6
Continuous
 62
     7
100
AcDbCircle
 10
339.8426348819261
 20
331.4883620291255
 30
0.0
 40
2.450000000000045
  0
LINE
  5
6BB
330
A
100
AcDbEntity
  8
0
  6
Continuous
 62
     7
100
AcDbLine
 10
582.7629450987091
 20
312.8180518123425
 30
0.0
 11
607.7629450987092
 21
312.8180518123425
 31
0.0
  0
LINE
  5
6BC
330
A
100
AcDbEntity
  8
0
  6
Continuous
 62
     7
100
AcDbLine
 10
582.7629450987091
 20
306.3180518123425
 30
0.0
 11
607.7629450987092
 21
306.3180518123425
 31
0.0
  0
LINE
  5
6BD
330
A
100
AcDbEntity
  8
0
  6
Continuous
 62
     7
100
AcDbLine
 10
607.7629450987092
 20
312.8180518123425
 30
0.0
 11
627.9632740603166
 21
312.8180518123425
 31
0.0
  0
LINE
  5
6BE
330
A
100
AcDbEntity
  8
0
  6
Continuous
 62
     7
100
AcDbLine
 10
607.7629450987092
 20
306.3180518123425
 30
0.0
 11
627.9632740603166
 21
306.3180518123425
 31
0.0
  0
CIRCLE
  5
6BF
330
A
100
AcDbEntity
  8
0
  6
Continuous
 62
     7
100
AcDbCircle
 10
631.7629450987092
 20
309.5680518123426
 30
0.0
 40
5.0
  0
LINE
  5
6C0
330
A
100
AcDbEntity
  8
0
  6
Continuous
 62
     7
100
AcDbLine
 10
654.8879450987089
 20
326.5680518123426
 30
0.0
 11
654.8879450987089
 21
292.5680518123425
 31
0.0
  0
LINE
  5
6C1
330
A
100
AcDbEntity
  8
0
  6
Continuous
 62
     7
100
AcDbLine
 10
624.2629450987091
 20
326.0680518123425
 30
0.0
 11
624.2629450987091
 21
312.8180518123425
 31
0.0
  0
LINE
  5
6C2
330
A
100
AcDbEntity
  8
0
  6
Continuous
 62
     7
100
AcDbLine
 10
624.2629450987091
 20
306.3180518123425
 30
0.0
 11
624.2629450987091
 21
293.0680518123426
 31
0.0
  0
LINE
  5
6C3
330
A
100
AcDbEntity
  8
0
  6
Continuous
 62
     7
100
AcDbLine
 10
639.2629450987091
 20
326.0680518123425
 30
0.0
 11
639.2629450987091
 21
293.0680518123426
 31
0.0
  0
LINE
  5
6C4
330
A
100
AcDbEntity
  8
0
  6
Continuous
 62
     7
100
AcDbLine
 10
605.5129450987091
 20
317.0680518123425
 30
0.0
 11
605.5129450987091
 21
312.8180518123425
 31
0.0
  0
LINE
  5
6C5
330
A
100
AcDbEntity
  8
0
  6
Continuous
 62
     7
100
AcDbLine
 10
605.5129450987091
 20
306.3180518123425
 30
0.0
 11
605.5129450987091
 21
302.0680518123425
 31
0.0
  0
LINE
  5
6C6
330
A
100
AcDbEntity
  8
0
  6
Continuous
 62
     7
100
AcDbLine
 10
595.5129450987091
 20
316.0680518123425
 30
0.0
 11
595.5129450987091
 21
312.8180518123425
 31
0.0
  0
LINE
  5
6C7
330
A
100
AcDbEntity
  8
0
  6
Continuous
 62
     7
100
AcDbLine
 10
595.5129450987091
 20
306.3180518123425
 30
0.0
 11
595.5129450987091
 21
303.0680518123426
 31
0.0
  0
LINE
  5
6C8
330
A
100
AcDbEntity
  8
0
  6
Continuous
 62
     7
100
AcDbLine
 10
655.8501839792878
 20
265.231872898062
 30
0.0
 11
754.5809818675113
 21
310.2260897254061
 31
0.0
  0
LINE
  5
6C9
330
A
100
AcDbEntity
  8
0
  6
Continuous
 62
     7
100
AcDbLine
 10
756.0324082149265
 20
307.0412252764813
 30
0.0
 11
657.3016103267029
 21
262.047008449137
 31
0.0
  0
CIRCLE
  5
6CA
330
A
100
AcDbEntity
  8
0
  6
Continuous
 62
     7
100
AcDbCircle
 10
339.6629450987091
 20
38.46805181234247
 30
0.0
 40
8.200000000000045
  0
CIRCLE
  5
6CB
330
A
100
AcDbEntity
  8
0
  6
Continuous
 62
     7
100
AcDbCircle
 10
334.6629450987091
 20
290.4680518123425
 30
0.0
 40
5.0
  0
LINE
  5
6CC
330
A
100
AcDbEntity
  8
0
  6
Continuous
 62
     7
100
AcDbLine
 10
334.662945098709
 20
82.46805181234247
 30
0.0
 11
340.9129450987091
 21
82.46805181234247
 31
0.0
  0
LINE
  5
6CD
330
A
100
AcDbEntity
  8
0
  6
Continuous
 62
     7
100
AcDbLine
 10
334.6629450987091
 20
282.4680518123425
 30
0.0
 11
340.9129450987091
 21
282.4680518123425
 31
0.0
  0
CIRCLE
  5
6CE
330
A
100
AcDbEntity
  8
0
  6
Continuous
 62
     7
100
AcDbCircle
 10
361.7629450987091
 20
309.5680518123426
 30
0.0
 40
5.0
  0
LINE
  5
6CF
330
A
100
AcDbEntity
  8
0
  6
Continuous
 62
     7
100
AcDbLine
 10
566.7629450987091
 20
314.5680518123425
 30
0.0
 11
566.7629450987091
 21
308.3180518123425
 31
0.0
  0
LINE
  5
6D0
330
A
100
AcDbEntity
  8
0
  6
Continuous
 62
     7
100
AcDbLine
 10
386.762945098709
 20
314.5680518123425
 30
0.0
 11
386.7629450987091
 21
308.3180518123425
 31
0.0
  0
LINE
  5
6D1
330
A
100
AcDbEntity
  8
0
  6
Continuous
 62
     7
100
AcDbLine
 10
340.9129450987091
 20
82.46805181234247
 30
0.0
 11
348.4129450987091
 21
82.46805181234247
 31
0.0
  0
LINE
  5
6D2
330
A
100
AcDbEntity
  8
0
  6
Continuous
 62
     7
100
AcDbLine
 10
340.9129450987091
 20
282.4680518123425
 30
0.0
 11
348.4129450987091
 21
282.4680518123425
 31
0.0
  0
LINE
  5
6D3
330
A
100
AcDbEntity
  8
0
  6
Continuous
 62
     7
100
AcDbLine
 10
566.7629450987091
 20
308.3180518123425
 30
0.0
 11
566.7629450987091
 21
300.8180518123426
 31
0.0
  0
LINE
  5
6D4
330
A
100
AcDbEntity
  8
0
  6
Continuous
 62
     7
100
AcDbLine
 10
386.7629450987091
 20
308.3180518123425
 30
0.0
 11
386.7629450987091
 21
300.8180518123426
 31
0.0
  0
LWPOLYLINE
  5
6D5
330
A
100
AcDbEntity
  8
0
  6
Continuous
 62
     7
100
AcDbPolyline
 90
       10
 70
   128
 43
0.0
 10
320.1846440996136
 20
65.34330734048051
 10
320.1844906655069
 20
65.34342827762476
 10
320.1410303006211
 20
65.37802507076489
 10
320.0599291276881
 20
65.44440959913565
 10
319.940002183698
 20
65.54697576745728
 10
319.7376528144638
 20
65.7321268402154
 10
319.4837513134935
 20
65.98629004618143
 10
319.2526839264261
 20
66.23895107439
 10
319.1321735241084
 20
66.37880857670513
 10
319.0807424983487
 20
66.44017814453289
  0
LWPOLYLINE
  5
6E1
330
A
100
AcDbEntity
  8
0
  6
Continuous
 62
     7
100
AcDbPolyline
 90
        6
 70
   128
 43
0.0
 10
335.6734378120291
 20
49.84135893275666
 10
335.6688020041391
 20
49.85238990533868
 10
335.7288486555697
 20
49.70953203860364
 10
335.9083168407039
 20
49.28294258341622
 10
336.3544909338747
 20
48.22539635762686
 10
337.1810844880749
 20
46.2834448228943
  0
LINE
  5
6E9
330
A
100
AcDbEntity
  8
0
  6
Continuous
 62
     7
100
AcDbLine
 10
317.5999941948068
 20
62.13100271624472
 30
0.0
 11
314.7008563919419
 21
59.23186491337985
 31
0.0
  0
LINE
  5
6EA
330
A
100
AcDbEntity
  8
0
  6
Continuous
 62
     7
100
AcDbLine
 10
318.2363902978746
 20
55.69633100744711
 30
0.0
 11
321.1355281007395
 21
58.59546881031199
 31
0.0
  0
LWPOLYLINE
  5
6EB
330
A
100
AcDbEntity
  8
0
  6
Continuous
 62
     7
100
AcDbPolyline
 90
       12
 70
   128
 43
0.0
 10
321.1355281007395
 20
58.59546881031199
 10
321.4591905958217
 20
58.99359242874369
 10
321.7591845581492
 20
59.63447374978881
 10
321.8677423294447
 20
60.37293582967151
 10
321.7207044427027
 20
61.20801848732408
 10
321.3773396562342
 20
61.85037873499677
 10
320.8480838815271
 20
62.37784356727678
 10
320.2698277512769
 20
62.69481802492887
 10
319.5726189869978
 20
62.85482827926251
 10
318.7231309460726
 20
62.77869677580898
 10
317.9130204995933
 20
62.39639331903569
 10
317.5999941948068
 20
62.13100271624472
  0
LINE
  5
6F9
330
A
100
AcDbEntity
  8
0
  6
Continuous
 62
     7
100
AcDbLine
 10
327.7227629099119
 20
57.40452902643235
 30
0.0
 11
322.0659086604195
 21
63.06138327592474
 31
0.0
  0
LWPOLYLINE
  5
6FA
330
A
100
AcDbEntity
  8
0
  6
Continuous
 62
     7
100
AcDbPolyline
 90
        3
 70
   128
 43
0.0
 10
319.0807424983487
 20
66.44017814453289
 10
319.0485728013737
 20
66.47819487118193
 10
319.0447666224687
 20
66.48260043627434
  0
LINE
  5
6FF
330
A
100
AcDbEntity
  8
0
  6
Continuous
 62
     7
100
AcDbLine
 10
313.2866430084329
 20
63.47450577936325
 30
0.0
 11
316.2564913105523
 21
66.44435408148265
 31
0.0
  0
CIRCLE
  5
700
330
A
100
AcDbEntity
  8
0
  6
Continuous
 62
     7
100
AcDbCircle
 10
319.3677611477732
 20
60.36323576327836
 30
0.0
 40
2.449999999999988
  0
CIRCLE
  5
701
330
A
100
AcDbEntity
  8
0
  6
Continuous
 62
     7
100
AcDbCircle
 10
574.2629450987091
 20
313.0680518123426
 30
0.0
 40
7.0
  0
LINE
  5
702
330
A
100
AcDbEntity
  8
0
  6
Continuous
 62
     7
100
AcDbLine
 10
350.3189569876244
 20
326.4083349487197
 30
0.0
 11
342.5407823945723
 21
334.1865095417718
 31
0.0
  0
LINE
  5
703
330
A
100
AcDbEntity
  8
0
  6
Continuous
 62
     7
100
AcDbLine
 10
342.2718405845229
 20
332.0790901006366
 30
0.0
 11
356.4192213339852
 21
317.9317093511745
 31
0.0
  0
LWPOLYLINE
  5
704
330
A
100
AcDbEntity
  8
0
  6
Continuous
 62
     7
100
AcDbPolyline
 90
        5
 70
   128
 43
0.0
 10
340.4333629534371
 20
333.9175677317224
 10
341.1169858247737
 20
333.6391827270135
 10
341.7078103846343
 20
333.1530302675734
 10
342.0864447668087
 20
332.5907762890582
 10
342.271840584523
 20
332.0790901006364
  0
LINE
  5
70B
330
A
100
AcDbEntity
  8
0
  6
Continuous
 62
     7
100
AcDbLine
 10
335.3421941288943
 20
339.008736556265
 30
0.0
 11
340.4333629534371
 21
333.9175677317224
 31
0.0
  0
LINE
  5
70C
330
A
100
AcDbEntity
  8
0
  6
Continuous
 62
     7
100
AcDbLine
 10
330.9330894389753
 20
337.4280589910922
 30
0.0
 11
331.3787831949258
 21
337.8737527470426
 31
0.0
  0
LWPOLYLINE
  5
70D
330
A
100
AcDbEntity
  8
0
  6
Continuous
 62
     7
100
AcDbPolyline
 90
        7
 70
   128
 43
0.0
 10
332.3222603547861
 20
335.9888027821568
 10
331.8892989742137
 20
336.4641559889749
 10
331.5488398750095
 20
336.9293956032368
 10
331.3377615110377
 20
337.3444803844277
 10
331.286144039058
 20
337.6796014707735
 10
331.3759464411553
 20
337.8708813384676
 10
331.3787831949258
 20
337.8737527470426
  0
LINE
  5
716
330
A
100
AcDbEntity
  8
0
  6
Continuous
 62
     7
100
AcDbLine
 10
331.3787831949258
 20
337.8737527470426
 30
0.0
 11
333.4572441640084
 21
339.9522137161254
 31
0.0
  0
LWPOLYLINE
  5
717
330
A
100
AcDbEntity
  8
0
  6
Continuous
 62
     7
100
AcDbPolyline
 90
        7
 70
   128
 43
0.0
 10
335.3421941288943
 20
339.008736556265
 10
334.8668409220762
 20
339.4416979368376
 10
334.4016013078144
 20
339.7821570360417
 10
333.9865165266235
 20
339.9932354000134
 10
333.6513954402777
 20
340.0448528719932
 10
333.4601155725843
 20
339.9550504698967
 10
333.4572441640084
 20
339.9522137161254
  0
LINE
  5
720
330
A
100
AcDbEntity
  8
0
  6
Continuous
 62
     7
100
AcDbLine
 10
333.4572441640084
 20
339.9522137161254
 30
0.0
 11
333.9029379199589
 21
340.3979074720758
 31
0.0
  0
LWPOLYLINE
  5
721
330
A
100
AcDbEntity
  8
0
  6
Continuous
 62
     7
100
AcDbPolyline
 90
        4
 70
   128
 43
0.0
 10
359.5478359905261
 20
317.4631953600461
 10
358.2186745228682
 20
317.3270444084657
 10
356.8734867979717
 20
317.6271554329579
 10
356.4192213339852
 20
317.9317093511746
  0
ARC
  5
727
330
A
100
AcDbEntity
  8
0
  6
Continuous
 62
     7
100
AcDbCircle
 10
361.7629450987091
 20
309.5680518123426
 30
0.0
 40
8.199999999999997
100
AcDbArc
 50
29.32768440759195
 51
105.6723155924083
  0
LWPOLYLINE
  5
728
330
A
100
AcDbEntity
  8
0
  6
Continuous
 62
     7
100
AcDbPolyline
 90
        5
 70
   128
 43
0.0
 10
371.4555273707631
 20
311.7034674627487
 10
370.9045616747257
 20
311.8146595212751
 10
370.0436607125242
 20
312.3095303056942
 10
369.0183507415381
 20
313.4073680083943
 10
368.9119733111958
 20
313.5844426819007
  0
LINE
  5
72F
330
A
100
AcDbEntity
  8
0
  6
Continuous
 62
     7
100
AcDbLine
 10
386.7629450987091
 20
311.7034674627487
 30
0.0
 11
371.4555273707631
 21
311.7034674627487
 31
0.0
  0
LINE
  5
730
330
A
100
AcDbEntity
  8
0
  6
Continuous
 62
     7
100
AcDbLine
 10
371.4555273707631
 20
307.4326361619363
 30
0.0
 11
386.7629450987091
 21
307.4326361619363
 31
0.0
  0
LWPOLYLINE
  5
731
330
A
100
AcDbEntity
  8
0
  6
Continuous
 62
     7
100
AcDbPolyline
 90
        4
 70
   128
 43
0.0
 10
368.9119733111957
 20
305.5516609427844
 10
369.755559137141
 20
306.5877932909845
 10
370.9189610399115
 20
307.3267741127005
 10
371.4555273707631
 20
307.4326361619363
  0
ARC
  5
737
330
A
100
AcDbEntity
  8
0
  6
Continuous
 62
     7
100
AcDbCircle
 10
361.7629450987091
 20
309.5680518123426
 30
0.0
 40
8.200000000000022
100
AcDbArc
 50
254.3276844075934
 51
330.6723155924077
  0
LWPOLYLINE
  5
738
330
A
100
AcDbEntity
  8
0
  6
Continuous
 62
     7
100
AcDbPolyline
 90
        5
 70
   128
 43
0.0
 10
356.4192213339853
 20
301.2043942735105
 10
356.8874375724524
 20
301.5153611947817
 10
357.8461129682289
 20
301.7741836156105
 10
359.3474050857528
 20
301.7228987646916
 10
359.5478359905262
 20
301.672908264639
  0
LINE
  5
73F
330
A
100
AcDbEntity
  8
0
  6
Continuous
 62
     7
100
AcDbLine
 10
344.1018441738977
 20
288.8870171134227
 30
0.0
 11
356.4192213339853
 21
301.2043942735105
 31
0.0
  0
ARC
  5
740
330
A
100
AcDbEntity
  8
0
  6
Continuous
 62
     7
100
AcDbCircle
 10
349.6629450987091
 20
283.3259161886114
 30
0.0
 40
7.864584349593841
100
AcDbArc
 50
135.0
 51
180.0000000000004
  0
LINE
  5
741
330
A
100
AcDbEntity
  8
0
  6
Continuous
 62
     7
100
AcDbLine
 10
341.7983607491153
 20
283.3259161886113
 30
0.0
 11
341.7983607491153
 21
282.4680518123425
 31
0.0
  0
LINE
  5
742
330
A
100
AcDbEntity
  8
0
  6
Continuous
 62
     7
100
AcDbLine
 10
337.5275294483029
 20
282.4680518123425
 30
0.0
 11
337.5275294483029
 21
283.3259161886113
 31
0.0
  0
LWPOLYLINE
  5
743
330
A
100
AcDbEntity
  8
0
  6
Continuous
 62
     7
100
AcDbPolyline
 90
        3
 70
   128
 43
0.0
 10
333.7701902087706
 20
285.0409910326487
 10
335.9894230744812
 20
284.273204257175
 10
337.5275294483029
 20
283.3259161886114
  0
ARC
  5
748
330
A
100
AcDbEntity
  8
0
  6
Continuous
 62
     7
100
AcDbCircle
 10
334.6629450987091
 20
290.4680518123425
 30
0.0
 40
5.500000000000051
100
AcDbArc
 50
54.9894727740718
 51
260.6584708993848
  0
LWPOLYLINE
  5
749
330
A
100
AcDbEntity
  8
0
  6
Continuous
 62
     7
100
AcDbPolyline
 90
        6
 70
   128
 43
0.0
 10
343.7930779997955
 20
294.618118487537
 10
343.1948814068432
 20
294.2004276938742
 10
342.2732629592726
 20
293.9535028939309
 10
340.2076706297383
 20
294.0214395647806
 10
338.3256128048878
 20
294.6595974989624
 10
337.8184432322312
 20
294.9728083573002
  0
LINE
  5
751
330
A
100
AcDbEntity
  8
0
  6
Continuous
 62
     7
100
AcDbLine
 10
353.399287559877
 20
304.2243280476187
 30
0.0
 11
343.7930779997955
 21
294.618118487537
 31
0.0
  0
LWPOLYLINE
  5
752
330
A
100
AcDbEntity
  8
0
  6
Continuous
 62
     7
100
AcDbPolyline
 90
        4
 70
   128
 43
0.0
 10
353.8678015510055
 20
307.3529427041596
 10
354.003952502586
 20
306.0237812365017
 10
353.7038414780935
 20
304.6785935116052
 10
353.3992875598771
 20
304.2243280476187
  0
ARC
  5
758
330
A
100
AcDbEntity
  8
0
  6
Continuous
 62
     7
100
AcDbCircle
 10
361.7629450987091
 20
309.5680518123426
 30
0.0
 40
8.200000000000038
100
AcDbArc
 50
164.3276844075921
 51
195.6723155924086
  0
LWPOLYLINE
  5
759
330
A
100
AcDbEntity
  8
0
  6
Continuous
 62
     7
100
AcDbPolyline
 90
        5
 70
   128
 43
0.0
 10
353.399287559877
 20
314.9117755770662
 10
353.7102544811486
 20
314.4435593385987
 10
353.9690769019771
 20
313.4848839428211
 10
353.9177920510578
 20
311.9835918252975
 10
353.8678015510055
 20
311.7831609205254
  0
LINE
  5
760
330
A
100
AcDbEntity
  8
0
  6
Continuous
 62
     7
100
AcDbLine
 10
353.399287559877
 20
314.9117755770662
 30
0.0
 11
340.1004349478382
 21
328.2106281891048
 31
0.0
  0
LINE
  5
761
330
A
100
AcDbEntity
  8
0
  6
Continuous
 62
     7
100
AcDbLine
 10
341.6104018348925
 20
329.7205950761592
 30
0.0
 11
340.1004349478382
 21
328.2106281891048
 31
0.0
  0
ARC
  5
762
330
A
100
AcDbEntity
  8
0
  6
Continuous
 62
     7
100
AcDbCircle
 10
339.8426348819261
 20
331.4883620291255
 30
0.0
 40
2.50000000000002
100
AcDbArc
 50
315.0000000000008
 51
13.6677485024008
  0
LINE
  5
763
330
A
100
AcDbEntity
  8
0
  6
Continuous
 62
     7
100
AcDbLine
 10
336.5649010419054
 20
331.7461620950376
 30
0.0
 11
332.3222603547861
 21
335.9888027821568
 31
0.0
  0
LINE
  5
764
330
A
100
AcDbEntity
  8
0
  6
Continuous
 62
     7
100
AcDbLine
 10
335.1757301260947
 20
330.3569911792268
 30
0.0
 11
336.5649010419054
 21
331.7461620950376
 31
0.0
  0
LINE
  5
765
330
A
100
AcDbEntity
  8
0
  6
Continuous
 62
     7
100
AcDbLine
 10
336.5649010419054
 20
331.7461620950376
 30
0.0
 11
338.0748679289597
 21
333.2561289820919
 31
0.0
  0
ARC
  5
766
330
A
100
AcDbEntity
  8
0
  6
Continuous
 62
     7
100
AcDbCircle
 10
339.8426348819261
 20
331.4883620291255
 30
0.0
 40
2.50000000000002
100
AcDbArc
 50
76.33225149761156
 51
135.0000000000018
  0
LINE
  5
767
330
A
100
AcDbEntity
  8
0
  6
Continuous
 62
     7
100
AcDbLine
 10
335.562946778681
 20
283.3259161886113
 30
0.0
 11
337.5275294483029
 21
283.3259161886113
 31
0.0
  0
LINE
  5
768
330
A
100
AcDbEntity
  8
0
  6
Continuous
 62
     7
100
AcDbLine
 10
340.1004349478382
 20
328.2106281891048
 30
0.0
 11
338.7112640320274
 21
326.8214572732941
 31
0.0
  0
LINE
  5
769
330
A
100
AcDbEntity
  8
0
  6
Continuous
 62
     7
100
AcDbLine
 10
582.7629450987091
 20
313.0680518123426
 30
0.0
 11
582.7629450987091
 21
306.0680518123426
 31
0.0
  0
LINE
  5
76A
330
A
100
AcDbEntity
  8
0
  6
Continuous
 62
     7
100
AcDbLine
 10
348.4129450987091
 20
82.46805181234247
 30
0.0
 11
350.6629450987091
 21
82.46805181234247
 31
0.0
  0
LINE
  5
76B
330
A
100
AcDbEntity
  8
0
  6
Continuous
 62
     7
100
AcDbLine
 10
348.4129450987091
 20
282.4680518123425
 30
0.0
 11
350.6629450987091
 21
282.4680518123425
 31
0.0
  0
LINE
  5
76C
330
A
100
AcDbEntity
  8
0
  6
Continuous
 62
     7
100
AcDbLine
 10
566.7629450987091
 20
300.8180518123426
 30
0.0
 11
566.7629450987091
 21
298.5680518123425
 31
0.0
  0
LINE
  5
76D
330
A
100
AcDbEntity
  8
0
  6
Continuous
 62
     7
100
AcDbLine
 10
386.7629450987091
 20
300.8180518123426
 30
0.0
 11
386.762945098709
 21
298.5680518123425
 31
0.0
  0
LINE
  5
76E
330
A
100
AcDbEntity
  8
0
  6
Continuous
 62
     7
100
AcDbLine
 10
322.0659086604195
 20
63.06138327592474
 30
0.0
 11
322.266898950638
 21
63.2623735661432
 31
0.0
  0
ARC
  5
76F
330
A
100
AcDbEntity
  8
0
  6
Continuous
 62
     7
100
AcDbCircle
 10
325.0953260753842
 20
60.43394644139698
 30
0.0
 40
4.000000000000027
100
AcDbArc
 50
315.0000000000009
 51
134.9999999999989
  0
LINE
  5
770
330
A
100
AcDbEntity
  8
0
  6
Continuous
 62
     7
100
AcDbLine
 10
327.9237532001304
 20
57.60551931665077
 30
0.0
 11
327.7227629099119
 21
57.40452902643235
 31
0.0
  0
LINE
  5
771
330
A
100
AcDbEntity
  8
0
  6
Continuous
 62
     7
100
AcDbLine
 10
342.5407823945723
 20
334.1865095417718
 30
0.0
 11
342.7417726847906
 21
334.3874998319902
 31
0.0
  0
ARC
  5
772
330
A
100
AcDbEntity
  8
0
  6
Continuous
 62
     7
100
AcDbCircle
 10
346.6308599813168
 20
330.4984125354641
 30
0.0
 40
5.500000000000124
100
AcDbArc
 50
315.0
 51
135.0
  0
LINE
  5
773
330
A
100
AcDbEntity
  8
0
  6
Continuous
 62
     7
100
AcDbLine
 10
350.5199472778428
 20
326.609325238938
 30
0.0
 11
350.3189569876244
 21
326.4083349487197
 31
0.0
  0
LINE
  5
774
330
A
100
AcDbEntity
  8
0
  6
Continuous
 62
     7
100
AcDbLine
 10
329.1684364219072
 20
290.7137638400284
 30
0.0
 11
329.0685362641472
 21
290.7182313314409
 31
0.0
  0
ARC
  5
775
330
A
100
AcDbEntity
  8
0
  6
Continuous
 62
     7
100
AcDbCircle
 10
361.762945098709
 20
309.5680518123426
 30
0.0
 40
10.00000000000002
100
AcDbArc
 50
159.2048348014591
 51
180.0000000000004
  0
ARC
  5
776
330
A
100
AcDbEntity
  8
0
  6
Continuous
 62
     7
100
AcDbCircle
 10
361.762945098709
 20
309.5680518123426
 30
0.0
 40
9.999999999999998
100
AcDbArc
 50
24.20483480145813
 51
110.7951651985423
  0
ARC
  5
777
330
A
100
AcDbEntity
  8
0
  6
Continuous
 62
     7
100
AcDbCircle
 10
361.762945098709
 20
309.5680518123426
 30
0.0
 40
10.00000000000004
100
AcDbArc
 50
249.2048348014596
 51
335.7951651985421
  0
ARC
  5
778
330
A
100
AcDbEntity
  8
0
  6
Continuous
 62
     7
100
AcDbCircle
 10
361.762945098709
 20
309.5680518123426
 30
0.0
 40
10.00000000000003
100
AcDbArc
 50
180.0000000000004
 51
200.7951651985427
  0
ARC
  5
779
330
A
100
AcDbEntity
  8
0
  6
Continuous
 62
     7
100
AcDbCircle
 10
339.662945098709
 20
38.46805181234247
 30
0.0
 40
10.0
100
AcDbArc
 50
152.2692795869037
 51
180.0000000000004
  0
ARC
  5
77A
330
A
100
AcDbEntity
  8
0
  6
Continuous
 62
     7
100
AcDbCircle
 10
339.662945098709
 20
38.46805181234247
 30
0.0
 40
10.0
100
AcDbArc
 50
324.8109578165743
 51
66.42182152179782
  0
ARC
  5
77B
330
A
100
AcDbEntity
  8
0
  6
Continuous
 62
     7
100
AcDbCircle
 10
339.662945098709
 20
38.46805181234247
 30
0.0
 40
10.0
100
AcDbArc
 50
180.0000000000004
 51
270.0000000000011
  0
LINE
  5
77C
330
A
100
AcDbEntity
  8
0
  6
Continuous
 62
     7
100
AcDbLine
 10
321.762945110467
 20
-16.53194818765752
 30
0.0
 11
488.762945098709
 21
-16.53194818765752
 31
0.0
  0
LINE
  5
77D
330
A
100
AcDbEntity
  8
0
  6
Continuous
 62
     7
100
AcDbLine
 10
489.262945098709
 20
-28.03194818765753
 30
0.0
 11
321.2629451063252
 21
-28.03194818765753
 31
0.0
  0
LINE
  5
77E
330
A
100
AcDbEntity
  8
0
  6
Continuous
 62
     7
100
AcDbLine
 10
395.2629450987093
 20
-30.53194818765753
 30
0.0
 11
415.2629450987093
 21
-30.53194818765753
 31
0.0
  0
LINE
  5
77F
330
A
100
AcDbEntity
  8
0
  6
Continuous
 62
     7
100
AcDbLine
 10
338.9712938527206
 20
-30.53194818765753
 30
0.0
 11
358.9712938527207
 21
-30.53194818765753
 31
0.0
  0
LINE
  5
780
330
A
100
AcDbEntity
  8
0
  6
Continuous
 62
     7
100
AcDbLine
 10
451.5545963446976
 20
-30.53194818765753
 30
0.0
 11
471.5545963446976
 21
-30.53194818765753
 31
0.0
  0
LINE
  5
781
330
A
100
AcDbEntity
  8
0
  6
Continuous
 62
     7
100
AcDbLine
 10
353.2094794238541
 20
13.46805181234245
 30
0.0
 11
334.3164107735639
 21
13.46805181234245
 31
0.0
  0
LINE
  5
782
330
A
100
AcDbEntity
  8
0
  6
PHANTOM
 62
     7
100
AcDbLine
 10
607.7629450987092
 20
312.8180518123425
 30
0.0
 11
607.7629450987092
 21
306.3180518123425
 31
0.0
  0
LWPOLYLINE
  5
783
330
A
100
AcDbEntity
  8
0
  6
PHANTOM
 62
     7
100
AcDbPolyline
 90
        9
 70
   128
 43
0.0
 10
682.7496044340965
 20
214.6464553720835
 10
682.6941690448609
 20
214.5845387368285
 10
682.5086398364418
 20
214.4689150610245
 10
682.2212619489945
 20
214.3171870011816
 10
681.8757860607961
 20
214.1524537789924
 10
681.5248077440778
 20
213.9997945342249
 10
681.2217602659338
 20
213.8824502530356
 10
681.0127798577791
 20
213.8182855385068
 10
680.9296818923434
 20
213.817068886771
  0
LINE
  5
78E
330
A
100
AcDbEntity
  8
0
  6
PHANTOM
 62
     7
100
AcDbLine
 10
611.512945098709
 20
323.0680518123425
 30
0.0
 11
611.512945098709
 21
312.8180518123425
 31
0.0
  0
LINE
  5
78F
330
A
100
AcDbEntity
  8
0
  6
PHANTOM
 62
     7
100
AcDbLine
 10
611.512945098709
 20
306.3180518123425
 30
0.0
 11
611.512945098709
 21
296.0680518123425
 31
0.0
  0
LINE
  5
790
330
A
100
AcDbEntity
  8
0
  6
PHANTOM
 62
     7
100
AcDbLine
 10
656.7543378091134
 20
333.2981913411881
 30
0.0
 11
702.6175009624555
 21
354.1992389519406
 31
0.0
  0
LINE
  5
791
330
A
100
AcDbEntity
  8
0
  6
PHANTOM
 62
     7
100
AcDbLine
 10
340.9129450987091
 20
282.4680518123425
 30
0.0
 11
340.9129450987091
 21
82.46805181234247
 31
0.0
  0
LINE
  5
792
330
A
100
AcDbEntity
  8
0
  6
PHANTOM
 62
     7
100
AcDbLine
 10
566.7629450987091
 20
308.3180518123425
 30
0.0
 11
386.7629450987091
 21
308.3180518123425
 31
0.0
  0
LINE
  5
793
330
A
100
AcDbEntity
  8
0
  6
PHANTOM
 62
     7
100
AcDbLine
 10
348.4129450987091
 20
282.4680518123425
 30
0.0
 11
348.4129450987091
 21
82.46805181234247
 31
0.0
  0
LINE
  5
794
330
A
100
AcDbEntity
  8
0
  6
PHANTOM
 62
     7
100
AcDbLine
 10
566.7629450987091
 20
300.8180518123426
 30
0.0
 11
386.7629450987091
 21
300.8180518123426
 31
0.0
  0
LINE
  5
795
330
A
100
AcDbEntity
  8
0
  6
PHANTOM
 62
     7
100
AcDbLine
 10
344.4714827512563
 20
31.82591618861153
 30
0.0
 11
347.862945098709
 21
31.82591618861153
 31
0.0
  0
LINE
  5
796
330
A
100
AcDbEntity
  8
0
  6
PHANTOM
 62
     7
100
AcDbLine
 10
319.0807424983487
 20
66.44017814453289
 30
0.0
 11
313.2866428295688
 21
60.64607847575294
 31
0.0
  0
LWPOLYLINE
  5
797
330
A
100
AcDbEntity
  8
0
  6
PHANTOM
 62
     7
100
AcDbPolyline
 90
        7
 70
   128
 43
0.0
 10
356.4192213339852
 20
317.9317093511745
 10
356.4576019925547
 20
317.944767367883
 10
357.5545358171646
 20
318.1975889503259
 10
358.5139576935084
 20
318.2582369841252
 10
358.8671788146286
 20
318.2484958108692
 10
358.8809833741904
 20
318.2477881027247
 10
358.872423091303
 20
318.2481474381789
  0
LINE
  5
7A0
330
A
100
AcDbEntity
  8
0
  6
PHANTOM
 62
     7
100
AcDbLine
 10
336.731365044705
 20
340.3979074720758
 30
0.0
 11
335.3421941288943
 21
339.008736556265
 31
0.0
  0
LINE
  5
7A1
330
A
100
AcDbEntity
  8
0
  6
PHANTOM
 62
     7
100
AcDbLine
 10
332.3222603547861
 20
335.9888027821568
 30
0.0
 11
330.9330894389753
 21
334.599631866346
 31
0.0
  0
LINE
  5
7A2
330
A
100
AcDbEntity
  8
0
  6
PHANTOM
 62
     7
100
AcDbLine
 10
335.3421941288943
 20
339.008736556265
 30
0.0
 11
332.3222603547861
 21
335.9888027821568
 31
0.0
  0
LWPOLYLINE
  5
7A3
330
A
100
AcDbEntity
  8
0
  6
PHANTOM
 62
     7
100
AcDbPolyline
 90
        5
 70
   128
 43
0.0
 10
342.3027080688723
 20
295.8432626428034
 10
342.2749160142386
 20
295.8526208989752
 10
342.6239299048283
 20
295.7172797470538
 10
343.2689698925572
 20
295.2928856051956
 10
343.7930779997955
 20
294.618118487537
  0
LWPOLYLINE
  5
7AA
330
A
100
AcDbEntity
  8
0
  6
PHANTOM
 62
     7
100
AcDbPolyline
 90
        6
 70
   128
 43
0.0
 10
353.0828494728727
 20
312.4585738197483
 10
353.0765299880908
 20
312.6091199927259
 10
353.0743348888787
 20
312.6925463043458
 10
353.0912600141657
 20
313.3686065061219
 10
353.2564908107267
 20
314.4266318205515
 10
353.399287559877
 20
314.9117755770662
  0
LINE
  5
7B2
330
A
100
AcDbEntity
  8
0
  6
PHANTOM
 62
     7
100
AcDbLine
 10
341.7983607491153
 20
283.3259161886113
 30
0.0
 11
343.7629450987091
 21
283.3259161886113
 31
0.0
  0
LINE
  5
7B3
330
A
100
AcDbEntity
  8
0
  6
PHANTOM
 62
     7
100
AcDbLine
 10
344.1018441738977
 20
288.8870171134227
 30
0.0
 11
345.4910150897084
 21
287.497846197612
 31
0.0
  0
LWPOLYLINE
  5
7B4
330
A
100
AcDbEntity
  8
0
  6
PHANTOM
 62
     7
100
AcDbPolyline
 90
        6
 70
   128
 43
0.0
 10
353.399287559877
 20
304.2243280476187
 10
353.2564908107268
 20
304.7094718041333
 10
353.0912600141657
 20
305.767497118563
 10
353.0743348888788
 20
306.4435573203391
 10
353.083224651457
 20
306.6863938175203
 10
353.0832183972318
 20
306.6862739173558
  0
LWPOLYLINE
  5
7BC
330
A
100
AcDbEntity
  8
0
  6
PHANTOM
 62
     7
100
AcDbPolyline
 90
        7
 70
   128
 43
0.0
 10
358.8787356037169
 20
300.8882003256706
 10
358.8809833741906
 20
300.8883155219604
 10
358.6818951664963
 20
300.8804714926267
 10
358.5866064758822
 20
300.8785366504342
 10
357.8649393834649
 20
300.9041474025864
 10
356.7627260420954
 20
301.0984473498587
 10
356.4192213339854
 20
301.2043942735104
  0
LWPOLYLINE
  5
7C5
330
A
100
AcDbEntity
  8
0
  6
PHANTOM
 62
     7
100
AcDbPolyline
 90
        6
 70
   128
 43
0.0
 10
371.4555273707631
 20
307.4326361619363
 10
371.3539397469255
 20
307.2346024169481
 10
370.7334801935437
 20
306.3049606462391
 10
370.1266059178049
 20
305.6437510533653
 10
369.9393855790135
 20
305.4693841116444
 10
369.9386485496081
 20
305.4687200111703
  0
LWPOLYLINE
  5
7CD
330
A
100
AcDbEntity
  8
0
  6
PHANTOM
 62
     7
100
AcDbPolyline
 90
        7
 70
   128
 43
0.0
 10
369.9386496767865
 20
313.6673825978706
 10
369.9383001670764
 20
313.6676975236556
 10
370.0883938702801
 20
313.5288895132849
 10
370.1533707744633
 20
313.4664563290056
 10
370.6455569327527
 20
312.9380510976801
 10
371.2875486504489
 20
312.0212777593829
 10
371.4555273707631
 20
311.703467462749
  0
LINE
  5
7D6
330
A
100
AcDbEntity
  8
0
  6
PHANTOM
 62
     7
100
AcDbLine
 10
320.262945098709
 20
-27.03194818765753
 30
0.0
 11
490.262945098709
 21
-27.03194818765753
 31
0.0
  0
LINE
  5
7D7
330
A
100
AcDbEntity
  8
0
  6
PHANTOM
 62
     7
100
AcDbLine
 10
490.262945098709
 20
-18.03194818765752
 30
0.0
 11
320.262945098709
 21
-18.03194818765752
 31
0.0
  0
LINE
  5
7D8
330
A
100
AcDbEntity
  8
0
  6
PHANTOM
 62
     7
100
AcDbLine
 10
329.0276827407968
 20
-14.84136896025648
 30
0.0
 11
358.4982074566213
 21
-14.84136896025648
 31
0.0
  0
LINE
  5
7D9
330
A
100
AcDbEntity
  8
0
  6
PHANTOM
 62
     7
100
AcDbLine
 10
354.1974392896235
 20
12.62276219864194
 30
0.0
 11
333.3284509077945
 21
12.62276219864194
 31
0.0
  0
ENDSEC
  0
SECTION
  2
OBJECTS
  0
DICTIONARY
  5
19
330
0
100
AcDbDictionary
281
     1
  3
ACAD_COLOR
350
7DE
  3
ACAD_GROUP
350
1A
  3
ACAD_LAYOUT
350
7DF
  3
ACAD_MATERIAL
350
7DD
  3
ACAD_MLINESTYLE
350
1B
  3
ACAD_PLOTSETTINGS
350
7E0
  3
ACAD_PLOTSTYLENAME
350
7DB
  3
ACDBHEADERROUNDTRIPXREC
350
7F8
  3
AcDbVariableDictionary
350
7F1
  3
ASE_INDEX_DICTIONARY
350
7E6
  0
DICTIONARY
  5
7DE
102
{ACAD_REACTORS
330
19
102
}
330
19
100
AcDbDictionary
281
     1
  0
DICTIONARY
  5
1A
102
{ACAD_REACTORS
330
19
102
}
330
19
100
AcDbDictionary
281
     1
  0
DICTIONARY
  5
7DF
102
{ACAD_REACTORS
330
19
102
}
330
19
100
AcDbDictionary
281
     1
  3
Layout1
350
7E2
  3
Model
350
7E1
  0
DICTIONARY
  5
7DD
102
{ACAD_REACTORS
330
19
102
}
330
19
100
AcDbDictionary
281
     1
  0
DICTIONARY
  5
1B
102
{ACAD_REACTORS
330
19
102
}
330
19
100
AcDbDictionary
281
     1
  3
STANDARD
350
1C
  0
DICTIONARY
  5
7E0
102
{ACAD_REACTORS
330
19
102
}
330
19
100
AcDbDictionary
281
     1
  0
ACDBDICTIONARYWDFLT
  5
7DB
102
{ACAD_REACTORS
330
19
102
}
330
19
100
AcDbDictionary
281
     1
  3
Normal
350
7DC
100
AcDbDictionaryWithDefault
340
7DC
  0
DICTIONARY
  5
7F8
102
{ACAD_REACTORS
330
19
102
}
330
19
100
AcDbDictionary
281
     1
  3
COLORDICT
350
7FA
  3
MATERIALDICT
350
7F9
  0
DICTIONARY
  5
7F1
102
{ACAD_REACTORS
330
19
102
}
330
19
100
AcDbDictionary
281
     1
  3
DIMASSOC
350
7F2
  3
PROJECTNAME
350
7F3
  0
DICTIONARY
  5
7E6
102
{ACAD_REACTORS
330
19
102
}
330
19
100
AcDbDictionary
281
     1
  3
ASEBlockHierarchyIndexRecord
350
7E8
1001
DCO15
1040
1552229311.14
  0
LAYOUT
  5
7E2
102
{ACAD_XDICTIONARY
360
7FD
102
}
102
{ACAD_REACTORS
330
7DF
102
}
330
7DF
100
AcDbPlotSettings
  1

  2
ProgeSOFT PDF Wizard
  4

  6

 40
0.0
 41
0.0
 42
0.0
 43
0.0
 44
0.0
 45
0.0
 46
0.0
 47
0.0
 48
0.0
 49
0.0
140
0.0
141
0.0
142
1.0
143
1.0
 70
   688
 72
     0
 73
     0
 74
     5
  7

 75
    16
147
1.0
148
0.0
149
0.0
100
AcDbLayout
  1
Layout1
 70
     1
 71
     1
 10
0.0
 20
0.0
 11
12.0
 21
9.0
 12
0.0
 22
0.0
 32
0.0
 14
1.000000000000000E+20
 24
1.000000000000000E+20
 34
1.000000000000000E+20
 15
-1.000000000000000E+20
 25
-1.000000000000000E+20
 35
-1.000000000000000E+20
146
0.0
 13
0.0
 23
0.0
 33
0.0
 16
1.0
 26
0.0
 36
0.0
 17
0.0
 27
1.0
 37
0.0
 76
     0
330
B
  0
LAYOUT
  5
7E1
102
{ACAD_XDICTIONARY
360
7FB
102
}
102
{ACAD_REACTORS
330
7DF
102
}
330
7DF
100
AcDbPlotSettings
  1

  2
ProgeSOFT PDF Wizard
  4

  6

 40
0.0
 41
0.0
 42
0.0
 43
0.0
 44
0.0
 45
0.0
 46
0.0
 47
0.0
 48
0.0
 49
0.0
140
0.0
141
0.0
142
1.0
143
1.0
 70
  1712
 72
     0
 73
     0
 74
     0
  7

 75
     0
147
1.0
148
0.0
149
0.0
100
AcDbLayout
  1
Model
 70
     1
 71
     0
 10
0.0
 20
0.0
 11
12.0
 21
9.0
 12
0.0
 22
0.0
 32
0.0
 14
0.0
 24
0.0
 34
0.0
 15
0.0
 25
0.0
 35
0.0
146
0.0
 13
0.0
 23
0.0
 33
0.0
 16
1.0
 26
0.0
 36
0.0
 17
0.0
 27
1.0
 37
0.0
 76
     0
330
A
  0
MLINESTYLE
  5
1C
102
{ACAD_REACTORS
330
1B
102
}
330
1B
100
AcDbMlineStyle
  2
STANDARD
 70
     0
  3

 62
     0
 51
90.0
 52
90.0
 71
     2
 49
0.5
 62
   256
  6
BYLAYER
 49
-0.5
 62
   256
  6
BYLAYER
  0
ACDBPLACEHOLDER
  5
7DC
102
{ACAD_REACTORS
330
7DB
102
}
330
7DB
  0
XRECORD
  5
7FA
102
{ACAD_REACTORS
330
7F8
102
}
330
7F8
100
AcDbXrecord
280
     1
340
7DE
  0
XRECORD
  5
7F9
102
{ACAD_REACTORS
330
7F8
102
}
330
7F8
100
AcDbXrecord
280
     1
340
7DD
  0
DICTIONARYVAR
  5
7F2
102
{ACAD_REACTORS
330
7F1
102
}
330
7F1
100
DictionaryVariables
280
     0
  1
1
  0
DICTIONARYVAR
  5
7F3
102
{ACAD_REACTORS
330
7F1
102
}
330
7F1
100
DictionaryVariables
280
     0
  1

  0
XRECORD
  5
7E8
102
{ACAD_REACTORS
330
7E6
102
}
330
7E6
100
AcDbXrecord
280
     1
  0
DICTIONARY
  5
7FD
330
7E2
100
AcDbDictionary
280
     1
281
     1
  3
ACAD_XREC_ROUNDTRIP
360
7FE
  0
DICTIONARY
  5
7FB
330
7E1
100
AcDbDictionary
280
     1
281
     1
  3
ACAD_XREC_ROUNDTRIP
360
7FC
  0
XRECORD
  5
7FE
102
{ACAD_REACTORS
330
7FD
102
}
330
7FD
100
AcDbXrecord
280
     1
102
SHADEPLOT
 70
     0
102
SHADEPLOTRESLEVEL
 70
     2
102
SHADEPLOTCUSTOMDPI
 70
   300
  0
XRECORD
  5
7FC
102
{ACAD_REACTORS
330
7FB
102
}
330
7FB
100
AcDbXrecord
280
     1
102
SHADEPLOT
 70
     0
102
SHADEPLOTRESLEVEL
 70
     2
102
SHADEPLOTCUSTOMDPI
 70
   300
  0
ENDSEC
  0
EOF
