  0
SECTION
  2
HEADER
  9
$ACADVER
  1
AC1018
  9
$ACADMAINTVER
 70
     0
  9
$DWGCODEPAGE
  3
ANSI_1252
  9
$INSBASE
 10
0.0
 20
0.0
 30
0.0
  9
$EXTMIN
 10
-220.1738625280868
 20
-268.8468175220896
 30
0.0
  9
$EXTMAX
 10
570.3895399198485
 20
377.2120397865839
 30
0.0
  9
$LIMMIN
 10
0.0
 20
0.0
  9
$LIMMAX
 10
12.0
 20
9.0
  9
$ORTHOMODE
 70
     0
  9
$REGENMODE
 70
     1
  9
$FILLMODE
 70
     1
  9
$QTEXTMODE
 70
     0
  9
$MIRRTEXT
 70
     1
  9
$LTSCALE
 40
1.0
  9
$ATTMODE
 70
     1
  9
$TEXTSIZE
 40
0.2
  9
$TRACEWID
 40
0.05
  9
$TEXTSTYLE
  7
Standard
  9
$CLAYER
  8
0
  9
$CELTYPE
  6
ByLayer
  9
$CECOLOR
 62
   256
  9
$CELTSCALE
 40
1.0
  9
$DISPSILH
 70
     0
  9
$DIMSCALE
 40
1.0
  9
$DIMASZ
 40
0.18
  9
$DIMEXO
 40
0.0625
  9
$DIMDLI
 40
0.38
  9
$DIMRND
 40
0.0
  9
$DIMDLE
 40
0.0
  9
$DIMEXE
 40
0.18
  9
$DIMTP
 40
0.0
  9
$DIMTM
 40
0.0
  9
$DIMTXT
 40
0.18
  9
$DIMCEN
 40
0.09
  9
$DIMTSZ
 40
0.0
  9
$DIMTOL
 70
     0
  9
$DIMLIM
 70
     0
  9
$DIMTIH
 70
     1
  9
$DIMTOH
 70
     1
  9
$DIMSE1
 70
     0
  9
$DIMSE2
 70
     0
  9
$DIMTAD
 70
     0
  9
$DIMZIN
 70
     0
  9
$DIMBLK
  1

  9
$DIMASO
 70
     1
  9
$DIMSHO
 70
     1
  9
$DIMPOST
  1

  9
$DIMAPOST
  1

  9
$DIMALT
 70
     0
  9
$DIMALTD
 70
     2
  9
$DIMALTF
 40
25.4
  9
$DIMLFAC
 40
1.0
  9
$DIMTOFL
 70
     0
  9
$DIMTVP
 40
0.0
  9
$DIMTIX
 70
     0
  9
$DIMSOXD
 70
     0
  9
$DIMSAH
 70
     0
  9
$DIMBLK1
  1

  9
$DIMBLK2
  1

  9
$DIMSTYLE
  2
Standard
  9
$DIMCLRD
 70
     0
  9
$DIMCLRE
 70
     0
  9
$DIMCLRT
 70
     0
  9
$DIMTFAC
 40
1.0
  9
$DIMGAP
 40
0.09
  9
$DIMJUST
 70
     0
  9
$DIMSD1
 70
     0
  9
$DIMSD2
 70
     0
  9
$DIMTOLJ
 70
     1
  9
$DIMTZIN
 70
     0
  9
$DIMALTZ
 70
     0
  9
$DIMALTTZ
 70
     0
  9
$DIMUPT
 70
     0
  9
$DIMDEC
 70
     4
  9
$DIMTDEC
 70
     4
  9
$DIMALTU
 70
     2
  9
$DIMALTTD
 70
     2
  9
$DIMTXSTY
  7
Standard
  9
$DIMAUNIT
 70
     0
  9
$DIMADEC
 70
     0
  9
$DIMALTRND
 40
0.0
  9
$DIMAZIN
 70
     0
  9
$DIMDSEP
 70
    46
  9
$DIMATFIT
 70
     3
  9
$DIMFRAC
 70
     0
  9
$DIMLDRBLK
  1

  9
$DIMLUNIT
 70
     2
  9
$DIMLWD
 70
    -2
  9
$DIMLWE
 70
    -2
  9
$DIMTMOVE
 70
     2
  9
$LUNITS
 70
     2
  9
$LUPREC
 70
     2
  9
$SKETCHINC
 40
0.1
  9
$FILLETRAD
 40
0.5
  9
$AUNITS
 70
     0
  9
$AUPREC
 70
     0
  9
$MENU
  1
.
  9
$ELEVATION
 40
0.0
  9
$PELEVATION
 40
0.0
  9
$THICKNESS
 40
0.0
  9
$LIMCHECK
 70
     0
  9
$CHAMFERA
 40
0.5
  9
$CHAMFERB
 40
0.5
  9
$CHAMFERC
 40
1.0
  9
$CHAMFERD
 40
0.0
  9
$SKPOLY
 70
     0
  9
$TDCREATE
 40
2455880.444642894
  9
$TDUCREATE
 40
2455880.402976227
  9
$TDUPDATE
 40
2455880.444642905
  9
$TDUUPDATE
 40
2455880.402976239
  9
$TDINDWG
 40
0.0000000116
  9
$TDUSRTIMER
 40
0.0000000116
  9
$USRTIMER
 70
     1
  9
$ANGBASE
 50
0.0
  9
$ANGDIR
 70
     0
  9
$PDMODE
 70
     0
  9
$PDSIZE
 40
0.0
  9
$PLINEWID
 40
0.0
  9
$SPLFRAME
 70
     0
  9
$SPLINETYPE
 70
     6
  9
$SPLINESEGS
 70
     8
  9
$HANDSEED
  5
26A
  9
$SURFTAB1
 70
     6
  9
$SURFTAB2
 70
     6
  9
$SURFTYPE
 70
     6
  9
$SURFU
 70
     6
  9
$SURFV
 70
     6
  9
$UCSBASE
  2

  9
$UCSNAME
  2

  9
$UCSORG
 10
0.0
 20
0.0
 30
0.0
  9
$UCSXDIR
 10
1.0
 20
0.0
 30
0.0
  9
$UCSYDIR
 10
0.0
 20
1.0
 30
0.0
  9
$UCSORTHOREF
  2

  9
$UCSORTHOVIEW
 70
     0
  9
$UCSORGTOP
 10
0.0
 20
0.0
 30
0.0
  9
$UCSORGBOTTOM
 10
0.0
 20
0.0
 30
0.0
  9
$UCSORGLEFT
 10
0.0
 20
0.0
 30
0.0
  9
$UCSORGRIGHT
 10
0.0
 20
0.0
 30
0.0
  9
$UCSORGFRONT
 10
0.0
 20
0.0
 30
0.0
  9
$UCSORGBACK
 10
0.0
 20
0.0
 30
0.0
  9
$PUCSBASE
  2

  9
$PUCSNAME
  2

  9
$PUCSORG
 10
0.0
 20
0.0
 30
0.0
  9
$PUCSXDIR
 10
1.0
 20
0.0
 30
0.0
  9
$PUCSYDIR
 10
0.0
 20
1.0
 30
0.0
  9
$PUCSORTHOREF
  2

  9
$PUCSORTHOVIEW
 70
     0
  9
$PUCSORGTOP
 10
0.0
 20
0.0
 30
0.0
  9
$PUCSORGBOTTOM
 10
0.0
 20
0.0
 30
0.0
  9
$PUCSORGLEFT
 10
0.0
 20
0.0
 30
0.0
  9
$PUCSORGRIGHT
 10
0.0
 20
0.0
 30
0.0
  9
$PUCSORGFRONT
 10
0.0
 20
0.0
 30
0.0
  9
$PUCSORGBACK
 10
0.0
 20
0.0
 30
0.0
  9
$USERI1
 70
     0
  9
$USERI2
 70
     0
  9
$USERI3
 70
     0
  9
$USERI4
 70
     0
  9
$USERI5
 70
     0
  9
$USERR1
 40
0.0
  9
$USERR2
 40
0.0
  9
$USERR3
 40
0.0
  9
$USERR4
 40
0.0
  9
$USERR5
 40
0.0
  9
$WORLDVIEW
 70
     1
  9
$SHADEDGE
 70
     3
  9
$SHADEDIF
 70
    70
  9
$TILEMODE
 70
     1
  9
$MAXACTVP
 70
    64
  9
$PINSBASE
 10
0.0
 20
0.0
 30
0.0
  9
$PLIMCHECK
 70
     0
  9
$PEXTMIN
 10
1.000000000000000E+20
 20
1.000000000000000E+20
 30
1.000000000000000E+20
  9
$PEXTMAX
 10
-1.000000000000000E+20
 20
-1.000000000000000E+20
 30
-1.000000000000000E+20
  9
$PLIMMIN
 10
0.0
 20
0.0
  9
$PLIMMAX
 10
12.0
 20
9.0
  9
$UNITMODE
 70
     0
  9
$VISRETAIN
 70
     1
  9
$PLINEGEN
 70
     0
  9
$PSLTSCALE
 70
     1
  9
$TREEDEPTH
 70
  3020
  9
$CMLSTYLE
  2
Standard
  9
$CMLJUST
 70
     0
  9
$CMLSCALE
 40
1.0
  9
$PROXYGRAPHICS
 70
     1
  9
$MEASUREMENT
 70
     0
  9
$CELWEIGHT
370
    -1
  9
$ENDCAPS
280
     0
  9
$JOINSTYLE
280
     0
  9
$LWDISPLAY
290
     0
  9
$INSUNITS
 70
     4
  9
$HYPERLINKBASE
  1

  9
$STYLESHEET
  1

  9
$XEDIT
290
     1
  9
$CEPSNTYPE
380
     0
  9
$PSTYLEMODE
290
     1
  9
$FINGERPRINTGUID
  2
{A37A9082-58CC-425F-8100-8F9625AD98D1}
  9
$VERSIONGUID
  2
{FAEB1C32-E019-11D5-929B-00C0DF256EC4}
  9
$EXTNAMES
290
     1
  9
$PSVPSCALE
 40
0.0
  9
$OLESTARTUP
290
     0
  9
$SORTENTS
280
   127
  9
$INDEXCTL
280
     0
  9
$HIDETEXT
280
     1
  9
$XCLIPFRAME
290
     0
  9
$HALOGAP
280
     0
  9
$OBSCOLOR
 70
   257
  9
$OBSLTYPE
280
     0
  9
$INTERSECTIONDISPLAY
280
     0
  9
$INTERSECTIONCOLOR
 70
   257
  9
$DIMASSOC
280
     2
  9
$PROJECTNAME
  1

  0
ENDSEC
  0
SECTION
  2
CLASSES
  0
CLASS
  1
ACDBDICTIONARYWDFLT
  2
AcDbDictionaryWithDefault
  3
ObjectDBX Classes
 90
        0
 91
        4
280
     0
281
     0
  0
CLASS
  1
VISUALSTYLE
  2
AcDbVisualStyle
  3
ObjectDBX Classes
 90
     4095
 91
        4
280
     0
281
     0
  0
ENDSEC
  0
SECTION
  2
TABLES
  0
TABLE
  2
VPORT
  5
8
330
0
100
AcDbSymbolTable
 70
     1
  0
VPORT
  5
29
330
8
100
AcDbSymbolTableRecord
100
AcDbViewportTableRecord
  2
*Active
 70
     0
 10
0.0
 20
0.0
 11
1.0
 21
1.0
 12
175.1078386958808
 22
54.18261113224713
 13
0.0
 23
0.0
 14
0.5
 24
0.5
 15
0.5
 25
0.5
 16
0.0
 26
0.0
 36
1.0
 17
0.0
 27
0.0
 37
0.0
 40
658.980034454847
 41
1.223670867606758
 42
50.0
 43
0.0
 44
0.0
 50
0.0
 51
0.0
 71
     0
 72
   100
 73
     1
 74
     3
 75
     0
 76
     0
 77
     0
 78
     0
281
     0
 65
     1
110
0.0
120
0.0
130
0.0
111
1.0
121
0.0
131
0.0
112
0.0
122
1.0
132
0.0
 79
     0
146
0.0
  0
ENDTAB
  0
TABLE
  2
LTYPE
  5
5
330
0
100
AcDbSymbolTable
 70
     2
  0
LTYPE
  5
14
330
5
100
AcDbSymbolTableRecord
100
AcDbLinetypeTableRecord
  2
ByBlock
 70
     0
  3

 72
    65
 73
     0
 40
0.0
  0
LTYPE
  5
15
330
5
100
AcDbSymbolTableRecord
100
AcDbLinetypeTableRecord
  2
ByLayer
 70
     0
  3

 72
    65
 73
     0
 40
0.0
  0
LTYPE
  5
16
330
5
100
AcDbSymbolTableRecord
100
AcDbLinetypeTableRecord
  2
Continuous
 70
     0
  3
Solid line
 72
    65
 73
     0
 40
0.0
  0
LTYPE
  5
3B
330
5
100
AcDbSymbolTableRecord
100
AcDbLinetypeTableRecord
  2
PHANTOM
 70
     0
  3

 72
    65
 73
     6
 40
12.7
 49
6.349999999999999
 74
     0
 49
-1.27
 74
     0
 49
1.27
 74
     0
 49
-1.27
 74
     0
 49
1.27
 74
     0
 49
-1.27
 74
     0
  0
ENDTAB
  0
TABLE
  2
LAYER
  5
2
330
0
100
AcDbSymbolTable
 70
     1
  0
LAYER
  5
10
330
2
100
AcDbSymbolTableRecord
100
AcDbLayerTableRecord
  2
0
 70
     0
 62
     7
  6
Continuous
370
    -3
390
F
  0
ENDTAB
  0
TABLE
  2
STYLE
  5
3
330
0
100
AcDbSymbolTable
 70
     1
  0
STYLE
  5
11
330
3
100
AcDbSymbolTableRecord
100
AcDbTextStyleTableRecord
  2
Standard
 70
     0
 40
0.0
 41
1.0
 50
0.0
 71
     0
 42
0.2
  3
txt
  4

  0
ENDTAB
  0
TABLE
  2
VIEW
  5
6
330
0
100
AcDbSymbolTable
 70
     0
  0
ENDTAB
  0
TABLE
  2
UCS
  5
7
330
0
100
AcDbSymbolTable
 70
     0
  0
ENDTAB
  0
TABLE
  2
APPID
  5
9
330
0
100
AcDbSymbolTable
 70
     1
  0
APPID
  5
12
330
9
100
AcDbSymbolTableRecord
100
AcDbRegAppTableRecord
  2
ACAD
 70
     0
  0
ENDTAB
  0
TABLE
  2
DIMSTYLE
  5
A
330
0
100
AcDbSymbolTable
 70
     1
100
AcDbDimStyleTable
  0
DIMSTYLE
105
27
330
A
100
AcDbSymbolTableRecord
100
AcDbDimStyleTableRecord
  2
Standard
 70
     0
340
11
  0
ENDTAB
  0
TABLE
  2
BLOCK_RECORD
  5
1
330
0
100
AcDbSymbolTable
 70
     1
  0
BLOCK_RECORD
  5
1F
330
1
100
AcDbSymbolTableRecord
100
AcDbBlockTableRecord
  2
*Model_Space
340
22
  0
BLOCK_RECORD
  5
1B
330
1
100
AcDbSymbolTableRecord
100
AcDbBlockTableRecord
  2
*Paper_Space
340
1E
  0
BLOCK_RECORD
  5
23
330
1
100
AcDbSymbolTableRecord
100
AcDbBlockTableRecord
  2
*Paper_Space0
340
26
  0
ENDTAB
  0
ENDSEC
  0
SECTION
  2
BLOCKS
  0
BLOCK
  5
20
330
1F
100
AcDbEntity
  8
0
100
AcDbBlockBegin
  2
*Model_Space
 70
     0
 10
0.0
 20
0.0
 30
0.0
  3
*Model_Space
  1

  0
ENDBLK
  5
21
330
1F
100
AcDbEntity
  8
0
100
AcDbBlockEnd
  0
BLOCK
  5
1C
330
1B
100
AcDbEntity
 67
     1
  8
0
100
AcDbBlockBegin
  2
*Paper_Space
 70
     0
 10
0.0
 20
0.0
 30
0.0
  3
*Paper_Space
  1

  0
ENDBLK
  5
1D
330
1B
100
AcDbEntity
 67
     1
  8
0
100
AcDbBlockEnd
  0
BLOCK
  5
24
330
23
100
AcDbEntity
  8
0
100
AcDbBlockBegin
  2
*Paper_Space0
 70
     0
 10
0.0
 20
0.0
 30
0.0
  3
*Paper_Space0
  1

  0
ENDBLK
  5
25
330
23
100
AcDbEntity
  8
0
100
AcDbBlockEnd
  0
ENDSEC
  0
SECTION
  2
ENTITIES
  0
LINE
  5
3C
330
1F
100
AcDbEntity
  8
0
  6
PHANTOM
 62
   255
100
AcDbLine
 10
555.8895399198498
 20
188.2709543350772
 30
0.0
 11
555.8895399198498
 21
188.5638475538907
 31
0.0
  0
LINE
  5
3D
330
1F
100
AcDbEntity
  8
0
  6
PHANTOM
 62
   255
100
AcDbLine
 10
494.8895399198499
 20
188.2709543350772
 30
0.0
 11
494.8895399198499
 21
188.5638475538907
 31
0.0
  0
POLYLINE
  5
3E
330
1F
100
AcDbEntity
  8
0
  6
PHANTOM
 62
   255
100
AcDb2dPolyline
 66
     1
 10
0.0
 20
0.0
 30
0.0
  0
VERTEX
  5
3F
330
3E
100
AcDbEntity
  8
0
  6
PHANTOM
 62
   255
100
AcDbVertex
100
AcDb2dVertex
 10
555.8895399198498
 20
188.2709543350772
 30
0.0
  0
VERTEX
  5
40
330
3E
100
AcDbEntity
  8
0
  6
PHANTOM
 62
   255
100
AcDbVertex
100
AcDb2dVertex
 10
556.084630241866
 20
188.2573674765518
 30
0.0
  0
VERTEX
  5
41
330
3E
100
AcDbEntity
  8
0
  6
PHANTOM
 62
   255
100
AcDbVertex
100
AcDb2dVertex
 10
556.272223352215
 20
188.2171290363288
 30
0.0
  0
VERTEX
  5
42
330
3E
100
AcDbEntity
  8
0
  6
PHANTOM
 62
   255
100
AcDbVertex
100
AcDb2dVertex
 10
556.4451101528695
 20
188.1517853551003
 30
0.0
  0
VERTEX
  5
43
330
3E
100
AcDbEntity
  8
0
  6
PHANTOM
 62
   255
100
AcDbVertex
100
AcDb2dVertex
 10
556.5966467010364
 20
188.0638475538907
 30
0.0
  0
VERTEX
  5
44
330
3E
100
AcDbEntity
  8
0
  6
PHANTOM
 62
   255
100
AcDbVertex
100
AcDb2dVertex
 10
556.7210095321525
 20
187.9566950330842
 30
0.0
  0
VERTEX
  5
45
330
3E
100
AcDbEntity
  8
0
  6
PHANTOM
 62
   255
100
AcDbVertex
100
AcDb2dVertex
 10
556.8134194523611
 20
187.8344456039638
 30
0.0
  0
VERTEX
  5
46
330
3E
100
AcDbEntity
  8
0
  6
PHANTOM
 62
   255
100
AcDbVertex
100
AcDb2dVertex
 10
556.8703252002531
 20
187.7017972435322
 30
0.0
  0
VERTEX
  5
47
330
3E
100
AcDbEntity
  8
0
  6
PHANTOM
 62
   255
100
AcDbVertex
100
AcDb2dVertex
 10
556.8895399198498
 20
187.5638475538907
 30
0.0
  0
SEQEND
  5
48
330
3E
100
AcDbEntity
  8
0
  6
PHANTOM
 62
   255
  0
LINE
  5
49
330
1F
100
AcDbEntity
  8
0
  6
PHANTOM
 62
   255
100
AcDbLine
 10
555.8895399198498
 20
188.2709543350772
 30
0.0
 11
494.8895399198499
 21
188.2709543350772
 31
0.0
  0
LINE
  5
4A
330
1F
100
AcDbEntity
  8
0
  6
PHANTOM
 62
   255
100
AcDbLine
 10
555.8895399198499
 20
177.7648576806674
 30
0.0
 11
555.8895399198498
 21
188.2709543350772
 31
0.0
  0
POLYLINE
  5
4B
330
1F
100
AcDbEntity
  8
0
  6
PHANTOM
 62
   255
100
AcDb2dPolyline
 66
     1
 10
0.0
 20
0.0
 30
0.0
  0
VERTEX
  5
4C
330
4B
100
AcDbEntity
  8
0
  6
PHANTOM
 62
   255
100
AcDbVertex
100
AcDb2dVertex
 10
494.8895399198499
 20
188.2709543350772
 30
0.0
  0
VERTEX
  5
4D
330
4B
100
AcDbEntity
  8
0
  6
PHANTOM
 62
   255
100
AcDbVertex
100
AcDb2dVertex
 10
494.6944495978337
 20
188.2573674765518
 30
0.0
  0
VERTEX
  5
4E
330
4B
100
AcDbEntity
  8
0
  6
PHANTOM
 62
   255
100
AcDbVertex
100
AcDb2dVertex
 10
494.5068564874848
 20
188.2171290363288
 30
0.0
  0
VERTEX
  5
4F
330
4B
100
AcDbEntity
  8
0
  6
PHANTOM
 62
   255
100
AcDbVertex
100
AcDb2dVertex
 10
494.3339696868303
 20
188.1517853551003
 30
0.0
  0
VERTEX
  5
50
330
4B
100
AcDbEntity
  8
0
  6
PHANTOM
 62
   255
100
AcDbVertex
100
AcDb2dVertex
 10
494.1824331386634
 20
188.0638475538907
 30
0.0
  0
VERTEX
  5
51
330
4B
100
AcDbEntity
  8
0
  6
PHANTOM
 62
   255
100
AcDbVertex
100
AcDb2dVertex
 10
494.0580703075473
 20
187.9566950330842
 30
0.0
  0
VERTEX
  5
52
330
4B
100
AcDbEntity
  8
0
  6
PHANTOM
 62
   255
100
AcDbVertex
100
AcDb2dVertex
 10
493.9656603873386
 20
187.8344456039638
 30
0.0
  0
VERTEX
  5
53
330
4B
100
AcDbEntity
  8
0
  6
PHANTOM
 62
   255
100
AcDbVertex
100
AcDb2dVertex
 10
493.9087546394467
 20
187.7017972435322
 30
0.0
  0
VERTEX
  5
54
330
4B
100
AcDbEntity
  8
0
  6
PHANTOM
 62
   255
100
AcDbVertex
100
AcDb2dVertex
 10
493.8895399198499
 20
187.5638475538907
 30
0.0
  0
SEQEND
  5
55
330
4B
100
AcDbEntity
  8
0
  6
PHANTOM
 62
   255
  0
LINE
  5
56
330
1F
100
AcDbEntity
  8
0
  6
PHANTOM
 62
   255
100
AcDbLine
 10
494.8895399198499
 20
188.2709543350772
 30
0.0
 11
494.8895399198499
 21
177.7648576806674
 31
0.0
  0
POLYLINE
  5
57
330
1F
100
AcDbEntity
  8
0
  6
PHANTOM
 62
   255
100
AcDb2dPolyline
 66
     1
 10
0.0
 20
0.0
 30
0.0
  0
VERTEX
  5
58
330
57
100
AcDbEntity
  8
0
  6
PHANTOM
 62
   255
100
AcDbVertex
100
AcDb2dVertex
 10
555.8895399198499
 20
177.7648576806674
 30
0.0
  0
VERTEX
  5
59
330
57
100
AcDbEntity
  8
0
  6
PHANTOM
 62
   255
100
AcDbVertex
100
AcDb2dVertex
 10
556.084630241866
 20
177.7512708221419
 30
0.0
  0
VERTEX
  5
5A
330
57
100
AcDbEntity
  8
0
  6
PHANTOM
 62
   255
100
AcDbVertex
100
AcDb2dVertex
 10
556.272223352215
 20
177.711032381919
 30
0.0
  0
VERTEX
  5
5B
330
57
100
AcDbEntity
  8
0
  6
PHANTOM
 62
   255
100
AcDbVertex
100
AcDb2dVertex
 10
556.4451101528695
 20
177.6456887006905
 30
0.0
  0
VERTEX
  5
5C
330
57
100
AcDbEntity
  8
0
  6
PHANTOM
 62
   255
100
AcDbVertex
100
AcDb2dVertex
 10
556.5966467010364
 20
177.5577508994809
 30
0.0
  0
VERTEX
  5
5D
330
57
100
AcDbEntity
  8
0
  6
PHANTOM
 62
   255
100
AcDbVertex
100
AcDb2dVertex
 10
556.7210095321525
 20
177.4505983786744
 30
0.0
  0
VERTEX
  5
5E
330
57
100
AcDbEntity
  8
0
  6
PHANTOM
 62
   255
100
AcDbVertex
100
AcDb2dVertex
 10
556.8134194523612
 20
177.328348949554
 30
0.0
  0
VERTEX
  5
5F
330
57
100
AcDbEntity
  8
0
  6
PHANTOM
 62
   255
100
AcDbVertex
100
AcDb2dVertex
 10
556.8703252002531
 20
177.1957005891223
 30
0.0
  0
VERTEX
  5
60
330
57
100
AcDbEntity
  8
0
  6
PHANTOM
 62
   255
100
AcDbVertex
100
AcDb2dVertex
 10
556.88953991985
 20
177.0577508994809
 30
0.0
  0
SEQEND
  5
61
330
57
100
AcDbEntity
  8
0
  6
PHANTOM
 62
   255
  0
LINE
  5
62
330
1F
100
AcDbEntity
  8
0
  6
PHANTOM
 62
   255
100
AcDbLine
 10
555.8895399198499
 20
177.7648576806674
 30
0.0
 11
494.8895399198499
 21
177.7648576806674
 31
0.0
  0
LINE
  5
63
330
1F
100
AcDbEntity
  8
0
  6
PHANTOM
 62
   255
100
AcDbLine
 10
555.8895399198499
 20
174.8359254925329
 30
0.0
 11
555.8895399198499
 21
177.7648576806674
 31
0.0
  0
LINE
  5
64
330
1F
100
AcDbEntity
  8
0
  6
PHANTOM
 62
   255
100
AcDbLine
 10
494.8895399198499
 20
177.7648576806674
 30
0.0
 11
494.88953991985
 21
174.8359254925329
 31
0.0
  0
POLYLINE
  5
65
330
1F
100
AcDbEntity
  8
0
  6
PHANTOM
 62
   255
100
AcDb2dPolyline
 66
     1
 10
0.0
 20
0.0
 30
0.0
  0
VERTEX
  5
66
330
65
100
AcDbEntity
  8
0
  6
PHANTOM
 62
   255
100
AcDbVertex
100
AcDb2dVertex
 10
493.8895399198499
 20
177.0577508994808
 30
0.0
  0
VERTEX
  5
67
330
65
100
AcDbEntity
  8
0
  6
PHANTOM
 62
   255
100
AcDbVertex
100
AcDb2dVertex
 10
493.9087546394467
 20
177.1957005891223
 30
0.0
  0
VERTEX
  5
68
330
65
100
AcDbEntity
  8
0
  6
PHANTOM
 62
   255
100
AcDbVertex
100
AcDb2dVertex
 10
493.9656603873387
 20
177.3283489495539
 30
0.0
  0
VERTEX
  5
69
330
65
100
AcDbEntity
  8
0
  6
PHANTOM
 62
   255
100
AcDbVertex
100
AcDb2dVertex
 10
494.0580703075474
 20
177.4505983786744
 30
0.0
  0
VERTEX
  5
6A
330
65
100
AcDbEntity
  8
0
  6
PHANTOM
 62
   255
100
AcDbVertex
100
AcDb2dVertex
 10
494.1824331386634
 20
177.5577508994808
 30
0.0
  0
VERTEX
  5
6B
330
65
100
AcDbEntity
  8
0
  6
PHANTOM
 62
   255
100
AcDbVertex
100
AcDb2dVertex
 10
494.3339696868303
 20
177.6456887006905
 30
0.0
  0
VERTEX
  5
6C
330
65
100
AcDbEntity
  8
0
  6
PHANTOM
 62
   255
100
AcDbVertex
100
AcDb2dVertex
 10
494.5068564874849
 20
177.711032381919
 30
0.0
  0
VERTEX
  5
6D
330
65
100
AcDbEntity
  8
0
  6
PHANTOM
 62
   255
100
AcDbVertex
100
AcDb2dVertex
 10
494.6944495978337
 20
177.7512708221419
 30
0.0
  0
VERTEX
  5
6E
330
65
100
AcDbEntity
  8
0
  6
PHANTOM
 62
   255
100
AcDbVertex
100
AcDb2dVertex
 10
494.8895399198499
 20
177.7648576806674
 30
0.0
  0
SEQEND
  5
6F
330
65
100
AcDbEntity
  8
0
  6
PHANTOM
 62
   255
  0
LINE
  5
70
330
1F
100
AcDbEntity
  8
0
  6
PHANTOM
 62
   255
100
AcDbLine
 10
494.8895399198502
 20
174.8359254925329
 30
0.0
 11
494.8895399198502
 21
174.250139054906
 31
0.0
  0
LINE
  5
71
330
1F
100
AcDbEntity
  8
0
  6
PHANTOM
 62
   255
100
AcDbLine
 10
555.8895399198502
 20
174.250139054906
 30
0.0
 11
555.8895399198502
 21
174.8359254925329
 31
0.0
  0
POLYLINE
  5
72
330
1F
100
AcDbEntity
  8
0
  6
PHANTOM
 62
   255
100
AcDb2dPolyline
 66
     1
 10
0.0
 20
0.0
 30
0.0
  0
VERTEX
  5
73
330
72
100
AcDbEntity
  8
0
  6
PHANTOM
 62
   255
100
AcDbVertex
100
AcDb2dVertex
 10
555.8895399198502
 20
174.250139054906
 30
0.0
  0
VERTEX
  5
74
330
72
100
AcDbEntity
  8
0
  6
PHANTOM
 62
   255
100
AcDbVertex
100
AcDb2dVertex
 10
556.0846302418664
 20
174.2365521963805
 30
0.0
  0
VERTEX
  5
75
330
72
100
AcDbEntity
  8
0
  6
PHANTOM
 62
   255
100
AcDbVertex
100
AcDb2dVertex
 10
556.2722233522152
 20
174.1963137561576
 30
0.0
  0
VERTEX
  5
76
330
72
100
AcDbEntity
  8
0
  6
PHANTOM
 62
   255
100
AcDbVertex
100
AcDb2dVertex
 10
556.4451101528698
 20
174.1309700749291
 30
0.0
  0
VERTEX
  5
77
330
72
100
AcDbEntity
  8
0
  6
PHANTOM
 62
   255
100
AcDbVertex
100
AcDb2dVertex
 10
556.5966467010367
 20
174.0430322737195
 30
0.0
  0
VERTEX
  5
78
330
72
100
AcDbEntity
  8
0
  6
PHANTOM
 62
   255
100
AcDbVertex
100
AcDb2dVertex
 10
556.7210095321526
 20
173.935879752913
 30
0.0
  0
VERTEX
  5
79
330
72
100
AcDbEntity
  8
0
  6
PHANTOM
 62
   255
100
AcDbVertex
100
AcDb2dVertex
 10
556.8134194523614
 20
173.8136303237926
 30
0.0
  0
VERTEX
  5
7A
330
72
100
AcDbEntity
  8
0
  6
PHANTOM
 62
   255
100
AcDbVertex
100
AcDb2dVertex
 10
556.8703252002534
 20
173.680981963361
 30
0.0
  0
VERTEX
  5
7B
330
72
100
AcDbEntity
  8
0
  6
PHANTOM
 62
   255
100
AcDbVertex
100
AcDb2dVertex
 10
556.8895399198502
 20
173.5430322737195
 30
0.0
  0
SEQEND
  5
7C
330
72
100
AcDbEntity
  8
0
  6
PHANTOM
 62
   255
  0
LINE
  5
7D
330
1F
100
AcDbEntity
  8
0
  6
PHANTOM
 62
   255
100
AcDbLine
 10
555.8895399198502
 20
174.250139054906
 30
0.0
 11
494.8895399198502
 21
174.250139054906
 31
0.0
  0
LINE
  5
7E
330
1F
100
AcDbEntity
  8
0
  6
PHANTOM
 62
   255
100
AcDbLine
 10
555.8895399198502
 20
151.8359254925329
 30
0.0
 11
555.8895399198502
 21
174.250139054906
 31
0.0
  0
LINE
  5
7F
330
1F
100
AcDbEntity
  8
0
  6
PHANTOM
 62
   255
100
AcDbLine
 10
494.8895399198502
 20
174.250139054906
 30
0.0
 11
494.8895399198502
 21
151.8359254925329
 31
0.0
  0
POLYLINE
  5
80
330
1F
100
AcDbEntity
  8
0
  6
PHANTOM
 62
   255
100
AcDb2dPolyline
 66
     1
 10
0.0
 20
0.0
 30
0.0
  0
VERTEX
  5
81
330
80
100
AcDbEntity
  8
0
  6
PHANTOM
 62
   255
100
AcDbVertex
100
AcDb2dVertex
 10
493.8895399198501
 20
173.5430322737195
 30
0.0
  0
VERTEX
  5
82
330
80
100
AcDbEntity
  8
0
  6
PHANTOM
 62
   255
100
AcDbVertex
100
AcDb2dVertex
 10
493.9087546394469
 20
173.680981963361
 30
0.0
  0
VERTEX
  5
83
330
80
100
AcDbEntity
  8
0
  6
PHANTOM
 62
   255
100
AcDbVertex
100
AcDb2dVertex
 10
493.9656603873388
 20
173.8136303237926
 30
0.0
  0
VERTEX
  5
84
330
80
100
AcDbEntity
  8
0
  6
PHANTOM
 62
   255
100
AcDbVertex
100
AcDb2dVertex
 10
494.0580703075476
 20
173.935879752913
 30
0.0
  0
VERTEX
  5
85
330
80
100
AcDbEntity
  8
0
  6
PHANTOM
 62
   255
100
AcDbVertex
100
AcDb2dVertex
 10
494.1824331386636
 20
174.0430322737195
 30
0.0
  0
VERTEX
  5
86
330
80
100
AcDbEntity
  8
0
  6
PHANTOM
 62
   255
100
AcDbVertex
100
AcDb2dVertex
 10
494.3339696868306
 20
174.1309700749291
 30
0.0
  0
VERTEX
  5
87
330
80
100
AcDbEntity
  8
0
  6
PHANTOM
 62
   255
100
AcDbVertex
100
AcDb2dVertex
 10
494.506856487485
 20
174.1963137561576
 30
0.0
  0
VERTEX
  5
88
330
80
100
AcDbEntity
  8
0
  6
PHANTOM
 62
   255
100
AcDbVertex
100
AcDb2dVertex
 10
494.6944495978341
 20
174.2365521963805
 30
0.0
  0
VERTEX
  5
89
330
80
100
AcDbEntity
  8
0
  6
PHANTOM
 62
   255
100
AcDbVertex
100
AcDb2dVertex
 10
494.8895399198502
 20
174.250139054906
 30
0.0
  0
SEQEND
  5
8A
330
80
100
AcDbEntity
  8
0
  6
PHANTOM
 62
   255
  0
LINE
  5
8B
330
1F
100
AcDbEntity
  8
0
  6
PHANTOM
 62
   255
100
AcDbLine
 10
557.8895399198487
 20
326.2072799505917
 30
0.0
 11
492.889539919849
 21
326.2072799505917
 31
0.0
  0
LINE
  5
8C
330
1F
100
AcDbEntity
  8
0
  6
PHANTOM
 62
   255
100
AcDbLine
 10
561.8895399198487
 20
377.1183475736203
 30
0.0
 11
488.8895399198487
 21
377.1183475736203
 31
0.0
  0
LINE
  5
8D
330
1F
100
AcDbEntity
  8
0
  6
PHANTOM
 62
   255
100
AcDbLine
 10
561.8895399198487
 20
375.821628100047
 30
0.0
 11
488.8895399198487
 21
375.821628100047
 31
0.0
  0
LINE
  5
8E
330
1F
100
AcDbEntity
  8
0
  6
PHANTOM
 62
   255
100
AcDbLine
 10
561.8895399198487
 20
374.3099253935596
 30
0.0
 11
488.8895399198487
 21
374.3099253935596
 31
0.0
  0
LINE
  5
8F
330
1F
100
AcDbEntity
  8
0
  6
PHANTOM
 62
   255
100
AcDbLine
 10
557.8895399198501
 20
169.9611566406795
 30
0.0
 11
561.88953991985
 21
169.9611566406795
 31
0.0
  0
LINE
  5
90
330
1F
100
AcDbEntity
  8
0
  6
PHANTOM
 62
   255
100
AcDbLine
 10
492.88953991985
 20
169.9611566406795
 30
0.0
 11
488.88953991985
 21
169.9611566406795
 31
0.0
  0
LINE
  5
91
330
1F
100
AcDbEntity
  8
0
  6
PHANTOM
 62
   255
100
AcDbLine
 10
562.3895399198485
 20
108.7760180532338
 30
0.0
 11
488.3895399198484
 21
108.7760180532338
 31
0.0
  0
LINE
  5
92
330
1F
100
AcDbEntity
  8
0
  6
PHANTOM
 62
   255
100
AcDbLine
 10
562.3895399198485
 20
98.7464066849816
 30
0.0
 11
488.3895399198484
 21
98.7464066849816
 31
0.0
  0
LINE
  5
93
330
1F
100
AcDbEntity
  8
0
  6
PHANTOM
 62
   255
100
AcDbLine
 10
566.3895399198484
 20
75.53730287677752
 30
0.0
 11
484.3895399198483
 21
75.53730287677752
 31
0.0
  0
LINE
  5
94
330
1F
100
AcDbEntity
  8
0
  6
PHANTOM
 62
   255
100
AcDbLine
 10
566.3895399198484
 20
83.89716428006416
 30
0.0
 11
484.3895399198483
 21
83.89716428006416
 31
0.0
  0
LINE
  5
95
330
1F
100
AcDbEntity
  8
0
  6
PHANTOM
 62
   255
100
AcDbLine
 10
566.3895399198484
 20
86.72559140481034
 30
0.0
 11
484.3895399198483
 21
86.72559140481034
 31
0.0
  0
LINE
  5
96
330
1F
100
AcDbEntity
  8
0
  6
PHANTOM
 62
   255
100
AcDbLine
 10
566.3895399198484
 20
72.53073814145506
 30
0.0
 11
484.3895399198483
 21
72.53073814145507
 31
0.0
  0
LINE
  5
97
330
1F
100
AcDbEntity
  8
0
  6
PHANTOM
 62
   255
100
AcDbLine
 10
566.3895399198484
 20
49.82900584291829
 30
0.0
 11
484.3895399198484
 21
49.82900584291833
 31
0.0
  0
LINE
  5
98
330
1F
100
AcDbEntity
  8
0
  6
PHANTOM
 62
   255
100
AcDbLine
 10
566.3895399198484
 20
58.45328806837477
 30
0.0
 11
484.3895399198484
 21
58.45328806837478
 31
0.0
  0
LINE
  5
99
330
1F
100
AcDbEntity
  8
0
  6
PHANTOM
 62
   255
100
AcDbLine
 10
566.3895399198484
 20
61.68930120447987
 30
0.0
 11
484.3895399198484
 21
61.68930120447985
 31
0.0
  0
LINE
  5
9A
330
1F
100
AcDbEntity
  8
0
  6
PHANTOM
 62
   255
100
AcDbLine
 10
562.3895399198491
 20
290.8877435754709
 30
0.0
 11
566.3895399198491
 21
290.8877435754709
 31
0.0
  0
LINE
  5
9B
330
1F
100
AcDbEntity
  8
0
  6
PHANTOM
 62
   255
100
AcDbLine
 10
488.3895399198491
 20
290.8877435754709
 30
0.0
 11
484.3895399198491
 21
290.8877435754709
 31
0.0
  0
LINE
  5
9C
330
1F
100
AcDbEntity
  8
0
  6
PHANTOM
 62
   255
100
AcDbLine
 10
570.3895399198485
 20
146.637960213416
 30
0.0
 11
566.3895399198486
 21
146.637960213416
 31
0.0
  0
LINE
  5
9D
330
1F
100
AcDbEntity
  8
0
  6
PHANTOM
 62
   255
100
AcDbLine
 10
480.3895399198486
 20
146.637960213416
 30
0.0
 11
484.3895399198486
 21
146.637960213416
 31
0.0
  0
LINE
  5
9E
330
1F
100
AcDbEntity
  8
0
  6
Continuous
 62
   255
100
AcDbLine
 10
556.8895399198498
 20
187.5638475538907
 30
0.0
 11
556.88953991985
 21
177.0577508994809
 31
0.0
  0
LINE
  5
9F
330
1F
100
AcDbEntity
  8
0
  6
Continuous
 62
   255
100
AcDbLine
 10
493.8895399198499
 20
177.0577508994808
 30
0.0
 11
493.8895399198499
 21
187.5638475538907
 31
0.0
  0
LINE
  5
A0
330
1F
100
AcDbEntity
  8
0
  6
Continuous
 62
   255
100
AcDbLine
 10
556.88953991985
 20
177.0577508994809
 30
0.0
 11
556.88953991985
 21
173.8359254925329
 31
0.0
  0
LINE
  5
A1
330
1F
100
AcDbEntity
  8
0
  6
Continuous
 62
   255
100
AcDbLine
 10
493.8895399198499
 20
173.8359254925329
 30
0.0
 11
493.8895399198499
 21
177.0577508994808
 31
0.0
  0
LINE
  5
A2
330
1F
100
AcDbEntity
  8
0
  6
Continuous
 62
   255
100
AcDbLine
 10
556.8895399198502
 20
173.8359254925329
 30
0.0
 11
556.8895399198502
 21
173.5430322737195
 31
0.0
  0
ARC
  5
A3
330
1F
100
AcDbEntity
  8
0
  6
Continuous
 62
   255
100
AcDbCircle
 10
555.8895399198502
 20
173.8359254925329
 30
0.0
 40
1.0
100
AcDbArc
 50
0.0
 51
90.0
  0
LINE
  5
A4
330
1F
100
AcDbEntity
  8
0
  6
Continuous
 62
   255
100
AcDbLine
 10
493.8895399198501
 20
173.5430322737195
 30
0.0
 11
493.8895399198501
 21
173.8359254925329
 31
0.0
  0
ARC
  5
A5
330
1F
100
AcDbEntity
  8
0
  6
Continuous
 62
   255
100
AcDbCircle
 10
494.8895399198502
 20
173.8359254925329
 30
0.0
 40
1.0
100
AcDbArc
 50
90.0
 51
180.0
  0
LINE
  5
A6
330
1F
100
AcDbEntity
  8
0
  6
Continuous
 62
   255
100
AcDbLine
 10
555.8895399198502
 20
174.8359254925329
 30
0.0
 11
494.8895399198502
 21
174.8359254925329
 31
0.0
  0
LINE
  5
A7
330
1F
100
AcDbEntity
  8
0
  6
Continuous
 62
   255
100
AcDbLine
 10
556.8895399198502
 20
151.8359254925329
 30
0.0
 11
555.8895399198502
 21
151.8359254925329
 31
0.0
  0
LINE
  5
A8
330
1F
100
AcDbEntity
  8
0
  6
Continuous
 62
   255
100
AcDbLine
 10
556.8895399198502
 20
173.5430322737195
 30
0.0
 11
556.8895399198502
 21
151.8359254925329
 31
0.0
  0
LINE
  5
A9
330
1F
100
AcDbEntity
  8
0
  6
Continuous
 62
   255
100
AcDbLine
 10
555.8895399198502
 20
151.8359254925329
 30
0.0
 11
494.8895399198502
 21
151.8359254925329
 31
0.0
  0
LINE
  5
AA
330
1F
100
AcDbEntity
  8
0
  6
Continuous
 62
   255
100
AcDbLine
 10
494.8895399198502
 20
151.8359254925329
 30
0.0
 11
493.8895399198503
 21
151.8359254925329
 31
0.0
  0
LINE
  5
AB
330
1F
100
AcDbEntity
  8
0
  6
Continuous
 62
   255
100
AcDbLine
 10
493.8895399198503
 20
151.8359254925329
 30
0.0
 11
493.8895399198501
 21
173.5430322737195
 31
0.0
  0
LINE
  5
AC
330
1F
100
AcDbEntity
  8
0
  6
Continuous
 62
   255
100
AcDbLine
 10
488.8895399198487
 20
377.1183475736203
 30
0.0
 11
488.8895399198487
 21
377.2120397865839
 31
0.0
  0
LINE
  5
AD
330
1F
100
AcDbEntity
  8
0
  6
Continuous
 62
   255
100
AcDbLine
 10
561.8895399198487
 20
377.2120397865839
 30
0.0
 11
561.8895399198487
 21
377.1183475736203
 31
0.0
  0
LINE
  5
AE
330
1F
100
AcDbEntity
  8
0
  6
Continuous
 62
   255
100
AcDbLine
 10
488.8895399198487
 20
353.98331428855
 30
0.0
 11
488.8895399198487
 21
357.7240994671848
 31
0.0
  0
LINE
  5
AF
330
1F
100
AcDbEntity
  8
0
  6
Continuous
 62
   255
100
AcDbLine
 10
561.8895399198487
 20
357.7240994671848
 30
0.0
 11
561.8895399198487
 21
353.98331428855
 31
0.0
  0
LINE
  5
B0
330
1F
100
AcDbEntity
  8
0
  6
Continuous
 62
   255
100
AcDbLine
 10
488.8895399198487
 20
351.2643909274401
 30
0.0
 11
488.8895399198487
 21
353.98331428855
 31
0.0
  0
LINE
  5
B1
330
1F
100
AcDbEntity
  8
0
  6
Continuous
 62
   255
100
AcDbLine
 10
561.8895399198487
 20
353.98331428855
 30
0.0
 11
561.8895399198487
 21
351.26439092744
 31
0.0
  0
LINE
  5
B2
330
1F
100
AcDbEntity
  8
0
  6
Continuous
 62
   255
100
AcDbLine
 10
557.8895399198487
 20
341.295005270037
 30
0.0
 11
492.8895399198488
 21
341.295005270037
 31
0.0
  0
LINE
  5
B3
330
1F
100
AcDbEntity
  8
0
  6
Continuous
 62
   255
100
AcDbLine
 10
561.8895399198487
 20
353.98331428855
 30
0.0
 11
488.8895399198487
 21
353.98331428855
 31
0.0
  0
LINE
  5
B4
330
1F
100
AcDbEntity
  8
0
  6
Continuous
 62
   255
100
AcDbLine
 10
488.8895399198487
 20
375.821628100047
 30
0.0
 11
488.8895399198487
 21
377.1183475736203
 31
0.0
  0
LINE
  5
B5
330
1F
100
AcDbEntity
  8
0
  6
Continuous
 62
   255
100
AcDbLine
 10
561.8895399198487
 20
377.1183475736203
 30
0.0
 11
561.8895399198487
 21
375.821628100047
 31
0.0
  0
LINE
  5
B6
330
1F
100
AcDbEntity
  8
0
  6
Continuous
 62
   255
100
AcDbLine
 10
488.8895399198487
 20
357.7240994671848
 30
0.0
 11
488.8895399198487
 21
374.3099253935596
 31
0.0
  0
LINE
  5
B7
330
1F
100
AcDbEntity
  8
0
  6
Continuous
 62
   255
100
AcDbLine
 10
561.8895399198487
 20
374.3099253935596
 30
0.0
 11
561.8895399198487
 21
357.7240994671848
 31
0.0
  0
LINE
  5
B8
330
1F
100
AcDbEntity
  8
0
  6
Continuous
 62
   255
100
AcDbLine
 10
561.8895399198487
 20
357.7240994671848
 30
0.0
 11
488.8895399198487
 21
357.7240994671848
 31
0.0
  0
LINE
  5
B9
330
1F
100
AcDbEntity
  8
0
  6
Continuous
 62
   255
100
AcDbLine
 10
488.8895399198487
 20
374.3099253935596
 30
0.0
 11
488.8895399198487
 21
375.821628100047
 31
0.0
  0
LINE
  5
BA
330
1F
100
AcDbEntity
  8
0
  6
Continuous
 62
   255
100
AcDbLine
 10
561.8895399198487
 20
375.821628100047
 30
0.0
 11
561.8895399198487
 21
374.3099253935596
 31
0.0
  0
LINE
  5
BB
330
1F
100
AcDbEntity
  8
0
  6
Continuous
 62
   255
100
AcDbLine
 10
566.6395399198491
 20
296.8118770617057
 30
0.0
 11
566.6395399198491
 21
292.8118770617057
 31
0.0
  0
LINE
  5
BC
330
1F
100
AcDbEntity
  8
0
  6
Continuous
 62
   255
100
AcDbLine
 10
484.139539919849
 20
296.8118770617057
 30
0.0
 11
484.139539919849
 21
292.8118770617057
 31
0.0
  0
LINE
  5
BD
330
1F
100
AcDbEntity
  8
0
  6
Continuous
 62
   255
100
AcDbLine
 10
557.8895399198485
 20
351.26439092744
 30
0.0
 11
557.8895399198501
 21
169.9611566406795
 31
0.0
  0
LINE
  5
BE
330
1F
100
AcDbEntity
  8
0
  6
Continuous
 62
   255
100
AcDbLine
 10
561.8895399198487
 20
351.26439092744
 30
0.0
 11
561.88953991985
 21
169.9611566406795
 31
0.0
  0
LINE
  5
BF
330
1F
100
AcDbEntity
  8
0
  6
Continuous
 62
   255
100
AcDbLine
 10
561.8895399198487
 20
351.26439092744
 30
0.0
 11
557.8895399198485
 21
351.26439092744
 31
0.0
  0
LINE
  5
C0
330
1F
100
AcDbEntity
  8
0
  6
Continuous
 62
   255
100
AcDbLine
 10
492.8895399198487
 20
351.2643909274401
 30
0.0
 11
492.88953991985
 21
169.9611566406795
 31
0.0
  0
LINE
  5
C1
330
1F
100
AcDbEntity
  8
0
  6
Continuous
 62
   255
100
AcDbLine
 10
488.8895399198487
 20
351.2643909274401
 30
0.0
 11
488.88953991985
 21
169.9611566406795
 31
0.0
  0
LINE
  5
C2
330
1F
100
AcDbEntity
  8
0
  6
Continuous
 62
   255
100
AcDbLine
 10
488.8895399198487
 20
351.2643909274401
 30
0.0
 11
492.8895399198487
 21
351.2643909274401
 31
0.0
  0
LINE
  5
C3
330
1F
100
AcDbEntity
  8
0
  6
Continuous
 62
   255
100
AcDbLine
 10
557.8895399198501
 20
169.9611566406795
 30
0.0
 11
557.88953991985
 21
162.3359254925329
 31
0.0
  0
LINE
  5
C4
330
1F
100
AcDbEntity
  8
0
  6
Continuous
 62
   255
100
AcDbLine
 10
561.88953991985
 20
169.9611566406795
 30
0.0
 11
561.88953991985
 21
162.3359254925329
 31
0.0
  0
LINE
  5
C5
330
1F
100
AcDbEntity
  8
0
  6
Continuous
 62
   255
100
AcDbLine
 10
492.88953991985
 20
169.9611566406795
 30
0.0
 11
492.88953991985
 21
162.3359254925329
 31
0.0
  0
LINE
  5
C6
330
1F
100
AcDbEntity
  8
0
  6
Continuous
 62
   255
100
AcDbLine
 10
488.88953991985
 20
169.9611566406795
 30
0.0
 11
488.88953991985
 21
162.3359254925329
 31
0.0
  0
LINE
  5
C7
330
1F
100
AcDbEntity
  8
0
  6
Continuous
 62
   255
100
AcDbLine
 10
562.3895399198484
 20
88.84691174836973
 30
0.0
 11
562.3895399198491
 21
290.8877435754709
 31
0.0
  0
LINE
  5
C8
330
1F
100
AcDbEntity
  8
0
  6
Continuous
 62
   255
100
AcDbLine
 10
566.3895399198486
 20
146.637980213416
 30
0.0
 11
566.3895399198491
 21
290.8877435754709
 31
0.0
  0
LINE
  5
C9
330
1F
100
AcDbEntity
  8
0
  6
Continuous
 62
   255
100
AcDbLine
 10
566.3895399198484
 20
88.8469117483697
 30
0.0
 11
562.3895399198484
 21
88.84691174836973
 31
0.0
  0
LINE
  5
CA
330
1F
100
AcDbEntity
  8
0
  6
Continuous
 62
   255
100
AcDbLine
 10
484.3895399198491
 20
290.8877435754709
 30
0.0
 11
484.3895399198486
 21
146.637980213416
 31
0.0
  0
LINE
  5
CB
330
1F
100
AcDbEntity
  8
0
  6
Continuous
 62
   255
100
AcDbLine
 10
488.3895399198491
 20
290.8877435754709
 30
0.0
 11
488.3895399198483
 21
88.84691174836973
 31
0.0
  0
LINE
  5
CC
330
1F
100
AcDbEntity
  8
0
  6
Continuous
 62
   255
100
AcDbLine
 10
488.3895399198483
 20
88.84691174836973
 30
0.0
 11
484.3895399198483
 21
88.84691174836973
 31
0.0
  0
LINE
  5
CD
330
1F
100
AcDbEntity
  8
0
  6
Continuous
 62
   255
100
AcDbLine
 10
562.3895399198491
 20
290.8877435754709
 30
0.0
 11
562.3895399198491
 21
300.2768308719969
 31
0.0
  0
LINE
  5
CE
330
1F
100
AcDbEntity
  8
0
  6
Continuous
 62
   255
100
AcDbLine
 10
566.3895399198491
 20
290.8877435754709
 30
0.0
 11
566.3895399198491
 21
300.2768308719969
 31
0.0
  0
LINE
  5
CF
330
1F
100
AcDbEntity
  8
0
  6
Continuous
 62
   255
100
AcDbLine
 10
484.3895399198491
 20
300.2768308719969
 30
0.0
 11
484.3895399198491
 21
290.8877435754709
 31
0.0
  0
LINE
  5
D0
330
1F
100
AcDbEntity
  8
0
  6
Continuous
 62
   255
100
AcDbLine
 10
488.3895399198491
 20
300.2768308719969
 30
0.0
 11
488.3895399198491
 21
290.8877435754709
 31
0.0
  0
LINE
  5
D1
330
1F
100
AcDbEntity
  8
0
  6
Continuous
 62
   255
100
AcDbLine
 10
570.3895399198485
 20
153.137960213416
 30
0.0
 11
570.3895399198485
 21
146.637960213416
 31
0.0
  0
LINE
  5
D2
330
1F
100
AcDbEntity
  8
0
  6
Continuous
 62
   255
100
AcDbLine
 10
570.3895399198485
 20
-50.86203978658396
 30
0.0
 11
569.8804097697403
 21
-50.86203978658396
 31
0.0
  0
LINE
  5
D3
330
1F
100
AcDbEntity
  8
0
  6
Continuous
 62
   255
100
AcDbLine
 10
566.3895399198486
 20
145.3597856203639
 30
0.0
 11
566.3895399198486
 21
17.13796021341604
 31
0.0
  0
LINE
  5
D4
330
1F
100
AcDbEntity
  8
0
  6
Continuous
 62
   255
100
AcDbLine
 10
570.3895399198485
 20
146.637960213416
 30
0.0
 11
570.3895399198485
 21
-50.86203978658396
 31
0.0
  0
LINE
  5
D5
330
1F
100
AcDbEntity
  8
0
  6
Continuous
 62
   255
100
AcDbLine
 10
480.3895399198486
 20
146.637960213416
 30
0.0
 11
480.3895399198486
 21
153.137960213416
 31
0.0
  0
LINE
  5
D6
330
1F
100
AcDbEntity
  8
0
  6
Continuous
 62
   255
100
AcDbLine
 10
480.3895399198486
 20
-50.86203978658396
 30
0.0
 11
480.8986700699569
 21
-50.86203978658396
 31
0.0
  0
LINE
  5
D7
330
1F
100
AcDbEntity
  8
0
  6
Continuous
 62
   255
100
AcDbLine
 10
484.3895399198486
 20
17.13796021341604
 30
0.0
 11
484.3895399198486
 21
145.3597856203639
 31
0.0
  0
LINE
  5
D8
330
1F
100
AcDbEntity
  8
0
  6
Continuous
 62
   255
100
AcDbLine
 10
480.3895399198486
 20
-50.86203978658396
 30
0.0
 11
480.3895399198486
 21
146.637960213416
 31
0.0
  0
LINE
  5
D9
330
1F
100
AcDbEntity
  8
0
  6
Continuous
 62
   255
100
AcDbLine
 10
555.6560442143442
 20
-53.36203978658396
 30
0.0
 11
548.1560442143444
 21
-53.36203978658396
 31
0.0
  0
LINE
  5
DA
330
1F
100
AcDbEntity
  8
0
  6
Continuous
 62
   255
100
AcDbLine
 10
502.6230356253537
 20
-53.36203978658396
 30
0.0
 11
495.1230356253536
 21
-53.36203978658396
 31
0.0
  0
LINE
  5
DB
330
1F
100
AcDbEntity
  8
0
  6
Continuous
 62
   255
100
AcDbLine
 10
480.8986700699569
 20
-50.86203978658396
 30
0.0
 11
569.8804097697403
 21
-50.86203978658396
 31
0.0
  0
LINE
  5
DC
330
1F
100
AcDbEntity
  8
0
  6
Continuous
 62
   255
100
AcDbLine
 10
569.8804097697403
 20
17.13796021341604
 30
0.0
 11
569.8804097697403
 21
-50.86203978658396
 31
0.0
  0
LINE
  5
DD
330
1F
100
AcDbEntity
  8
0
  6
Continuous
 62
   255
100
AcDbLine
 10
480.8986700699569
 20
17.13796021341604
 30
0.0
 11
569.8804097697403
 21
17.13796021341604
 31
0.0
  0
LINE
  5
DE
330
1F
100
AcDbEntity
  8
0
  6
Continuous
 62
   255
100
AcDbLine
 10
480.8986700699569
 20
17.13796021341604
 30
0.0
 11
480.8986700699569
 21
-50.86203978658396
 31
0.0
  0
ARC
  5
DF
330
1F
100
AcDbEntity
  8
0
  6
Continuous
 62
   255
100
AcDbCircle
 10
555.8895399198498
 20
187.5638475538907
 30
0.0
 40
1.0
100
AcDbArc
 50
0.0
 51
90.0
  0
LINE
  5
E0
330
1F
100
AcDbEntity
  8
0
  6
Continuous
 62
   255
100
AcDbLine
 10
555.8895399198498
 20
188.5638475538907
 30
0.0
 11
494.8895399198499
 21
188.5638475538907
 31
0.0
  0
ARC
  5
E1
330
1F
100
AcDbEntity
  8
0
  6
Continuous
 62
   255
100
AcDbCircle
 10
494.8895399198499
 20
187.5638475538907
 30
0.0
 40
1.0
100
AcDbArc
 50
90.0
 51
180.0
  0
LINE
  5
E2
330
1F
100
AcDbEntity
  8
0
  6
Continuous
 62
   255
100
AcDbLine
 10
492.889539919849
 20
325.4278537064907
 30
0.0
 11
557.8895399198487
 21
325.4278537064907
 31
0.0
  0
LINE
  5
E3
330
1F
100
AcDbEntity
  8
0
  6
Continuous
 62
   255
100
AcDbLine
 10
561.8895399198487
 20
377.2120397865839
 30
0.0
 11
488.8895399198487
 21
377.2120397865839
 31
0.0
  0
LINE
  5
E4
330
1F
100
AcDbEntity
  8
0
  6
Continuous
 62
   255
100
AcDbLine
 10
562.3895399198492
 20
296.8118770617057
 30
0.0
 11
561.8895399198491
 21
296.8118770617057
 31
0.0
  0
LINE
  5
E5
330
1F
100
AcDbEntity
  8
0
  6
Continuous
 62
   255
100
AcDbLine
 10
566.6395399198491
 20
296.8118770617057
 30
0.0
 11
566.3895399198491
 21
296.8118770617057
 31
0.0
  0
LINE
  5
E6
330
1F
100
AcDbEntity
  8
0
  6
Continuous
 62
   255
100
AcDbLine
 10
566.3895399198491
 20
292.8118770617057
 30
0.0
 11
566.6395399198491
 21
292.8118770617057
 31
0.0
  0
LINE
  5
E7
330
1F
100
AcDbEntity
  8
0
  6
Continuous
 62
   255
100
AcDbLine
 10
561.8895399198491
 20
292.8118770617057
 30
0.0
 11
562.3895399198492
 21
292.8118770617057
 31
0.0
  0
LINE
  5
E8
330
1F
100
AcDbEntity
  8
0
  6
Continuous
 62
   255
100
AcDbLine
 10
557.8895399198491
 20
296.8118770617057
 30
0.0
 11
492.8895399198491
 21
296.8118770617057
 31
0.0
  0
LINE
  5
E9
330
1F
100
AcDbEntity
  8
0
  6
Continuous
 62
   255
100
AcDbLine
 10
492.8895399198491
 20
292.8118770617057
 30
0.0
 11
557.8895399198491
 21
292.8118770617057
 31
0.0
  0
LINE
  5
EA
330
1F
100
AcDbEntity
  8
0
  6
Continuous
 62
   255
100
AcDbLine
 10
484.3895399198491
 20
296.8118770617057
 30
0.0
 11
484.139539919849
 21
296.8118770617057
 31
0.0
  0
LINE
  5
EB
330
1F
100
AcDbEntity
  8
0
  6
Continuous
 62
   255
100
AcDbLine
 10
488.8895399198491
 20
296.8118770617057
 30
0.0
 11
488.3895399198491
 21
296.8118770617057
 31
0.0
  0
LINE
  5
EC
330
1F
100
AcDbEntity
  8
0
  6
Continuous
 62
   255
100
AcDbLine
 10
488.3895399198491
 20
292.8118770617057
 30
0.0
 11
488.8895399198491
 21
292.8118770617057
 31
0.0
  0
LINE
  5
ED
330
1F
100
AcDbEntity
  8
0
  6
Continuous
 62
   255
100
AcDbLine
 10
484.139539919849
 20
292.8118770617057
 30
0.0
 11
484.3895399198491
 21
292.8118770617057
 31
0.0
  0
LINE
  5
EE
330
1F
100
AcDbEntity
  8
0
  6
Continuous
 62
   255
100
AcDbLine
 10
557.88953991985
 20
162.3359254925329
 30
0.0
 11
561.88953991985
 21
162.3359254925329
 31
0.0
  0
LINE
  5
EF
330
1F
100
AcDbEntity
  8
0
  6
Continuous
 62
   255
100
AcDbLine
 10
488.88953991985
 20
162.3359254925329
 30
0.0
 11
492.88953991985
 21
162.3359254925329
 31
0.0
  0
LINE
  5
F0
330
1F
100
AcDbEntity
  8
0
  6
Continuous
 62
   255
100
AcDbLine
 10
562.3895399198485
 20
109.9507627514332
 30
0.0
 11
488.3895399198484
 21
109.9507627514332
 31
0.0
  0
LINE
  5
F1
330
1F
100
AcDbEntity
  8
0
  6
Continuous
 62
   255
100
AcDbLine
 10
562.3895399198484
 20
99.33219312260849
 30
0.0
 11
488.3895399198484
 21
99.33219312260849
 31
0.0
  0
LINE
  5
F2
330
1F
100
AcDbEntity
  8
0
  6
Continuous
 62
   255
100
AcDbLine
 10
484.3895399198483
 20
49.24321940529141
 30
0.0
 11
566.3895399198484
 21
49.24321940529141
 31
0.0
  0
LINE
  5
F3
330
1F
100
AcDbEntity
  8
0
  6
Continuous
 62
   255
100
AcDbLine
 10
488.3895399198485
 20
144.762960213416
 30
0.0
 11
562.3895399198486
 21
144.762960213416
 31
0.0
  0
LINE
  5
F4
330
1F
100
AcDbEntity
  8
0
  6
Continuous
 62
   255
100
AcDbLine
 10
562.3895399198486
 20
148.512960213416
 30
0.0
 11
488.3895399198485
 21
148.512960213416
 31
0.0
  0
LINE
  5
F5
330
1F
100
AcDbEntity
  8
0
  6
Continuous
 62
   255
100
AcDbLine
 10
566.3895399198491
 20
300.2768308719969
 30
0.0
 11
562.3895399198491
 21
300.2768308719969
 31
0.0
  0
LINE
  5
F6
330
1F
100
AcDbEntity
  8
0
  6
Continuous
 62
   255
100
AcDbLine
 10
488.3895399198491
 20
300.2768308719969
 30
0.0
 11
484.3895399198491
 21
300.2768308719969
 31
0.0
  0
LINE
  5
F7
330
1F
100
AcDbEntity
  8
0
  6
Continuous
 62
   255
100
AcDbLine
 10
570.3895399198485
 20
153.137960213416
 30
0.0
 11
566.3895399198486
 21
153.137960213416
 31
0.0
  0
LINE
  5
F8
330
1F
100
AcDbEntity
  8
0
  6
Continuous
 62
   255
100
AcDbLine
 10
484.3895399198485
 20
153.137960213416
 30
0.0
 11
480.3895399198486
 21
153.137960213416
 31
0.0
  0
LINE
  5
F9
330
1F
100
AcDbEntity
  8
0
  6
Continuous
 62
   255
100
AcDbLine
 10
555.6560442143442
 20
-53.36203978658396
 30
0.0
 11
555.6560442143442
 21
-50.86203978658396
 31
0.0
  0
LINE
  5
FA
330
1F
100
AcDbEntity
  8
0
  6
Continuous
 62
   255
100
AcDbLine
 10
548.1560442143444
 20
-50.86203978658396
 30
0.0
 11
548.1560442143444
 21
-53.36203978658396
 31
0.0
  0
LINE
  5
FB
330
1F
100
AcDbEntity
  8
0
  6
Continuous
 62
   255
100
AcDbLine
 10
502.6230356253537
 20
-53.36203978658396
 30
0.0
 11
502.6230356253537
 21
-50.86203978658396
 31
0.0
  0
LINE
  5
FC
330
1F
100
AcDbEntity
  8
0
  6
Continuous
 62
   255
100
AcDbLine
 10
495.1230356253536
 20
-50.86203978658396
 30
0.0
 11
495.1230356253536
 21
-53.36203978658396
 31
0.0
  0
LINE
  5
FD
330
1F
100
AcDbEntity
  8
0
  6
PHANTOM
 62
   255
100
AcDbLine
 10
-220.1738625280868
 20
-254.3468175220896
 30
0.0
 11
-197.7596489657136
 21
-254.3468175220897
 31
0.0
  0
LINE
  5
FE
330
1F
100
AcDbEntity
  8
0
  6
PHANTOM
 62
   255
100
AcDbLine
 10
-197.7596489657136
 20
-193.3468175220897
 30
0.0
 11
-220.1738625280868
 21
-193.3468175220896
 31
0.0
  0
POLYLINE
  5
FF
330
1F
100
AcDbEntity
  8
0
  6
PHANTOM
 62
   255
100
AcDb2dPolyline
 66
     1
 10
0.0
 20
0.0
 30
0.0
  0
VERTEX
  5
100
330
FF
100
AcDbEntity
  8
0
  6
PHANTOM
 62
   255
100
AcDbVertex
100
AcDb2dVertex
 10
-197.7596489657136
 20
-254.3468175220897
 30
0.0
  0
VERTEX
  5
101
330
FF
100
AcDbEntity
  8
0
  6
PHANTOM
 62
   255
100
AcDbVertex
100
AcDb2dVertex
 10
-197.7460621071881
 20
-254.5419078441058
 30
0.0
  0
VERTEX
  5
102
330
FF
100
AcDbEntity
  8
0
  6
PHANTOM
 62
   255
100
AcDbVertex
100
AcDb2dVertex
 10
-197.7058236669652
 20
-254.7295009544548
 30
0.0
  0
VERTEX
  5
103
330
FF
100
AcDbEntity
  8
0
  6
PHANTOM
 62
   255
100
AcDbVertex
100
AcDb2dVertex
 10
-197.6404799857367
 20
-254.9023877551093
 30
0.0
  0
VERTEX
  5
104
330
FF
100
AcDbEntity
  8
0
  6
PHANTOM
 62
   255
100
AcDbVertex
100
AcDb2dVertex
 10
-197.552542184527
 20
-255.0539243032762
 30
0.0
  0
VERTEX
  5
105
330
FF
100
AcDbEntity
  8
0
  6
PHANTOM
 62
   255
100
AcDbVertex
100
AcDb2dVertex
 10
-197.4453896637206
 20
-255.1782871343923
 30
0.0
  0
VERTEX
  5
106
330
FF
100
AcDbEntity
  8
0
  6
PHANTOM
 62
   255
100
AcDbVertex
100
AcDb2dVertex
 10
-197.3231402346001
 20
-255.270697054601
 30
0.0
  0
VERTEX
  5
107
330
FF
100
AcDbEntity
  8
0
  6
PHANTOM
 62
   255
100
AcDbVertex
100
AcDb2dVertex
 10
-197.1904918741685
 20
-255.3276028024929
 30
0.0
  0
VERTEX
  5
108
330
FF
100
AcDbEntity
  8
0
  6
PHANTOM
 62
   255
100
AcDbVertex
100
AcDb2dVertex
 10
-197.052542184527
 20
-255.3468175220897
 30
0.0
  0
SEQEND
  5
109
330
FF
100
AcDbEntity
  8
0
  6
PHANTOM
 62
   255
  0
LINE
  5
10A
330
1F
100
AcDbEntity
  8
0
  6
PHANTOM
 62
   255
100
AcDbLine
 10
-196.3454354033405
 20
-254.3468175220897
 30
0.0
 11
-196.3454354033405
 21
-255.3468175220897
 31
0.0
  0
POLYLINE
  5
10B
330
1F
100
AcDbEntity
  8
0
  6
PHANTOM
 62
   255
100
AcDb2dPolyline
 66
     1
 10
0.0
 20
0.0
 30
0.0
  0
VERTEX
  5
10C
330
10B
100
AcDbEntity
  8
0
  6
PHANTOM
 62
   255
100
AcDbVertex
100
AcDb2dVertex
 10
-197.052542184527
 20
-192.3468175220897
 30
0.0
  0
VERTEX
  5
10D
330
10B
100
AcDbEntity
  8
0
  6
PHANTOM
 62
   255
100
AcDbVertex
100
AcDb2dVertex
 10
-197.1904918741685
 20
-192.3660322416864
 30
0.0
  0
VERTEX
  5
10E
330
10B
100
AcDbEntity
  8
0
  6
PHANTOM
 62
   255
100
AcDbVertex
100
AcDb2dVertex
 10
-197.3231402346001
 20
-192.4229379895784
 30
0.0
  0
VERTEX
  5
10F
330
10B
100
AcDbEntity
  8
0
  6
PHANTOM
 62
   255
100
AcDbVertex
100
AcDb2dVertex
 10
-197.4453896637206
 20
-192.5153479097871
 30
0.0
  0
VERTEX
  5
110
330
10B
100
AcDbEntity
  8
0
  6
PHANTOM
 62
   255
100
AcDbVertex
100
AcDb2dVertex
 10
-197.552542184527
 20
-192.6397107409031
 30
0.0
  0
VERTEX
  5
111
330
10B
100
AcDbEntity
  8
0
  6
PHANTOM
 62
   255
100
AcDbVertex
100
AcDb2dVertex
 10
-197.6404799857367
 20
-192.7912472890701
 30
0.0
  0
VERTEX
  5
112
330
10B
100
AcDbEntity
  8
0
  6
PHANTOM
 62
   255
100
AcDbVertex
100
AcDb2dVertex
 10
-197.7058236669652
 20
-192.9641340897246
 30
0.0
  0
VERTEX
  5
113
330
10B
100
AcDbEntity
  8
0
  6
PHANTOM
 62
   255
100
AcDbVertex
100
AcDb2dVertex
 10
-197.7460621071881
 20
-193.1517272000735
 30
0.0
  0
VERTEX
  5
114
330
10B
100
AcDbEntity
  8
0
  6
PHANTOM
 62
   255
100
AcDbVertex
100
AcDb2dVertex
 10
-197.7596489657136
 20
-193.3468175220897
 30
0.0
  0
SEQEND
  5
115
330
10B
100
AcDbEntity
  8
0
  6
PHANTOM
 62
   255
  0
LINE
  5
116
330
1F
100
AcDbEntity
  8
0
  6
PHANTOM
 62
   255
100
AcDbLine
 10
-196.3454354033405
 20
-193.3468175220897
 30
0.0
 11
-197.7596489657136
 21
-193.3468175220897
 31
0.0
  0
LINE
  5
117
330
1F
100
AcDbEntity
  8
0
  6
PHANTOM
 62
   255
100
AcDbLine
 10
-197.7596489657136
 20
-254.3468175220897
 30
0.0
 11
-197.7596489657136
 21
-193.3468175220897
 31
0.0
  0
LINE
  5
118
330
1F
100
AcDbEntity
  8
0
  6
PHANTOM
 62
   255
100
AcDbLine
 10
-197.7596489657136
 20
-254.3468175220897
 30
0.0
 11
-196.3454354033405
 21
-254.3468175220897
 31
0.0
  0
LINE
  5
119
330
1F
100
AcDbEntity
  8
0
  6
PHANTOM
 62
   255
100
AcDbLine
 10
-196.3454354033405
 20
-254.3468175220897
 30
0.0
 11
-196.3454354033405
 21
-193.3468175220897
 31
0.0
  0
LINE
  5
11A
330
1F
100
AcDbEntity
  8
0
  6
PHANTOM
 62
   255
100
AcDbLine
 10
-196.3454354033405
 20
-254.3468175220897
 30
0.0
 11
-139.47285240131
 21
-254.3468175220897
 31
0.0
  0
LINE
  5
11B
330
1F
100
AcDbEntity
  8
0
  6
PHANTOM
 62
   255
100
AcDbLine
 10
-196.3454354033405
 20
-192.3468175220897
 30
0.0
 11
-196.3454354033405
 21
-193.3468175220897
 31
0.0
  0
LINE
  5
11C
330
1F
100
AcDbEntity
  8
0
  6
PHANTOM
 62
   255
100
AcDbLine
 10
-139.47285240131
 20
-193.3468175220897
 30
0.0
 11
-196.3454354033405
 21
-193.3468175220897
 31
0.0
  0
LINE
  5
11D
330
1F
100
AcDbEntity
  8
0
  6
PHANTOM
 62
   255
100
AcDbLine
 10
-139.47285240131
 20
-254.3468175220897
 30
0.0
 11
-139.47285240131
 21
-255.3468175220897
 31
0.0
  0
LINE
  5
11E
330
1F
100
AcDbEntity
  8
0
  6
PHANTOM
 62
   255
100
AcDbLine
 10
-139.47285240131
 20
-254.3468175220897
 30
0.0
 11
-139.47285240131
 21
-193.3468175220897
 31
0.0
  0
LINE
  5
11F
330
1F
100
AcDbEntity
  8
0
  6
PHANTOM
 62
   255
100
AcDbLine
 10
-139.47285240131
 20
-254.3468175220897
 30
0.0
 11
-132.4017845894445
 21
-254.3468175220897
 31
0.0
  0
LINE
  5
120
330
1F
100
AcDbEntity
  8
0
  6
PHANTOM
 62
   255
100
AcDbLine
 10
-139.47285240131
 20
-192.3468175220897
 30
0.0
 11
-139.47285240131
 21
-193.3468175220897
 31
0.0
  0
LINE
  5
121
330
1F
100
AcDbEntity
  8
0
  6
PHANTOM
 62
   255
100
AcDbLine
 10
-132.4017845894445
 20
-193.3468175220897
 30
0.0
 11
-139.47285240131
 21
-193.3468175220897
 31
0.0
  0
LINE
  5
122
330
1F
100
AcDbEntity
  8
0
  6
PHANTOM
 62
   255
100
AcDbLine
 10
-119.0672608102884
 20
-254.3468175220898
 30
0.0
 11
-118.7743675914749
 21
-254.3468175220898
 31
0.0
  0
LINE
  5
123
330
1F
100
AcDbEntity
  8
0
  6
PHANTOM
 62
   255
100
AcDbLine
 10
-119.0672608102884
 20
-193.3468175220897
 30
0.0
 11
-118.774367591475
 21
-193.3468175220897
 31
0.0
  0
POLYLINE
  5
124
330
1F
100
AcDbEntity
  8
0
  6
PHANTOM
 62
   255
100
AcDb2dPolyline
 66
     1
 10
0.0
 20
0.0
 30
0.0
  0
VERTEX
  5
125
330
124
100
AcDbEntity
  8
0
  6
PHANTOM
 62
   255
100
AcDbVertex
100
AcDb2dVertex
 10
-119.774367591475
 20
-255.3468175220898
 30
0.0
  0
VERTEX
  5
126
330
124
100
AcDbEntity
  8
0
  6
PHANTOM
 62
   255
100
AcDbVertex
100
AcDb2dVertex
 10
-119.6364179018335
 20
-255.327602802493
 30
0.0
  0
VERTEX
  5
127
330
124
100
AcDbEntity
  8
0
  6
PHANTOM
 62
   255
100
AcDbVertex
100
AcDb2dVertex
 10
-119.5037695414018
 20
-255.270697054601
 30
0.0
  0
VERTEX
  5
128
330
124
100
AcDbEntity
  8
0
  6
PHANTOM
 62
   255
100
AcDbVertex
100
AcDb2dVertex
 10
-119.3815201122814
 20
-255.1782871343923
 30
0.0
  0
VERTEX
  5
129
330
124
100
AcDbEntity
  8
0
  6
PHANTOM
 62
   255
100
AcDbVertex
100
AcDb2dVertex
 10
-119.274367591475
 20
-255.0539243032763
 30
0.0
  0
VERTEX
  5
12A
330
124
100
AcDbEntity
  8
0
  6
PHANTOM
 62
   255
100
AcDbVertex
100
AcDb2dVertex
 10
-119.1864297902653
 20
-254.9023877551094
 30
0.0
  0
VERTEX
  5
12B
330
124
100
AcDbEntity
  8
0
  6
PHANTOM
 62
   255
100
AcDbVertex
100
AcDb2dVertex
 10
-119.1210861090368
 20
-254.7295009544548
 30
0.0
  0
VERTEX
  5
12C
330
124
100
AcDbEntity
  8
0
  6
PHANTOM
 62
   255
100
AcDbVertex
100
AcDb2dVertex
 10
-119.0808476688139
 20
-254.5419078441058
 30
0.0
  0
VERTEX
  5
12D
330
124
100
AcDbEntity
  8
0
  6
PHANTOM
 62
   255
100
AcDbVertex
100
AcDb2dVertex
 10
-119.0672608102884
 20
-254.3468175220898
 30
0.0
  0
SEQEND
  5
12E
330
124
100
AcDbEntity
  8
0
  6
PHANTOM
 62
   255
  0
POLYLINE
  5
12F
330
1F
100
AcDbEntity
  8
0
  6
PHANTOM
 62
   255
100
AcDb2dPolyline
 66
     1
 10
0.0
 20
0.0
 30
0.0
  0
VERTEX
  5
130
330
12F
100
AcDbEntity
  8
0
  6
PHANTOM
 62
   255
100
AcDbVertex
100
AcDb2dVertex
 10
-132.4017845894445
 20
-254.3468175220897
 30
0.0
  0
VERTEX
  5
131
330
12F
100
AcDbEntity
  8
0
  6
PHANTOM
 62
   255
100
AcDbVertex
100
AcDb2dVertex
 10
-132.388197730919
 20
-254.5419078441058
 30
0.0
  0
VERTEX
  5
132
330
12F
100
AcDbEntity
  8
0
  6
PHANTOM
 62
   255
100
AcDbVertex
100
AcDb2dVertex
 10
-132.3479592906961
 20
-254.7295009544548
 30
0.0
  0
VERTEX
  5
133
330
12F
100
AcDbEntity
  8
0
  6
PHANTOM
 62
   255
100
AcDbVertex
100
AcDb2dVertex
 10
-132.2826156094676
 20
-254.9023877551093
 30
0.0
  0
VERTEX
  5
134
330
12F
100
AcDbEntity
  8
0
  6
PHANTOM
 62
   255
100
AcDbVertex
100
AcDb2dVertex
 10
-132.1946778082579
 20
-255.0539243032762
 30
0.0
  0
VERTEX
  5
135
330
12F
100
AcDbEntity
  8
0
  6
PHANTOM
 62
   255
100
AcDbVertex
100
AcDb2dVertex
 10
-132.0875252874515
 20
-255.1782871343923
 30
0.0
  0
VERTEX
  5
136
330
12F
100
AcDbEntity
  8
0
  6
PHANTOM
 62
   255
100
AcDbVertex
100
AcDb2dVertex
 10
-131.965275858331
 20
-255.270697054601
 30
0.0
  0
VERTEX
  5
137
330
12F
100
AcDbEntity
  8
0
  6
PHANTOM
 62
   255
100
AcDbVertex
100
AcDb2dVertex
 10
-131.8326274978994
 20
-255.3276028024929
 30
0.0
  0
VERTEX
  5
138
330
12F
100
AcDbEntity
  8
0
  6
PHANTOM
 62
   255
100
AcDbVertex
100
AcDb2dVertex
 10
-131.694677808258
 20
-255.3468175220897
 30
0.0
  0
SEQEND
  5
139
330
12F
100
AcDbEntity
  8
0
  6
PHANTOM
 62
   255
  0
POLYLINE
  5
13A
330
1F
100
AcDbEntity
  8
0
  6
PHANTOM
 62
   255
100
AcDb2dPolyline
 66
     1
 10
0.0
 20
0.0
 30
0.0
  0
VERTEX
  5
13B
330
13A
100
AcDbEntity
  8
0
  6
PHANTOM
 62
   255
100
AcDbVertex
100
AcDb2dVertex
 10
-119.0672608102884
 20
-193.3468175220897
 30
0.0
  0
VERTEX
  5
13C
330
13A
100
AcDbEntity
  8
0
  6
PHANTOM
 62
   255
100
AcDbVertex
100
AcDb2dVertex
 10
-119.0808476688139
 20
-193.1517272000736
 30
0.0
  0
VERTEX
  5
13D
330
13A
100
AcDbEntity
  8
0
  6
PHANTOM
 62
   255
100
AcDbVertex
100
AcDb2dVertex
 10
-119.1210861090368
 20
-192.9641340897246
 30
0.0
  0
VERTEX
  5
13E
330
13A
100
AcDbEntity
  8
0
  6
PHANTOM
 62
   255
100
AcDbVertex
100
AcDb2dVertex
 10
-119.1864297902653
 20
-192.7912472890701
 30
0.0
  0
VERTEX
  5
13F
330
13A
100
AcDbEntity
  8
0
  6
PHANTOM
 62
   255
100
AcDbVertex
100
AcDb2dVertex
 10
-119.274367591475
 20
-192.6397107409031
 30
0.0
  0
VERTEX
  5
140
330
13A
100
AcDbEntity
  8
0
  6
PHANTOM
 62
   255
100
AcDbVertex
100
AcDb2dVertex
 10
-119.3815201122814
 20
-192.5153479097871
 30
0.0
  0
VERTEX
  5
141
330
13A
100
AcDbEntity
  8
0
  6
PHANTOM
 62
   255
100
AcDbVertex
100
AcDb2dVertex
 10
-119.5037695414018
 20
-192.4229379895784
 30
0.0
  0
VERTEX
  5
142
330
13A
100
AcDbEntity
  8
0
  6
PHANTOM
 62
   255
100
AcDbVertex
100
AcDb2dVertex
 10
-119.6364179018335
 20
-192.3660322416864
 30
0.0
  0
VERTEX
  5
143
330
13A
100
AcDbEntity
  8
0
  6
PHANTOM
 62
   255
100
AcDbVertex
100
AcDb2dVertex
 10
-119.774367591475
 20
-192.3468175220897
 30
0.0
  0
SEQEND
  5
144
330
13A
100
AcDbEntity
  8
0
  6
PHANTOM
 62
   255
  0
LINE
  5
145
330
1F
100
AcDbEntity
  8
0
  6
PHANTOM
 62
   255
100
AcDbLine
 10
-120.4814743726615
 20
-254.3468175220898
 30
0.0
 11
-119.0672608102884
 21
-254.3468175220898
 31
0.0
  0
LINE
  5
146
330
1F
100
AcDbEntity
  8
0
  6
PHANTOM
 62
   255
100
AcDbLine
 10
-119.0672608102884
 20
-254.3468175220898
 30
0.0
 11
-119.0672608102884
 21
-193.3468175220897
 31
0.0
  0
LINE
  5
147
330
1F
100
AcDbEntity
  8
0
  6
PHANTOM
 62
   255
100
AcDbLine
 10
-119.0672608102884
 20
-193.3468175220897
 30
0.0
 11
-120.4814743726615
 21
-193.3468175220897
 31
0.0
  0
POLYLINE
  5
148
330
1F
100
AcDbEntity
  8
0
  6
PHANTOM
 62
   255
100
AcDb2dPolyline
 66
     1
 10
0.0
 20
0.0
 30
0.0
  0
VERTEX
  5
149
330
148
100
AcDbEntity
  8
0
  6
PHANTOM
 62
   255
100
AcDbVertex
100
AcDb2dVertex
 10
-131.6946778082579
 20
-192.3468175220897
 30
0.0
  0
VERTEX
  5
14A
330
148
100
AcDbEntity
  8
0
  6
PHANTOM
 62
   255
100
AcDbVertex
100
AcDb2dVertex
 10
-131.8326274978994
 20
-192.3660322416864
 30
0.0
  0
VERTEX
  5
14B
330
148
100
AcDbEntity
  8
0
  6
PHANTOM
 62
   255
100
AcDbVertex
100
AcDb2dVertex
 10
-131.965275858331
 20
-192.4229379895784
 30
0.0
  0
VERTEX
  5
14C
330
148
100
AcDbEntity
  8
0
  6
PHANTOM
 62
   255
100
AcDbVertex
100
AcDb2dVertex
 10
-132.0875252874515
 20
-192.5153479097871
 30
0.0
  0
VERTEX
  5
14D
330
148
100
AcDbEntity
  8
0
  6
PHANTOM
 62
   255
100
AcDbVertex
100
AcDb2dVertex
 10
-132.1946778082579
 20
-192.6397107409031
 30
0.0
  0
VERTEX
  5
14E
330
148
100
AcDbEntity
  8
0
  6
PHANTOM
 62
   255
100
AcDbVertex
100
AcDb2dVertex
 10
-132.2826156094676
 20
-192.79124728907
 30
0.0
  0
VERTEX
  5
14F
330
148
100
AcDbEntity
  8
0
  6
PHANTOM
 62
   255
100
AcDbVertex
100
AcDb2dVertex
 10
-132.3479592906961
 20
-192.9641340897246
 30
0.0
  0
VERTEX
  5
150
330
148
100
AcDbEntity
  8
0
  6
PHANTOM
 62
   255
100
AcDbVertex
100
AcDb2dVertex
 10
-132.388197730919
 20
-193.1517272000735
 30
0.0
  0
VERTEX
  5
151
330
148
100
AcDbEntity
  8
0
  6
PHANTOM
 62
   255
100
AcDbVertex
100
AcDb2dVertex
 10
-132.4017845894445
 20
-193.3468175220897
 30
0.0
  0
SEQEND
  5
152
330
148
100
AcDbEntity
  8
0
  6
PHANTOM
 62
   255
  0
LINE
  5
153
330
1F
100
AcDbEntity
  8
0
  6
PHANTOM
 62
   255
100
AcDbLine
 10
-121.8956879350346
 20
-193.3468175220897
 30
0.0
 11
-132.4017845894445
 21
-193.3468175220897
 31
0.0
  0
LINE
  5
154
330
1F
100
AcDbEntity
  8
0
  6
PHANTOM
 62
   255
100
AcDbLine
 10
-132.4017845894445
 20
-254.3468175220897
 30
0.0
 11
-132.4017845894445
 21
-193.3468175220897
 31
0.0
  0
LINE
  5
155
330
1F
100
AcDbEntity
  8
0
  6
PHANTOM
 62
   255
100
AcDbLine
 10
-132.4017845894445
 20
-254.3468175220897
 30
0.0
 11
-121.8956879350346
 21
-254.3468175220898
 31
0.0
  0
POLYLINE
  5
156
330
1F
100
AcDbEntity
  8
0
  6
PHANTOM
 62
   255
100
AcDb2dPolyline
 66
     1
 10
0.0
 20
0.0
 30
0.0
  0
VERTEX
  5
157
330
156
100
AcDbEntity
  8
0
  6
PHANTOM
 62
   255
100
AcDbVertex
100
AcDb2dVertex
 10
-121.8956879350346
 20
-254.3468175220898
 30
0.0
  0
VERTEX
  5
158
330
156
100
AcDbEntity
  8
0
  6
PHANTOM
 62
   255
100
AcDbVertex
100
AcDb2dVertex
 10
-121.8821010765091
 20
-254.5419078441058
 30
0.0
  0
VERTEX
  5
159
330
156
100
AcDbEntity
  8
0
  6
PHANTOM
 62
   255
100
AcDbVertex
100
AcDb2dVertex
 10
-121.8418626362862
 20
-254.7295009544548
 30
0.0
  0
VERTEX
  5
15A
330
156
100
AcDbEntity
  8
0
  6
PHANTOM
 62
   255
100
AcDbVertex
100
AcDb2dVertex
 10
-121.7765189550577
 20
-254.9023877551094
 30
0.0
  0
VERTEX
  5
15B
330
156
100
AcDbEntity
  8
0
  6
PHANTOM
 62
   255
100
AcDbVertex
100
AcDb2dVertex
 10
-121.6885811538481
 20
-255.0539243032763
 30
0.0
  0
VERTEX
  5
15C
330
156
100
AcDbEntity
  8
0
  6
PHANTOM
 62
   255
100
AcDbVertex
100
AcDb2dVertex
 10
-121.5814286330416
 20
-255.1782871343923
 30
0.0
  0
VERTEX
  5
15D
330
156
100
AcDbEntity
  8
0
  6
PHANTOM
 62
   255
100
AcDbVertex
100
AcDb2dVertex
 10
-121.4591792039212
 20
-255.270697054601
 30
0.0
  0
VERTEX
  5
15E
330
156
100
AcDbEntity
  8
0
  6
PHANTOM
 62
   255
100
AcDbVertex
100
AcDb2dVertex
 10
-121.3265308434896
 20
-255.327602802493
 30
0.0
  0
VERTEX
  5
15F
330
156
100
AcDbEntity
  8
0
  6
PHANTOM
 62
   255
100
AcDbVertex
100
AcDb2dVertex
 10
-121.1885811538481
 20
-255.3468175220898
 30
0.0
  0
SEQEND
  5
160
330
156
100
AcDbEntity
  8
0
  6
PHANTOM
 62
   255
  0
POLYLINE
  5
161
330
1F
100
AcDbEntity
  8
0
  6
PHANTOM
 62
   255
100
AcDb2dPolyline
 66
     1
 10
0.0
 20
0.0
 30
0.0
  0
VERTEX
  5
162
330
161
100
AcDbEntity
  8
0
  6
PHANTOM
 62
   255
100
AcDbVertex
100
AcDb2dVertex
 10
-121.1885811538481
 20
-255.3468175220898
 30
0.0
  0
VERTEX
  5
163
330
161
100
AcDbEntity
  8
0
  6
PHANTOM
 62
   255
100
AcDbVertex
100
AcDb2dVertex
 10
-121.0506314642066
 20
-255.327602802493
 30
0.0
  0
VERTEX
  5
164
330
161
100
AcDbEntity
  8
0
  6
PHANTOM
 62
   255
100
AcDbVertex
100
AcDb2dVertex
 10
-120.9179831037749
 20
-255.270697054601
 30
0.0
  0
VERTEX
  5
165
330
161
100
AcDbEntity
  8
0
  6
PHANTOM
 62
   255
100
AcDbVertex
100
AcDb2dVertex
 10
-120.7957336746545
 20
-255.1782871343923
 30
0.0
  0
VERTEX
  5
166
330
161
100
AcDbEntity
  8
0
  6
PHANTOM
 62
   255
100
AcDbVertex
100
AcDb2dVertex
 10
-120.688581153848
 20
-255.0539243032763
 30
0.0
  0
VERTEX
  5
167
330
161
100
AcDbEntity
  8
0
  6
PHANTOM
 62
   255
100
AcDbVertex
100
AcDb2dVertex
 10
-120.6006433526384
 20
-254.9023877551094
 30
0.0
  0
VERTEX
  5
168
330
161
100
AcDbEntity
  8
0
  6
PHANTOM
 62
   255
100
AcDbVertex
100
AcDb2dVertex
 10
-120.5352996714099
 20
-254.7295009544548
 30
0.0
  0
VERTEX
  5
169
330
161
100
AcDbEntity
  8
0
  6
PHANTOM
 62
   255
100
AcDbVertex
100
AcDb2dVertex
 10
-120.495061231187
 20
-254.5419078441058
 30
0.0
  0
VERTEX
  5
16A
330
161
100
AcDbEntity
  8
0
  6
PHANTOM
 62
   255
100
AcDbVertex
100
AcDb2dVertex
 10
-120.4814743726615
 20
-254.3468175220898
 30
0.0
  0
SEQEND
  5
16B
330
161
100
AcDbEntity
  8
0
  6
PHANTOM
 62
   255
  0
LINE
  5
16C
330
1F
100
AcDbEntity
  8
0
  6
PHANTOM
 62
   255
100
AcDbLine
 10
-121.8956879350346
 20
-254.3468175220898
 30
0.0
 11
-120.4814743726615
 21
-254.3468175220898
 31
0.0
  0
LINE
  5
16D
330
1F
100
AcDbEntity
  8
0
  6
PHANTOM
 62
   255
100
AcDbLine
 10
-120.4814743726615
 20
-193.3468175220897
 30
0.0
 11
-120.4814743726615
 21
-254.3468175220898
 31
0.0
  0
LINE
  5
16E
330
1F
100
AcDbEntity
  8
0
  6
PHANTOM
 62
   255
100
AcDbLine
 10
-121.8956879350346
 20
-254.3468175220898
 30
0.0
 11
-121.8956879350346
 21
-193.3468175220897
 31
0.0
  0
LINE
  5
16F
330
1F
100
AcDbEntity
  8
0
  6
PHANTOM
 62
   255
100
AcDbLine
 10
-121.8956879350346
 20
-193.3468175220897
 30
0.0
 11
-120.4814743726615
 21
-193.3468175220897
 31
0.0
  0
POLYLINE
  5
170
330
1F
100
AcDbEntity
  8
0
  6
PHANTOM
 62
   255
100
AcDb2dPolyline
 66
     1
 10
0.0
 20
0.0
 30
0.0
  0
VERTEX
  5
171
330
170
100
AcDbEntity
  8
0
  6
PHANTOM
 62
   255
100
AcDbVertex
100
AcDb2dVertex
 10
-120.4814743726615
 20
-193.3468175220897
 30
0.0
  0
VERTEX
  5
172
330
170
100
AcDbEntity
  8
0
  6
PHANTOM
 62
   255
100
AcDbVertex
100
AcDb2dVertex
 10
-120.4950612311869
 20
-193.1517272000736
 30
0.0
  0
VERTEX
  5
173
330
170
100
AcDbEntity
  8
0
  6
PHANTOM
 62
   255
100
AcDbVertex
100
AcDb2dVertex
 10
-120.5352996714098
 20
-192.9641340897246
 30
0.0
  0
VERTEX
  5
174
330
170
100
AcDbEntity
  8
0
  6
PHANTOM
 62
   255
100
AcDbVertex
100
AcDb2dVertex
 10
-120.6006433526383
 20
-192.7912472890701
 30
0.0
  0
VERTEX
  5
175
330
170
100
AcDbEntity
  8
0
  6
PHANTOM
 62
   255
100
AcDbVertex
100
AcDb2dVertex
 10
-120.688581153848
 20
-192.6397107409032
 30
0.0
  0
VERTEX
  5
176
330
170
100
AcDbEntity
  8
0
  6
PHANTOM
 62
   255
100
AcDbVertex
100
AcDb2dVertex
 10
-120.7957336746545
 20
-192.5153479097872
 30
0.0
  0
VERTEX
  5
177
330
170
100
AcDbEntity
  8
0
  6
PHANTOM
 62
   255
100
AcDbVertex
100
AcDb2dVertex
 10
-120.9179831037749
 20
-192.4229379895784
 30
0.0
  0
VERTEX
  5
178
330
170
100
AcDbEntity
  8
0
  6
PHANTOM
 62
   255
100
AcDbVertex
100
AcDb2dVertex
 10
-121.0506314642065
 20
-192.3660322416865
 30
0.0
  0
VERTEX
  5
179
330
170
100
AcDbEntity
  8
0
  6
PHANTOM
 62
   255
100
AcDbVertex
100
AcDb2dVertex
 10
-121.188581153848
 20
-192.3468175220897
 30
0.0
  0
SEQEND
  5
17A
330
170
100
AcDbEntity
  8
0
  6
PHANTOM
 62
   255
  0
POLYLINE
  5
17B
330
1F
100
AcDbEntity
  8
0
  6
PHANTOM
 62
   255
100
AcDb2dPolyline
 66
     1
 10
0.0
 20
0.0
 30
0.0
  0
VERTEX
  5
17C
330
17B
100
AcDbEntity
  8
0
  6
PHANTOM
 62
   255
100
AcDbVertex
100
AcDb2dVertex
 10
-121.8956879350346
 20
-193.3468175220897
 30
0.0
  0
VERTEX
  5
17D
330
17B
100
AcDbEntity
  8
0
  6
PHANTOM
 62
   255
100
AcDbVertex
100
AcDb2dVertex
 10
-121.8821010765091
 20
-193.1517272000736
 30
0.0
  0
VERTEX
  5
17E
330
17B
100
AcDbEntity
  8
0
  6
PHANTOM
 62
   255
100
AcDbVertex
100
AcDb2dVertex
 10
-121.8418626362862
 20
-192.9641340897246
 30
0.0
  0
VERTEX
  5
17F
330
17B
100
AcDbEntity
  8
0
  6
PHANTOM
 62
   255
100
AcDbVertex
100
AcDb2dVertex
 10
-121.7765189550577
 20
-192.7912472890701
 30
0.0
  0
VERTEX
  5
180
330
17B
100
AcDbEntity
  8
0
  6
PHANTOM
 62
   255
100
AcDbVertex
100
AcDb2dVertex
 10
-121.688581153848
 20
-192.6397107409031
 30
0.0
  0
VERTEX
  5
181
330
17B
100
AcDbEntity
  8
0
  6
PHANTOM
 62
   255
100
AcDbVertex
100
AcDb2dVertex
 10
-121.5814286330415
 20
-192.5153479097871
 30
0.0
  0
VERTEX
  5
182
330
17B
100
AcDbEntity
  8
0
  6
PHANTOM
 62
   255
100
AcDbVertex
100
AcDb2dVertex
 10
-121.4591792039211
 20
-192.4229379895784
 30
0.0
  0
VERTEX
  5
183
330
17B
100
AcDbEntity
  8
0
  6
PHANTOM
 62
   255
100
AcDbVertex
100
AcDb2dVertex
 10
-121.3265308434895
 20
-192.3660322416864
 30
0.0
  0
VERTEX
  5
184
330
17B
100
AcDbEntity
  8
0
  6
PHANTOM
 62
   255
100
AcDbVertex
100
AcDb2dVertex
 10
-121.188581153848
 20
-192.3468175220897
 30
0.0
  0
SEQEND
  5
185
330
17B
100
AcDbEntity
  8
0
  6
PHANTOM
 62
   255
  0
LINE
  5
186
330
1F
100
AcDbEntity
  8
0
  6
PHANTOM
 62
   255
100
AcDbLine
 10
-162.8643355750495
 20
-256.3468175220897
 30
0.0
 11
-162.8643355750495
 21
-260.3468175220897
 31
0.0
  0
LINE
  5
187
330
1F
100
AcDbEntity
  8
0
  6
PHANTOM
 62
   255
100
AcDbLine
 10
-162.8643355750495
 20
-191.3468175220897
 30
0.0
 11
-162.8643355750495
 21
-187.3468175220897
 31
0.0
  0
LINE
  5
188
330
1F
100
AcDbEntity
  8
0
  6
PHANTOM
 62
   255
100
AcDbLine
 10
249.1953457210159
 20
-260.3468175220902
 30
0.0
 11
249.1953457210159
 21
-187.3468175220902
 31
0.0
  0
LINE
  5
189
330
1F
100
AcDbEntity
  8
0
  6
PHANTOM
 62
   255
100
AcDbLine
 10
222.4075825289707
 20
-260.3468175220903
 30
0.0
 11
222.4075825289707
 21
-187.3468175220904
 31
0.0
  0
LINE
  5
18A
330
1F
100
AcDbEntity
  8
0
  6
PHANTOM
 62
   255
100
AcDbLine
 10
226.4099968031103
 20
-260.3468175220903
 30
0.0
 11
226.4099968031103
 21
-187.3468175220904
 31
0.0
  0
LINE
  5
18B
330
1F
100
AcDbEntity
  8
0
  6
PHANTOM
 62
   255
100
AcDbLine
 10
225.1884064140091
 20
-260.3468175220903
 30
0.0
 11
225.1884064140091
 21
-187.3468175220904
 31
0.0
  0
LINE
  5
18C
330
1F
100
AcDbEntity
  8
0
  6
PHANTOM
 62
   255
100
AcDbLine
 10
300.3410638801444
 20
-260.8468175220895
 30
0.0
 11
300.3410638801444
 21
-186.8468175220895
 31
0.0
  0
LINE
  5
18D
330
1F
100
AcDbEntity
  8
0
  6
PHANTOM
 62
   255
100
AcDbLine
 10
333.5797790566012
 20
-264.8468175220894
 30
0.0
 11
333.5797790566012
 21
-182.8468175220894
 31
0.0
  0
LINE
  5
18E
330
1F
100
AcDbEntity
  8
0
  6
PHANTOM
 62
   255
100
AcDbLine
 10
310.3706752483972
 20
-260.8468175220895
 30
0.0
 11
310.3706752483972
 21
-186.8468175220895
 31
0.0
  0
LINE
  5
18F
330
1F
100
AcDbEntity
  8
0
  6
PHANTOM
 62
   255
100
AcDbLine
 10
322.3914905285683
 20
-264.8468175220894
 30
0.0
 11
322.3914905285683
 21
-182.8468175220894
 31
0.0
  0
LINE
  5
190
330
1F
100
AcDbEntity
  8
0
  6
PHANTOM
 62
   255
100
AcDbLine
 10
325.2199176533145
 20
-264.8468175220894
 30
0.0
 11
325.2199176533145
 21
-182.8468175220894
 31
0.0
  0
LINE
  5
191
330
1F
100
AcDbEntity
  8
0
  6
PHANTOM
 62
   255
100
AcDbLine
 10
336.5863437919236
 20
-264.8468175220894
 30
0.0
 11
336.5863437919236
 21
-182.8468175220894
 31
0.0
  0
LINE
  5
192
330
1F
100
AcDbEntity
  8
0
  6
PHANTOM
 62
   255
100
AcDbLine
 10
359.2880760904599
 20
-264.8468175220894
 30
0.0
 11
359.2880760904599
 21
-182.8468175220894
 31
0.0
  0
LINE
  5
193
330
1F
100
AcDbEntity
  8
0
  6
PHANTOM
 62
   255
100
AcDbLine
 10
347.4277807288984
 20
-264.8468175220895
 30
0.0
 11
347.4277807288984
 21
-182.8468175220894
 31
0.0
  0
LINE
  5
194
330
1F
100
AcDbEntity
  8
0
  6
PHANTOM
 62
   255
100
AcDbLine
 10
350.6637938650035
 20
-264.8468175220895
 30
0.0
 11
350.6637938650035
 21
-182.8468175220895
 31
0.0
  0
LINE
  5
195
330
1F
100
AcDbEntity
  8
0
  6
PHANTOM
 62
   255
100
AcDbLine
 10
118.2293383579066
 20
-260.8468175220902
 30
0.0
 11
118.2293383579066
 21
-264.8468175220902
 31
0.0
  0
LINE
  5
196
330
1F
100
AcDbEntity
  8
0
  6
PHANTOM
 62
   255
100
AcDbLine
 10
118.2293383579066
 20
-186.8468175220901
 30
0.0
 11
118.2293383579066
 21
-182.8468175220901
 31
0.0
  0
LINE
  5
197
330
1F
100
AcDbEntity
  8
0
  6
Continuous
 62
   255
100
AcDbLine
 10
-197.052542184527
 20
-255.3468175220897
 30
0.0
 11
-218.7596489657136
 21
-255.3468175220896
 31
0.0
  0
POLYLINE
  5
198
330
1F
100
AcDbEntity
  8
0
  6
Continuous
 62
   255
100
AcDb2dPolyline
 66
     1
 10
0.0
 20
0.0
 30
0.0
  0
VERTEX
  5
199
330
198
100
AcDbEntity
  8
0
  6
Continuous
 62
   255
100
AcDbVertex
100
AcDb2dVertex
 10
-218.7596489657136
 20
-255.3468175220896
 30
0.0
  0
VERTEX
  5
19A
330
198
100
AcDbEntity
  8
0
  6
Continuous
 62
   255
100
AcDbVertex
100
AcDb2dVertex
 10
-219.0052245736516
 20
-255.3316252751018
 30
0.0
  0
VERTEX
  5
19B
330
198
100
AcDbEntity
  8
0
  6
Continuous
 62
   255
100
AcDbVertex
100
AcDb2dVertex
 10
-219.2433384910096
 20
-255.2865101428755
 30
0.0
  0
VERTEX
  5
19C
330
198
100
AcDbEntity
  8
0
  6
Continuous
 62
   255
100
AcDbVertex
100
AcDb2dVertex
 10
-219.4667557469002
 20
-255.2128429258741
 30
0.0
  0
VERTEX
  5
19D
330
198
100
AcDbEntity
  8
0
  6
Continuous
 62
   255
100
AcDbVertex
100
AcDb2dVertex
 10
-219.6686879210577
 20
-255.1128619652086
 30
0.0
  0
VERTEX
  5
19E
330
198
100
AcDbEntity
  8
0
  6
Continuous
 62
   255
100
AcDbVertex
100
AcDb2dVertex
 10
-219.8429994065531
 20
-254.9896051317761
 30
0.0
  0
VERTEX
  5
19F
330
198
100
AcDbEntity
  8
0
  6
Continuous
 62
   255
100
AcDbVertex
100
AcDb2dVertex
 10
-219.9843938371052
 20
-254.8468175220897
 30
0.0
  0
VERTEX
  5
1A0
330
198
100
AcDbEntity
  8
0
  6
Continuous
 62
   255
100
AcDbVertex
100
AcDb2dVertex
 10
-220.088575014491
 20
-254.6888376654153
 30
0.0
  0
VERTEX
  5
1A1
330
198
100
AcDbEntity
  8
0
  6
Continuous
 62
   255
100
AcDbVertex
100
AcDb2dVertex
 10
-220.1523774463537
 20
-254.5204656997566
 30
0.0
  0
VERTEX
  5
1A2
330
198
100
AcDbEntity
  8
0
  6
Continuous
 62
   255
100
AcDbVertex
100
AcDb2dVertex
 10
-220.1738625280868
 20
-254.3468175220896
 30
0.0
  0
SEQEND
  5
1A3
330
198
100
AcDbEntity
  8
0
  6
Continuous
 62
   255
  0
LINE
  5
1A4
330
1F
100
AcDbEntity
  8
0
  6
Continuous
 62
   255
100
AcDbLine
 10
-220.1738625280868
 20
-254.3468175220896
 30
0.0
 11
-220.1738625280868
 21
-193.3468175220896
 31
0.0
  0
LINE
  5
1A5
330
1F
100
AcDbEntity
  8
0
  6
Continuous
 62
   255
100
AcDbLine
 10
-218.7596489657136
 20
-192.3468175220896
 30
0.0
 11
-197.052542184527
 21
-192.3468175220897
 31
0.0
  0
POLYLINE
  5
1A6
330
1F
100
AcDbEntity
  8
0
  6
Continuous
 62
   255
100
AcDb2dPolyline
 66
     1
 10
0.0
 20
0.0
 30
0.0
  0
VERTEX
  5
1A7
330
1A6
100
AcDbEntity
  8
0
  6
Continuous
 62
   255
100
AcDbVertex
100
AcDb2dVertex
 10
-220.1738625280867
 20
-193.3468175220896
 30
0.0
  0
VERTEX
  5
1A8
330
1A6
100
AcDbEntity
  8
0
  6
Continuous
 62
   255
100
AcDbVertex
100
AcDb2dVertex
 10
-220.1523774463537
 20
-193.1731693444227
 30
0.0
  0
VERTEX
  5
1A9
330
1A6
100
AcDbEntity
  8
0
  6
Continuous
 62
   255
100
AcDbVertex
100
AcDb2dVertex
 10
-220.0885750144909
 20
-193.0047973787639
 30
0.0
  0
VERTEX
  5
1AA
330
1A6
100
AcDbEntity
  8
0
  6
Continuous
 62
   255
100
AcDbVertex
100
AcDb2dVertex
 10
-219.9843938371052
 20
-192.8468175220896
 30
0.0
  0
VERTEX
  5
1AB
330
1A6
100
AcDbEntity
  8
0
  6
Continuous
 62
   255
100
AcDbVertex
100
AcDb2dVertex
 10
-219.842999406553
 20
-192.704029912403
 30
0.0
  0
VERTEX
  5
1AC
330
1A6
100
AcDbEntity
  8
0
  6
Continuous
 62
   255
100
AcDbVertex
100
AcDb2dVertex
 10
-219.6686879210577
 20
-192.5807730789706
 30
0.0
  0
VERTEX
  5
1AD
330
1A6
100
AcDbEntity
  8
0
  6
Continuous
 62
   255
100
AcDbVertex
100
AcDb2dVertex
 10
-219.4667557469001
 20
-192.4807921183051
 30
0.0
  0
VERTEX
  5
1AE
330
1A6
100
AcDbEntity
  8
0
  6
Continuous
 62
   255
100
AcDbVertex
100
AcDb2dVertex
 10
-219.2433384910096
 20
-192.4071249013037
 30
0.0
  0
VERTEX
  5
1AF
330
1A6
100
AcDbEntity
  8
0
  6
Continuous
 62
   255
100
AcDbVertex
100
AcDb2dVertex
 10
-219.0052245736515
 20
-192.3620097690774
 30
0.0
  0
VERTEX
  5
1B0
330
1A6
100
AcDbEntity
  8
0
  6
Continuous
 62
   255
100
AcDbVertex
100
AcDb2dVertex
 10
-218.7596489657136
 20
-192.3468175220896
 30
0.0
  0
SEQEND
  5
1B1
330
1A6
100
AcDbEntity
  8
0
  6
Continuous
 62
   255
  0
LINE
  5
1B2
330
1F
100
AcDbEntity
  8
0
  6
Continuous
 62
   255
100
AcDbLine
 10
-196.3454354033405
 20
-255.3468175220897
 30
0.0
 11
-197.052542184527
 21
-255.3468175220897
 31
0.0
  0
LINE
  5
1B3
330
1F
100
AcDbEntity
  8
0
  6
Continuous
 62
   255
100
AcDbLine
 10
-139.47285240131
 20
-255.3468175220897
 30
0.0
 11
-196.3454354033405
 21
-255.3468175220897
 31
0.0
  0
LINE
  5
1B4
330
1F
100
AcDbEntity
  8
0
  6
Continuous
 62
   255
100
AcDbLine
 10
-197.052542184527
 20
-192.3468175220897
 30
0.0
 11
-196.3454354033405
 21
-192.3468175220897
 31
0.0
  0
LINE
  5
1B5
330
1F
100
AcDbEntity
  8
0
  6
Continuous
 62
   255
100
AcDbLine
 10
-196.3454354033405
 20
-192.3468175220897
 30
0.0
 11
-139.47285240131
 21
-192.3468175220897
 31
0.0
  0
LINE
  5
1B6
330
1F
100
AcDbEntity
  8
0
  6
Continuous
 62
   255
100
AcDbLine
 10
-131.694677808258
 20
-255.3468175220897
 30
0.0
 11
-139.47285240131
 21
-255.3468175220897
 31
0.0
  0
LINE
  5
1B7
330
1F
100
AcDbEntity
  8
0
  6
Continuous
 62
   255
100
AcDbLine
 10
-139.47285240131
 20
-192.3468175220897
 30
0.0
 11
-131.6946778082579
 21
-192.3468175220897
 31
0.0
  0
LINE
  5
1B8
330
1F
100
AcDbEntity
  8
0
  6
Continuous
 62
   255
100
AcDbLine
 10
-119.774367591475
 20
-255.3468175220898
 30
0.0
 11
-121.1885811538481
 21
-255.3468175220898
 31
0.0
  0
LINE
  5
1B9
330
1F
100
AcDbEntity
  8
0
  6
Continuous
 62
   255
100
AcDbLine
 10
-121.1885811538481
 20
-255.3468175220898
 30
0.0
 11
-131.694677808258
 21
-255.3468175220897
 31
0.0
  0
LINE
  5
1BA
330
1F
100
AcDbEntity
  8
0
  6
Continuous
 62
   255
100
AcDbLine
 10
-121.188581153848
 20
-192.3468175220897
 30
0.0
 11
-119.774367591475
 21
-192.3468175220897
 31
0.0
  0
LINE
  5
1BB
330
1F
100
AcDbEntity
  8
0
  6
Continuous
 62
   255
100
AcDbLine
 10
-131.6946778082579
 20
-192.3468175220897
 30
0.0
 11
-121.188581153848
 21
-192.3468175220897
 31
0.0
  0
LINE
  5
1BC
330
1F
100
AcDbEntity
  8
0
  6
Continuous
 62
   255
100
AcDbLine
 10
-162.8643355750495
 20
-260.3468175220897
 30
0.0
 11
-165.1738625280868
 21
-260.3468175220897
 31
0.0
  0
LINE
  5
1BD
330
1F
100
AcDbEntity
  8
0
  6
Continuous
 62
   255
100
AcDbLine
 10
-162.8643355750495
 20
-256.3468175220897
 30
0.0
 11
-165.1738625280868
 21
-256.3468175220897
 31
0.0
  0
LINE
  5
1BE
330
1F
100
AcDbEntity
  8
0
  6
Continuous
 62
   255
100
AcDbLine
 10
-162.8643355750495
 20
-187.3468175220897
 30
0.0
 11
-165.1738625280868
 21
-187.3468175220897
 31
0.0
  0
LINE
  5
1BF
330
1F
100
AcDbEntity
  8
0
  6
Continuous
 62
   255
100
AcDbLine
 10
-162.8643355750495
 20
-191.3468175220897
 30
0.0
 11
-165.1738625280868
 21
-191.3468175220896
 31
0.0
  0
LINE
  5
1C0
330
1F
100
AcDbEntity
  8
0
  6
Continuous
 62
   255
100
AcDbLine
 10
116.343704731053
 20
-265.0968175220902
 30
0.0
 11
112.343704731053
 21
-265.0968175220902
 31
0.0
  0
LINE
  5
1C1
330
1F
100
AcDbEntity
  8
0
  6
Continuous
 62
   255
100
AcDbLine
 10
116.343704731053
 20
-182.5968175220901
 30
0.0
 11
112.343704731053
 21
-182.5968175220901
 31
0.0
  0
LINE
  5
1C2
330
1F
100
AcDbEntity
  8
0
  6
Continuous
 62
   255
100
AcDbLine
 10
249.1953457210159
 20
-187.3468175220902
 30
0.0
 11
249.221101678906
 21
-187.3468175220902
 31
0.0
  0
LINE
  5
1C3
330
1F
100
AcDbEntity
  8
0
  6
Continuous
 62
   255
100
AcDbLine
 10
249.221101678906
 20
-260.3468175220902
 30
0.0
 11
249.1953457210159
 21
-260.3468175220902
 31
0.0
  0
LINE
  5
1C4
330
1F
100
AcDbEntity
  8
0
  6
Continuous
 62
   255
100
AcDbLine
 10
221.8302007907091
 20
-260.3468175220903
 30
0.0
 11
-162.8643355750495
 21
-260.3468175220897
 31
0.0
  0
LINE
  5
1C5
330
1F
100
AcDbEntity
  8
0
  6
Continuous
 62
   255
100
AcDbLine
 10
221.8302007907091
 20
-256.3468175220903
 30
0.0
 11
-162.8643355750495
 21
-256.3468175220897
 31
0.0
  0
LINE
  5
1C6
330
1F
100
AcDbEntity
  8
0
  6
Continuous
 62
   255
100
AcDbLine
 10
221.8302007907091
 20
-187.3468175220904
 30
0.0
 11
-162.8643355750495
 21
-187.3468175220897
 31
0.0
  0
LINE
  5
1C7
330
1F
100
AcDbEntity
  8
0
  6
Continuous
 62
   255
100
AcDbLine
 10
221.8302007907091
 20
-191.3468175220903
 30
0.0
 11
-162.8643355750495
 21
-191.3468175220897
 31
0.0
  0
LINE
  5
1C8
330
1F
100
AcDbEntity
  8
0
  6
Continuous
 62
   255
100
AcDbLine
 10
221.8302007907091
 20
-187.3468175220904
 30
0.0
 11
222.4075825289707
 21
-187.3468175220904
 31
0.0
  0
LINE
  5
1C9
330
1F
100
AcDbEntity
  8
0
  6
Continuous
 62
   255
100
AcDbLine
 10
222.4075825289707
 20
-260.3468175220903
 30
0.0
 11
221.8302007907091
 21
-260.3468175220903
 31
0.0
  0
LINE
  5
1CA
330
1F
100
AcDbEntity
  8
0
  6
Continuous
 62
   255
100
AcDbLine
 10
226.4099968031103
 20
-187.3468175220904
 30
0.0
 11
249.1953457210159
 21
-187.3468175220902
 31
0.0
  0
LINE
  5
1CB
330
1F
100
AcDbEntity
  8
0
  6
Continuous
 62
   255
100
AcDbLine
 10
249.1953457210159
 20
-260.3468175220902
 30
0.0
 11
226.4099968031103
 21
-260.3468175220903
 31
0.0
  0
LINE
  5
1CC
330
1F
100
AcDbEntity
  8
0
  6
Continuous
 62
   255
100
AcDbLine
 10
222.4075825289707
 20
-187.3468175220904
 30
0.0
 11
225.1884064140091
 21
-187.3468175220904
 31
0.0
  0
LINE
  5
1CD
330
1F
100
AcDbEntity
  8
0
  6
Continuous
 62
   255
100
AcDbLine
 10
225.1884064140091
 20
-260.3468175220903
 30
0.0
 11
222.4075825289707
 21
-260.3468175220903
 31
0.0
  0
LINE
  5
1CE
330
1F
100
AcDbEntity
  8
0
  6
Continuous
 62
   255
100
AcDbLine
 10
226.4099968031103
 20
-260.3468175220903
 30
0.0
 11
225.1884064140091
 21
-260.3468175220903
 31
0.0
  0
LINE
  5
1CF
330
1F
100
AcDbEntity
  8
0
  6
Continuous
 62
   255
100
AcDbLine
 10
225.1884064140091
 20
-187.3468175220904
 30
0.0
 11
226.4099968031103
 21
-187.3468175220904
 31
0.0
  0
LINE
  5
1D0
330
1F
100
AcDbEntity
  8
0
  6
Continuous
 62
   255
100
AcDbLine
 10
333.5797790566012
 20
-182.8468175220894
 30
0.0
 11
336.5863437919236
 21
-182.8468175220894
 31
0.0
  0
LINE
  5
1D1
330
1F
100
AcDbEntity
  8
0
  6
Continuous
 62
   255
100
AcDbLine
 10
333.5797790566012
 20
-264.8468175220894
 30
0.0
 11
336.5863437919236
 21
-264.8468175220894
 31
0.0
  0
LINE
  5
1D2
330
1F
100
AcDbEntity
  8
0
  6
Continuous
 62
   255
100
AcDbLine
 10
325.2199176533145
 20
-182.8468175220894
 30
0.0
 11
333.5797790566012
 21
-182.8468175220894
 31
0.0
  0
LINE
  5
1D3
330
1F
100
AcDbEntity
  8
0
  6
Continuous
 62
   255
100
AcDbLine
 10
325.2199176533145
 20
-264.8468175220894
 30
0.0
 11
333.5797790566012
 21
-264.8468175220894
 31
0.0
  0
LINE
  5
1D4
330
1F
100
AcDbEntity
  8
0
  6
Continuous
 62
   255
100
AcDbLine
 10
320.2701701850087
 20
-182.8468175220894
 30
0.0
 11
322.3914905285683
 21
-182.8468175220894
 31
0.0
  0
LINE
  5
1D5
330
1F
100
AcDbEntity
  8
0
  6
Continuous
 62
   255
100
AcDbLine
 10
320.2701701850087
 20
-264.8468175220894
 30
0.0
 11
322.3914905285683
 21
-264.8468175220894
 31
0.0
  0
LINE
  5
1D6
330
1F
100
AcDbEntity
  8
0
  6
Continuous
 62
   255
100
AcDbLine
 10
322.3914905285683
 20
-182.8468175220894
 30
0.0
 11
325.2199176533145
 21
-182.8468175220894
 31
0.0
  0
LINE
  5
1D7
330
1F
100
AcDbEntity
  8
0
  6
Continuous
 62
   255
100
AcDbLine
 10
322.3914905285683
 20
-264.8468175220894
 30
0.0
 11
325.2199176533145
 21
-264.8468175220894
 31
0.0
  0
LINE
  5
1D8
330
1F
100
AcDbEntity
  8
0
  6
Continuous
 62
   255
100
AcDbLine
 10
359.2880760904599
 20
-182.8468175220894
 30
0.0
 11
359.8738625280867
 21
-182.8468175220894
 31
0.0
  0
LINE
  5
1D9
330
1F
100
AcDbEntity
  8
0
  6
Continuous
 62
   255
100
AcDbLine
 10
359.2880760904599
 20
-264.8468175220894
 30
0.0
 11
359.8738625280867
 21
-264.8468175220894
 31
0.0
  0
LINE
  5
1DA
330
1F
100
AcDbEntity
  8
0
  6
Continuous
 62
   255
100
AcDbLine
 10
336.5863437919236
 20
-182.8468175220894
 30
0.0
 11
347.4277807288984
 21
-182.8468175220894
 31
0.0
  0
LINE
  5
1DB
330
1F
100
AcDbEntity
  8
0
  6
Continuous
 62
   255
100
AcDbLine
 10
336.5863437919236
 20
-264.8468175220894
 30
0.0
 11
347.4277807288984
 21
-264.8468175220895
 31
0.0
  0
LINE
  5
1DC
330
1F
100
AcDbEntity
  8
0
  6
Continuous
 62
   255
100
AcDbLine
 10
350.6637938650035
 20
-182.8468175220895
 30
0.0
 11
359.2880760904599
 21
-182.8468175220894
 31
0.0
  0
LINE
  5
1DD
330
1F
100
AcDbEntity
  8
0
  6
Continuous
 62
   255
100
AcDbLine
 10
350.6637938650035
 20
-264.8468175220895
 30
0.0
 11
359.2880760904599
 21
-264.8468175220894
 31
0.0
  0
LINE
  5
1DE
330
1F
100
AcDbEntity
  8
0
  6
Continuous
 62
   255
100
AcDbLine
 10
347.4277807288984
 20
-182.8468175220894
 30
0.0
 11
350.6637938650035
 21
-182.8468175220895
 31
0.0
  0
LINE
  5
1DF
330
1F
100
AcDbEntity
  8
0
  6
Continuous
 62
   255
100
AcDbLine
 10
347.4277807288984
 20
-264.8468175220895
 30
0.0
 11
350.6637938650035
 21
-264.8468175220895
 31
0.0
  0
LINE
  5
1E0
330
1F
100
AcDbEntity
  8
0
  6
Continuous
 62
   255
100
AcDbLine
 10
118.2293383579066
 20
-260.8468175220902
 30
0.0
 11
320.2701701850087
 21
-260.8468175220894
 31
0.0
  0
LINE
  5
1E1
330
1F
100
AcDbEntity
  8
0
  6
Continuous
 62
   255
100
AcDbLine
 10
268.8176987592713
 20
-264.8468175220896
 30
0.0
 11
320.2701701850087
 21
-264.8468175220894
 31
0.0
  0
LINE
  5
1E2
330
1F
100
AcDbEntity
  8
0
  6
Continuous
 62
   255
100
AcDbLine
 10
118.2293383579066
 20
-264.8468175220902
 30
0.0
 11
263.918719273705
 21
-264.8468175220896
 31
0.0
  0
LINE
  5
1E3
330
1F
100
AcDbEntity
  8
0
  6
Continuous
 62
   255
100
AcDbLine
 10
320.2701701850087
 20
-260.8468175220894
 30
0.0
 11
320.2701701850087
 21
-264.8468175220894
 31
0.0
  0
LINE
  5
1E4
330
1F
100
AcDbEntity
  8
0
  6
Continuous
 62
   255
100
AcDbLine
 10
263.918719273705
 20
-182.8468175220896
 30
0.0
 11
118.2293383579066
 21
-182.8468175220901
 31
0.0
  0
LINE
  5
1E5
330
1F
100
AcDbEntity
  8
0
  6
Continuous
 62
   255
100
AcDbLine
 10
320.2701701850087
 20
-182.8468175220894
 30
0.0
 11
268.8176987592713
 21
-182.8468175220896
 31
0.0
  0
LINE
  5
1E6
330
1F
100
AcDbEntity
  8
0
  6
Continuous
 62
   255
100
AcDbLine
 10
320.2701701850087
 20
-186.8468175220894
 30
0.0
 11
118.2293383579066
 21
-186.8468175220901
 31
0.0
  0
LINE
  5
1E7
330
1F
100
AcDbEntity
  8
0
  6
Continuous
 62
   255
100
AcDbLine
 10
320.2701701850087
 20
-182.8468175220894
 30
0.0
 11
320.2701701850087
 21
-186.8468175220894
 31
0.0
  0
LINE
  5
1E8
330
1F
100
AcDbEntity
  8
0
  6
Continuous
 62
   255
100
AcDbLine
 10
108.8402510613806
 20
-264.8468175220901
 30
0.0
 11
118.2293383579066
 21
-264.8468175220902
 31
0.0
  0
LINE
  5
1E9
330
1F
100
AcDbEntity
  8
0
  6
Continuous
 62
   255
100
AcDbLine
 10
108.8402510613806
 20
-260.8468175220901
 30
0.0
 11
118.2293383579066
 21
-260.8468175220902
 31
0.0
  0
LINE
  5
1EA
330
1F
100
AcDbEntity
  8
0
  6
Continuous
 62
   255
100
AcDbLine
 10
118.2293383579066
 20
-182.8468175220901
 30
0.0
 11
108.8402510613806
 21
-182.8468175220901
 31
0.0
  0
LINE
  5
1EB
330
1F
100
AcDbEntity
  8
0
  6
Continuous
 62
   255
100
AcDbLine
 10
118.2293383579066
 20
-186.8468175220901
 30
0.0
 11
108.8402510613806
 21
-186.8468175220901
 31
0.0
  0
ARC
  5
1EC
330
1F
100
AcDbEntity
  8
0
  6
Continuous
 62
   255
100
AcDbCircle
 10
262.4791217199621
 20
-223.8468175220891
 30
0.0
 40
45.0
100
AcDbArc
 50
65.65935327139684
 51
81.37307344132137
  0
ARC
  5
1ED
330
1F
100
AcDbEntity
  8
0
  6
Continuous
 62
   255
100
AcDbCircle
 10
262.4791217199621
 20
-223.8468175220891
 30
0.0
 40
45.00000000000003
100
AcDbArc
 50
35.38582801546137
 51
55.30786941465919
  0
ARC
  5
1EE
330
1F
100
AcDbEntity
  8
0
  6
Continuous
 62
   255
100
AcDbCircle
 10
262.4791217199621
 20
-223.8468175220891
 30
0.0
 40
45.00000000000006
100
AcDbArc
 50
304.6921305853399
 51
324.6141719845393
  0
ARC
  5
1EF
330
1F
100
AcDbEntity
  8
0
  6
Continuous
 62
   255
100
AcDbCircle
 10
262.4791217199621
 20
-223.8468175220891
 30
0.0
 40
45.00000000000004
100
AcDbArc
 50
278.6269265586794
 51
294.3406467286014
  0
LINE
  5
1F0
330
1F
100
AcDbEntity
  8
0
  6
Continuous
 62
   255
100
AcDbLine
 10
269.2291217199622
 20
-179.3559476721975
 30
0.0
 11
269.2291217199622
 21
-182.8468175220891
 31
0.0
  0
LINE
  5
1F1
330
1F
100
AcDbEntity
  8
0
  6
Continuous
 62
   255
100
AcDbLine
 10
255.7291217199622
 20
-182.8468175220891
 30
0.0
 11
255.7291217199622
 21
-179.3559476721975
 31
0.0
  0
ARC
  5
1F2
330
1F
100
AcDbEntity
  8
0
  6
Continuous
 62
   255
100
AcDbCircle
 10
262.4791217199621
 20
-223.8468175220891
 30
0.0
 40
45.00000000000002
100
AcDbArc
 50
245.6593532714008
 51
261.3730734413223
  0
ARC
  5
1F3
330
1F
100
AcDbEntity
  8
0
  6
Continuous
 62
   255
100
AcDbCircle
 10
262.4791217199621
 20
-223.8468175220891
 30
0.0
 40
45.0
100
AcDbArc
 50
234.2046324563132
 51
235.3078694146623
  0
ARC
  5
1F4
330
1F
100
AcDbEntity
  8
0
  6
Continuous
 62
   255
100
AcDbCircle
 10
262.4791217199621
 20
-223.8468175220891
 30
0.0
 40
44.99999999999995
100
AcDbArc
 50
154.5965353882118
 51
205.403464611789
  0
ARC
  5
1F5
330
1F
100
AcDbEntity
  8
0
  6
Continuous
 62
   255
100
AcDbCircle
 10
262.4791217199621
 20
-223.8468175220891
 30
0.0
 40
44.99999999999997
100
AcDbArc
 50
124.6921305853411
 51
125.7953675436876
  0
ARC
  5
1F6
330
1F
100
AcDbEntity
  8
0
  6
Continuous
 62
   255
100
AcDbCircle
 10
262.4791217199621
 20
-223.8468175220891
 30
0.0
 40
44.99999999999996
100
AcDbArc
 50
98.62692655867855
 51
114.3406467286034
  0
LINE
  5
1F7
330
1F
100
AcDbEntity
  8
0
  6
Continuous
 62
   255
100
AcDbLine
 10
255.7291217199622
 20
-268.3376873719808
 30
0.0
 11
255.7291217199622
 21
-264.8468175220892
 31
0.0
  0
LINE
  5
1F8
330
1F
100
AcDbEntity
  8
0
  6
Continuous
 62
   255
100
AcDbLine
 10
269.2291217199622
 20
-264.8468175220892
 30
0.0
 11
269.2291217199622
 21
-268.3376873719808
 31
0.0
  0
LINE
  5
1F9
330
1F
100
AcDbEntity
  8
0
  6
Continuous
 62
   255
100
AcDbLine
 10
255.9791217199621
 20
-268.8468175220896
 30
0.0
 11
255.9791217199621
 21
-264.8468175220896
 31
0.0
  0
LINE
  5
1FA
330
1F
100
AcDbEntity
  8
0
  6
Continuous
 62
   255
100
AcDbLine
 10
268.9791217199622
 20
-268.8468175220896
 30
0.0
 11
255.9791217199621
 21
-268.8468175220896
 31
0.0
  0
LINE
  5
1FB
330
1F
100
AcDbEntity
  8
0
  6
Continuous
 62
   255
100
AcDbLine
 10
268.9791217199622
 20
-268.8468175220896
 30
0.0
 11
268.9791217199622
 21
-264.8468175220896
 31
0.0
  0
LINE
  5
1FC
330
1F
100
AcDbEntity
  8
0
  6
Continuous
 62
   255
100
AcDbLine
 10
268.9791217199622
 20
-178.8468175220896
 30
0.0
 11
268.9791217199622
 21
-182.8468175220896
 31
0.0
  0
LINE
  5
1FD
330
1F
100
AcDbEntity
  8
0
  6
Continuous
 62
   255
100
AcDbLine
 10
255.9791217199621
 20
-178.8468175220896
 30
0.0
 11
268.9791217199622
 21
-178.8468175220896
 31
0.0
  0
LINE
  5
1FE
330
1F
100
AcDbEntity
  8
0
  6
Continuous
 62
   255
100
AcDbLine
 10
255.9791217199621
 20
-178.8468175220896
 30
0.0
 11
255.9791217199621
 21
-182.8468175220896
 31
0.0
  0
ARC
  5
1FF
330
1F
100
AcDbEntity
  8
0
  6
Continuous
 62
   255
100
AcDbCircle
 10
-119.774367591475
 20
-254.3468175220898
 30
0.0
 40
1.0
100
AcDbArc
 50
269.9999999999976
 51
0.0
  0
LINE
  5
200
330
1F
100
AcDbEntity
  8
0
  6
Continuous
 62
   255
100
AcDbLine
 10
-118.774367591475
 20
-254.3468175220898
 30
0.0
 11
-118.774367591475
 21
-193.3468175220897
 31
0.0
  0
ARC
  5
201
330
1F
100
AcDbEntity
  8
0
  6
Continuous
 62
   255
100
AcDbCircle
 10
-119.774367591475
 20
-193.3468175220897
 30
0.0
 40
1.0
100
AcDbArc
 50
0.0
 51
90.0
  0
LINE
  5
202
330
1F
100
AcDbEntity
  8
0
  6
Continuous
 62
   255
100
AcDbLine
 10
-165.1738625280868
 20
-256.3468175220897
 30
0.0
 11
-165.1738625280868
 21
-260.3468175220897
 31
0.0
  0
LINE
  5
203
330
1F
100
AcDbEntity
  8
0
  6
Continuous
 62
   255
100
AcDbLine
 10
-165.1738625280868
 20
-187.3468175220897
 30
0.0
 11
-165.1738625280868
 21
-191.3468175220896
 31
0.0
  0
LINE
  5
204
330
1F
100
AcDbEntity
  8
0
  6
Continuous
 62
   255
100
AcDbLine
 10
116.343704731053
 20
-260.8468175220902
 30
0.0
 11
116.343704731053
 21
-260.3468175220901
 31
0.0
  0
LINE
  5
205
330
1F
100
AcDbEntity
  8
0
  6
Continuous
 62
   255
100
AcDbLine
 10
116.343704731053
 20
-265.0968175220902
 30
0.0
 11
116.343704731053
 21
-264.8468175220902
 31
0.0
  0
LINE
  5
206
330
1F
100
AcDbEntity
  8
0
  6
Continuous
 62
   255
100
AcDbLine
 10
112.343704731053
 20
-264.8468175220902
 30
0.0
 11
112.343704731053
 21
-265.0968175220902
 31
0.0
  0
LINE
  5
207
330
1F
100
AcDbEntity
  8
0
  6
Continuous
 62
   255
100
AcDbLine
 10
112.343704731053
 20
-260.3468175220901
 30
0.0
 11
112.343704731053
 21
-260.8468175220902
 31
0.0
  0
LINE
  5
208
330
1F
100
AcDbEntity
  8
0
  6
Continuous
 62
   255
100
AcDbLine
 10
116.343704731053
 20
-256.3468175220901
 30
0.0
 11
116.343704731053
 21
-191.3468175220901
 31
0.0
  0
LINE
  5
209
330
1F
100
AcDbEntity
  8
0
  6
Continuous
 62
   255
100
AcDbLine
 10
112.343704731053
 20
-191.3468175220901
 30
0.0
 11
112.343704731053
 21
-256.3468175220901
 31
0.0
  0
LINE
  5
20A
330
1F
100
AcDbEntity
  8
0
  6
Continuous
 62
   255
100
AcDbLine
 10
116.343704731053
 20
-182.8468175220901
 30
0.0
 11
116.343704731053
 21
-182.5968175220901
 31
0.0
  0
LINE
  5
20B
330
1F
100
AcDbEntity
  8
0
  6
Continuous
 62
   255
100
AcDbLine
 10
116.343704731053
 20
-187.3468175220901
 30
0.0
 11
116.343704731053
 21
-186.8468175220901
 31
0.0
  0
LINE
  5
20C
330
1F
100
AcDbEntity
  8
0
  6
Continuous
 62
   255
100
AcDbLine
 10
112.343704731053
 20
-186.8468175220901
 30
0.0
 11
112.343704731053
 21
-187.3468175220901
 31
0.0
  0
LINE
  5
20D
330
1F
100
AcDbEntity
  8
0
  6
Continuous
 62
   255
100
AcDbLine
 10
112.343704731053
 20
-182.5968175220901
 30
0.0
 11
112.343704731053
 21
-182.8468175220901
 31
0.0
  0
LINE
  5
20E
330
1F
100
AcDbEntity
  8
0
  6
Continuous
 62
   255
100
AcDbLine
 10
249.221101678906
 20
-260.3468175220902
 30
0.0
 11
249.221101678906
 21
-187.3468175220902
 31
0.0
  0
LINE
  5
20F
330
1F
100
AcDbEntity
  8
0
  6
Continuous
 62
   255
100
AcDbLine
 10
221.8302007907091
 20
-187.3468175220904
 30
0.0
 11
221.8302007907091
 21
-260.3468175220903
 31
0.0
  0
LINE
  5
210
330
1F
100
AcDbEntity
  8
0
  6
Continuous
 62
   255
100
AcDbLine
 10
299.166319181945
 20
-186.8468175220895
 30
0.0
 11
299.166319181945
 21
-260.8468175220895
 31
0.0
  0
LINE
  5
211
330
1F
100
AcDbEntity
  8
0
  6
Continuous
 62
   255
100
AcDbLine
 10
309.7848888107703
 20
-186.8468175220895
 30
0.0
 11
309.7848888107703
 21
-260.8468175220895
 31
0.0
  0
LINE
  5
212
330
1F
100
AcDbEntity
  8
0
  6
Continuous
 62
   255
100
AcDbLine
 10
359.8738625280867
 20
-264.8468175220894
 30
0.0
 11
359.8738625280867
 21
-182.8468175220894
 31
0.0
  0
LINE
  5
213
330
1F
100
AcDbEntity
  8
0
  6
Continuous
 62
   255
100
AcDbLine
 10
260.6041217199622
 20
-186.8468175220896
 30
0.0
 11
260.6041217199622
 21
-260.8468175220896
 31
0.0
  0
LINE
  5
214
330
1F
100
AcDbEntity
  8
0
  6
Continuous
 62
   255
100
AcDbLine
 10
264.3541217199622
 20
-260.8468175220896
 30
0.0
 11
264.3541217199622
 21
-186.8468175220896
 31
0.0
  0
LINE
  5
215
330
1F
100
AcDbEntity
  8
0
  6
Continuous
 62
   255
100
AcDbLine
 10
108.8402510613806
 20
-260.8468175220901
 30
0.0
 11
108.8402510613806
 21
-264.8468175220901
 31
0.0
  0
LINE
  5
216
330
1F
100
AcDbEntity
  8
0
  6
Continuous
 62
   255
100
AcDbLine
 10
108.8402510613806
 20
-182.8468175220901
 30
0.0
 11
108.8402510613806
 21
-186.8468175220901
 31
0.0
  0
LINE
  5
217
330
1F
100
AcDbEntity
  8
0
  6
PHANTOM
 62
   255
100
AcDbLine
 10
-197.052542184527
 20
173.5430322737195
 30
0.0
 11
-218.7596489657136
 21
151.8359254925329
 31
0.0
  0
LINE
  5
218
330
1F
100
AcDbEntity
  8
0
  6
PHANTOM
 62
   255
100
AcDbLine
 10
-154.554866956875
 20
173.8359254925329
 30
0.0
 11
-196.3454354033405
 21
173.8359254925329
 31
0.0
  0
LINE
  5
219
330
1F
100
AcDbEntity
  8
0
  6
PHANTOM
 62
   255
100
AcDbLine
 10
-197.7596489657136
 20
174.250139054906
 30
0.0
 11
-197.052542184527
 21
173.5430322737195
 31
0.0
  0
ARC
  5
21A
330
1F
100
AcDbEntity
  8
0
  6
PHANTOM
 62
   255
100
AcDbCircle
 10
-196.3454354033405
 20
172.8359254925329
 30
0.0
 40
1.000000000000007
100
AcDbArc
 50
90.0
 51
134.9999999999977
  0
LINE
  5
21B
330
1F
100
AcDbEntity
  8
0
  6
PHANTOM
 62
   255
100
AcDbLine
 10
-196.3454354033405
 20
174.8359254925329
 30
0.0
 11
-196.3454354033405
 21
173.8359254925329
 31
0.0
  0
LINE
  5
21C
330
1F
100
AcDbEntity
  8
0
  6
PHANTOM
 62
   255
100
AcDbLine
 10
-154.0880760904598
 20
151.8359254925329
 30
0.0
 11
-128.9975065728714
 21
176.9264950101211
 31
0.0
  0
LINE
  5
21D
330
1F
100
AcDbEntity
  8
0
  6
Continuous
 62
   255
100
AcDbLine
 10
-218.7596489657136
 20
151.8359254925329
 30
0.0
 11
-220.1738625280868
 21
151.8359254925329
 31
0.0
  0
LINE
  5
21E
330
1F
100
AcDbEntity
  8
0
  6
Continuous
 62
   255
100
AcDbLine
 10
-220.1738625280868
 20
151.8359254925329
 30
0.0
 11
-197.7596489657136
 21
174.250139054906
 31
0.0
  0
LINE
  5
21F
330
1F
100
AcDbEntity
  8
0
  6
Continuous
 62
   255
100
AcDbLine
 10
-218.7596489657136
 20
151.8359254925329
 30
0.0
 11
-154.0880760904598
 21
151.8359254925329
 31
0.0
  0
LINE
  5
220
330
1F
100
AcDbEntity
  8
0
  6
Continuous
 62
   255
100
AcDbLine
 10
-196.3454354033405
 20
174.8359254925329
 30
0.0
 11
-152.4103600363655
 21
174.8359254925329
 31
0.0
  0
ARC
  5
221
330
1F
100
AcDbEntity
  8
0
  6
Continuous
 62
   255
100
AcDbCircle
 10
-196.3454354033405
 20
172.8359254925329
 30
0.0
 40
2.000000000000015
100
AcDbArc
 50
90.0
 51
135.0
  0
LINE
  5
222
330
1F
100
AcDbEntity
  8
0
  6
Continuous
 62
   255
100
AcDbLine
 10
-152.6738625280867
 20
151.8359254925329
 30
0.0
 11
-154.0880760904598
 21
151.8359254925329
 31
0.0
  0
LINE
  5
223
330
1F
100
AcDbEntity
  8
0
  6
Continuous
 62
   255
100
AcDbLine
 10
-126.3476398772316
 20
178.1621481433879
 30
0.0
 11
-152.6738625280867
 21
151.8359254925329
 31
0.0
  0
LINE
  5
224
330
1F
100
AcDbEntity
  8
0
  6
Continuous
 62
   255
100
AcDbLine
 10
109.2450719905013
 20
296.8478572445166
 30
0.0
 11
-162.8643355750495
 21
169.9611566406795
 31
0.0
  0
LINE
  5
225
330
1F
100
AcDbEntity
  8
0
  6
Continuous
 62
   255
100
AcDbLine
 10
225.9417050636712
 20
351.26439092744
 30
0.0
 11
116.0288707930545
 21
300.0111945775299
 31
0.0
  0
LINE
  5
226
330
1F
100
AcDbEntity
  8
0
  6
Continuous
 62
   255
100
AcDbLine
 10
245.862896055606
 20
325.5215459194543
 30
0.0
 11
248.6437199406443
 21
326.8182653930278
 31
0.0
  0
LINE
  5
227
330
1F
100
AcDbEntity
  8
0
  6
Continuous
 62
   255
100
AcDbLine
 10
230.590505942819
 20
341.295005270037
 30
0.0
 11
238.6126456465415
 21
345.035790448672
 31
0.0
  0
LINE
  5
228
330
1F
100
AcDbEntity
  8
0
  6
Continuous
 62
   255
100
AcDbLine
 10
232.6959899821711
 20
357.7240994671848
 30
0.0
 11
224.6738502784492
 21
353.98331428855
 31
0.0
  0
ARC
  5
229
330
1F
100
AcDbEntity
  8
0
  6
Continuous
 62
   255
100
AcDbCircle
 10
245.4402777938639
 20
326.4278537064939
 30
0.0
 40
1.000000000003141
100
AcDbArc
 50
192.7427346639828
 51
294.9999999999999
  0
LINE
  5
22A
330
1F
100
AcDbEntity
  8
0
  6
Continuous
 62
   255
100
AcDbLine
 10
224.6738502784492
 20
353.98331428855
 30
0.0
 11
225.9417050636712
 21
351.26439092744
 31
0.0
  0
ARC
  5
22B
330
1F
100
AcDbEntity
  8
0
  6
Continuous
 62
   255
100
AcDbCircle
 10
-161.1738625280869
 20
166.3359254925329
 30
0.0
 40
4.000000000000062
100
AcDbArc
 50
114.9999999999975
 51
295.0000000000024
  0
LINE
  5
22C
330
1F
100
AcDbEntity
  8
0
  6
Continuous
 62
   255
100
AcDbLine
 10
122.6319969880904
 20
294.2632595383391
 30
0.0
 11
229.3226511575968
 21
344.0139286311468
 31
0.0
  0
LINE
  5
22D
330
1F
100
AcDbEntity
  8
0
  6
Continuous
 62
   255
100
AcDbLine
 10
-159.4833894811239
 20
162.7106943443863
 30
0.0
 11
112.0227983662418
 21
289.3161089740835
 31
0.0
  0
LINE
  5
22E
330
1F
100
AcDbEntity
  8
0
  6
Continuous
 62
   255
100
AcDbLine
 10
229.3226511575968
 20
344.0139286311468
 30
0.0
 11
230.590505942819
 21
341.295005270037
 31
0.0
  0
ARC
  5
22F
330
1F
100
AcDbEntity
  8
0
  6
Continuous
 62
   255
100
AcDbCircle
 10
122.5436202467138
 20
298.6355604628824
 30
0.0
 40
125.0
100
AcDbArc
 50
12.74273466373081
 51
21.78975696697582
  0
ARC
  5
230
330
1F
100
AcDbEntity
  8
0
  6
Continuous
 62
   255
100
AcDbCircle
 10
248.2211016789022
 20
327.7245731800675
 30
0.0
 40
1.00000000000374
100
AcDbArc
 50
294.9999999999892
 51
13.0320595443397
  0
ARC
  5
231
330
1F
100
AcDbEntity
  8
0
  6
Continuous
 62
   255
100
AcDbCircle
 10
122.5436202467138
 20
298.6355604628824
 30
0.0
 40
129.9999999999987
100
AcDbArc
 50
13.03205954433939
 51
36.96794045566241
  0
ARC
  5
232
330
1F
100
AcDbEntity
  8
0
  6
Continuous
 62
   255
100
AcDbCircle
 10
225.6110246757511
 20
376.2120397865808
 30
0.0
 40
1.00000000000309
100
AcDbArc
 50
36.96794045567846
 51
115.0000000000013
  0
LINE
  5
233
330
1F
100
AcDbEntity
  8
0
  6
Continuous
 62
   255
100
AcDbLine
 10
225.1884064140091
 20
377.1183475736203
 30
0.0
 11
222.4075825289707
 21
375.821628100047
 31
0.0
  0
ARC
  5
234
330
1F
100
AcDbEntity
  8
0
  6
Continuous
 62
   255
100
AcDbCircle
 10
222.8302007907128
 20
374.9153203130072
 30
0.0
 40
1.00000000000373
100
AcDbArc
 50
114.9999999999906
 51
217.2572653362694
  0
ARC
  5
235
330
1F
100
AcDbEntity
  8
0
  6
Continuous
 62
   255
100
AcDbCircle
 10
122.5436202467138
 20
298.6355604628824
 30
0.0
 40
124.9999999999993
100
AcDbArc
 50
28.21024303302447
 51
37.25726533627195
  0
CIRCLE
  5
236
330
1F
100
AcDbEntity
  8
0
  6
Continuous
 62
   255
100
AcDbCircle
 10
-161.1738625280869
 20
166.3359254925329
 30
0.0
 40
2.0
  0
CIRCLE
  5
237
330
1F
100
AcDbEntity
  8
0
  6
Continuous
 62
   255
100
AcDbCircle
 10
114.343704731053
 20
294.8118770617057
 30
0.0
 40
2.0
  0
ARC
  5
238
330
1F
100
AcDbEntity
  8
0
  6
Continuous
 62
   255
100
AcDbCircle
 10
309.7906014074015
 20
51.24321940529143
 30
0.0
 40
2.000000000000019
100
AcDbArc
 50
225.0000000000026
 51
296.6503653011986
  0
ARC
  5
239
330
1F
100
AcDbEntity
  8
0
  6
Continuous
 62
   255
100
AcDbCircle
 10
301.166319181945
 20
59.8675016307479
 30
0.0
 40
2.000000000000076
100
AcDbArc
 50
114.3700069524347
 51
225.000000000001
  0
ARC
  5
23A
330
1F
100
AcDbEntity
  8
0
  6
Continuous
 62
   255
100
AcDbCircle
 10
261.3477508700637
 20
147.7693310633145
 30
0.0
 40
109.9999999999999
100
AcDbArc
 50
296.6503653011988
 51
333.3496346988028
  0
LINE
  5
23B
330
1F
100
AcDbEntity
  8
0
  6
Continuous
 62
   255
100
AcDbLine
 10
325.2199176533145
 20
98.7464066849816
 30
0.0
 11
333.5797790566012
 21
90.38654528169486
 31
0.0
  0
LINE
  5
23C
330
1F
100
AcDbEntity
  8
0
  6
Continuous
 62
   255
100
AcDbLine
 10
350.6637938650035
 20
109.3649763138062
 30
0.0
 11
359.2880760904599
 21
100.7406940883498
 31
0.0
  0
ARC
  5
23D
330
1F
100
AcDbEntity
  8
0
  6
Continuous
 62
   255
100
AcDbCircle
 10
261.3477508700637
 20
147.7693310633145
 30
0.0
 40
94.50000000000001
100
AcDbArc
 50
322.7664341685131
 51
335.6299930475656
  0
ARC
  5
23E
330
1F
100
AcDbEntity
  8
0
  6
Continuous
 62
   255
100
AcDbCircle
 10
261.3477508700637
 20
147.7693310633145
 30
0.0
 40
94.49999999999994
100
AcDbArc
 50
294.370006952436
 51
307.2335658314889
  0
ARC
  5
23F
330
1F
100
AcDbEntity
  8
0
  6
Continuous
 62
   255
100
AcDbCircle
 10
317.3163230893109
 20
74.12308931440444
 30
0.0
 40
1.999999999999971
100
AcDbArc
 50
307.2335658314884
 51
45.00000000000087
  0
LINE
  5
240
330
1F
100
AcDbEntity
  8
0
  6
Continuous
 62
   255
100
AcDbLine
 10
308.3763878450284
 20
49.82900584291829
 30
0.0
 11
299.7521056195719
 21
58.45328806837477
 31
0.0
  0
ARC
  5
241
330
1F
100
AcDbEntity
  8
0
  6
Continuous
 62
   255
100
AcDbCircle
 10
311.7848888107703
 20
85.31137784243725
 30
0.0
 40
1.999999999999965
100
AcDbArc
 50
134.9999999999991
 51
225.0000000000014
  0
ARC
  5
242
330
1F
100
AcDbEntity
  8
0
  6
Continuous
 62
   255
100
AcDbCircle
 10
323.8057040909414
 20
97.33219312260846
 30
0.0
 40
2.000000000000066
100
AcDbArc
 50
45.00000000000374
 51
135.0000000000009
  0
LINE
  5
243
330
1F
100
AcDbEntity
  8
0
  6
Continuous
 62
   255
100
AcDbLine
 10
255.9791217199621
 20
145.3597856203639
 30
0.0
 11
110.4511637648546
 21
290.8877435754709
 31
0.0
  0
LINE
  5
244
330
1F
100
AcDbEntity
  8
0
  6
Continuous
 62
   255
100
AcDbLine
 10
312.4919955919566
 20
88.8469117483697
 30
0.0
 11
268.9791217199622
 21
132.3597856203639
 31
0.0
  0
ARC
  5
245
330
1F
100
AcDbEntity
  8
0
  6
Continuous
 62
   255
100
AcDbCircle
 10
334.9939926189742
 20
91.80075884406799
 30
0.0
 40
1.999999999999993
100
AcDbArc
 50
225.0000000000017
 51
322.7664341685124
  0
ARC
  5
246
330
1F
100
AcDbEntity
  8
0
  6
Continuous
 62
   255
100
AcDbCircle
 10
357.8738625280867
 20
99.32648052597668
 30
0.0
 40
2.000000000000046
100
AcDbArc
 50
333.3496346988039
 51
44.99999999999856
  0
ARC
  5
247
330
1F
100
AcDbEntity
  8
0
  6
Continuous
 62
   255
100
AcDbCircle
 10
349.2495803026303
 20
107.9507627514331
 30
0.0
 40
2.000000000000046
100
AcDbArc
 50
44.99999999999856
 51
155.6299930475608
  0
LINE
  5
248
330
1F
100
AcDbEntity
  8
0
  6
Continuous
 62
   255
100
AcDbLine
 10
318.730536651684
 20
75.53730287677752
 30
0.0
 11
310.3706752483972
 21
83.89716428006416
 31
0.0
  0
LINE
  5
249
330
1F
100
AcDbEntity
  8
0
  6
Continuous
 62
   255
100
AcDbLine
 10
310.3706752483972
 20
86.72559140481034
 30
0.0
 11
312.4919955919566
 21
88.8469117483697
 31
0.0
  0
LINE
  5
24A
330
1F
100
AcDbEntity
  8
0
  6
Continuous
 62
   255
100
AcDbLine
 10
320.2701701850087
 20
96.6250863414219
 30
0.0
 11
322.3914905285683
 21
98.7464066849816
 31
0.0
  0
LINE
  5
24B
330
1F
100
AcDbEntity
  8
0
  6
Continuous
 62
   255
100
AcDbLine
 10
268.8176987592713
 20
148.077557767159
 30
0.0
 11
320.2701701850087
 21
96.6250863414219
 31
0.0
  0
LINE
  5
24C
330
1F
100
AcDbEntity
  8
0
  6
Continuous
 62
   255
100
AcDbLine
 10
118.2293383579066
 20
298.6659181685229
 30
0.0
 11
263.918719273705
 21
152.9765372527252
 31
0.0
  0
ARC
  5
24D
330
1F
100
AcDbEntity
  8
0
  6
Continuous
 62
   255
100
AcDbCircle
 10
114.3402510613806
 20
294.776830871997
 30
0.0
 40
5.500000000000024
100
AcDbArc
 50
45.00000000000021
 51
225.0000000000011
  0
ARC
  5
24E
330
1F
100
AcDbEntity
  8
0
  6
Continuous
 62
   255
100
AcDbCircle
 10
114.3402510613806
 20
294.776830871997
 30
0.0
 40
2.000000000000003
100
AcDbArc
 50
180.0
 51
354.8763299993673
  0
ARC
  5
24F
330
1F
100
AcDbEntity
  8
0
  6
Continuous
 62
   255
100
AcDbCircle
 10
114.3402510613806
 20
294.776830871997
 30
0.0
 40
2.000000000000005
100
AcDbArc
 50
173.867448205731
 51
180.0
  0
CIRCLE
  5
250
330
1F
100
AcDbEntity
  8
0
  6
Continuous
 62
   255
100
AcDbCircle
 10
262.4791217199621
 20
146.637960213416
 30
0.0
 40
1.875000000000113
  0
LINE
  5
251
330
1F
100
AcDbEntity
  8
0
  6
Continuous
 62
   255
100
AcDbLine
 10
292.7456260144574
 20
-53.36203978658396
 30
0.0
 11
285.2456260144574
 21
-53.36203978658396
 31
0.0
  0
LINE
  5
252
330
1F
100
AcDbEntity
  8
0
  6
Continuous
 62
   255
100
AcDbLine
 10
239.7126174254668
 20
-53.36203978658396
 30
0.0
 11
232.2126174254667
 21
-53.36203978658396
 31
0.0
  0
LINE
  5
253
330
1F
100
AcDbEntity
  8
0
  6
Continuous
 62
   255
100
AcDbLine
 10
268.9791217199622
 20
-50.86203978658396
 30
0.0
 11
269.2291217199622
 21
-50.86203978658396
 31
0.0
  0
LINE
  5
254
330
1F
100
AcDbEntity
  8
0
  6
Continuous
 62
   255
100
AcDbLine
 10
268.9791217199622
 20
17.13796021341604
 30
0.0
 11
269.2291217199622
 21
17.13796021341604
 31
0.0
  0
LINE
  5
255
330
1F
100
AcDbEntity
  8
0
  6
Continuous
 62
   255
100
AcDbLine
 10
255.7291217199622
 20
-50.86203978658396
 30
0.0
 11
255.9791217199621
 21
-50.86203978658396
 31
0.0
  0
LINE
  5
256
330
1F
100
AcDbEntity
  8
0
  6
Continuous
 62
   255
100
AcDbLine
 10
255.7291217199622
 20
17.13796021341604
 30
0.0
 11
255.9791217199621
 21
17.13796021341604
 31
0.0
  0
LINE
  5
257
330
1F
100
AcDbEntity
  8
0
  6
Continuous
 62
   255
100
AcDbLine
 10
269.2291217199622
 20
-50.86203978658396
 30
0.0
 11
307.4791217199622
 21
-50.86203978658396
 31
0.0
  0
LINE
  5
258
330
1F
100
AcDbEntity
  8
0
  6
Continuous
 62
   255
100
AcDbLine
 10
269.2291217199622
 20
17.13796021341604
 30
0.0
 11
269.2291217199622
 21
-50.86203978658396
 31
0.0
  0
LINE
  5
259
330
1F
100
AcDbEntity
  8
0
  6
Continuous
 62
   255
100
AcDbLine
 10
269.2291217199622
 20
17.13796021341604
 30
0.0
 11
307.4791217199622
 21
17.13796021341604
 31
0.0
  0
LINE
  5
25A
330
1F
100
AcDbEntity
  8
0
  6
Continuous
 62
   255
100
AcDbLine
 10
217.4791217199622
 20
-50.86203978658396
 30
0.0
 11
255.7291217199622
 21
-50.86203978658396
 31
0.0
  0
LINE
  5
25B
330
1F
100
AcDbEntity
  8
0
  6
Continuous
 62
   255
100
AcDbLine
 10
255.7291217199622
 20
17.13796021341604
 30
0.0
 11
255.7291217199622
 21
-50.86203978658396
 31
0.0
  0
LINE
  5
25C
330
1F
100
AcDbEntity
  8
0
  6
Continuous
 62
   255
100
AcDbLine
 10
217.4791217199622
 20
17.13796021341604
 30
0.0
 11
255.7291217199622
 21
17.13796021341604
 31
0.0
  0
LINE
  5
25D
330
1F
100
AcDbEntity
  8
0
  6
Continuous
 62
   255
100
AcDbLine
 10
255.9791217199621
 20
-50.86203978658396
 30
0.0
 11
268.9791217199622
 21
-50.86203978658396
 31
0.0
  0
ARC
  5
25E
330
1F
100
AcDbEntity
  8
0
  6
Continuous
 62
   255
100
AcDbCircle
 10
262.4791217199621
 20
146.637960213416
 30
0.0
 40
6.500000000000056
100
AcDbArc
 50
0.0
 51
180.0000000000005
  0
LINE
  5
25F
330
1F
100
AcDbEntity
  8
0
  6
Continuous
 62
   255
100
AcDbLine
 10
255.9791217199621
 20
146.637960213416
 30
0.0
 11
255.9791217199621
 21
-50.86203978658396
 31
0.0
  0
CIRCLE
  5
260
330
1F
100
AcDbEntity
  8
0
  6
Continuous
 62
   255
100
AcDbCircle
 10
262.4791217199621
 20
146.637960213416
 30
0.0
 40
2.0
  0
LINE
  5
261
330
1F
100
AcDbEntity
  8
0
  6
Continuous
 62
   255
100
AcDbLine
 10
268.9791217199622
 20
-50.86203978658396
 30
0.0
 11
268.9791217199622
 21
146.637960213416
 31
0.0
  0
LINE
  5
262
330
1F
100
AcDbEntity
  8
0
  6
Continuous
 62
   255
100
AcDbLine
 10
292.7456260144574
 20
-53.36203978658396
 30
0.0
 11
292.7456260144574
 21
-50.86203978658396
 31
0.0
  0
LINE
  5
263
330
1F
100
AcDbEntity
  8
0
  6
Continuous
 62
   255
100
AcDbLine
 10
285.2456260144574
 20
-50.86203978658396
 30
0.0
 11
285.2456260144574
 21
-53.36203978658396
 31
0.0
  0
LINE
  5
264
330
1F
100
AcDbEntity
  8
0
  6
Continuous
 62
   255
100
AcDbLine
 10
239.7126174254668
 20
-53.36203978658396
 30
0.0
 11
239.7126174254668
 21
-50.86203978658396
 31
0.0
  0
LINE
  5
265
330
1F
100
AcDbEntity
  8
0
  6
Continuous
 62
   255
100
AcDbLine
 10
232.2126174254667
 20
-50.86203978658396
 30
0.0
 11
232.2126174254667
 21
-53.36203978658396
 31
0.0
  0
LINE
  5
266
330
1F
100
AcDbEntity
  8
0
  6
Continuous
 62
   255
100
AcDbLine
 10
307.4791217199622
 20
-50.86203978658396
 30
0.0
 11
307.4791217199622
 21
17.13796021341604
 31
0.0
  0
LINE
  5
267
330
1F
100
AcDbEntity
  8
0
  6
Continuous
 62
   255
100
AcDbLine
 10
217.4791217199622
 20
17.13796021341604
 30
0.0
 11
217.4791217199622
 21
-50.86203978658396
 31
0.0
  0
ENDSEC
  0
SECTION
  2
OBJECTS
  0
DICTIONARY
  5
C
330
0
100
AcDbDictionary
281
     1
  3
ACAD_GROUP
350
D
  3
ACAD_LAYOUT
350
1A
  3
ACAD_MLEADERSTYLE
350
269
  3
ACAD_MLINESTYLE
350
17
  3
ACAD_PLOTSETTINGS
350
19
  3
ACAD_PLOTSTYLENAME
350
E
  3
ACAD_TABLESTYLE
350
268
  3
ACAD_VISUALSTYLE
350
2A
  0
DICTIONARY
  5
D
102
{ACAD_REACTORS
330
C
102
}
330
C
100
AcDbDictionary
281
     1
  0
DICTIONARY
  5
1A
102
{ACAD_REACTORS
330
C
102
}
330
C
100
AcDbDictionary
281
     1
  3
Layout1
350
1E
  3
Layout2
350
26
  3
Model
350
22
  0
DICTIONARY
  5
269
102
{ACAD_REACTORS
330
C
102
}
330
C
100
AcDbDictionary
281
     1
  0
DICTIONARY
  5
17
102
{ACAD_REACTORS
330
C
102
}
330
C
100
AcDbDictionary
281
     1
  3
Standard
350
18
  0
DICTIONARY
  5
19
102
{ACAD_REACTORS
330
C
102
}
330
C
100
AcDbDictionary
281
     1
  0
ACDBDICTIONARYWDFLT
  5
E
102
{ACAD_REACTORS
330
C
102
}
330
C
100
AcDbDictionary
281
     1
  3
Normal
350
F
100
AcDbDictionaryWithDefault
340
F
  0
DICTIONARY
  5
268
102
{ACAD_REACTORS
330
C
102
}
330
C
100
AcDbDictionary
281
     1
  0
DICTIONARY
  5
2A
102
{ACAD_REACTORS
330
C
102
}
330
C
100
AcDbDictionary
281
     1
  3
2dWireframe
350
2F
  3
3D Hidden
350
31
  3
3dWireframe
350
30
  3
Basic
350
32
  3
Brighten
350
36
  3
ColorChange
350
3A
  3
Conceptual
350
34
  3
Dim
350
35
  3
Facepattern
350
39
  3
Flat
350
2B
  3
FlatWithEdges
350
2C
  3
Gouraud
350
2D
  3
GouraudWithEdges
350
2E
  3
Linepattern
350
38
  3
Realistic
350
33
  3
Thicken
350
37
  0
LAYOUT
  5
1E
102
{ACAD_REACTORS
330
1A
102
}
330
1A
100
AcDbPlotSettings
  1

  2
none_device
  4

  6

 40
0.0
 41
0.0
 42
0.0
 43
0.0
 44
0.0
 45
0.0
 46
0.0
 47
0.0
 48
0.0
 49
0.0
140
0.0
141
0.0
142
1.0
143
1.0
 70
   688
 72
     0
 73
     0
 74
     5
  7

 75
    16
 76
     0
 77
     2
 78
   300
147
1.0
148
0.0
149
0.0
100
AcDbLayout
  1
Layout1
 70
     1
 71
     1
 10
0.0
 20
0.0
 11
12.0
 21
9.0
 12
0.0
 22
0.0
 32
0.0
 14
1.000000000000000E+20
 24
1.000000000000000E+20
 34
1.000000000000000E+20
 15
-1.000000000000000E+20
 25
-1.000000000000000E+20
 35
-1.000000000000000E+20
146
0.0
 13
0.0
 23
0.0
 33
0.0
 16
1.0
 26
0.0
 36
0.0
 17
0.0
 27
1.0
 37
0.0
 76
     0
330
1B
  0
LAYOUT
  5
26
102
{ACAD_REACTORS
330
1A
102
}
330
1A
100
AcDbPlotSettings
  1

  2
none_device
  4

  6

 40
0.0
 41
0.0
 42
0.0
 43
0.0
 44
0.0
 45
0.0
 46
0.0
 47
0.0
 48
0.0
 49
0.0
140
0.0
141
0.0
142
1.0
143
1.0
 70
   688
 72
     0
 73
     0
 74
     5
  7

 75
    16
 76
     0
 77
     2
 78
   300
147
1.0
148
0.0
149
0.0
100
AcDbLayout
  1
Layout2
 70
     1
 71
     2
 10
0.0
 20
0.0
 11
0.0
 21
0.0
 12
0.0
 22
0.0
 32
0.0
 14
0.0
 24
0.0
 34
0.0
 15
0.0
 25
0.0
 35
0.0
146
0.0
 13
0.0
 23
0.0
 33
0.0
 16
1.0
 26
0.0
 36
0.0
 17
0.0
 27
1.0
 37
0.0
 76
     0
330
23
  0
LAYOUT
  5
22
102
{ACAD_REACTORS
330
1A
102
}
330
1A
100
AcDbPlotSettings
  1

  2
none_device
  4

  6

 40
0.0
 41
0.0
 42
0.0
 43
0.0
 44
0.0
 45
0.0
 46
0.0
 47
0.0
 48
0.0
 49
0.0
140
0.0
141
0.0
142
1.0
143
1.0
 70
  1712
 72
     0
 73
     0
 74
     0
  7

 75
     0
 76
     0
 77
     2
 78
   300
147
1.0
148
0.0
149
0.0
100
AcDbLayout
  1
Model
 70
     1
 71
     0
 10
0.0
 20
0.0
 11
12.0
 21
9.0
 12
0.0
 22
0.0
 32
0.0
 14
-220.1738625280868
 24
-268.8468175220896
 34
0.0
 15
570.3895399198485
 25
377.2120397865839
 35
0.0
146
0.0
 13
0.0
 23
0.0
 33
0.0
 16
1.0
 26
0.0
 36
0.0
 17
0.0
 27
1.0
 37
0.0
 76
     0
330
1F
331
29
  0
MLINESTYLE
  5
18
102
{ACAD_REACTORS
330
17
102
}
330
17
100
AcDbMlineStyle
  2
Standard
 70
     0
  3

 62
   256
 51
90.0
 52
90.0
 71
     2
 49
0.5
 62
   256
  6
BYLAYER
 49
-0.5
 62
   256
  6
BYLAYER
  0
ACDBPLACEHOLDER
  5
F
102
{ACAD_REACTORS
330
E
102
}
330
E
  0
VISUALSTYLE
  5
2F
102
{ACAD_REACTORS
330
2A
102
}
330
2A
100
AcDbVisualStyle
  2
2dWireframe
 70
     4
 71
     0
 72
     2
 73
     0
 90
        0
 40
-0.6
 41
-30.0
 62
     5
 63
     7
421
 16777215
 74
     1
 91
        4
 64
     7
 65
   257
 75
     1
175
     1
 42
1.0
 92
        0
 66
   257
 43
1.0
 76
     1
 77
     6
 78
     2
 67
     7
 79
     5
170
     0
171
     0
290
     0
174
     0
 93
        1
 44
0.0
173
     0
291
     0
 45
0.0
1001
ACAD
1000
AcDbSavedByObjectVersion
1070
     0
  0
VISUALSTYLE
  5
31
102
{ACAD_REACTORS
330
2A
102
}
330
2A
100
AcDbVisualStyle
  2
3D Hidden
 70
     6
 71
     1
 72
     2
 73
     2
 90
        0
 40
-0.6
 41
-30.0
 62
     5
 63
     7
421
 16777215
 74
     2
 91
        2
 64
     7
 65
   257
 75
     2
175
     1
 42
40.0
 92
        0
 66
   257
 43
1.0
 76
     1
 77
     6
 78
     2
 67
     7
 79
     3
170
     0
171
     0
290
     0
174
     0
 93
        1
 44
0.0
173
     0
291
     0
 45
0.0
1001
ACAD
1000
AcDbSavedByObjectVersion
1070
     0
  0
VISUALSTYLE
  5
30
102
{ACAD_REACTORS
330
2A
102
}
330
2A
100
AcDbVisualStyle
  2
3dWireframe
 70
     5
 71
     0
 72
     2
 73
     0
 90
        0
 40
-0.6
 41
-30.0
 62
     5
 63
     7
421
 16777215
 74
     1
 91
        4
 64
     7
 65
   257
 75
     1
175
     1
 42
1.0
 92
        0
 66
   257
 43
1.0
 76
     1
 77
     6
 78
     2
 67
     7
 79
     5
170
     0
171
     0
290
     0
174
     0
 93
        1
 44
0.0
173
     0
291
     0
 45
0.0
1001
ACAD
1000
AcDbSavedByObjectVersion
1070
     0
  0
VISUALSTYLE
  5
32
102
{ACAD_REACTORS
330
2A
102
}
330
2A
100
AcDbVisualStyle
  2
Basic
 70
     7
 71
     1
 72
     0
 73
     1
 90
        0
 40
-0.6
 41
-30.0
 62
     5
 63
     7
421
 16777215
 74
     0
 91
        4
 64
     7
 65
   257
 75
     1
175
     1
 42
1.0
 92
        8
 66
     7
 43
1.0
 76
     1
 77
     6
 78
     2
 67
     7
 79
     5
170
     0
171
     0
290
     0
174
     0
 93
        1
 44
0.0
173
     0
291
     1
 45
0.0
1001
ACAD
1000
AcDbSavedByObjectVersion
1070
     0
  0
VISUALSTYLE
  5
36
102
{ACAD_REACTORS
330
2A
102
}
330
2A
100
AcDbVisualStyle
  2
Brighten
 70
    12
 71
     2
 72
     2
 73
     0
 90
        0
 40
-0.6
 41
-30.0
 62
     5
 63
     7
421
 16777215
 74
     1
 91
        4
 64
     7
 65
   257
 75
     1
175
     1
 42
1.0
 92
        8
 66
     7
 43
1.0
 76
     1
 77
     6
 78
     2
 67
     7
 79
     5
170
     0
171
     0
290
     0
174
     0
 93
        1
 44
50.0
173
     0
291
     1
 45
0.0
1001
ACAD
1000
AcDbSavedByObjectVersion
1070
     0
  0
VISUALSTYLE
  5
3A
102
{ACAD_REACTORS
330
2A
102
}
330
2A
100
AcDbVisualStyle
  2
ColorChange
 70
    16
 71
     2
 72
     2
 73
     3
 90
        0
 40
-0.6
 41
-30.0
 62
     5
 63
     8
421
  8421504
 74
     1
 91
        4
 64
     7
 65
   257
 75
     1
175
     1
 42
1.0
 92
        8
 66
     8
424
  8421504
 43
1.0
 76
     1
 77
     6
 78
     2
 67
     7
 79
     5
170
     0
171
     0
290
     0
174
     0
 93
        1
 44
0.0
173
     0
291
     1
 45
0.0
1001
ACAD
1000
AcDbSavedByObjectVersion
1070
     0
  0
VISUALSTYLE
  5
34
102
{ACAD_REACTORS
330
2A
102
}
330
2A
100
AcDbVisualStyle
  2
Conceptual
 70
     9
 71
     3
 72
     2
 73
     0
 90
        0
 40
-0.6
 41
-30.0
 62
     5
 63
     7
421
 16777215
 74
     2
 91
        2
 64
     7
 65
   257
 75
     1
175
     1
 42
40.0
 92
        8
 66
     7
 43
1.0
 76
     1
 77
     6
 78
     2
 67
     7
 79
     3
170
     0
171
     0
290
     0
174
     0
 93
        1
 44
0.0
173
     0
291
     0
 45
0.0
1001
ACAD
1000
AcDbSavedByObjectVersion
1070
     0
  0
VISUALSTYLE
  5
35
102
{ACAD_REACTORS
330
2A
102
}
330
2A
100
AcDbVisualStyle
  2
Dim
 70
    11
 71
     2
 72
     2
 73
     0
 90
        0
 40
-0.6
 41
-30.0
 62
     5
 63
     7
421
 16777215
 74
     1
 91
        4
 64
     7
 65
   257
 75
     1
175
     1
 42
1.0
 92
        8
 66
     7
 43
1.0
 76
     1
 77
     6
 78
     2
 67
     7
 79
     5
170
     0
171
     0
290
     0
174
     0
 93
        1
 44
-50.0
173
     0
291
     1
 45
0.0
1001
ACAD
1000
AcDbSavedByObjectVersion
1070
     0
  0
VISUALSTYLE
  5
39
102
{ACAD_REACTORS
330
2A
102
}
330
2A
100
AcDbVisualStyle
  2
Facepattern
 70
    15
 71
     2
 72
     2
 73
     0
 90
        0
 40
-0.6
 41
-30.0
 62
     5
 63
     7
421
 16777215
 74
     1
 91
        4
 64
     7
 65
   257
 75
     1
175
     1
 42
1.0
 92
        8
 66
     7
 43
1.0
 76
     1
 77
     6
 78
     2
 67
     7
 79
     5
170
     0
171
     0
290
     0
174
     0
 93
        1
 44
0.0
173
     0
291
     1
 45
0.0
1001
ACAD
1000
AcDbSavedByObjectVersion
1070
     0
  0
VISUALSTYLE
  5
2B
102
{ACAD_REACTORS
330
2A
102
}
330
2A
100
AcDbVisualStyle
  2
Flat
 70
     0
 71
     2
 72
     1
 73
     1
 90
        2
 40
-0.6
 41
30.0
 62
     5
 63
     7
421
 16777215
 74
     0
 91
        4
 64
     7
 65
   257
 75
     1
175
     1
 42
1.0
 92
        8
 66
     7
 43
1.0
 76
     1
 77
     6
 78
     2
 67
     7
 79
     5
170
     0
171
     0
290
     0
174
     0
 93
       13
 44
0.0
173
     0
291
     1
 45
0.0
1001
ACAD
1000
AcDbSavedByObjectVersion
1070
     0
  0
VISUALSTYLE
  5
2C
102
{ACAD_REACTORS
330
2A
102
}
330
2A
100
AcDbVisualStyle
  2
FlatWithEdges
 70
     1
 71
     2
 72
     1
 73
     1
 90
        2
 40
-0.6
 41
30.0
 62
     5
 63
     7
421
 16777215
 74
     1
 91
        4
 64
     7
 65
   257
 75
     1
175
     1
 42
1.0
 92
        0
 66
   257
 43
1.0
 76
     1
 77
     6
 78
     2
 67
     7
 79
     5
170
     0
171
     0
290
     0
174
     0
 93
       13
 44
0.0
173
     0
291
     1
 45
0.0
1001
ACAD
1000
AcDbSavedByObjectVersion
1070
     0
  0
VISUALSTYLE
  5
2D
102
{ACAD_REACTORS
330
2A
102
}
330
2A
100
AcDbVisualStyle
  2
Gouraud
 70
     2
 71
     2
 72
     2
 73
     1
 90
        2
 40
-0.6
 41
30.0
 62
     5
 63
     7
421
 16777215
 74
     0
 91
        4
 64
     7
 65
   257
 75
     1
175
     1
 42
1.0
 92
        0
 66
     7
 43
1.0
 76
     1
 77
     6
 78
     2
 67
     7
 79
     5
170
     0
171
     0
290
     0
174
     0
 93
       13
 44
0.0
173
     0
291
     1
 45
0.0
1001
ACAD
1000
AcDbSavedByObjectVersion
1070
     0
  0
VISUALSTYLE
  5
2E
102
{ACAD_REACTORS
330
2A
102
}
330
2A
100
AcDbVisualStyle
  2
GouraudWithEdges
 70
     3
 71
     2
 72
     2
 73
     1
 90
        2
 40
-0.6
 41
30.0
 62
     5
 63
     7
421
 16777215
 74
     1
 91
        4
 64
     7
 65
   257
 75
     1
175
     1
 42
1.0
 92
        0
 66
   257
 43
1.0
 76
     1
 77
     6
 78
     2
 67
     7
 79
     5
170
     0
171
     0
290
     0
174
     0
 93
       13
 44
0.0
173
     0
291
     1
 45
0.0
1001
ACAD
1000
AcDbSavedByObjectVersion
1070
     0
  0
VISUALSTYLE
  5
38
102
{ACAD_REACTORS
330
2A
102
}
330
2A
100
AcDbVisualStyle
  2
Linepattern
 70
    14
 71
     2
 72
     2
 73
     0
 90
        0
 40
-0.6
 41
-30.0
 62
     5
 63
     7
421
 16777215
 74
     1
 91
        4
 64
     7
 65
   257
 75
     7
175
     7
 42
1.0
 92
        8
 66
     7
 43
1.0
 76
     1
 77
     6
 78
     2
 67
     7
 79
     5
170
     0
171
     0
290
     0
174
     0
 93
        1
 44
0.0
173
     0
291
     1
 45
0.0
1001
ACAD
1000
AcDbSavedByObjectVersion
1070
     0
  0
VISUALSTYLE
  5
33
102
{ACAD_REACTORS
330
2A
102
}
330
2A
100
AcDbVisualStyle
  2
Realistic
 70
     8
 71
     2
 72
     2
 73
     0
 90
        0
 40
-0.6
 41
-30.0
 62
     5
 63
     7
421
 16777215
 74
     1
 91
        0
 64
     7
 65
   257
 75
     1
175
     1
 42
1.0
 92
        8
 66
     8
424
  7895160
 43
1.0
 76
     1
 77
     6
 78
     2
 67
     7
 79
     5
170
     0
171
     0
290
     0
174
     0
 93
       13
 44
0.0
173
     0
291
     0
 45
0.0
1001
ACAD
1000
AcDbSavedByObjectVersion
1070
     0
  0
VISUALSTYLE
  5
37
102
{ACAD_REACTORS
330
2A
102
}
330
2A
100
AcDbVisualStyle
  2
Thicken
 70
    13
 71
     2
 72
     2
 73
     0
 90
        0
 40
-0.6
 41
-30.0
 62
     5
 63
     7
421
 16777215
 74
     1
 91
        4
 64
     7
 65
   257
 75
     1
175
     1
 42
1.0
 92
       12
 66
     7
 43
1.0
 76
     1
 77
     6
 78
     2
 67
     7
 79
     5
170
     0
171
     0
290
     0
174
     0
 93
        1
 44
0.0
173
     0
291
     1
 45
0.0
1001
ACAD
1000
AcDbSavedByObjectVersion
1070
     0
  0
ENDSEC
  0
EOF
