  0
SECTION
  2
HEADER
  9
$ACADVER
  1
AC1018
  9
$ACADMAINTVER
 70
     0
  9
$DWGCODEPAGE
  3
ANSI_1252
  9
$INSBASE
 10
0.0
 20
0.0
 30
0.0
  9
$EXTMIN
 10
0.0000000000000018
 20
0.0000000000000018
 30
0.0
  9
$EXTMAX
 10
828.7708763999667
 20
1211.770876399966
 30
0.0
  9
$LIMMIN
 10
0.0
 20
0.0
  9
$LIMMAX
 10
12.0
 20
9.0
  9
$ORTHOMODE
 70
     0
  9
$REGENMODE
 70
     1
  9
$FILLMODE
 70
     1
  9
$QTEXTMODE
 70
     0
  9
$MIRRTEXT
 70
     1
  9
$LTSCALE
 40
1.0
  9
$ATTMODE
 70
     1
  9
$TEXTSIZE
 40
0.2
  9
$TRACEWID
 40
0.05
  9
$TEXTSTYLE
  7
Standard
  9
$CLAYER
  8
Predefinito
  9
$CELTYPE
  6
ByLayer
  9
$CECOLOR
 62
   256
  9
$CELTSCALE
 40
1.0
  9
$DISPSILH
 70
     0
  9
$DIMSCALE
 40
1.0
  9
$DIMASZ
 40
0.18
  9
$DIMEXO
 40
0.0625
  9
$DIMDLI
 40
0.38
  9
$DIMRND
 40
0.0
  9
$DIMDLE
 40
0.0
  9
$DIMEXE
 40
0.18
  9
$DIMTP
 40
0.0
  9
$DIMTM
 40
0.0
  9
$DIMTXT
 40
0.18
  9
$DIMCEN
 40
0.09
  9
$DIMTSZ
 40
0.0
  9
$DIMTOL
 70
     0
  9
$DIMLIM
 70
     0
  9
$DIMTIH
 70
     1
  9
$DIMTOH
 70
     1
  9
$DIMSE1
 70
     0
  9
$DIMSE2
 70
     0
  9
$DIMTAD
 70
     0
  9
$DIMZIN
 70
     0
  9
$DIMBLK
  1

  9
$DIMASO
 70
     1
  9
$DIMSHO
 70
     1
  9
$DIMPOST
  1

  9
$DIMAPOST
  1

  9
$DIMALT
 70
     0
  9
$DIMALTD
 70
     2
  9
$DIMALTF
 40
25.4
  9
$DIMLFAC
 40
1.0
  9
$DIMTOFL
 70
     0
  9
$DIMTVP
 40
0.0
  9
$DIMTIX
 70
     0
  9
$DIMSOXD
 70
     0
  9
$DIMSAH
 70
     0
  9
$DIMBLK1
  1

  9
$DIMBLK2
  1

  9
$DIMSTYLE
  2
Standard
  9
$DIMCLRD
 70
     0
  9
$DIMCLRE
 70
     0
  9
$DIMCLRT
 70
     0
  9
$DIMTFAC
 40
1.0
  9
$DIMGAP
 40
0.09
  9
$DIMJUST
 70
     0
  9
$DIMSD1
 70
     0
  9
$DIMSD2
 70
     0
  9
$DIMTOLJ
 70
     1
  9
$DIMTZIN
 70
     0
  9
$DIMALTZ
 70
     0
  9
$DIMALTTZ
 70
     0
  9
$DIMUPT
 70
     0
  9
$DIMDEC
 70
     4
  9
$DIMTDEC
 70
     4
  9
$DIMALTU
 70
     2
  9
$DIMALTTD
 70
     2
  9
$DIMTXSTY
  7
Standard
  9
$DIMAUNIT
 70
     0
  9
$DIMADEC
 70
     0
  9
$DIMALTRND
 40
0.0
  9
$DIMAZIN
 70
     0
  9
$DIMDSEP
 70
    46
  9
$DIMATFIT
 70
     3
  9
$DIMFRAC
 70
     0
  9
$DIMLDRBLK
  1

  9
$DIMLUNIT
 70
     2
  9
$DIMLWD
 70
    -2
  9
$DIMLWE
 70
    -2
  9
$DIMTMOVE
 70
     2
  9
$LUNITS
 70
     2
  9
$LUPREC
 70
     4
  9
$SKETCHINC
 40
0.1
  9
$FILLETRAD
 40
0.5
  9
$AUNITS
 70
     0
  9
$AUPREC
 70
     0
  9
$MENU
  1
.
  9
$ELEVATION
 40
0.0
  9
$PELEVATION
 40
0.0
  9
$THICKNESS
 40
0.0
  9
$LIMCHECK
 70
     0
  9
$CHAMFERA
 40
0.5
  9
$CHAMFERB
 40
0.5
  9
$CHAMFERC
 40
1.0
  9
$CHAMFERD
 40
0.0
  9
$SKPOLY
 70
     0
  9
$TDCREATE
 40
2455882.410880833
  9
$TDUCREATE
 40
2455882.369214167
  9
$TDUPDATE
 40
2455882.410880845
  9
$TDUUPDATE
 40
2455882.369214178
  9
$TDINDWG
 40
0.0000000116
  9
$TDUSRTIMER
 40
0.0000000116
  9
$USRTIMER
 70
     1
  9
$ANGBASE
 50
0.0
  9
$ANGDIR
 70
     0
  9
$PDMODE
 70
     0
  9
$PDSIZE
 40
0.0
  9
$PLINEWID
 40
0.0
  9
$SPLFRAME
 70
     0
  9
$SPLINETYPE
 70
     6
  9
$SPLINESEGS
 70
     8
  9
$HANDSEED
  5
98
  9
$SURFTAB1
 70
     6
  9
$SURFTAB2
 70
     6
  9
$SURFTYPE
 70
     6
  9
$SURFU
 70
     6
  9
$SURFV
 70
     6
  9
$UCSBASE
  2

  9
$UCSNAME
  2

  9
$UCSORG
 10
0.0
 20
0.0
 30
0.0
  9
$UCSXDIR
 10
1.0
 20
0.0
 30
0.0
  9
$UCSYDIR
 10
0.0
 20
1.0
 30
0.0
  9
$UCSORTHOREF
  2

  9
$UCSORTHOVIEW
 70
     0
  9
$UCSORGTOP
 10
0.0
 20
0.0
 30
0.0
  9
$UCSORGBOTTOM
 10
0.0
 20
0.0
 30
0.0
  9
$UCSORGLEFT
 10
0.0
 20
0.0
 30
0.0
  9
$UCSORGRIGHT
 10
0.0
 20
0.0
 30
0.0
  9
$UCSORGFRONT
 10
0.0
 20
0.0
 30
0.0
  9
$UCSORGBACK
 10
0.0
 20
0.0
 30
0.0
  9
$PUCSBASE
  2

  9
$PUCSNAME
  2

  9
$PUCSORG
 10
0.0
 20
0.0
 30
0.0
  9
$PUCSXDIR
 10
1.0
 20
0.0
 30
0.0
  9
$PUCSYDIR
 10
0.0
 20
1.0
 30
0.0
  9
$PUCSORTHOREF
  2

  9
$PUCSORTHOVIEW
 70
     0
  9
$PUCSORGTOP
 10
0.0
 20
0.0
 30
0.0
  9
$PUCSORGBOTTOM
 10
0.0
 20
0.0
 30
0.0
  9
$PUCSORGLEFT
 10
0.0
 20
0.0
 30
0.0
  9
$PUCSORGRIGHT
 10
0.0
 20
0.0
 30
0.0
  9
$PUCSORGFRONT
 10
0.0
 20
0.0
 30
0.0
  9
$PUCSORGBACK
 10
0.0
 20
0.0
 30
0.0
  9
$USERI1
 70
     0
  9
$USERI2
 70
     0
  9
$USERI3
 70
     0
  9
$USERI4
 70
     0
  9
$USERI5
 70
     0
  9
$USERR1
 40
0.0
  9
$USERR2
 40
0.0
  9
$USERR3
 40
0.0
  9
$USERR4
 40
0.0
  9
$USERR5
 40
0.0
  9
$WORLDVIEW
 70
     1
  9
$SHADEDGE
 70
     3
  9
$SHADEDIF
 70
    70
  9
$TILEMODE
 70
     1
  9
$MAXACTVP
 70
    64
  9
$PINSBASE
 10
0.0
 20
0.0
 30
0.0
  9
$PLIMCHECK
 70
     0
  9
$PEXTMIN
 10
1.000000000000000E+20
 20
1.000000000000000E+20
 30
1.000000000000000E+20
  9
$PEXTMAX
 10
-1.000000000000000E+20
 20
-1.000000000000000E+20
 30
-1.000000000000000E+20
  9
$PLIMMIN
 10
0.0
 20
0.0
  9
$PLIMMAX
 10
12.0
 20
9.0
  9
$UNITMODE
 70
     0
  9
$VISRETAIN
 70
     1
  9
$PLINEGEN
 70
     0
  9
$PSLTSCALE
 70
     1
  9
$TREEDEPTH
 70
  3020
  9
$CMLSTYLE
  2
Standard
  9
$CMLJUST
 70
     0
  9
$CMLSCALE
 40
1.0
  9
$PROXYGRAPHICS
 70
     1
  9
$MEASUREMENT
 70
     0
  9
$CELWEIGHT
370
    -1
  9
$ENDCAPS
280
     0
  9
$JOINSTYLE
280
     0
  9
$LWDISPLAY
290
     0
  9
$INSUNITS
 70
     4
  9
$HYPERLINKBASE
  1

  9
$STYLESHEET
  1

  9
$XEDIT
290
     1
  9
$CEPSNTYPE
380
     0
  9
$PSTYLEMODE
290
     1
  9
$FINGERPRINTGUID
  2
{027EFF5B-BA4E-40B0-9518-CE038DA4B9FA}
  9
$VERSIONGUID
  2
{FAEB1C32-E019-11D5-929B-00C0DF256EC4}
  9
$EXTNAMES
290
     1
  9
$PSVPSCALE
 40
0.0
  9
$OLESTARTUP
290
     0
  9
$SORTENTS
280
   127
  9
$INDEXCTL
280
     0
  9
$HIDETEXT
280
     1
  9
$XCLIPFRAME
290
     0
  9
$HALOGAP
280
     0
  9
$OBSCOLOR
 70
   257
  9
$OBSLTYPE
280
     0
  9
$INTERSECTIONDISPLAY
280
     0
  9
$INTERSECTIONCOLOR
 70
   257
  9
$DIMASSOC
280
     2
  9
$PROJECTNAME
  1

  0
ENDSEC
  0
SECTION
  2
CLASSES
  0
CLASS
  1
ACDBDICTIONARYWDFLT
  2
AcDbDictionaryWithDefault
  3
ObjectDBX Classes
 90
        0
 91
        4
280
     0
281
     0
  0
CLASS
  1
VISUALSTYLE
  2
AcDbVisualStyle
  3
ObjectDBX Classes
 90
     4095
 91
        4
280
     0
281
     0
  0
ENDSEC
  0
SECTION
  2
TABLES
  0
TABLE
  2
VPORT
  5
8
330
0
100
AcDbSymbolTable
 70
     1
  0
VPORT
  5
29
330
8
100
AcDbSymbolTableRecord
100
AcDbViewportTableRecord
  2
*Active
 70
     0
 10
0.0
 20
0.0
 11
1.0
 21
1.0
 12
414.3854381999834
 22
605.8854381999832
 13
0.0
 23
0.0
 14
0.5
 24
0.5
 15
0.5
 25
0.5
 16
0.0
 26
0.0
 36
1.0
 17
0.0
 27
0.0
 37
0.0
 40
1236.006293927966
 41
0.6839336483000407
 42
50.0
 43
0.0
 44
0.0
 50
0.0
 51
0.0
 71
     0
 72
   100
 73
     1
 74
     3
 75
     0
 76
     0
 77
     0
 78
     0
281
     0
 65
     1
110
0.0
120
0.0
130
0.0
111
1.0
121
0.0
131
0.0
112
0.0
122
1.0
132
0.0
 79
     0
146
0.0
  0
ENDTAB
  0
TABLE
  2
LTYPE
  5
5
330
0
100
AcDbSymbolTable
 70
     1
  0
LTYPE
  5
14
330
5
100
AcDbSymbolTableRecord
100
AcDbLinetypeTableRecord
  2
ByBlock
 70
     0
  3

 72
    65
 73
     0
 40
0.0
  0
LTYPE
  5
15
330
5
100
AcDbSymbolTableRecord
100
AcDbLinetypeTableRecord
  2
ByLayer
 70
     0
  3

 72
    65
 73
     0
 40
0.0
  0
LTYPE
  5
16
330
5
100
AcDbSymbolTableRecord
100
AcDbLinetypeTableRecord
  2
Continuous
 70
     0
  3
Solid line
 72
    65
 73
     0
 40
0.0
  0
ENDTAB
  0
TABLE
  2
LAYER
  5
2
330
0
100
AcDbSymbolTable
 70
     3
  0
LAYER
  5
10
330
2
100
AcDbSymbolTableRecord
100
AcDbLayerTableRecord
  2
0
 70
     0
 62
     7
  6
Continuous
370
    -3
390
F
  0
LAYER
  5
3B
330
2
100
AcDbSymbolTableRecord
100
AcDbLayerTableRecord
  2
Linee visibili 2D
 70
     0
 62
     7
  6
Continuous
370
    -3
390
F
  0
LAYER
  5
5C
330
2
100
AcDbSymbolTableRecord
100
AcDbLayerTableRecord
  2
Predefinito
 70
     0
 62
     7
  6
Continuous
370
    -3
390
F
  0
ENDTAB
  0
TABLE
  2
STYLE
  5
3
330
0
100
AcDbSymbolTable
 70
     1
  0
STYLE
  5
11
330
3
100
AcDbSymbolTableRecord
100
AcDbTextStyleTableRecord
  2
Standard
 70
     0
 40
0.0
 41
1.0
 50
0.0
 71
     0
 42
0.2
  3
txt
  4

  0
ENDTAB
  0
TABLE
  2
VIEW
  5
6
330
0
100
AcDbSymbolTable
 70
     0
  0
ENDTAB
  0
TABLE
  2
UCS
  5
7
330
0
100
AcDbSymbolTable
 70
     0
  0
ENDTAB
  0
TABLE
  2
APPID
  5
9
330
0
100
AcDbSymbolTable
 70
     1
  0
APPID
  5
12
330
9
100
AcDbSymbolTableRecord
100
AcDbRegAppTableRecord
  2
ACAD
 70
     0
  0
ENDTAB
  0
TABLE
  2
DIMSTYLE
  5
A
330
0
100
AcDbSymbolTable
 70
     1
100
AcDbDimStyleTable
  0
DIMSTYLE
105
27
330
A
100
AcDbSymbolTableRecord
100
AcDbDimStyleTableRecord
  2
Standard
 70
     0
340
11
  0
ENDTAB
  0
TABLE
  2
BLOCK_RECORD
  5
1
330
0
100
AcDbSymbolTable
 70
     1
  0
BLOCK_RECORD
  5
1F
330
1
100
AcDbSymbolTableRecord
100
AcDbBlockTableRecord
  2
*Model_Space
340
22
  0
BLOCK_RECORD
  5
1B
330
1
100
AcDbSymbolTableRecord
100
AcDbBlockTableRecord
  2
*Paper_Space
340
1E
  0
BLOCK_RECORD
  5
23
330
1
100
AcDbSymbolTableRecord
100
AcDbBlockTableRecord
  2
*Paper_Space0
340
26
  0
ENDTAB
  0
ENDSEC
  0
SECTION
  2
BLOCKS
  0
BLOCK
  5
20
330
1F
100
AcDbEntity
  8
0
100
AcDbBlockBegin
  2
*Model_Space
 70
     0
 10
0.0
 20
0.0
 30
0.0
  3
*Model_Space
  1

  0
ENDBLK
  5
21
330
1F
100
AcDbEntity
  8
0
100
AcDbBlockEnd
  0
BLOCK
  5
1C
330
1B
100
AcDbEntity
 67
     1
  8
0
100
AcDbBlockBegin
  2
*Paper_Space
 70
     0
 10
0.0
 20
0.0
 30
0.0
  3
*Paper_Space
  1

  0
ENDBLK
  5
1D
330
1B
100
AcDbEntity
 67
     1
  8
0
100
AcDbBlockEnd
  0
BLOCK
  5
24
330
23
100
AcDbEntity
  8
0
100
AcDbBlockBegin
  2
*Paper_Space0
 70
     0
 10
0.0
 20
0.0
 30
0.0
  3
*Paper_Space0
  1

  0
ENDBLK
  5
25
330
23
100
AcDbEntity
  8
0
100
AcDbBlockEnd
  0
ENDSEC
  0
SECTION
  2
ENTITIES
  0
SPLINE
  5
3C
330
1F
100
AcDbEntity
  8
Linee visibili 2D
100
AcDbSpline
210
0.0
220
0.0
230
1.0
 70
    12
 71
     2
 72
     6
 73
     3
 74
     0
 42
0.0000000001
 43
0.0000000001
 40
0.0
 40
0.0
 40
0.0
 40
1.55064886774725
 40
1.55064886774725
 40
1.55064886774725
 10
825.4121359467576
 20
1062.37746107755
 30
0.0
 41
1.0
 10
825.35982410812
 20
1063.151025220193
 30
0.0
 41
0.9999874818830301
 10
825.2997737647288
 20
1063.924027139663
 30
0.0
 41
1.0
  0
SPLINE
  5
3D
330
1F
100
AcDbEntity
  8
Linee visibili 2D
100
AcDbSpline
210
0.0
220
0.0
230
1.0
 70
    12
 71
     2
 72
     6
 73
     3
 74
     0
 42
0.0000000001
 43
0.0000000001
 40
0.0
 40
0.0
 40
0.0
 40
1.442855634877734
 40
1.442855634877734
 40
1.442855634877734
 10
512.3928687179663
 20
1065.732217559722
 30
0.0
 41
1.0
 10
512.3287493499042
 20
1065.013639739587
 30
0.0
 41
0.9999895076907855
 10
512.2712160486589
 20
1064.294504636705
 30
0.0
 41
1.0
  0
SPLINE
  5
3E
330
1F
100
AcDbEntity
  8
Linee visibili 2D
100
AcDbSpline
210
0.0
220
0.0
230
1.0
 70
    12
 71
     2
 72
     6
 73
     3
 74
     0
 42
0.0000000001
 43
0.0000000001
 40
0.0
 40
0.0
 40
0.0
 40
1.442202033125305
 40
1.442202033125305
 40
1.442202033125305
 10
825.2705175376285
 20
1064.294742725099
 30
0.0
 41
1.0
 10
825.2130093330451
 20
1065.013551983896
 30
0.0
 41
0.9999895171264329
 10
825.1489210054281
 20
1065.731804467629
 30
0.0
 41
1.0
  0
SPLINE
  5
3F
330
1F
100
AcDbEntity
  8
Linee visibili 2D
100
AcDbSpline
210
0.0
220
0.0
230
1.0
 70
    12
 71
     2
 72
     6
 73
     3
 74
     0
 42
0.0000000001
 43
0.0000000001
 40
0.0
 40
0.0
 40
0.0
 40
1.558006783940471
 40
1.558006783940471
 40
1.558006783940471
 10
512.0118297666558
 20
1060.465632294578
 30
0.0
 41
1.0
 10
511.9687454573688
 20
1059.687814865279
 30
0.0
 41
0.9999877322703847
 10
511.9333687139466
 20
1058.909608789068
 30
0.0
 41
1.0
  0
SPLINE
  5
40
330
1F
100
AcDbEntity
  8
Linee visibili 2D
100
AcDbSpline
210
0.0
220
0.0
230
1.0
 70
    12
 71
     2
 72
     6
 73
     3
 74
     0
 42
0.0000000001
 43
0.0000000001
 40
0.0
 40
0.0
 40
0.0
 40
1.557596110675278
 40
1.557596110675278
 40
1.557596110675278
 10
825.6083839660064
 20
1058.909608119576
 30
0.0
 41
1.0
 10
825.5730165775735
 20
1059.687609067166
 30
0.0
 41
0.9999877390418994
 10
825.5299457813164
 20
1060.465221588365
 30
0.0
 41
1.0
  0
SPLINE
  5
41
330
1F
100
AcDbEntity
  8
Linee visibili 2D
100
AcDbSpline
210
0.0
220
0.0
230
1.0
 70
    12
 71
     2
 72
     6
 73
     3
 74
     0
 42
0.0000000001
 43
0.0000000001
 40
0.0
 40
0.0
 40
0.0
 40
1.411344154996664
 40
1.411344154996664
 40
1.411344154996664
 10
511.91916417126
 20
1058.59015898747
 30
0.0
 41
1.0
 10
511.8885342226714
 20
1057.885147323628
 30
0.0
 41
0.9999901216666403
 10
511.8641727452334
 20
1057.179891229488
 30
0.0
 41
1.0
  0
SPLINE
  5
42
330
1F
100
AcDbEntity
  8
Linee visibili 2D
100
AcDbSpline
210
0.0
220
0.0
230
1.0
 70
    24
 71
     2
 72
     6
 73
     3
 74
     0
 42
0.0000000001
 43
0.0000000001
 40
0.0
 40
0.0
 40
0.0
 40
81.9872606296924
 40
81.9872606296924
 40
81.9872606296924
 10
511.7836157702816
 20
1053.770876399966
 30
0.0
 10
552.7772460851278
 20
1053.770876399966
 30
0.0
 10
593.770876399974
 20
1053.770876399966
 30
0.0
  0
SPLINE
  5
43
330
1F
100
AcDbEntity
  8
Linee visibili 2D
100
AcDbSpline
210
0.0
220
0.0
230
1.0
 70
    12
 71
     2
 72
     6
 73
     3
 74
     0
 42
0.0000000001
 43
0.0000000001
 40
0.0
 40
0.0
 40
0.0
 40
1.355203303191627
 40
1.355203303191627
 40
1.355203303191627
 10
511.8517290840318
 20
1056.806840365392
 30
0.0
 41
1.0
 10
511.8299132740768
 20
1056.129585635419
 30
0.0
 41
0.999990361659098
 10
511.8140452368733
 20
1055.452165452497
 30
0.0
 41
1.0
  0
SPLINE
  5
44
330
1F
100
AcDbEntity
  8
Linee visibili 2D
100
AcDbSpline
210
0.0
220
0.0
230
1.0
 70
    12
 71
     2
 72
     6
 73
     3
 74
     0
 42
0.0000000001
 43
0.0000000001
 40
0.0
 40
0.0
 40
0.0
 40
1.35639922174727
 40
1.35639922174727
 40
1.35639922174727
 10
825.7277261346269
 20
1055.451380340529
 30
0.0
 41
1.0
 10
825.7118472622162
 20
1056.129398403999
 30
0.0
 41
0.9999903457051037
 10
825.6900104432724
 20
1056.807250737712
 30
0.0
 41
1.0
  0
SPLINE
  5
45
330
1F
100
AcDbEntity
  8
Linee visibili 2D
100
AcDbSpline
210
0.0
220
0.0
230
1.0
 70
    12
 71
     2
 72
     6
 73
     3
 74
     0
 42
0.0000000001
 43
0.0000000001
 40
0.0
 40
0.0
 40
0.0
 40
1.55073108715763
 40
1.55073108715763
 40
1.55073108715763
 10
512.2419436928184
 20
1063.9235747229
 30
0.0
 41
1.0
 10
512.1818929215365
 20
1063.150531602833
 30
0.0
 41
0.9999874820111164
 10
512.1295810277209
 20
1062.376926260052
 30
0.0
 41
1.0
  0
SPLINE
  5
46
330
1F
100
AcDbEntity
  8
Linee visibili 2D
100
AcDbSpline
210
0.0
220
0.0
230
1.0
 70
    12
 71
     2
 72
     6
 73
     3
 74
     0
 42
0.0000000001
 43
0.0000000001
 40
0.0
 40
0.0
 40
0.0
 40
1.453409696104084
 40
1.453409696104084
 40
1.453409696104084
 10
825.1213730591464
 20
1066.037085760024
 30
0.0
 41
1.0
 10
825.0552945835991
 20
1066.76078515806
 30
0.0
 41
0.999989707390247
 10
824.9826519290057
 20
1067.483855160468
 30
0.0
 41
1.0
  0
SPLINE
  5
47
330
1F
100
AcDbEntity
  8
Linee visibili 2D
100
AcDbSpline
210
0.0
220
0.0
230
1.0
 70
    24
 71
     2
 72
     6
 73
     3
 74
     0
 42
0.0000000001
 43
0.0000000001
 40
0.0
 40
0.0
 40
0.0
 40
81.1825854623387
 40
81.1825854623387
 40
81.1825854623387
 10
743.7708763999664
 20
1067.770876399966
 30
0.0
 10
784.3621691311357
 20
1067.770876399966
 30
0.0
 10
824.9534618623051
 20
1067.770876399966
 30
0.0
  0
SPLINE
  5
48
330
1F
100
AcDbEntity
  8
Linee visibili 2D
100
AcDbSpline
210
0.0
220
0.0
230
1.0
 70
    24
 71
     2
 72
     6
 73
     3
 74
     0
 42
0.0000000001
 43
0.0000000001
 40
0.0
 40
0.0
 40
0.0
 40
81.18258546243283
 40
81.18258546243283
 40
81.18258546243283
 10
512.5882909375335
 20
1067.770876399966
 30
0.0
 10
553.17958366875
 20
1067.770876399966
 30
0.0
 10
593.7708763999664
 20
1067.770876399966
 30
0.0
  0
SPLINE
  5
49
330
1F
100
AcDbEntity
  8
Linee visibili 2D
100
AcDbSpline
210
0.0
220
0.0
230
1.0
 70
    12
 71
     2
 72
     6
 73
     3
 74
     0
 42
0.0000000001
 43
0.0000000001
 40
0.0
 40
0.0
 40
0.0
 40
1.411512038732576
 40
1.411512038732576
 40
1.411512038732576
 10
825.6775605331081
 20
1057.180454065977
 30
0.0
 41
1.0
 10
825.6531936333489
 20
1057.885793966466
 30
0.0
 41
0.9999901191824115
 10
825.6225567295404
 20
1058.5908893509
 30
0.0
 41
1.0
  0
SPLINE
  5
4A
330
1F
100
AcDbEntity
  8
Linee visibili 2D
100
AcDbSpline
210
0.0
220
0.0
230
1.0
 70
    24
 71
     2
 72
     6
 73
     3
 74
     0
 42
0.0000000001
 43
0.0000000001
 40
0.0
 40
0.0
 40
0.0
 40
81.9872606303976
 40
81.9872606303976
 40
81.9872606303976
 10
743.7708763999589
 20
1053.770876399966
 30
0.0
 10
784.7645067151577
 20
1053.770876399964
 30
0.0
 10
825.7581370303565
 20
1053.770876399962
 30
0.0
  0
SPLINE
  5
4B
330
1F
100
AcDbEntity
  8
Linee visibili 2D
100
AcDbSpline
210
0.0
220
0.0
230
1.0
 70
    12
 71
     2
 72
     6
 73
     3
 74
     0
 42
0.0000000001
 43
0.0000000001
 40
0.0
 40
0.0
 40
0.0
 40
1.452978338847235
 40
1.452978338847235
 40
1.452978338847235
 10
512.5590847885259
 20
1067.483696941675
 30
0.0
 41
1.0
 10
512.4864654248083
 20
1066.760841370752
 30
0.0
 41
0.9999897188347769
 10
512.4204046424995
 20
1066.037356940069
 30
0.0
 41
1.0
  0
SPLINE
  5
4C
330
1F
100
AcDbEntity
  8
Linee visibili 2D
100
AcDbSpline
210
0.0
220
0.0
230
1.0
 70
    12
 71
     2
 72
     6
 73
     3
 74
     0
 42
0.0000000001
 43
0.0000000001
 40
0.0
 40
0.0
 40
0.0
 40
0.1529686708400674
 40
0.1529686708400674
 40
0.1529686708400674
 10
825.5213946604015
 20
1060.618154902061
 30
0.0
 41
1.0
 10
825.5170867487307
 20
1060.694517827883
 30
0.0
 41
0.9999998745636489
 10
825.5127023431397
 20
1060.770876399966
 30
0.0
 41
1.0
  0
SPLINE
  5
4D
330
1F
100
AcDbEntity
  8
Linee visibili 2D
100
AcDbSpline
210
0.0
220
0.0
230
1.0
 70
    12
 71
     2
 72
     6
 73
     3
 74
     0
 42
0.0000000001
 43
0.0000000001
 40
0.0
 40
0.0
 40
0.0
 40
1.451392032107494
 40
1.451392032107494
 40
1.451392032107494
 10
825.5127023431397
 20
1060.770876399966
 30
0.0
 41
1.0
 10
825.4710629829798
 20
1061.495381970136
 30
0.0
 41
0.999989390602149
 10
825.4227507731865
 20
1062.21947318532
 30
0.0
 41
1.0
  0
SPLINE
  5
4E
330
1F
100
AcDbEntity
  8
Linee visibili 2D
100
AcDbSpline
210
0.0
220
0.0
230
1.0
 70
    24
 71
     2
 72
     6
 73
     3
 74
     0
 42
0.0000000001
 43
0.0000000001
 40
0.0
 40
0.0
 40
0.0
 40
320.0
 40
320.0
 40
320.0
 10
508.7708763999665
 20
320.0
 30
0.0
 10
508.7708763999665
 20
160.0
 30
0.0
 10
508.7708763999665
 20
0.0000000000000018
 30
0.0
  0
SPLINE
  5
4F
330
1F
100
AcDbEntity
  8
Linee visibili 2D
100
AcDbSpline
210
0.0
220
0.0
230
1.0
 70
    24
 71
     2
 72
     6
 73
     3
 74
     0
 42
0.0000000001
 43
0.0000000001
 40
0.0
 40
0.0
 40
0.0
 40
320.0
 40
320.0
 40
320.0
 10
508.7708763999665
 20
0.0000000000000018
 30
0.0
 10
668.7708763999665
 20
0.0000000000000018
 30
0.0
 10
828.7708763999665
 20
0.0000000000000018
 30
0.0
  0
SPLINE
  5
50
330
1F
100
AcDbEntity
  8
Linee visibili 2D
100
AcDbSpline
210
0.0
220
0.0
230
1.0
 70
    24
 71
     2
 72
     6
 73
     3
 74
     0
 42
0.0000000001
 43
0.0000000001
 40
0.0
 40
0.0
 40
0.0
 40
320.0
 40
320.0
 40
320.0
 10
828.7708763999665
 20
0.0000000000000018
 30
0.0
 10
828.7708763999665
 20
160.0
 30
0.0
 10
828.7708763999665
 20
320.0
 30
0.0
  0
SPLINE
  5
51
330
1F
100
AcDbEntity
  8
Linee visibili 2D
100
AcDbSpline
210
0.0
220
0.0
230
1.0
 70
    24
 71
     2
 72
     6
 73
     3
 74
     0
 42
0.0000000001
 43
0.0000000001
 40
0.0
 40
0.0
 40
0.0
 40
320.0
 40
320.0
 40
320.0
 10
828.7708763999665
 20
320.0
 30
0.0
 10
668.7708763999665
 20
320.0
 30
0.0
 10
508.7708763999665
 20
320.0
 30
0.0
  0
SPLINE
  5
52
330
1F
100
AcDbEntity
  8
Linee visibili 2D
100
AcDbSpline
210
0.0
220
0.0
230
1.0
 70
    24
 71
     2
 72
     6
 73
     3
 74
     0
 42
0.0000000001
 43
0.0000000001
 40
0.0
 40
0.0
 40
0.0
 40
3.0
 40
3.0
 40
3.0
 10
828.7708763999665
 20
1051.770876399966
 30
0.0
 10
827.2708763999665
 20
1051.770876399966
 30
0.0
 10
825.7708763999665
 20
1051.770876399966
 30
0.0
  0
SPLINE
  5
53
330
1F
100
AcDbEntity
  8
Linee visibili 2D
100
AcDbSpline
210
0.0
220
0.0
230
1.0
 70
    12
 71
     2
 72
     8
 73
     5
 74
     0
 42
0.0000000001
 43
0.0000000001
 40
0.0
 40
0.0
 40
0.0
 40
246.6150233067993
 40
246.6150233067993
 40
493.2300466135986
 40
493.2300466135986
 40
493.2300466135986
 10
825.7708763999665
 20
1051.770876399966
 30
0.0
 41
1.0
 10
825.7708763999673
 20
1208.770876399967
 30
0.0
 41
0.7071067811865455
 10
668.7708763999665
 20
1208.770876399967
 30
0.0
 41
1.0
 10
511.7708763999657
 20
1208.770876399967
 30
0.0
 41
0.7071067811865455
 10
511.7708763999663
 20
1051.770876399966
 30
0.0
 41
1.0
  0
SPLINE
  5
54
330
1F
100
AcDbEntity
  8
Linee visibili 2D
100
AcDbSpline
210
0.0
220
0.0
230
1.0
 70
    24
 71
     2
 72
     6
 73
     3
 74
     0
 42
0.0000000001
 43
0.0000000001
 40
0.0
 40
0.0
 40
0.0
 40
3.0
 40
3.0
 40
3.0
 10
511.7708763999665
 20
1051.770876399966
 30
0.0
 10
510.2708763999665
 20
1051.770876399966
 30
0.0
 10
508.7708763999665
 20
1051.770876399966
 30
0.0
  0
SPLINE
  5
55
330
1F
100
AcDbEntity
  8
Linee visibili 2D
100
AcDbSpline
210
0.0
220
0.0
230
1.0
 70
    12
 71
     2
 72
     8
 73
     5
 74
     0
 42
0.0000000001
 43
0.0000000001
 40
0.0
 40
0.0
 40
0.0
 40
251.3274122871834
 40
251.3274122871834
 40
502.6548245743674
 40
502.6548245743674
 40
502.6548245743674
 10
508.7708763999665
 20
1051.770876399966
 30
0.0
 41
1.0
 10
508.7708763999666
 20
1211.770876399966
 30
0.0
 41
0.7071067811865488
 10
668.7708763999665
 20
1211.770876399966
 30
0.0
 41
1.0
 10
828.7708763999672
 20
1211.770876399967
 30
0.0
 41
0.7071067811865457
 10
828.7708763999665
 20
1051.770876399966
 30
0.0
 41
1.0
  0
SPLINE
  5
56
330
1F
100
AcDbEntity
  8
Linee visibili 2D
100
AcDbSpline
210
0.0
220
0.0
230
1.0
 70
    24
 71
     2
 72
     6
 73
     3
 74
     0
 42
0.0000000001
 43
0.0000000001
 40
0.0
 40
0.0
 40
0.0
 40
150.0
 40
150.0
 40
150.0
 10
593.7708763999665
 20
1172.270876399966
 30
0.0
 10
668.7708763999665
 20
1172.270876399966
 30
0.0
 10
743.7708763999665
 20
1172.270876399966
 30
0.0
  0
SPLINE
  5
57
330
1F
100
AcDbEntity
  8
Linee visibili 2D
100
AcDbSpline
210
0.0
220
0.0
230
1.0
 70
    24
 71
     2
 72
     6
 73
     3
 74
     0
 42
0.0000000001
 43
0.0000000001
 40
0.0
 40
0.0
 40
0.0
 40
119.9994340164289
 40
119.9994340164289
 40
119.9994340164289
 10
743.7708763999665
 20
1172.270876399966
 30
0.0
 10
743.7708763999665
 20
1112.271017895859
 30
0.0
 10
743.7708763999665
 20
1052.271159391752
 30
0.0
  0
SPLINE
  5
58
330
1F
100
AcDbEntity
  8
Linee visibili 2D
100
AcDbSpline
210
0.0
220
0.0
230
1.0
 70
    24
 71
     2
 72
     6
 73
     3
 74
     0
 42
0.0000000001
 43
0.0000000001
 40
-150.0
 40
-150.0
 40
-150.0
 40
0.0
 40
0.0
 40
0.0
 10
743.7708763999665
 20
1052.271159391752
 30
0.0
 10
668.7708763999665
 20
1052.271159224882
 30
0.0
 10
593.7708763999665
 20
1052.271159058011
 30
0.0
  0
SPLINE
  5
59
330
1F
100
AcDbEntity
  8
Linee visibili 2D
100
AcDbSpline
210
0.0
220
0.0
230
1.0
 70
    24
 71
     2
 72
     6
 73
     3
 74
     0
 42
0.0000000001
 43
0.0000000001
 40
0.0
 40
0.0
 40
0.0
 40
119.9994346839103
 40
119.9994346839103
 40
119.9994346839103
 10
593.7708763999665
 20
1052.271159058011
 30
0.0
 10
593.7708763999665
 20
1112.271017728989
 30
0.0
 10
593.7708763999665
 20
1172.270876399966
 30
0.0
  0
SPLINE
  5
5A
330
1F
100
AcDbEntity
  8
Linee visibili 2D
100
AcDbSpline
210
0.0
220
0.0
230
1.0
 70
    12
 71
     2
 72
     6
 73
     3
 74
     0
 42
0.0000000001
 43
0.0000000001
 40
0.0
 40
0.0
 40
0.0
 40
1.450906939091641
 40
1.450906939091641
 40
1.450906939091641
 10
512.1189700968728
 20
1062.218989145549
 30
0.0
 41
1.0
 10
512.0706759883521
 20
1061.495139813281
 30
0.0
 41
0.9999893970996306
 10
512.0290504567934
 20
1060.770876399966
 30
0.0
 41
1.0
  0
SPLINE
  5
5B
330
1F
100
AcDbEntity
  8
Linee visibili 2D
100
AcDbSpline
210
0.0
220
0.0
230
1.0
 70
    12
 71
     2
 72
     6
 73
     3
 74
     0
 42
0.0000000001
 43
0.0000000001
 40
0.0
 40
0.0
 40
0.0
 40
0.1527628924370841
 40
0.1527628924370841
 40
0.1527628924370841
 10
512.0290504567934
 20
1060.770876399966
 30
0.0
 41
1.0
 10
512.024671949071
 20
1060.694620547931
 30
0.0
 41
0.9999998749096212
 10
512.0203697269424
 20
1060.618360353962
 30
0.0
 41
1.0
  0
SPLINE
  5
5D
330
1F
100
AcDbEntity
  8
Predefinito
100
AcDbSpline
210
0.0
220
0.0
230
1.0
 70
    24
 71
     2
 72
     6
 73
     3
 74
     0
 42
0.0000000001
 43
0.0000000001
 40
0.0
 40
0.0
 40
0.0
 40
110.0
 40
110.0
 40
110.0
 10
638.7708763999665
 20
941.7708763999665
 30
0.0
 10
638.7708763999665
 20
996.7708763999665
 30
0.0
 10
638.7708763999665
 20
1051.770876399966
 30
0.0
  0
POLYLINE
  5
5E
330
1F
100
AcDbEntity
  8
Predefinito
100
AcDb2dPolyline
 66
     1
 10
0.0
 20
0.0
 30
0.0
  0
VERTEX
  5
5F
330
5E
100
AcDbEntity
  8
Predefinito
100
AcDbVertex
100
AcDb2dVertex
 10
638.7708763999665
 20
1051.770876399966
 30
0.0
  0
VERTEX
  5
60
330
5E
100
AcDbEntity
  8
Predefinito
100
AcDbVertex
100
AcDb2dVertex
 10
638.7708763999665
 20
1052.270876399966
 30
0.0
  0
SEQEND
  5
61
330
5E
100
AcDbEntity
  8
Predefinito
  0
SPLINE
  5
62
330
1F
100
AcDbEntity
  8
Predefinito
100
AcDbSpline
210
0.0
220
0.0
230
1.0
 70
    24
 71
     2
 72
     6
 73
     3
 74
     0
 42
0.0000000001
 43
0.0000000001
 40
-30.0
 40
-30.0
 40
-30.0
 40
0.0
 40
0.0
 40
0.0
 10
638.7708763999665
 20
1052.270876399966
 30
0.0
 10
653.7708763999665
 20
1052.270876399966
 30
0.0
 10
668.7708763999665
 20
1052.270876399966
 30
0.0
  0
SPLINE
  5
63
330
1F
100
AcDbEntity
  8
Predefinito
100
AcDbSpline
210
0.0
220
0.0
230
1.0
 70
    24
 71
     2
 72
     6
 73
     3
 74
     0
 42
0.0000000001
 43
0.0000000001
 40
-30.0
 40
-30.0
 40
-30.0
 40
0.0
 40
0.0
 40
0.0
 10
668.7708763999665
 20
1052.270876399966
 30
0.0
 10
683.7708763999665
 20
1052.270876399966
 30
0.0
 10
698.7708763999665
 20
1052.270876399966
 30
0.0
  0
POLYLINE
  5
64
330
1F
100
AcDbEntity
  8
Predefinito
100
AcDb2dPolyline
 66
     1
 10
0.0
 20
0.0
 30
0.0
  0
VERTEX
  5
65
330
64
100
AcDbEntity
  8
Predefinito
100
AcDbVertex
100
AcDb2dVertex
 10
698.7708763999665
 20
1052.270876399966
 30
0.0
  0
VERTEX
  5
66
330
64
100
AcDbEntity
  8
Predefinito
100
AcDbVertex
100
AcDb2dVertex
 10
698.7708763999665
 20
1051.770876399966
 30
0.0
  0
SEQEND
  5
67
330
64
100
AcDbEntity
  8
Predefinito
  0
SPLINE
  5
68
330
1F
100
AcDbEntity
  8
Predefinito
100
AcDbSpline
210
0.0
220
0.0
230
1.0
 70
    24
 71
     2
 72
     6
 73
     3
 74
     0
 42
0.0000000001
 43
0.0000000001
 40
0.0
 40
0.0
 40
0.0
 40
110.0
 40
110.0
 40
110.0
 10
698.7708763999665
 20
1051.770876399966
 30
0.0
 10
698.7708763999665
 20
996.7708763999665
 30
0.0
 10
698.7708763999665
 20
941.7708763999665
 30
0.0
  0
SPLINE
  5
69
330
1F
100
AcDbEntity
  8
Linee visibili 2D
100
AcDbSpline
210
0.0
220
0.0
230
1.0
 70
    24
 71
     2
 72
     6
 73
     3
 74
     0
 42
0.0000000001
 43
0.0000000001
 40
0.0
 40
0.0
 40
0.0
 40
325.0000000000001
 40
325.0000000000001
 40
325.0000000000001
 10
608.7708763999665
 20
616.7708763999664
 30
0.0
 10
608.7708763999665
 20
779.2708763999665
 30
0.0
 10
608.7708763999665
 20
941.7708763999665
 30
0.0
  0
SPLINE
  5
6A
330
1F
100
AcDbEntity
  8
Linee visibili 2D
100
AcDbSpline
210
0.0
220
0.0
230
1.0
 70
    24
 71
     2
 72
     6
 73
     3
 74
     0
 42
0.0000000001
 43
0.0000000001
 40
-60.0
 40
-60.0
 40
-60.0
 40
0.0
 40
0.0
 40
0.0
 10
608.7708763999665
 20
941.7708763999665
 30
0.0
 10
638.7708763999665
 20
941.7708763999665
 30
0.0
 10
668.7708763999665
 20
941.7708763999665
 30
0.0
  0
SPLINE
  5
6B
330
1F
100
AcDbEntity
  8
Linee visibili 2D
100
AcDbSpline
210
0.0
220
0.0
230
1.0
 70
    24
 71
     2
 72
     6
 73
     3
 74
     0
 42
0.0000000001
 43
0.0000000001
 40
-60.0
 40
-60.0
 40
-60.0
 40
0.0
 40
0.0
 40
0.0
 10
668.7708763999665
 20
941.7708763999665
 30
0.0
 10
698.7708763999665
 20
941.7708763999665
 30
0.0
 10
728.7708763999665
 20
941.7708763999665
 30
0.0
  0
SPLINE
  5
6C
330
1F
100
AcDbEntity
  8
Linee visibili 2D
100
AcDbSpline
210
0.0
220
0.0
230
1.0
 70
    24
 71
     2
 72
     6
 73
     3
 74
     0
 42
0.0000000001
 43
0.0000000001
 40
0.0
 40
0.0
 40
0.0
 40
325.0
 40
325.0
 40
325.0
 10
728.7708763999665
 20
941.7708763999665
 30
0.0
 10
728.7708763999665
 20
779.2708763999665
 30
0.0
 10
728.7708763999665
 20
616.7708763999665
 30
0.0
  0
SPLINE
  5
6D
330
1F
100
AcDbEntity
  8
Linee visibili 2D
100
AcDbSpline
210
0.0
220
0.0
230
1.0
 70
    24
 71
     2
 72
     6
 73
     3
 74
     0
 42
0.0000000001
 43
0.0000000001
 40
-60.0
 40
-60.0
 40
-60.0
 40
0.0
 40
0.0
 40
0.0
 10
728.7708763999665
 20
616.7708763999664
 30
0.0
 10
698.7708763999665
 20
616.7708763999665
 30
0.0
 10
668.7708763999665
 20
616.7708763999665
 30
0.0
  0
SPLINE
  5
6E
330
1F
100
AcDbEntity
  8
Linee visibili 2D
100
AcDbSpline
210
0.0
220
0.0
230
1.0
 70
    24
 71
     2
 72
     6
 73
     3
 74
     0
 42
0.0000000001
 43
0.0000000001
 40
0.0
 40
0.0
 40
0.0
 40
60.0
 40
60.0
 40
60.0
 10
668.7708763999665
 20
616.7708763999665
 30
0.0
 10
638.7708763999665
 20
616.7708763999665
 30
0.0
 10
608.7708763999665
 20
616.7708763999664
 30
0.0
  0
SPLINE
  5
6F
330
1F
100
AcDbEntity
  8
Linee visibili 2D
100
AcDbSpline
210
0.0
220
0.0
230
1.0
 70
    24
 71
     2
 72
     6
 73
     3
 74
     0
 42
0.0000000001
 43
0.0000000001
 40
0.0
 40
0.0
 40
0.0
 40
325.0000000000001
 40
325.0000000000001
 40
325.0000000000001
 10
220.0
 20
616.7708763999664
 30
0.0
 10
220.0
 20
779.2708763999665
 30
0.0
 10
220.0
 20
941.7708763999665
 30
0.0
  0
SPLINE
  5
70
330
1F
100
AcDbEntity
  8
Linee visibili 2D
100
AcDbSpline
210
0.0
220
0.0
230
1.0
 70
    24
 71
     2
 72
     6
 73
     3
 74
     0
 42
0.0000000001
 43
0.0000000001
 40
0.0
 40
0.0
 40
0.0
 40
120.0
 40
120.0
 40
120.0
 10
220.0
 20
941.7708763999665
 30
0.0
 10
160.0
 20
941.7708763999665
 30
0.0
 10
100.0
 20
941.7708763999665
 30
0.0
  0
SPLINE
  5
71
330
1F
100
AcDbEntity
  8
Linee visibili 2D
100
AcDbSpline
210
0.0
220
0.0
230
1.0
 70
    24
 71
     2
 72
     6
 73
     3
 74
     0
 42
0.0000000001
 43
0.0000000001
 40
0.0
 40
0.0
 40
0.0
 40
325.0
 40
325.0
 40
325.0
 10
100.0
 20
941.7708763999665
 30
0.0
 10
100.0
 20
779.2708763999665
 30
0.0
 10
99.99999999999997
 20
616.7708763999665
 30
0.0
  0
SPLINE
  5
72
330
1F
100
AcDbEntity
  8
Linee visibili 2D
100
AcDbSpline
210
0.0
220
0.0
230
1.0
 70
    24
 71
     2
 72
     6
 73
     3
 74
     0
 42
0.0000000001
 43
0.0000000001
 40
0.0
 40
0.0
 40
0.0
 40
120.0
 40
120.0
 40
120.0
 10
99.99999999999997
 20
616.7708763999665
 30
0.0
 10
160.0
 20
616.7708763999665
 30
0.0
 10
220.0
 20
616.7708763999664
 30
0.0
  0
SPLINE
  5
73
330
1F
100
AcDbEntity
  8
Linee visibili 2D
100
AcDbSpline
210
0.0
220
0.0
230
1.0
 70
    24
 71
     2
 72
     6
 73
     3
 74
     0
 42
0.0000000001
 43
0.0000000001
 40
-320.0
 40
-320.0
 40
-320.0
 40
0.0
 40
0.0
 40
0.0
 10
320.0
 20
1211.770876399966
 30
0.0
 10
160.0
 20
1211.770876399966
 30
0.0
 10
0.0000000000000018
 20
1211.770876399966
 30
0.0
  0
SPLINE
  5
74
330
1F
100
AcDbEntity
  8
Linee visibili 2D
100
AcDbSpline
210
0.0
220
0.0
230
1.0
 70
    24
 71
     2
 72
     6
 73
     3
 74
     0
 42
0.0000000001
 43
0.0000000001
 40
0.0
 40
0.0
 40
0.0
 40
160.0000000000002
 40
160.0000000000002
 40
160.0000000000002
 10
0.0000000000000018
 20
1211.770876399966
 30
0.0
 10
0.0000000000000018
 20
1131.770876399966
 30
0.0
 10
0.0000000000000018
 20
1051.770876399966
 30
0.0
  0
SPLINE
  5
75
330
1F
100
AcDbEntity
  8
Linee visibili 2D
100
AcDbSpline
210
0.0
220
0.0
230
1.0
 70
    24
 71
     2
 72
     6
 73
     3
 74
     0
 42
0.0000000001
 43
0.0000000001
 40
0.0
 40
0.0
 40
0.0
 40
320.0
 40
320.0
 40
320.0
 10
0.0000000000000018
 20
1051.770876399966
 30
0.0
 10
160.0
 20
1051.770876399966
 30
0.0
 10
320.0
 20
1051.770876399966
 30
0.0
  0
SPLINE
  5
76
330
1F
100
AcDbEntity
  8
Linee visibili 2D
100
AcDbSpline
210
0.0
220
0.0
230
1.0
 70
    24
 71
     2
 72
     6
 73
     3
 74
     0
 42
0.0000000001
 43
0.0000000001
 40
0.0
 40
0.0
 40
0.0
 40
160.0000000000002
 40
160.0000000000002
 40
160.0000000000002
 10
320.0
 20
1051.770876399966
 30
0.0
 10
320.0
 20
1131.770876399966
 30
0.0
 10
320.0
 20
1211.770876399966
 30
0.0
  0
SPLINE
  5
77
330
1F
100
AcDbEntity
  8
Linee visibili 2D
100
AcDbSpline
210
0.0
220
0.0
230
1.0
 70
    24
 71
     2
 72
     6
 73
     3
 74
     0
 42
0.0000000001
 43
0.0000000001
 40
0.0
 40
0.0
 40
0.0
 40
110.0
 40
110.0
 40
110.0
 10
190.0
 20
941.7708763999665
 30
0.0
 10
190.0
 20
996.7708763999665
 30
0.0
 10
190.0
 20
1051.770876399966
 30
0.0
  0
SPLINE
  5
78
330
1F
100
AcDbEntity
  8
Linee visibili 2D
100
AcDbSpline
210
0.0
220
0.0
230
1.0
 70
    24
 71
     2
 72
     6
 73
     3
 74
     0
 42
0.0000000001
 43
0.0000000001
 40
0.0
 40
0.0
 40
0.0
 40
110.0
 40
110.0
 40
110.0
 10
130.0
 20
1051.770876399966
 30
0.0
 10
130.0
 20
996.7708763999665
 30
0.0
 10
130.0
 20
941.7708763999665
 30
0.0
  0
SPLINE
  5
79
330
1F
100
AcDbEntity
  8
Linee visibili 2D
100
AcDbSpline
210
0.0
220
0.0
230
1.0
 70
    24
 71
     2
 72
     6
 73
     3
 74
     0
 42
0.0000000001
 43
0.0000000001
 40
0.0
 40
0.0
 40
0.0
 40
2.984430665330815
 40
2.984430665330815
 40
2.984430665330815
 10
235.1065421126816
 20
318.3528833471699
 30
0.0
 10
236.2040627757499
 20
317.3418665356481
 30
0.0
 10
237.3015834388183
 20
316.3308497241263
 30
0.0
  0
SPLINE
  5
7A
330
1F
100
AcDbEntity
  8
Linee visibili 2D
100
AcDbSpline
210
0.0
220
0.0
230
1.0
 70
    24
 71
     2
 72
     6
 73
     3
 74
     0
 42
0.0000000001
 43
0.0000000001
 40
0.0
 40
0.0
 40
0.0
 40
85.3237655741967
 40
85.3237655741967
 40
85.3237655741967
 10
254.8634463687521
 20
300.1531691926594
 30
0.0
 10
286.2411549737211
 20
271.2485736126867
 30
0.0
 10
317.61886357869
 20
242.343978032714
 30
0.0
  0
SPLINE
  5
7B
330
1F
100
AcDbEntity
  8
Linee visibili 2D
100
AcDbSpline
210
0.0
220
0.0
230
1.0
 70
    12
 71
     3
 72
    12
 73
     8
 74
     0
 42
0.0000000001
 43
0.0000000001
 40
261.0681383684234
 40
261.0681383684234
 40
261.0681383684234
 40
261.0681383684234
 40
282.7433388230799
 40
282.7433388230799
 40
329.9361556181137
 40
329.9361556181137
 40
342.3762009751532
 40
342.3762009751532
 40
342.3762009751532
 40
342.3762009751532
 10
132.1923039560034
 20
248.8750469821916
 30
0.0
 41
2745.117667223417
 10
134.4405404576042
 20
249.2185957381694
 30
0.0
 41
2738.404045832012
 10
136.5806114497013
 20
250.0423480958942
 30
0.0
 41
2731.678752361399
 10
142.979264833496
 20
254.2102147965324
 30
0.0
 41
2710.532012177984
 10
146.6212488226838
 20
259.3274354455007
 30
0.0
 41
2696.673890626869
 10
149.9955010938471
 20
268.3138199748933
 30
0.0
 41
2680.951808211446
 10
150.6316207792687
 20
270.3308816674249
 30
0.0
 41
2677.780292952437
 10
151.1935441923073
 20
272.4717305542963
 30
0.0
 41
2674.731920659554
  0
SPLINE
  5
7C
330
1F
100
AcDbEntity
  8
Linee visibili 2D
100
AcDbSpline
210
0.0
220
0.0
230
1.0
 70
    12
 71
     3
 72
    12
 73
     8
 74
     0
 42
0.0000000001
 43
0.0000000001
 40
41.87332998346321
 40
41.87332998346321
 40
41.87332998346321
 40
41.87332998346321
 40
44.7910490223222
 40
44.7910490223222
 40
89.67363308542149
 40
89.67363308542149
 40
104.9792683993946
 40
104.9792683993946
 40
104.9792683993946
 40
104.9792683993946
 10
148.9439245364971
 20
270.0944367603865
 30
0.0
 41
2682.581029297834
 10
148.7896308140652
 20
269.6323499253945
 30
0.0
 41
2683.333103100856
 10
148.6312758879792
 20
269.1775972096104
 30
0.0
 41
2684.091577184931
 10
145.9827343118436
 20
261.8818090094267
 30
0.0
 41
2696.619069875619
 10
142.5856218155062
 20
256.8607065582971
 30
0.0
 41
2709.719727467032
 10
137.0818850383118
 20
252.923200834992
 30
0.0
 41
2728.136537924327
 10
135.6170423239539
 20
252.1725004005227
 30
0.0
 41
2732.86182063355
 10
134.0904426923932
 20
251.6676923300323
 30
0.0
 41
2737.598896630284
  0
SPLINE
  5
7D
330
1F
100
AcDbEntity
  8
Linee visibili 2D
100
AcDbSpline
210
0.0
220
0.0
230
1.0
 70
    24
 71
     2
 72
     6
 73
     3
 74
     0
 42
0.0000000001
 43
0.0000000001
 40
0.0
 40
0.0
 40
0.0
 40
55.77157182308962
 40
55.77157182308962
 40
55.77157182308962
 10
249.1007069579508
 20
319.4315135613004
 30
0.0
 10
222.130617430101
 20
312.3441073528011
 30
0.0
 10
195.1605279022511
 20
305.2567011443018
 30
0.0
  0
SPLINE
  5
7E
330
1F
100
AcDbEntity
  8
Linee visibili 2D
100
AcDbSpline
210
0.0
220
0.0
230
1.0
 70
    24
 71
     2
 72
     6
 73
     3
 74
     0
 42
0.0000000001
 43
0.0000000001
 40
0.0
 40
0.0
 40
0.0
 40
66.32657200588594
 40
66.32657200588594
 40
66.32657200588594
 10
189.9019326917782
 20
302.4504975440987
 30
0.0
 10
221.9739722996734
 20
310.8877846615668
 30
0.0
 10
254.0460119075686
 20
319.3250717790349
 30
0.0
  0
SPLINE
  5
7F
330
1F
100
AcDbEntity
  8
Linee visibili 2D
100
AcDbSpline
210
0.0
220
0.0
230
1.0
 70
    12
 71
     2
 72
     6
 73
     3
 74
     0
 42
0.0000000001
 43
0.0000000001
 40
2.67437754581838
 40
2.67437754581838
 40
2.67437754581838
 40
3.136654184638239
 40
3.136654184638239
 40
3.136654184638239
 10
118.1636486334608
 20
222.5177404945961
 30
0.0
 41
2568.522114577222
 10
123.8512190894814
 20
226.7906911756201
 30
0.0
 41
2678.943780038976
 10
132.3562115466804
 20
229.1535782682254
 30
0.0
 41
2935.403424662645
  0
SPLINE
  5
80
330
1F
100
AcDbEntity
  8
Linee visibili 2D
100
AcDbSpline
210
0.0
220
0.0
230
1.0
 70
     8
 71
     3
 72
    20
 73
    16
 74
     0
 42
0.0000000001
 43
0.0000000001
 40
0.0
 40
0.0
 40
0.0
 40
0.0
 40
8.750300712988583
 40
16.24703929394141
 40
23.26190827630811
 40
26.83111323576031
 40
30.22748233673101
 40
33.44197248242318
 40
36.48633607689834
 40
39.3752276463211
 40
42.12663378647312
 40
44.76222554997848
 40
47.32275912491765
 40
49.56396595349823
 40
52.04049288559319
 40
52.04049288559319
 40
52.04049288559319
 40
52.04049288559319
 10
255.0069848300194
 20
319.2726741275085
 30
0.0
 10
254.7768736799834
 20
316.3651368194433
 30
0.0
 10
254.1545935336444
 20
310.9807010481554
 30
0.0
 10
252.6318890816026
 20
303.3708852719844
 30
0.0
 10
250.9122904755157
 20
297.5864932106054
 30
0.0
 10
249.2064736909281
 20
293.2468411672714
 30
0.0
 10
247.7588647787079
 20
290.1756657445628
 30
0.0
 10
246.1787700741889
 20
287.3689555400643
 30
0.0
 10
244.4733116121767
 20
284.8379302641766
 30
0.0
 10
242.648024171801
 20
282.5868150295901
 30
0.0
 10
240.7076841035817
 20
280.6207068492603
 30
0.0
 10
238.6534423859376
 20
278.941193475748
 30
0.0
 10
236.5618077907979
 20
277.6017819577018
 30
0.0
 10
234.3760482932892
 20
276.5400543278289
 30
0.0
 10
232.8852709692573
 20
276.0290230505145
 30
0.0
 10
232.0883967840426
 20
275.8134457589505
 30
0.0
  0
SPLINE
  5
81
330
1F
100
AcDbEntity
  8
Linee visibili 2D
100
AcDbSpline
210
0.0
220
0.0
230
1.0
 70
    24
 71
     2
 72
     6
 73
     3
 74
     0
 42
0.0000000001
 43
0.0000000001
 40
0.0
 40
0.0
 40
0.0
 40
101.5286123459176
 40
101.5286123459176
 40
101.5286123459176
 10
232.0883967840426
 20
275.8134457589505
 30
0.0
 10
183.0876576516839
 20
262.5491197030664
 30
0.0
 10
134.0869185193253
 20
249.2847936471824
 30
0.0
  0
SPLINE
  5
82
330
1F
100
AcDbEntity
  8
Linee visibili 2D
100
AcDbSpline
210
0.0
220
0.0
230
1.0
 70
    24
 71
     2
 72
     6
 73
     3
 74
     0
 42
0.0000000001
 43
0.0000000001
 40
0.0
 40
0.0
 40
0.0
 40
54.9810822990954
 40
54.9810822990954
 40
54.9810822990954
 10
177.5959504741593
 20
261.0625642568561
 30
0.0
 10
176.1201505578389
 20
233.6116650556934
 30
0.0
 10
174.6443506415187
 20
206.1607658545306
 30
0.0
  0
SPLINE
  5
83
330
1F
100
AcDbEntity
  8
Linee visibili 2D
100
AcDbSpline
210
0.0
220
0.0
230
1.0
 70
    12
 71
     2
 72
     6
 73
     3
 74
     0
 42
0.0000000001
 43
0.0000000001
 40
-30.45381588935371
 40
-30.45381588935371
 40
-30.45381588935371
 40
-0.0000000000000026
 40
-0.0000000000000026
 40
-0.0000000000000026
 10
174.6443506415186
 20
206.1607658545306
 30
0.0
 41
2505.428575316068
 10
174.2716309620174
 20
199.2279054120278
 30
0.0
 41
2333.787360317381
 10
163.592820373934
 20
196.2072275869245
 30
0.0
 41
2872.541953239
  0
SPLINE
  5
84
330
1F
100
AcDbEntity
  8
Linee visibili 2D
100
AcDbSpline
210
0.0
220
0.0
230
1.0
 70
    12
 71
     2
 72
     8
 73
     5
 74
     0
 42
0.0000000001
 43
0.0000000001
 40
0.0
 40
0.0
 40
0.0
 40
1.570796326794897
 40
1.570796326794897
 40
2.102272119802871
 40
2.102272119802871
 40
2.102272119802871
 10
163.592820373934
 20
196.2072275869245
 30
0.0
 41
2872.541953239
 10
144.5347674604652
 20
190.8163427734412
 30
0.0
 41
2023.508591782565
 10
134.1257545700976
 20
202.0715044826197
 30
0.0
 41
2884.459167025928
 10
131.3890556508113
 20
205.0306696993719
 30
0.0
 41
2604.06121974048
 10
131.5195654708279
 20
208.2858682248746
 30
0.0
 41
2517.260190439823
  0
SPLINE
  5
85
330
1F
100
AcDbEntity
  8
Linee visibili 2D
100
AcDbSpline
210
0.0
220
0.0
230
1.0
 70
    24
 71
     2
 72
     6
 73
     3
 74
     0
 42
0.0000000001
 43
0.0000000001
 40
0.0
 40
0.0
 40
0.0
 40
40.79963118187477
 40
40.79963118187477
 40
40.79963118187477
 10
131.519565470828
 20
208.2858682248746
 30
0.0
 10
132.3367957731472
 20
228.6693080500925
 30
0.0
 10
133.1540260754665
 20
249.0527478753104
 30
0.0
  0
SPLINE
  5
86
330
1F
100
AcDbEntity
  8
Linee visibili 2D
100
AcDbSpline
210
0.0
220
0.0
230
1.0
 70
    24
 71
     2
 72
     6
 73
     3
 74
     0
 42
0.0000000001
 43
0.0000000001
 40
0.0
 40
0.0
 40
0.0
 40
181.3218345968443
 40
181.3218345968443
 40
181.3218345968443
 10
196.2378831548573
 20
204.6339285334992
 30
0.0
 10
190.7519634578813
 20
114.1391407929638
 30
0.0
 10
185.2660437609054
 20
23.6443530524284
 30
0.0
  0
SPLINE
  5
87
330
1F
100
AcDbEntity
  8
Linee visibili 2D
100
AcDbSpline
210
0.0
220
0.0
230
1.0
 70
    12
 71
     2
 72
     6
 73
     3
 74
     0
 42
0.0000000001
 43
0.0000000001
 40
-60.18340000191512
 40
-60.18340000191512
 40
-60.18340000191512
 40
-0.0000000000000052
 40
-0.0000000000000052
 40
-0.0000000000000052
 10
185.2660437609054
 20
23.6443530524284
 30
0.0
 41
2650.853459113025
 10
184.3805933821873
 20
9.038093338416335
 30
0.0
 41
2469.317044291807
 10
164.4385751635207
 20
2.62676195304283
 30
0.0
 41
3025.335052903348
  0
SPLINE
  5
88
330
1F
100
AcDbEntity
  8
Linee visibili 2D
100
AcDbSpline
210
0.0
220
0.0
230
1.0
 70
    12
 71
     2
 72
     8
 73
     5
 74
     0
 42
0.0000000001
 43
0.0000000001
 40
0.0
 40
0.0
 40
0.0
 40
1.570796326794897
 40
1.570796326794897
 40
2.090143493547079
 40
2.090143493547079
 40
2.090143493547079
 10
164.4385751635207
 20
2.62676195304283
 30
0.0
 41
3025.335052903348
 10
128.1296325835864
 20
-9.046513067564513
 30
0.0
 41
2123.864326078156
 10
108.6813418131676
 20
15.2349211037701
 30
0.0
 41
3049.169480477205
 10
103.7413970877599
 20
21.40250385312208
 30
0.0
 41
2764.547201680909
 10
103.9665278574529
 20
28.16774377159101
 30
0.0
 41
2675.490181197351
  0
SPLINE
  5
89
330
1F
100
AcDbEntity
  8
Linee visibili 2D
100
AcDbSpline
210
0.0
220
0.0
230
1.0
 70
    24
 71
     2
 72
     6
 73
     3
 74
     0
 42
0.0000000001
 43
0.0000000001
 40
0.0
 40
0.0
 40
0.0
 40
155.3991727458645
 40
155.3991727458645
 40
155.3991727458645
 10
103.9665278574529
 20
28.16774377159101
 30
0.0
 10
106.5507571319071
 20
105.8243438260855
 30
0.0
 10
109.1349864063613
 20
183.4809438805801
 30
0.0
  0
SPLINE
  5
8A
330
1F
100
AcDbEntity
  8
Linee visibili 2D
100
AcDbSpline
210
0.0
220
0.0
230
1.0
 70
    24
 71
     2
 72
     6
 73
     3
 74
     0
 42
0.0000000001
 43
0.0000000001
 40
-5.530379254988158
 40
-5.530379254988158
 40
-5.530379254988158
 40
0.0
 40
0.0
 40
0.0
 10
251.3608429545027
 20
299.2179456709434
 30
0.0
 10
254.0324364159841
 20
299.9312931226187
 30
0.0
 10
256.7040298774655
 20
300.6446405742939
 30
0.0
  0
SPLINE
  5
8B
330
1F
100
AcDbEntity
  8
Linee visibili 2D
100
AcDbSpline
210
0.0
220
0.0
230
1.0
 70
     8
 71
     3
 72
    14
 73
    10
 74
     0
 42
0.0000000001
 43
0.0000000001
 40
0.0
 40
0.0
 40
0.0
 40
0.0
 40
0.2751880420684076
 40
0.5512139268106961
 40
0.8450286122825194
 40
1.192629835013427
 40
1.563902074589239
 40
1.958339626661293
 40
2.867849268078433
 40
2.867849268078433
 40
2.867849268078433
 40
2.867849268078433
 10
256.7040298774655
 20
300.6446405742939
 30
0.0
 10
256.7926382725717
 20
300.6683191511162
 30
0.0
 10
256.9639750246375
 20
300.7388226828703
 30
0.0
 10
257.1919793960461
 20
300.9073785950501
 30
0.0
 10
257.3946385896916
 20
301.1383876782152
 30
0.0
 10
257.5667366038869
 20
301.43030013045
 30
0.0
 10
257.7037821700818
 20
301.7760772396659
 30
0.0
 10
257.8434009834268
 20
302.3177716823912
 30
0.0
 10
257.8828424996815
 20
302.7528026355282
 30
0.0
 10
257.8891183547995
 20
303.0556876537026
 30
0.0
  0
SPLINE
  5
8C
330
1F
100
AcDbEntity
  8
Linee visibili 2D
100
AcDbSpline
210
0.0
220
0.0
230
1.0
 70
     8
 71
     3
 72
    18
 73
    14
 74
     0
 42
0.0000000001
 43
0.0000000001
 40
0.0
 40
0.0
 40
0.0
 40
0.0
 40
1.161805321116782
 40
2.365089744844226
 40
3.659217136144731
 40
4.973515780909018
 40
6.179113716333025
 40
6.757638331570494
 40
7.285389917305634
 40
7.693085795911267
 40
8.113973230379898
 40
8.481921328760329
 40
8.773520431612468
 40
8.773520431612468
 40
8.773520431612468
 40
8.773520431612468
 10
257.8891183547995
 20
303.0556876537026
 30
0.0
 10
257.8965025042571
 20
303.4430141890452
 30
0.0
 10
257.8399300872854
 20
304.2315350647865
 30
0.0
 10
257.5916875916184
 20
305.4279501846939
 30
0.0
 10
257.1905626923721
 20
306.6357712059651
 30
0.0
 10
256.6536122279675
 20
307.7904956806851
 30
0.0
 10
256.10581880467
 20
308.6688144062232
 30
0.0
 10
255.6241803576927
 20
309.2714987747439
 30
0.0
 10
255.272571818772
 20
309.6343991449907
 30
0.0
 10
254.9245020379681
 20
309.9240321141965
 30
0.0
 10
254.5860538534852
 20
310.1373262619801
 30
0.0
 10
254.2490660806164
 20
310.2704084393593
 30
0.0
 10
254.0296687189868
 20
310.3011147014332
 30
0.0
 10
253.9324245680735
 20
310.3007153617673
 30
0.0
  0
SPLINE
  5
8D
330
1F
100
AcDbEntity
  8
Linee visibili 2D
100
AcDbSpline
210
0.0
220
0.0
230
1.0
 70
    24
 71
     2
 72
     6
 73
     3
 74
     0
 42
0.0000000001
 43
0.0000000001
 40
-162.8668805027726
 40
-162.8668805027726
 40
-162.8668805027726
 40
0.0
 40
0.0
 40
0.0
 10
298.5079107908613
 20
304.6909794549627
 30
0.0
 10
237.7009207650766
 20
358.8566065006743
 30
0.0
 10
176.8939307392919
 20
413.0222335463859
 30
0.0
  0
SPLINE
  5
8E
330
1F
100
AcDbEntity
  8
Linee visibili 2D
100
AcDbSpline
210
0.0
220
0.0
230
1.0
 70
    12
 71
     2
 72
     8
 73
     5
 74
     0
 42
0.0000000001
 43
0.0000000001
 40
119.9757111158202
 40
119.9757111158202
 40
119.9757111158202
 40
251.3274122594234
 40
251.3274122594234
 40
502.6548245743669
 40
502.6548245743669
 40
502.6548245743669
 10
176.8939307392919
 20
413.0222335463859
 30
0.0
 41
2511.297518829086
 10
148.8134276187952
 20
438.035775672969
 30
0.0
 41
2452.931436178465
 10
104.4750892974114
 20
427.661303579474
 30
0.0
 41
2870.986873896235
 10
-0.1440279229456039
 20
403.1820796585988
 30
0.0
 41
1989.106006719823
 10
0.0000943731031622
 20
303.0647092011194
 30
0.0
 41
2899.45957052577
  0
SPLINE
  5
8F
330
1F
100
AcDbEntity
  8
Linee visibili 2D
100
AcDbSpline
210
0.0
220
0.0
230
1.0
 70
    24
 71
     2
 72
     6
 73
     3
 74
     0
 42
0.0000000001
 43
0.0000000001
 40
0.0
 40
0.0
 40
0.0
 40
161.0688074580671
 40
161.0688074580671
 40
161.0688074580671
 10
0.0000943731031622
 20
303.0647092011194
 30
0.0
 10
53.66855940002951
 20
243.0190095578931
 30
0.0
 10
107.3370244269558
 20
182.9733099146667
 30
0.0
  0
SPLINE
  5
90
330
1F
100
AcDbEntity
  8
Linee visibili 2D
100
AcDbSpline
210
0.0
220
0.0
230
1.0
 70
    12
 71
     2
 72
     8
 73
     5
 74
     0
 42
0.0000000001
 43
0.0000000001
 40
-502.6548245743669
 40
-502.6548245743669
 40
-502.6548245743669
 40
-251.3274122871834
 40
-251.3274122871834
 40
0.0
 40
0.0
 40
0.0
 10
107.3370244269558
 20
182.9733099146667
 30
0.0
 41
2656.410259074659
 10
110.7894616632681
 20
288.5198817050442
 30
0.0
 41
1817.244190430021
 10
222.6375229071061
 20
317.7922896635922
 30
0.0
 41
2627.937562445123
 10
329.6578570894767
 20
345.8012050368935
 30
0.0
 41
1899.220751449565
 10
319.525693710238
 20
242.8823496740993
 30
0.0
 41
2772.342623465202
  0
SPLINE
  5
91
330
1F
100
AcDbEntity
  8
Linee visibili 2D
100
AcDbSpline
210
0.0
220
0.0
230
1.0
 70
    24
 71
     2
 72
     6
 73
     3
 74
     0
 42
0.0000000001
 43
0.0000000001
 40
0.0
 40
0.0
 40
0.0
 40
1.981374567018447
 40
1.981374567018447
 40
1.981374567018447
 10
319.525693710238
 20
242.8823496740993
 30
0.0
 10
318.572278644464
 20
242.6131638534067
 30
0.0
 10
317.61886357869
 20
242.343978032714
 30
0.0
  0
SPLINE
  5
92
330
1F
100
AcDbEntity
  8
Linee visibili 2D
100
AcDbSpline
210
0.0
220
0.0
230
1.0
 70
    12
 71
     2
 72
     8
 73
     5
 74
     0
 42
0.0000000001
 43
0.0000000001
 40
0.0
 40
0.0
 40
0.0
 40
246.6150233067987
 40
246.6150233067987
 40
493.2300466135975
 40
493.2300466135975
 40
493.2300466135975
 10
317.61886357869
 20
242.343978032714
 30
0.0
 41
2771.255757549041
 10
327.4988693118951
 20
343.2960379065162
 30
0.0
 41
1899.598249640791
 10
222.5031910967449
 20
315.7750406699971
 30
0.0
 41
2629.558291423088
 10
112.8648175069761
 20
287.037120901552
 30
0.0
 41
1819.158749140364
 10
109.4122607691886
 20
183.5592291202349
 30
0.0
 41
2657.49712499082
  0
SPLINE
  5
93
330
1F
100
AcDbEntity
  8
Linee visibili 2D
100
AcDbSpline
210
0.0
220
0.0
230
1.0
 70
    24
 71
     2
 72
     6
 73
     3
 74
     0
 42
0.0000000001
 43
0.0000000001
 40
0.0
 40
0.0
 40
0.0
 40
2.156364345739636
 40
2.156364345739636
 40
2.156364345739636
 10
109.4122607691886
 20
183.5592291202349
 30
0.0
 10
108.3746425980722
 20
183.2662695174508
 30
0.0
 10
107.3370244269558
 20
182.9733099146667
 30
0.0
  0
SPLINE
  5
94
330
1F
100
AcDbEntity
  8
Linee visibili 2D
100
AcDbSpline
210
0.0
220
0.0
230
1.0
 70
    12
 71
     2
 72
     8
 73
     5
 74
     0
 42
0.0000000001
 43
0.0000000001
 40
4.196573633796159
 40
4.196573633796159
 40
4.196573633796159
 40
4.71238898038469
 40
4.71238898038469
 40
6.283185307179586
 40
6.283185307179586
 40
6.283185307179586
 10
175.7671792166361
 20
227.0461539499358
 30
0.0
 41
2556.985119444431
 10
185.0923011222541
 20
223.4589337922009
 30
0.0
 41
2647.084203006624
 10
190.5436120775301
 20
217.8715091252589
 30
0.0
 41
2917.065144510768
 10
212.1858170390788
 20
195.6889202321896
 30
0.0
 41
2030.452454292143
 10
174.2809726808293
 20
184.8581094726954
 30
0.0
 41
2849.756080290458
  0
SPLINE
  5
95
330
1F
100
AcDbEntity
  8
Linee visibili 2D
100
AcDbSpline
210
0.0
220
0.0
230
1.0
 70
    12
 71
     2
 72
     8
 73
     5
 74
     0
 42
0.0000000001
 43
0.0000000001
 40
0.0
 40
0.0
 40
0.0
 40
1.570796326794897
 40
1.570796326794897
 40
1.792164661916103
 40
1.792164661916103
 40
1.792164661916103
 10
174.2809726808293
 20
184.8581094726954
 30
0.0
 41
2849.756080290458
 10
135.7934237953759
 20
173.86079855815
 30
0.0
 41
1999.711243909814
 10
115.0352862503531
 20
196.7251566876439
 30
0.0
 41
2873.590507864315
 10
112.9153742299513
 20
199.0601651888814
 30
0.0
 41
2759.519442030754
 10
111.6646669938113
 20
201.5657420658873
 30
0.0
 41
2678.93666208003
  0
ENDSEC
  0
SECTION
  2
OBJECTS
  0
DICTIONARY
  5
C
330
0
100
AcDbDictionary
281
     1
  3
ACAD_GROUP
350
D
  3
ACAD_LAYOUT
350
1A
  3
ACAD_MLEADERSTYLE
350
97
  3
ACAD_MLINESTYLE
350
17
  3
ACAD_PLOTSETTINGS
350
19
  3
ACAD_PLOTSTYLENAME
350
E
  3
ACAD_TABLESTYLE
350
96
  3
ACAD_VISUALSTYLE
350
2A
  0
DICTIONARY
  5
D
102
{ACAD_REACTORS
330
C
102
}
330
C
100
AcDbDictionary
281
     1
  0
DICTIONARY
  5
1A
102
{ACAD_REACTORS
330
C
102
}
330
C
100
AcDbDictionary
281
     1
  3
Layout1
350
1E
  3
Layout2
350
26
  3
Model
350
22
  0
DICTIONARY
  5
97
102
{ACAD_REACTORS
330
C
102
}
330
C
100
AcDbDictionary
281
     1
  0
DICTIONARY
  5
17
102
{ACAD_REACTORS
330
C
102
}
330
C
100
AcDbDictionary
281
     1
  3
Standard
350
18
  0
DICTIONARY
  5
19
102
{ACAD_REACTORS
330
C
102
}
330
C
100
AcDbDictionary
281
     1
  0
ACDBDICTIONARYWDFLT
  5
E
102
{ACAD_REACTORS
330
C
102
}
330
C
100
AcDbDictionary
281
     1
  3
Normal
350
F
100
AcDbDictionaryWithDefault
340
F
  0
DICTIONARY
  5
96
102
{ACAD_REACTORS
330
C
102
}
330
C
100
AcDbDictionary
281
     1
  0
DICTIONARY
  5
2A
102
{ACAD_REACTORS
330
C
102
}
330
C
100
AcDbDictionary
281
     1
  3
2dWireframe
350
2F
  3
3D Hidden
350
31
  3
3dWireframe
350
30
  3
Basic
350
32
  3
Brighten
350
36
  3
ColorChange
350
3A
  3
Conceptual
350
34
  3
Dim
350
35
  3
Facepattern
350
39
  3
Flat
350
2B
  3
FlatWithEdges
350
2C
  3
Gouraud
350
2D
  3
GouraudWithEdges
350
2E
  3
Linepattern
350
38
  3
Realistic
350
33
  3
Thicken
350
37
  0
LAYOUT
  5
1E
102
{ACAD_REACTORS
330
1A
102
}
330
1A
100
AcDbPlotSettings
  1

  2
none_device
  4

  6

 40
0.0
 41
0.0
 42
0.0
 43
0.0
 44
0.0
 45
0.0
 46
0.0
 47
0.0
 48
0.0
 49
0.0
140
0.0
141
0.0
142
1.0
143
1.0
 70
   688
 72
     0
 73
     0
 74
     5
  7

 75
    16
 76
     0
 77
     2
 78
   300
147
1.0
148
0.0
149
0.0
100
AcDbLayout
  1
Layout1
 70
     1
 71
     1
 10
0.0
 20
0.0
 11
12.0
 21
9.0
 12
0.0
 22
0.0
 32
0.0
 14
1.000000000000000E+20
 24
1.000000000000000E+20
 34
1.000000000000000E+20
 15
-1.000000000000000E+20
 25
-1.000000000000000E+20
 35
-1.000000000000000E+20
146
0.0
 13
0.0
 23
0.0
 33
0.0
 16
1.0
 26
0.0
 36
0.0
 17
0.0
 27
1.0
 37
0.0
 76
     0
330
1B
  0
LAYOUT
  5
26
102
{ACAD_REACTORS
330
1A
102
}
330
1A
100
AcDbPlotSettings
  1

  2
none_device
  4

  6

 40
0.0
 41
0.0
 42
0.0
 43
0.0
 44
0.0
 45
0.0
 46
0.0
 47
0.0
 48
0.0
 49
0.0
140
0.0
141
0.0
142
1.0
143
1.0
 70
   688
 72
     0
 73
     0
 74
     5
  7

 75
    16
 76
     0
 77
     2
 78
   300
147
1.0
148
0.0
149
0.0
100
AcDbLayout
  1
Layout2
 70
     1
 71
     2
 10
0.0
 20
0.0
 11
0.0
 21
0.0
 12
0.0
 22
0.0
 32
0.0
 14
0.0
 24
0.0
 34
0.0
 15
0.0
 25
0.0
 35
0.0
146
0.0
 13
0.0
 23
0.0
 33
0.0
 16
1.0
 26
0.0
 36
0.0
 17
0.0
 27
1.0
 37
0.0
 76
     0
330
23
  0
LAYOUT
  5
22
102
{ACAD_REACTORS
330
1A
102
}
330
1A
100
AcDbPlotSettings
  1

  2
none_device
  4

  6

 40
0.0
 41
0.0
 42
0.0
 43
0.0
 44
0.0
 45
0.0
 46
0.0
 47
0.0
 48
0.0
 49
0.0
140
0.0
141
0.0
142
1.0
143
1.0
 70
  1712
 72
     0
 73
     0
 74
     0
  7

 75
     0
 76
     0
 77
     2
 78
   300
147
1.0
148
0.0
149
0.0
100
AcDbLayout
  1
Model
 70
     1
 71
     0
 10
0.0
 20
0.0
 11
12.0
 21
9.0
 12
0.0
 22
0.0
 32
0.0
 14
0.0000000000000018
 24
0.0000000000000018
 34
0.0
 15
828.7708763999667
 25
1211.770876399966
 35
0.0
146
0.0
 13
0.0
 23
0.0
 33
0.0
 16
1.0
 26
0.0
 36
0.0
 17
0.0
 27
1.0
 37
0.0
 76
     0
330
1F
331
29
  0
MLINESTYLE
  5
18
102
{ACAD_REACTORS
330
17
102
}
330
17
100
AcDbMlineStyle
  2
Standard
 70
     0
  3

 62
   256
 51
90.0
 52
90.0
 71
     2
 49
0.5
 62
   256
  6
BYLAYER
 49
-0.5
 62
   256
  6
BYLAYER
  0
ACDBPLACEHOLDER
  5
F
102
{ACAD_REACTORS
330
E
102
}
330
E
  0
VISUALSTYLE
  5
2F
102
{ACAD_REACTORS
330
2A
102
}
330
2A
100
AcDbVisualStyle
  2
2dWireframe
 70
     4
 71
     0
 72
     2
 73
     0
 90
        0
 40
-0.6
 41
-30.0
 62
     5
 63
     7
421
 16777215
 74
     1
 91
        4
 64
     7
 65
   257
 75
     1
175
     1
 42
1.0
 92
        0
 66
   257
 43
1.0
 76
     1
 77
     6
 78
     2
 67
     7
 79
     5
170
     0
171
     0
290
     0
174
     0
 93
        1
 44
0.0
173
     0
291
     0
 45
0.0
1001
ACAD
1000
AcDbSavedByObjectVersion
1070
     0
  0
VISUALSTYLE
  5
31
102
{ACAD_REACTORS
330
2A
102
}
330
2A
100
AcDbVisualStyle
  2
3D Hidden
 70
     6
 71
     1
 72
     2
 73
     2
 90
        0
 40
-0.6
 41
-30.0
 62
     5
 63
     7
421
 16777215
 74
     2
 91
        2
 64
     7
 65
   257
 75
     2
175
     1
 42
40.0
 92
        0
 66
   257
 43
1.0
 76
     1
 77
     6
 78
     2
 67
     7
 79
     3
170
     0
171
     0
290
     0
174
     0
 93
        1
 44
0.0
173
     0
291
     0
 45
0.0
1001
ACAD
1000
AcDbSavedByObjectVersion
1070
     0
  0
VISUALSTYLE
  5
30
102
{ACAD_REACTORS
330
2A
102
}
330
2A
100
AcDbVisualStyle
  2
3dWireframe
 70
     5
 71
     0
 72
     2
 73
     0
 90
        0
 40
-0.6
 41
-30.0
 62
     5
 63
     7
421
 16777215
 74
     1
 91
        4
 64
     7
 65
   257
 75
     1
175
     1
 42
1.0
 92
        0
 66
   257
 43
1.0
 76
     1
 77
     6
 78
     2
 67
     7
 79
     5
170
     0
171
     0
290
     0
174
     0
 93
        1
 44
0.0
173
     0
291
     0
 45
0.0
1001
ACAD
1000
AcDbSavedByObjectVersion
1070
     0
  0
VISUALSTYLE
  5
32
102
{ACAD_REACTORS
330
2A
102
}
330
2A
100
AcDbVisualStyle
  2
Basic
 70
     7
 71
     1
 72
     0
 73
     1
 90
        0
 40
-0.6
 41
-30.0
 62
     5
 63
     7
421
 16777215
 74
     0
 91
        4
 64
     7
 65
   257
 75
     1
175
     1
 42
1.0
 92
        8
 66
     7
 43
1.0
 76
     1
 77
     6
 78
     2
 67
     7
 79
     5
170
     0
171
     0
290
     0
174
     0
 93
        1
 44
0.0
173
     0
291
     1
 45
0.0
1001
ACAD
1000
AcDbSavedByObjectVersion
1070
     0
  0
VISUALSTYLE
  5
36
102
{ACAD_REACTORS
330
2A
102
}
330
2A
100
AcDbVisualStyle
  2
Brighten
 70
    12
 71
     2
 72
     2
 73
     0
 90
        0
 40
-0.6
 41
-30.0
 62
     5
 63
     7
421
 16777215
 74
     1
 91
        4
 64
     7
 65
   257
 75
     1
175
     1
 42
1.0
 92
        8
 66
     7
 43
1.0
 76
     1
 77
     6
 78
     2
 67
     7
 79
     5
170
     0
171
     0
290
     0
174
     0
 93
        1
 44
50.0
173
     0
291
     1
 45
0.0
1001
ACAD
1000
AcDbSavedByObjectVersion
1070
     0
  0
VISUALSTYLE
  5
3A
102
{ACAD_REACTORS
330
2A
102
}
330
2A
100
AcDbVisualStyle
  2
ColorChange
 70
    16
 71
     2
 72
     2
 73
     3
 90
        0
 40
-0.6
 41
-30.0
 62
     5
 63
     8
421
  8421504
 74
     1
 91
        4
 64
     7
 65
   257
 75
     1
175
     1
 42
1.0
 92
        8
 66
     8
424
  8421504
 43
1.0
 76
     1
 77
     6
 78
     2
 67
     7
 79
     5
170
     0
171
     0
290
     0
174
     0
 93
        1
 44
0.0
173
     0
291
     1
 45
0.0
1001
ACAD
1000
AcDbSavedByObjectVersion
1070
     0
  0
VISUALSTYLE
  5
34
102
{ACAD_REACTORS
330
2A
102
}
330
2A
100
AcDbVisualStyle
  2
Conceptual
 70
     9
 71
     3
 72
     2
 73
     0
 90
        0
 40
-0.6
 41
-30.0
 62
     5
 63
     7
421
 16777215
 74
     2
 91
        2
 64
     7
 65
   257
 75
     1
175
     1
 42
40.0
 92
        8
 66
     7
 43
1.0
 76
     1
 77
     6
 78
     2
 67
     7
 79
     3
170
     0
171
     0
290
     0
174
     0
 93
        1
 44
0.0
173
     0
291
     0
 45
0.0
1001
ACAD
1000
AcDbSavedByObjectVersion
1070
     0
  0
VISUALSTYLE
  5
35
102
{ACAD_REACTORS
330
2A
102
}
330
2A
100
AcDbVisualStyle
  2
Dim
 70
    11
 71
     2
 72
     2
 73
     0
 90
        0
 40
-0.6
 41
-30.0
 62
     5
 63
     7
421
 16777215
 74
     1
 91
        4
 64
     7
 65
   257
 75
     1
175
     1
 42
1.0
 92
        8
 66
     7
 43
1.0
 76
     1
 77
     6
 78
     2
 67
     7
 79
     5
170
     0
171
     0
290
     0
174
     0
 93
        1
 44
-50.0
173
     0
291
     1
 45
0.0
1001
ACAD
1000
AcDbSavedByObjectVersion
1070
     0
  0
VISUALSTYLE
  5
39
102
{ACAD_REACTORS
330
2A
102
}
330
2A
100
AcDbVisualStyle
  2
Facepattern
 70
    15
 71
     2
 72
     2
 73
     0
 90
        0
 40
-0.6
 41
-30.0
 62
     5
 63
     7
421
 16777215
 74
     1
 91
        4
 64
     7
 65
   257
 75
     1
175
     1
 42
1.0
 92
        8
 66
     7
 43
1.0
 76
     1
 77
     6
 78
     2
 67
     7
 79
     5
170
     0
171
     0
290
     0
174
     0
 93
        1
 44
0.0
173
     0
291
     1
 45
0.0
1001
ACAD
1000
AcDbSavedByObjectVersion
1070
     0
  0
VISUALSTYLE
  5
2B
102
{ACAD_REACTORS
330
2A
102
}
330
2A
100
AcDbVisualStyle
  2
Flat
 70
     0
 71
     2
 72
     1
 73
     1
 90
        2
 40
-0.6
 41
30.0
 62
     5
 63
     7
421
 16777215
 74
     0
 91
        4
 64
     7
 65
   257
 75
     1
175
     1
 42
1.0
 92
        8
 66
     7
 43
1.0
 76
     1
 77
     6
 78
     2
 67
     7
 79
     5
170
     0
171
     0
290
     0
174
     0
 93
       13
 44
0.0
173
     0
291
     1
 45
0.0
1001
ACAD
1000
AcDbSavedByObjectVersion
1070
     0
  0
VISUALSTYLE
  5
2C
102
{ACAD_REACTORS
330
2A
102
}
330
2A
100
AcDbVisualStyle
  2
FlatWithEdges
 70
     1
 71
     2
 72
     1
 73
     1
 90
        2
 40
-0.6
 41
30.0
 62
     5
 63
     7
421
 16777215
 74
     1
 91
        4
 64
     7
 65
   257
 75
     1
175
     1
 42
1.0
 92
        0
 66
   257
 43
1.0
 76
     1
 77
     6
 78
     2
 67
     7
 79
     5
170
     0
171
     0
290
     0
174
     0
 93
       13
 44
0.0
173
     0
291
     1
 45
0.0
1001
ACAD
1000
AcDbSavedByObjectVersion
1070
     0
  0
VISUALSTYLE
  5
2D
102
{ACAD_REACTORS
330
2A
102
}
330
2A
100
AcDbVisualStyle
  2
Gouraud
 70
     2
 71
     2
 72
     2
 73
     1
 90
        2
 40
-0.6
 41
30.0
 62
     5
 63
     7
421
 16777215
 74
     0
 91
        4
 64
     7
 65
   257
 75
     1
175
     1
 42
1.0
 92
        0
 66
     7
 43
1.0
 76
     1
 77
     6
 78
     2
 67
     7
 79
     5
170
     0
171
     0
290
     0
174
     0
 93
       13
 44
0.0
173
     0
291
     1
 45
0.0
1001
ACAD
1000
AcDbSavedByObjectVersion
1070
     0
  0
VISUALSTYLE
  5
2E
102
{ACAD_REACTORS
330
2A
102
}
330
2A
100
AcDbVisualStyle
  2
GouraudWithEdges
 70
     3
 71
     2
 72
     2
 73
     1
 90
        2
 40
-0.6
 41
30.0
 62
     5
 63
     7
421
 16777215
 74
     1
 91
        4
 64
     7
 65
   257
 75
     1
175
     1
 42
1.0
 92
        0
 66
   257
 43
1.0
 76
     1
 77
     6
 78
     2
 67
     7
 79
     5
170
     0
171
     0
290
     0
174
     0
 93
       13
 44
0.0
173
     0
291
     1
 45
0.0
1001
ACAD
1000
AcDbSavedByObjectVersion
1070
     0
  0
VISUALSTYLE
  5
38
102
{ACAD_REACTORS
330
2A
102
}
330
2A
100
AcDbVisualStyle
  2
Linepattern
 70
    14
 71
     2
 72
     2
 73
     0
 90
        0
 40
-0.6
 41
-30.0
 62
     5
 63
     7
421
 16777215
 74
     1
 91
        4
 64
     7
 65
   257
 75
     7
175
     7
 42
1.0
 92
        8
 66
     7
 43
1.0
 76
     1
 77
     6
 78
     2
 67
     7
 79
     5
170
     0
171
     0
290
     0
174
     0
 93
        1
 44
0.0
173
     0
291
     1
 45
0.0
1001
ACAD
1000
AcDbSavedByObjectVersion
1070
     0
  0
VISUALSTYLE
  5
33
102
{ACAD_REACTORS
330
2A
102
}
330
2A
100
AcDbVisualStyle
  2
Realistic
 70
     8
 71
     2
 72
     2
 73
     0
 90
        0
 40
-0.6
 41
-30.0
 62
     5
 63
     7
421
 16777215
 74
     1
 91
        0
 64
     7
 65
   257
 75
     1
175
     1
 42
1.0
 92
        8
 66
     8
424
  7895160
 43
1.0
 76
     1
 77
     6
 78
     2
 67
     7
 79
     5
170
     0
171
     0
290
     0
174
     0
 93
       13
 44
0.0
173
     0
291
     0
 45
0.0
1001
ACAD
1000
AcDbSavedByObjectVersion
1070
     0
  0
VISUALSTYLE
  5
37
102
{ACAD_REACTORS
330
2A
102
}
330
2A
100
AcDbVisualStyle
  2
Thicken
 70
    13
 71
     2
 72
     2
 73
     0
 90
        0
 40
-0.6
 41
-30.0
 62
     5
 63
     7
421
 16777215
 74
     1
 91
        4
 64
     7
 65
   257
 75
     1
175
     1
 42
1.0
 92
       12
 66
     7
 43
1.0
 76
     1
 77
     6
 78
     2
 67
     7
 79
     5
170
     0
171
     0
290
     0
174
     0
 93
        1
 44
0.0
173
     0
291
     1
 45
0.0
1001
ACAD
1000
AcDbSavedByObjectVersion
1070
     0
  0
ENDSEC
  0
EOF
