  0
SECTION
  2
HEADER
  9
$ACADVER
  1
AC1018
  9
$ACADMAINTVER
 70
     0
  9
$DWGCODEPAGE
  3
ANSI_932
  9
$INSBASE
 10
0.0
 20
0.0
 30
0.0
  9
$EXTMIN
 10
1.000000000000000E+20
 20
1.000000000000000E+20
 30
1.000000000000000E+20
  9
$EXTMAX
 10
-1.000000000000000E+20
 20
-1.000000000000000E+20
 30
-1.000000000000000E+20
  9
$LIMMIN
 10
0.0
 20
0.0
  9
$LIMMAX
 10
12.0
 20
9.0
  9
$ORTHOMODE
 70
     0
  9
$REGENMODE
 70
     1
  9
$FILLMODE
 70
     1
  9
$QTEXTMODE
 70
     0
  9
$MIRRTEXT
 70
     1
  9
$LTSCALE
 40
1.0
  9
$ATTMODE
 70
     1
  9
$TEXTSIZE
 40
0.2
  9
$TRACEWID
 40
0.05
  9
$TEXTSTYLE
  7
Standard
  9
$CLAYER
  8
0
  9
$CELTYPE
  6
ByLayer
  9
$CECOLOR
 62
   256
  9
$CELTSCALE
 40
1.0
  9
$DISPSILH
 70
     0
  9
$DIMSCALE
 40
1.0
  9
$DIMASZ
 40
0.18
  9
$DIMEXO
 40
0.0625
  9
$DIMDLI
 40
0.38
  9
$DIMRND
 40
0.0
  9
$DIMDLE
 40
0.0
  9
$DIMEXE
 40
0.18
  9
$DIMTP
 40
0.0
  9
$DIMTM
 40
0.0
  9
$DIMTXT
 40
0.18
  9
$DIMCEN
 40
0.09
  9
$DIMTSZ
 40
0.0
  9
$DIMTOL
 70
     0
  9
$DIMLIM
 70
     0
  9
$DIMTIH
 70
     1
  9
$DIMTOH
 70
     1
  9
$DIMSE1
 70
     0
  9
$DIMSE2
 70
     0
  9
$DIMTAD
 70
     0
  9
$DIMZIN
 70
     0
  9
$DIMBLK
  1

  9
$DIMASO
 70
     1
  9
$DIMSHO
 70
     1
  9
$DIMPOST
  1

  9
$DIMAPOST
  1

  9
$DIMALT
 70
     0
  9
$DIMALTD
 70
     2
  9
$DIMALTF
 40
25.4
  9
$DIMLFAC
 40
1.0
  9
$DIMTOFL
 70
     0
  9
$DIMTVP
 40
0.0
  9
$DIMTIX
 70
     0
  9
$DIMSOXD
 70
     0
  9
$DIMSAH
 70
     0
  9
$DIMBLK1
  1

  9
$DIMBLK2
  1

  9
$DIMSTYLE
  2
Standard
  9
$DIMCLRD
 70
     0
  9
$DIMCLRE
 70
     0
  9
$DIMCLRT
 70
     0
  9
$DIMTFAC
 40
1.0
  9
$DIMGAP
 40
0.09
  9
$DIMJUST
 70
     0
  9
$DIMSD1
 70
     0
  9
$DIMSD2
 70
     0
  9
$DIMTOLJ
 70
     1
  9
$DIMTZIN
 70
     0
  9
$DIMALTZ
 70
     0
  9
$DIMALTTZ
 70
     0
  9
$DIMUPT
 70
     0
  9
$DIMDEC
 70
     4
  9
$DIMTDEC
 70
     4
  9
$DIMALTU
 70
     2
  9
$DIMALTTD
 70
     2
  9
$DIMTXSTY
  7
Standard
  9
$DIMAUNIT
 70
     0
  9
$DIMADEC
 70
     0
  9
$DIMALTRND
 40
0.0
  9
$DIMAZIN
 70
     0
  9
$DIMDSEP
 70
    46
  9
$DIMATFIT
 70
     3
  9
$DIMFRAC
 70
     0
  9
$DIMLDRBLK
  1

  9
$DIMLUNIT
 70
     2
  9
$DIMLWD
 70
    -2
  9
$DIMLWE
 70
    -2
  9
$DIMTMOVE
 70
     0
  9
$LUNITS
 70
     2
  9
$LUPREC
 70
     4
  9
$SKETCHINC
 40
0.1
  9
$FILLETRAD
 40
0.5
  9
$AUNITS
 70
     0
  9
$AUPREC
 70
     0
  9
$MENU
  1
.
  9
$ELEVATION
 40
0.0
  9
$PELEVATION
 40
0.0
  9
$THICKNESS
 40
0.0
  9
$LIMCHECK
 70
     0
  9
$CHAMFERA
 40
0.5
  9
$CHAMFERB
 40
0.5
  9
$CHAMFERC
 40
1.0
  9
$CHAMFERD
 40
0.0
  9
$SKPOLY
 70
     0
  9
$TDCREATE
 40
2457092.703761574
  9
$TDUCREATE
 40
2457092.662094907
  9
$TDUPDATE
 40
2457092.703761586
  9
$TDUUPDATE
 40
2457092.662094919
  9
$TDINDWG
 40
0.0000000116
  9
$TDUSRTIMER
 40
0.0000000116
  9
$USRTIMER
 70
     1
  9
$ANGBASE
 50
0.0
  9
$ANGDIR
 70
     0
  9
$PDMODE
 70
     0
  9
$PDSIZE
 40
0.0
  9
$PLINEWID
 40
0.0
  9
$SPLFRAME
 70
     0
  9
$SPLINETYPE
 70
     6
  9
$SPLINESEGS
 70
     8
  9
$HANDSEED
  5
24A
  9
$SURFTAB1
 70
     6
  9
$SURFTAB2
 70
     6
  9
$SURFTYPE
 70
     6
  9
$SURFU
 70
     6
  9
$SURFV
 70
     6
  9
$UCSBASE
  2

  9
$UCSNAME
  2

  9
$UCSORG
 10
0.0
 20
0.0
 30
0.0
  9
$UCSXDIR
 10
1.0
 20
0.0
 30
0.0
  9
$UCSYDIR
 10
0.0
 20
1.0
 30
0.0
  9
$UCSORTHOREF
  2

  9
$UCSORTHOVIEW
 70
     0
  9
$UCSORGTOP
 10
0.0
 20
0.0
 30
0.0
  9
$UCSORGBOTTOM
 10
0.0
 20
0.0
 30
0.0
  9
$UCSORGLEFT
 10
0.0
 20
0.0
 30
0.0
  9
$UCSORGRIGHT
 10
0.0
 20
0.0
 30
0.0
  9
$UCSORGFRONT
 10
0.0
 20
0.0
 30
0.0
  9
$UCSORGBACK
 10
0.0
 20
0.0
 30
0.0
  9
$PUCSBASE
  2

  9
$PUCSNAME
  2

  9
$PUCSORG
 10
0.0
 20
0.0
 30
0.0
  9
$PUCSXDIR
 10
1.0
 20
0.0
 30
0.0
  9
$PUCSYDIR
 10
0.0
 20
1.0
 30
0.0
  9
$PUCSORTHOREF
  2

  9
$PUCSORTHOVIEW
 70
     0
  9
$PUCSORGTOP
 10
0.0
 20
0.0
 30
0.0
  9
$PUCSORGBOTTOM
 10
0.0
 20
0.0
 30
0.0
  9
$PUCSORGLEFT
 10
0.0
 20
0.0
 30
0.0
  9
$PUCSORGRIGHT
 10
0.0
 20
0.0
 30
0.0
  9
$PUCSORGFRONT
 10
0.0
 20
0.0
 30
0.0
  9
$PUCSORGBACK
 10
0.0
 20
0.0
 30
0.0
  9
$USERI1
 70
     0
  9
$USERI2
 70
     0
  9
$USERI3
 70
     0
  9
$USERI4
 70
     0
  9
$USERI5
 70
     0
  9
$USERR1
 40
0.0
  9
$USERR2
 40
0.0
  9
$USERR3
 40
0.0
  9
$USERR4
 40
0.0
  9
$USERR5
 40
0.0
  9
$WORLDVIEW
 70
     1
  9
$SHADEDGE
 70
     3
  9
$SHADEDIF
 70
    70
  9
$TILEMODE
 70
     1
  9
$MAXACTVP
 70
    64
  9
$PINSBASE
 10
0.0
 20
0.0
 30
0.0
  9
$PLIMCHECK
 70
     0
  9
$PEXTMIN
 10
1.000000000000000E+20
 20
1.000000000000000E+20
 30
1.000000000000000E+20
  9
$PEXTMAX
 10
-1.000000000000000E+20
 20
-1.000000000000000E+20
 30
-1.000000000000000E+20
  9
$PLIMMIN
 10
0.0
 20
0.0
  9
$PLIMMAX
 10
12.0
 20
9.0
  9
$UNITMODE
 70
     0
  9
$VISRETAIN
 70
     1
  9
$PLINEGEN
 70
     0
  9
$PSLTSCALE
 70
     1
  9
$TREEDEPTH
 70
  3020
  9
$CMLSTYLE
  2
Standard
  9
$CMLJUST
 70
     0
  9
$CMLSCALE
 40
1.0
  9
$PROXYGRAPHICS
 70
     1
  9
$MEASUREMENT
 70
     0
  9
$CELWEIGHT
370
    -1
  9
$ENDCAPS
280
     0
  9
$JOINSTYLE
280
     0
  9
$LWDISPLAY
290
     1
  9
$INSUNITS
 70
     1
  9
$HYPERLINKBASE
  1

  9
$STYLESHEET
  1

  9
$XEDIT
290
     1
  9
$CEPSNTYPE
380
     0
  9
$PSTYLEMODE
290
     1
  9
$FINGERPRINTGUID
  2
{EE399994-F80A-F4D8-3ADE-3A997FE70CEC}
  9
$VERSIONGUID
  2
{FAEB1C32-E019-11D5-929B-00C0DF256EC4}
  9
$EXTNAMES
290
     1
  9
$PSVPSCALE
 40
0.0
  9
$OLESTARTUP
290
     0
  9
$SORTENTS
280
   127
  9
$INDEXCTL
280
     0
  9
$HIDETEXT
280
     1
  9
$XCLIPFRAME
290
     0
  9
$HALOGAP
280
     0
  9
$OBSCOLOR
 70
   257
  9
$OBSLTYPE
280
     0
  9
$INTERSECTIONDISPLAY
280
     0
  9
$INTERSECTIONCOLOR
 70
   257
  9
$DIMASSOC
280
     2
  9
$PROJECTNAME
  1

  0
ENDSEC
  0
SECTION
  2
CLASSES
  0
CLASS
  1
ACDBDICTIONARYWDFLT
  2
AcDbDictionaryWithDefault
  3
ObjectDBX Classes
 90
        0
 91
        3
280
     0
281
     0
  0
CLASS
  1
VISUALSTYLE
  2
AcDbVisualStyle
  3
ObjectDBX Classes
 90
     4095
 91
        3
280
     0
281
     0
  0
ENDSEC
  0
SECTION
  2
TABLES
  0
TABLE
  2
VPORT
  5
8
330
0
100
AcDbSymbolTable
 70
     1
  0
VPORT
  5
29
330
8
100
AcDbSymbolTableRecord
100
AcDbViewportTableRecord
  2
*Active
 70
     0
 10
0.0
 20
0.0
 11
1.0
 21
1.0
 12
0.0
 22
0.0
 13
0.0
 23
0.0
 14
0.5
 24
0.5
 15
0.5
 25
0.5
 16
0.0
 26
0.0
 36
1.0
 17
121.7083333029063
 27
111.6541666387531
 37
0.0
 40
106.8916666399438
 41
0.5676567656765676
 42
50.0
 43
0.0
 44
0.0
 50
0.0
 51
0.0
 71
     0
 72
   100
 73
     1
 74
     3
 75
     0
 76
     0
 77
     0
 78
     0
281
     0
 65
     1
110
0.0
120
0.0
130
0.0
111
1.0
121
0.0
131
0.0
112
0.0
122
1.0
132
0.0
 79
     0
146
0.0
  0
ENDTAB
  0
TABLE
  2
LTYPE
  5
5
330
0
100
AcDbSymbolTable
 70
     1
  0
LTYPE
  5
14
330
5
100
AcDbSymbolTableRecord
100
AcDbLinetypeTableRecord
  2
ByBlock
 70
     0
  3

 72
    65
 73
     0
 40
0.0
  0
LTYPE
  5
15
330
5
100
AcDbSymbolTableRecord
100
AcDbLinetypeTableRecord
  2
ByLayer
 70
     0
  3

 72
    65
 73
     0
 40
0.0
  0
LTYPE
  5
16
330
5
100
AcDbSymbolTableRecord
100
AcDbLinetypeTableRecord
  2
Continuous
 70
     0
  3
Solid line
 72
    65
 73
     0
 40
0.0
  0
ENDTAB
  0
TABLE
  2
LAYER
  5
2
330
0
100
AcDbSymbolTable
 70
     2
  0
LAYER
  5
10
330
2
100
AcDbSymbolTableRecord
100
AcDbLayerTableRecord
  2
0
 70
     0
 62
     7
  6
Continuous
370
    -3
390
F
  0
LAYER
  5
3B
330
2
100
AcDbSymbolTableRecord
100
AcDbLayerTableRecord
  2
Livello 1
 70
     0
 62
     7
  6
Continuous
370
    -3
390
F
  0
ENDTAB
  0
TABLE
  2
STYLE
  5
3
330
0
100
AcDbSymbolTable
 70
     1
  0
STYLE
  5
11
330
3
100
AcDbSymbolTableRecord
100
AcDbTextStyleTableRecord
  2
Standard
 70
     0
 40
0.0
 41
1.0
 50
0.0
 71
     0
 42
0.2
  3
txt
  4

  0
ENDTAB
  0
TABLE
  2
VIEW
  5
6
330
0
100
AcDbSymbolTable
 70
     0
  0
ENDTAB
  0
TABLE
  2
UCS
  5
7
330
0
100
AcDbSymbolTable
 70
     0
  0
ENDTAB
  0
TABLE
  2
APPID
  5
9
330
0
100
AcDbSymbolTable
 70
     1
  0
APPID
  5
12
330
9
100
AcDbSymbolTableRecord
100
AcDbRegAppTableRecord
  2
ACAD
 70
     0
  0
ENDTAB
  0
TABLE
  2
DIMSTYLE
  5
A
330
0
100
AcDbSymbolTable
 70
     1
100
AcDbDimStyleTable
  0
DIMSTYLE
105
27
330
A
100
AcDbSymbolTableRecord
100
AcDbDimStyleTableRecord
  2
Standard
 70
     0
340
11
  0
ENDTAB
  0
TABLE
  2
BLOCK_RECORD
  5
1
330
0
100
AcDbSymbolTable
 70
     1
  0
BLOCK_RECORD
  5
1F
330
1
100
AcDbSymbolTableRecord
100
AcDbBlockTableRecord
  2
*Model_Space
340
22
  0
BLOCK_RECORD
  5
1B
330
1
100
AcDbSymbolTableRecord
100
AcDbBlockTableRecord
  2
*Paper_Space
340
1E
  0
BLOCK_RECORD
  5
23
330
1
100
AcDbSymbolTableRecord
100
AcDbBlockTableRecord
  2
*Paper_Space0
340
26
  0
ENDTAB
  0
ENDSEC
  0
SECTION
  2
BLOCKS
  0
BLOCK
  5
20
330
1F
100
AcDbEntity
  8
0
100
AcDbBlockBegin
  2
*Model_Space
 70
     0
 71
     0
 10
0.0
 20
0.0
 30
0.0
  3
*Model_Space
  1

  0
ENDBLK
  5
21
330
1F
100
AcDbEntity
  8
0
100
AcDbBlockEnd
  0
BLOCK
  5
1C
330
1B
100
AcDbEntity
 67
     1
  8
0
100
AcDbBlockBegin
  2
*Paper_Space
 70
     0
 71
     0
 10
0.0
 20
0.0
 30
0.0
  3
*Paper_Space
  1

  0
ENDBLK
  5
1D
330
1B
100
AcDbEntity
 67
     1
  8
0
100
AcDbBlockEnd
  0
BLOCK
  5
24
330
23
100
AcDbEntity
  8
0
100
AcDbBlockBegin
  2
*Paper_Space0
 70
     0
 71
     0
 10
0.0
 20
0.0
 30
0.0
  3
*Paper_Space0
  1

  0
ENDBLK
  5
25
330
23
100
AcDbEntity
  8
0
100
AcDbBlockEnd
  0
ENDSEC
  0
SECTION
  2
ENTITIES
  0
POLYLINE
  5
3C
330
1F
100
AcDbEntity
  8
Livello 1
 62
     7
420
 16777215
370
     9
100
AcDb2dPolyline
 66
     1
 10
0.0
 20
0.0
 30
0.0
  0
VERTEX
  5
3D
330
3C
100
AcDbEntity
  8
Livello 1
 62
     7
420
 16777215
370
     9
100
AcDbVertex
100
AcDb2dVertex
 10
32.76595865066268
 20
66.34254826900464
 30
0.0
  0
VERTEX
  5
3E
330
3C
100
AcDbEntity
  8
Livello 1
 62
     7
420
 16777215
370
     9
100
AcDbVertex
100
AcDb2dVertex
 10
31.8023654434383
 20
66.14962292183066
 30
0.0
  0
VERTEX
  5
3F
330
3C
100
AcDbEntity
  8
Livello 1
 62
     7
420
 16777215
370
     9
100
AcDbVertex
100
AcDb2dVertex
 10
31.22427842101338
 20
65.7641167370312
 30
0.0
  0
VERTEX
  5
40
330
3C
100
AcDbEntity
  8
Livello 1
 62
     7
420
 16777215
370
     9
100
AcDbVertex
100
AcDb2dVertex
 10
30.83911674576245
 20
64.99413789607786
 30
0.0
  0
VERTEX
  5
41
330
3C
100
AcDbEntity
  8
Livello 1
 62
     7
420
 16777215
370
     9
100
AcDbVertex
100
AcDb2dVertex
 10
30.64377983174878
 20
64.22071395963927
 30
0.0
  0
SEQEND
  5
42
330
3C
100
AcDbEntity
  8
Livello 1
370
     9
  0
POLYLINE
  5
43
330
1F
100
AcDbEntity
  8
Livello 1
 62
     7
420
 16777215
370
     9
100
AcDb2dPolyline
 66
     1
 10
0.0
 20
0.0
 30
0.0
  0
VERTEX
  5
44
330
43
100
AcDbEntity
  8
Livello 1
 62
     7
420
 16777215
370
     9
100
AcDbVertex
100
AcDb2dVertex
 10
220.6549207347668
 20
64.22071395963927
 30
0.0
  0
VERTEX
  5
45
330
43
100
AcDbEntity
  8
Livello 1
 62
     7
420
 16777215
370
     9
100
AcDbVertex
100
AcDb2dVertex
 10
220.6549207347668
 20
64.99413789607786
 30
0.0
  0
VERTEX
  5
46
330
43
100
AcDbEntity
  8
Livello 1
 62
     7
420
 16777215
370
     9
100
AcDbVertex
100
AcDb2dVertex
 10
220.0761446932449
 20
65.7641167370312
 30
0.0
  0
VERTEX
  5
47
330
43
100
AcDbEntity
  8
Livello 1
 62
     7
420
 16777215
370
     9
100
AcDbVertex
100
AcDb2dVertex
 10
219.4990911994655
 20
66.14962292183066
 30
0.0
  0
VERTEX
  5
48
330
43
100
AcDbEntity
  8
Livello 1
 62
     7
420
 16777215
370
     9
100
AcDbVertex
100
AcDb2dVertex
 10
218.7298013776092
 20
66.34254826900464
 30
0.0
  0
SEQEND
  5
49
330
43
100
AcDbEntity
  8
Livello 1
370
     9
  0
POLYLINE
  5
4A
330
1F
100
AcDbEntity
  8
Livello 1
 62
     7
420
 16777215
370
     9
100
AcDb2dPolyline
 66
     1
 10
0.0
 20
0.0
 30
0.0
  0
VERTEX
  5
4B
330
4A
100
AcDbEntity
  8
Livello 1
 62
     7
420
 16777215
370
     9
100
AcDbVertex
100
AcDb2dVertex
 10
-25.81651203781671
 20
420.9274507953758
 30
0.0
  0
VERTEX
  5
4C
330
4A
100
AcDbEntity
  8
Livello 1
 62
     7
420
 16777215
370
     9
100
AcDbVertex
100
AcDb2dVertex
 10
-25.62462021928829
 20
420.3454019131428
 30
0.0
  0
SEQEND
  5
4D
330
4A
100
AcDbEntity
  8
Livello 1
370
     9
  0
POLYLINE
  5
4E
330
1F
100
AcDbEntity
  8
Livello 1
 62
     7
420
 16777215
370
     9
100
AcDb2dPolyline
 66
     1
 10
0.0
 20
0.0
 30
0.0
  0
VERTEX
  5
4F
330
4E
100
AcDbEntity
  8
Livello 1
 62
     7
420
 16777215
370
     9
100
AcDbVertex
100
AcDb2dVertex
 10
-18.30430907745517
 20
420.9274507953758
 30
0.0
  0
VERTEX
  5
50
330
4E
100
AcDbEntity
  8
Livello 1
 62
     7
420
 16777215
370
     9
100
AcDbVertex
100
AcDb2dVertex
 10
-18.11052245640987
 20
420.3454019131428
 30
0.0
  0
SEQEND
  5
51
330
4E
100
AcDbEntity
  8
Livello 1
370
     9
  0
POLYLINE
  5
52
330
1F
100
AcDbEntity
  8
Livello 1
 62
     7
420
 16777215
370
     9
100
AcDb2dPolyline
 66
     1
 10
0.0
 20
0.0
 30
0.0
  0
VERTEX
  5
53
330
52
100
AcDbEntity
  8
Livello 1
 62
     7
420
 16777215
370
     9
100
AcDbVertex
100
AcDb2dVertex
 10
-26.9747531399577
 20
422.4660304390884
 30
0.0
  0
VERTEX
  5
54
330
52
100
AcDbEntity
  8
Livello 1
 62
     7
420
 16777215
370
     9
100
AcDbVertex
100
AcDb2dVertex
 10
-26.39683837230704
 20
422.4660304390884
 30
0.0
  0
VERTEX
  5
55
330
52
100
AcDbEntity
  8
Livello 1
 62
     7
420
 16777215
370
     9
100
AcDbVertex
100
AcDb2dVertex
 10
-26.39683837230704
 20
422.8553262289216
 30
0.0
  0
VERTEX
  5
56
330
52
100
AcDbEntity
  8
Livello 1
 62
     7
420
 16777215
370
     9
100
AcDbVertex
100
AcDb2dVertex
 10
-26.39683837230704
 20
423.0480793213213
 30
0.0
  0
VERTEX
  5
57
330
52
100
AcDbEntity
  8
Livello 1
 62
     7
420
 16777215
370
     9
100
AcDbVertex
100
AcDb2dVertex
 10
-26.20425753468158
 20
423.4320352131524
 30
0.0
  0
VERTEX
  5
58
330
52
100
AcDbEntity
  8
Livello 1
 62
     7
420
 16777215
370
     9
100
AcDbVertex
100
AcDb2dVertex
 10
-26.01271022570169
 20
423.4320352131524
 30
0.0
  0
SEQEND
  5
59
330
52
100
AcDbEntity
  8
Livello 1
370
     9
  0
POLYLINE
  5
5A
330
1F
100
AcDbEntity
  8
Livello 1
 62
     7
420
 16777215
370
     9
100
AcDb2dPolyline
 66
     1
 10
0.0
 20
0.0
 30
0.0
  0
VERTEX
  5
5B
330
5A
100
AcDbEntity
  8
Livello 1
 62
     7
420
 16777215
370
     9
100
AcDbVertex
100
AcDb2dVertex
 10
-18.4970621698549
 20
422.8553262289216
 30
0.0
  0
VERTEX
  5
5C
330
5A
100
AcDbEntity
  8
Livello 1
 62
     7
420
 16777215
370
     9
100
AcDbVertex
100
AcDb2dVertex
 10
-18.68843722406053
 20
422.8553262289216
 30
0.0
  0
VERTEX
  5
5D
330
5A
100
AcDbEntity
  8
Livello 1
 62
     7
420
 16777215
370
     9
100
AcDbVertex
100
AcDb2dVertex
 10
-19.07497693750556
 20
422.8553262289216
 30
0.0
  0
VERTEX
  5
5E
330
5A
100
AcDbEntity
  8
Livello 1
 62
     7
420
 16777215
370
     9
100
AcDbVertex
100
AcDb2dVertex
 10
-19.07497693750556
 20
423.0480793213213
 30
0.0
  0
VERTEX
  5
5F
330
5A
100
AcDbEntity
  8
Livello 1
 62
     7
420
 16777215
370
     9
100
AcDbVertex
100
AcDb2dVertex
 10
-19.26635199171119
 20
423.4320352131524
 30
0.0
  0
VERTEX
  5
60
330
5A
100
AcDbEntity
  8
Livello 1
 62
     7
420
 16777215
370
     9
100
AcDbVertex
100
AcDb2dVertex
 10
-19.45910508411092
 20
423.4320352131524
 30
0.0
  0
SEQEND
  5
61
330
5A
100
AcDbEntity
  8
Livello 1
370
     9
  0
POLYLINE
  5
62
330
1F
100
AcDbEntity
  8
Livello 1
 62
     7
420
 16777215
370
     9
100
AcDb2dPolyline
 66
     1
 10
0.0
 20
0.0
 30
0.0
  0
VERTEX
  5
63
330
62
100
AcDbEntity
  8
Livello 1
 62
     7
420
 16777215
370
     9
100
AcDbVertex
100
AcDb2dVertex
 10
-26.39683837230704
 20
422.4660304390884
 30
0.0
  0
VERTEX
  5
64
330
62
100
AcDbEntity
  8
Livello 1
 62
     7
420
 16777215
370
     9
100
AcDbVertex
100
AcDb2dVertex
 10
-18.88119031646026
 20
422.4660304390884
 30
0.0
  0
VERTEX
  5
65
330
62
100
AcDbEntity
  8
Livello 1
 62
     7
420
 16777215
370
     9
100
AcDbVertex
100
AcDb2dVertex
 10
-19.07497693750556
 20
422.8553262289216
 30
0.0
  0
SEQEND
  5
66
330
62
100
AcDbEntity
  8
Livello 1
370
     9
  0
POLYLINE
  5
67
330
1F
100
AcDbEntity
  8
Livello 1
 62
     7
420
 16777215
370
     9
100
AcDb2dPolyline
 66
     1
 10
0.0
 20
0.0
 30
0.0
  0
VERTEX
  5
68
330
67
100
AcDbEntity
  8
Livello 1
 62
     7
420
 16777215
370
     9
100
AcDbVertex
100
AcDb2dVertex
 10
-26.39683837230704
 20
422.2732773466886
 30
0.0
  0
VERTEX
  5
69
330
67
100
AcDbEntity
  8
Livello 1
 62
     7
420
 16777215
370
     9
100
AcDbVertex
100
AcDb2dVertex
 10
-26.9747531399577
 20
422.0820745472573
 30
0.0
  0
SEQEND
  5
6A
330
67
100
AcDbEntity
  8
Livello 1
370
     9
  0
POLYLINE
  5
6B
330
1F
100
AcDbEntity
  8
Livello 1
 62
     7
420
 16777215
370
     9
100
AcDb2dPolyline
 66
     1
 10
0.0
 20
0.0
 30
0.0
  0
VERTEX
  5
6C
330
6B
100
AcDbEntity
  8
Livello 1
 62
     7
420
 16777215
370
     9
100
AcDbVertex
100
AcDb2dVertex
 10
-18.4970621698549
 20
422.663951174716
 30
0.0
  0
VERTEX
  5
6D
330
6B
100
AcDbEntity
  8
Livello 1
 62
     7
420
 16777215
370
     9
100
AcDbVertex
100
AcDb2dVertex
 10
-18.68843722406053
 20
422.4660304390884
 30
0.0
  0
VERTEX
  5
6E
330
6B
100
AcDbEntity
  8
Livello 1
 62
     7
420
 16777215
370
     9
100
AcDbVertex
100
AcDb2dVertex
 10
-18.88119031646026
 20
422.4660304390884
 30
0.0
  0
SEQEND
  5
6F
330
6B
100
AcDbEntity
  8
Livello 1
370
     9
  0
POLYLINE
  5
70
330
1F
100
AcDbEntity
  8
Livello 1
 62
     7
420
 16777215
370
     9
100
AcDb2dPolyline
 66
     1
 10
0.0
 20
0.0
 30
0.0
  0
VERTEX
  5
71
330
70
100
AcDbEntity
  8
Livello 1
 62
     7
420
 16777215
370
     9
100
AcDbVertex
100
AcDb2dVertex
 10
-26.39683837230704
 20
422.2732773466886
 30
0.0
  0
VERTEX
  5
72
330
70
100
AcDbEntity
  8
Livello 1
 62
     7
420
 16777215
370
     9
100
AcDbVertex
100
AcDb2dVertex
 10
-25.81651203781671
 20
420.9274507953758
 30
0.0
  0
SEQEND
  5
73
330
70
100
AcDbEntity
  8
Livello 1
370
     9
  0
POLYLINE
  5
74
330
1F
100
AcDbEntity
  8
Livello 1
 62
     7
420
 16777215
370
     9
100
AcDb2dPolyline
 66
     1
 10
0.0
 20
0.0
 30
0.0
  0
VERTEX
  5
75
330
74
100
AcDbEntity
  8
Livello 1
 62
     7
420
 16777215
370
     9
100
AcDbVertex
100
AcDb2dVertex
 10
-18.30430907745517
 20
420.9274507953758
 30
0.0
  0
VERTEX
  5
76
330
74
100
AcDbEntity
  8
Livello 1
 62
     7
420
 16777215
370
     9
100
AcDbVertex
100
AcDb2dVertex
 10
-18.88119031646026
 20
422.4660304390884
 30
0.0
  0
SEQEND
  5
77
330
74
100
AcDbEntity
  8
Livello 1
370
     9
  0
POLYLINE
  5
78
330
1F
100
AcDbEntity
  8
Livello 1
 62
     7
420
 16777215
370
     9
100
AcDb2dPolyline
 66
     1
 10
0.0
 20
0.0
 30
0.0
  0
VERTEX
  5
79
330
78
100
AcDbEntity
  8
Livello 1
 62
     7
420
 16777215
370
     9
100
AcDbVertex
100
AcDb2dVertex
 10
220.6549207347668
 20
64.22071395963927
 30
0.0
  0
VERTEX
  5
7A
330
78
100
AcDbEntity
  8
Livello 1
 62
     7
420
 16777215
370
     9
100
AcDbVertex
100
AcDb2dVertex
 10
220.2707925881615
 20
64.22071395963927
 30
0.0
  0
VERTEX
  5
7B
330
78
100
AcDbEntity
  8
Livello 1
 62
     7
420
 16777215
370
     9
100
AcDbVertex
100
AcDb2dVertex
 10
219.1153075624087
 20
64.22071395963927
 30
0.0
  0
VERTEX
  5
7C
330
78
100
AcDbEntity
  8
Livello 1
 62
     7
420
 16777215
370
     9
100
AcDbVertex
100
AcDb2dVertex
 10
214.6825032015377
 20
64.22071395963927
 30
0.0
  0
VERTEX
  5
7D
330
78
100
AcDbEntity
  8
Livello 1
 62
     7
420
 16777215
370
     9
100
AcDbVertex
100
AcDb2dVertex
 10
196.9540418344421
 20
64.22071395963927
 30
0.0
  0
VERTEX
  5
7E
330
78
100
AcDbEntity
  8
Livello 1
 62
     7
420
 16777215
370
     9
100
AcDbVertex
100
AcDb2dVertex
 10
125.6515895953232
 20
64.22071395963927
 30
0.0
  0
VERTEX
  5
7F
330
78
100
AcDbEntity
  8
Livello 1
 62
     7
420
 16777215
370
     9
100
AcDbVertex
100
AcDb2dVertex
 10
54.54206270337838
 20
64.22071395963927
 30
0.0
  0
VERTEX
  5
80
330
78
100
AcDbEntity
  8
Livello 1
 62
     7
420
 16777215
370
     9
100
AcDbVertex
100
AcDb2dVertex
 10
36.62067598910872
 20
64.22071395963927
 30
0.0
  0
VERTEX
  5
81
330
78
100
AcDbEntity
  8
Livello 1
 62
     7
420
 16777215
370
     9
100
AcDbVertex
100
AcDb2dVertex
 10
32.18666584481792
 20
64.22071395963927
 30
0.0
  0
VERTEX
  5
82
330
78
100
AcDbEntity
  8
Livello 1
 62
     7
420
 16777215
370
     9
100
AcDbVertex
100
AcDb2dVertex
 10
31.22427842101338
 20
64.22071395963927
 30
0.0
  0
VERTEX
  5
83
330
78
100
AcDbEntity
  8
Livello 1
 62
     7
420
 16777215
370
     9
100
AcDbVertex
100
AcDb2dVertex
 10
30.83911674576245
 20
64.22071395963927
 30
0.0
  0
VERTEX
  5
84
330
78
100
AcDbEntity
  8
Livello 1
 62
     7
420
 16777215
370
     9
100
AcDbVertex
100
AcDb2dVertex
 10
30.64377983174878
 20
64.22071395963927
 30
0.0
  0
SEQEND
  5
85
330
78
100
AcDbEntity
  8
Livello 1
370
     9
  0
POLYLINE
  5
86
330
1F
100
AcDbEntity
  8
Livello 1
 62
     7
420
 16777215
370
     9
100
AcDb2dPolyline
 66
     1
 10
0.0
 20
0.0
 30
0.0
  0
VERTEX
  5
87
330
86
100
AcDbEntity
  8
Livello 1
 62
     7
420
 16777215
370
     9
100
AcDbVertex
100
AcDb2dVertex
 10
33.14991454249378
 20
296.822192308607
 30
0.0
  0
VERTEX
  5
88
330
86
100
AcDbEntity
  8
Livello 1
 62
     7
420
 16777215
370
     9
100
AcDbVertex
100
AcDb2dVertex
 10
32.57062173664901
 20
296.6304727448528
 30
0.0
  0
SEQEND
  5
89
330
86
100
AcDbEntity
  8
Livello 1
370
     9
  0
POLYLINE
  5
8A
330
1F
100
AcDbEntity
  8
Livello 1
 62
     7
420
 16777215
370
     9
100
AcDb2dPolyline
 66
     1
 10
0.0
 20
0.0
 30
0.0
  0
VERTEX
  5
8B
330
8A
100
AcDbEntity
  8
Livello 1
 62
     7
420
 16777215
370
     9
100
AcDbVertex
100
AcDb2dVertex
 10
32.18666584481792
 20
297.5901040922691
 30
0.0
  0
VERTEX
  5
8C
330
8A
100
AcDbEntity
  8
Livello 1
 62
     7
420
 16777215
370
     9
100
AcDbVertex
100
AcDb2dVertex
 10
33.53404268909913
 20
297.9804334107479
 30
0.0
  0
SEQEND
  5
8D
330
8A
100
AcDbEntity
  8
Livello 1
370
     9
  0
POLYLINE
  5
8E
330
1F
100
AcDbEntity
  8
Livello 1
 62
     7
420
 16777215
370
     9
100
AcDb2dPolyline
 66
     1
 10
0.0
 20
0.0
 30
0.0
  0
VERTEX
  5
8F
330
8E
100
AcDbEntity
  8
Livello 1
 62
     7
420
 16777215
370
     9
100
AcDbVertex
100
AcDb2dVertex
 10
220.6549207347668
 20
60.17651636950448
 30
0.0
  0
VERTEX
  5
90
330
8E
100
AcDbEntity
  8
Livello 1
 62
     7
420
 16777215
370
     9
100
AcDbVertex
100
AcDb2dVertex
 10
220.6549207347668
 20
64.22071395963927
 30
0.0
  0
SEQEND
  5
91
330
8E
100
AcDbEntity
  8
Livello 1
370
     9
  0
POLYLINE
  5
92
330
1F
100
AcDbEntity
  8
Livello 1
 62
     7
420
 16777215
370
     9
100
AcDb2dPolyline
 66
     1
 10
0.0
 20
0.0
 30
0.0
  0
VERTEX
  5
93
330
92
100
AcDbEntity
  8
Livello 1
 62
     7
420
 16777215
370
     9
100
AcDbVertex
100
AcDb2dVertex
 10
30.64377983174878
 20
64.22071395963927
 30
0.0
  0
VERTEX
  5
94
330
92
100
AcDbEntity
  8
Livello 1
 62
     7
420
 16777215
370
     9
100
AcDbVertex
100
AcDb2dVertex
 10
30.64377983174878
 20
60.17651636950448
 30
0.0
  0
SEQEND
  5
95
330
92
100
AcDbEntity
  8
Livello 1
370
     9
  0
POLYLINE
  5
96
330
1F
100
AcDbEntity
  8
Livello 1
 62
     7
420
 16777215
370
     9
100
AcDb2dPolyline
 66
     1
 10
0.0
 20
0.0
 30
0.0
  0
VERTEX
  5
97
330
96
100
AcDbEntity
  8
Livello 1
 62
     7
420
 16777215
370
     9
100
AcDbVertex
100
AcDb2dVertex
 10
203.6988497754642
 20
53.23568249537163
 30
0.0
  0
VERTEX
  5
98
330
96
100
AcDbEntity
  8
Livello 1
 62
     7
420
 16777215
370
     9
100
AcDbVertex
100
AcDb2dVertex
 10
203.6988497754642
 20
60.17651636950448
 30
0.0
  0
SEQEND
  5
99
330
96
100
AcDbEntity
  8
Livello 1
370
     9
  0
POLYLINE
  5
9A
330
1F
100
AcDbEntity
  8
Livello 1
 62
     7
420
 16777215
370
     9
100
AcDb2dPolyline
 66
     1
 10
0.0
 20
0.0
 30
0.0
  0
VERTEX
  5
9B
330
9A
100
AcDbEntity
  8
Livello 1
 62
     7
420
 16777215
370
     9
100
AcDbVertex
100
AcDb2dVertex
 10
47.60415716040799
 20
60.17651636950448
 30
0.0
  0
VERTEX
  5
9C
330
9A
100
AcDbEntity
  8
Livello 1
 62
     7
420
 16777215
370
     9
100
AcDbVertex
100
AcDb2dVertex
 10
47.60415716040799
 20
59.02103134375169
 30
0.0
  0
SEQEND
  5
9D
330
9A
100
AcDbEntity
  8
Livello 1
370
     9
  0
POLYLINE
  5
9E
330
1F
100
AcDbEntity
  8
Livello 1
 62
     7
420
 16777215
370
     9
100
AcDb2dPolyline
 66
     1
 10
0.0
 20
0.0
 30
0.0
  0
VERTEX
  5
9F
330
9E
100
AcDbEntity
  8
Livello 1
 62
     7
420
 16777215
370
     9
100
AcDbVertex
100
AcDb2dVertex
 10
33.3426676348935
 20
298.5561088663332
 30
0.0
  0
VERTEX
  5
A0
330
9E
100
AcDbEntity
  8
Livello 1
 62
     7
420
 16777215
370
     9
100
AcDbVertex
100
AcDb2dVertex
 10
31.99391275241819
 20
297.9804334107479
 30
0.0
  0
SEQEND
  5
A1
330
9E
100
AcDbEntity
  8
Livello 1
370
     9
  0
POLYLINE
  5
A2
330
1F
100
AcDbEntity
  8
Livello 1
 62
     7
420
 16777215
370
     9
100
AcDb2dPolyline
 66
     1
 10
0.0
 20
0.0
 30
0.0
  0
VERTEX
  5
A3
330
A2
100
AcDbEntity
  8
Livello 1
 62
     7
420
 16777215
370
     9
100
AcDbVertex
100
AcDb2dVertex
 10
221.2354193240314
 20
290.27237677205
 30
0.0
  0
VERTEX
  5
A4
330
A2
100
AcDbEntity
  8
Livello 1
 62
     7
420
 16777215
370
     9
100
AcDbVertex
100
AcDb2dVertex
 10
172.6716308162071
 20
423.4320352131524
 30
0.0
  0
SEQEND
  5
A5
330
A2
100
AcDbEntity
  8
Livello 1
370
     9
  0
POLYLINE
  5
A6
330
1F
100
AcDbEntity
  8
Livello 1
 62
     7
420
 16777215
370
     9
100
AcDb2dPolyline
 66
     1
 10
0.0
 20
0.0
 30
0.0
  0
VERTEX
  5
A7
330
A6
100
AcDbEntity
  8
Livello 1
 62
     7
420
 16777215
370
     9
100
AcDbVertex
100
AcDb2dVertex
 10
78.8241292120648
 20
423.4320352131524
 30
0.0
  0
VERTEX
  5
A8
330
A6
100
AcDbEntity
  8
Livello 1
 62
     7
420
 16777215
370
     9
100
AcDbVertex
100
AcDb2dVertex
 10
33.3426676348935
 20
298.5561088663332
 30
0.0
  0
SEQEND
  5
A9
330
A6
100
AcDbEntity
  8
Livello 1
370
     9
  0
POLYLINE
  5
AA
330
1F
100
AcDbEntity
  8
Livello 1
 62
     7
420
 16777215
370
     9
100
AcDb2dPolyline
 66
     1
 10
0.0
 20
0.0
 30
0.0
  0
VERTEX
  5
AB
330
AA
100
AcDbEntity
  8
Livello 1
 62
     7
420
 16777215
370
     9
100
AcDbVertex
100
AcDb2dVertex
 10
-26.01271022570169
 20
423.4320352131524
 30
0.0
  0
VERTEX
  5
AC
330
AA
100
AcDbEntity
  8
Livello 1
 62
     7
420
 16777215
370
     9
100
AcDbVertex
100
AcDb2dVertex
 10
-19.45910508411092
 20
423.4320352131524
 30
0.0
  0
SEQEND
  5
AD
330
AA
100
AcDbEntity
  8
Livello 1
370
     9
  0
POLYLINE
  5
AE
330
1F
100
AcDbEntity
  8
Livello 1
 62
     7
420
 16777215
370
     9
100
AcDb2dPolyline
 66
     1
 10
0.0
 20
0.0
 30
0.0
  0
VERTEX
  5
AF
330
AE
100
AcDbEntity
  8
Livello 1
 62
     7
420
 16777215
370
     9
100
AcDbVertex
100
AcDb2dVertex
 10
-26.9747531399577
 20
422.4660304390884
 30
0.0
  0
VERTEX
  5
B0
330
AE
100
AcDbEntity
  8
Livello 1
 62
     7
420
 16777215
370
     9
100
AcDbVertex
100
AcDb2dVertex
 10
-26.9747531399577
 20
422.8553262289216
 30
0.0
  0
VERTEX
  5
B1
330
AE
100
AcDbEntity
  8
Livello 1
 62
     7
420
 16777215
370
     9
100
AcDbVertex
100
AcDb2dVertex
 10
-26.58821342651267
 20
423.0480793213213
 30
0.0
  0
VERTEX
  5
B2
330
AE
100
AcDbEntity
  8
Livello 1
 62
     7
420
 16777215
370
     9
100
AcDbVertex
100
AcDb2dVertex
 10
-26.39683837230704
 20
423.4320352131524
 30
0.0
  0
VERTEX
  5
B3
330
AE
100
AcDbEntity
  8
Livello 1
 62
     7
420
 16777215
370
     9
100
AcDbVertex
100
AcDb2dVertex
 10
-26.01271022570169
 20
423.4320352131524
 30
0.0
  0
SEQEND
  5
B4
330
AE
100
AcDbEntity
  8
Livello 1
370
     9
  0
POLYLINE
  5
B5
330
1F
100
AcDbEntity
  8
Livello 1
 62
     7
420
 16777215
370
     9
100
AcDb2dPolyline
 66
     1
 10
0.0
 20
0.0
 30
0.0
  0
VERTEX
  5
B6
330
B5
100
AcDbEntity
  8
Livello 1
 62
     7
420
 16777215
370
     9
100
AcDbVertex
100
AcDb2dVertex
 10
-18.4970621698549
 20
422.8553262289216
 30
0.0
  0
VERTEX
  5
B7
330
B5
100
AcDbEntity
  8
Livello 1
 62
     7
420
 16777215
370
     9
100
AcDbVertex
100
AcDb2dVertex
 10
-18.68843722406053
 20
423.0480793213213
 30
0.0
  0
VERTEX
  5
B8
330
B5
100
AcDbEntity
  8
Livello 1
 62
     7
420
 16777215
370
     9
100
AcDbVertex
100
AcDb2dVertex
 10
-19.07497693750556
 20
423.4320352131524
 30
0.0
  0
VERTEX
  5
B9
330
B5
100
AcDbEntity
  8
Livello 1
 62
     7
420
 16777215
370
     9
100
AcDbVertex
100
AcDb2dVertex
 10
-19.45910508411092
 20
423.4320352131524
 30
0.0
  0
SEQEND
  5
BA
330
B5
100
AcDbEntity
  8
Livello 1
370
     9
  0
POLYLINE
  5
BB
330
1F
100
AcDbEntity
  8
Livello 1
 62
     7
420
 16777215
370
     9
100
AcDb2dPolyline
 66
     1
 10
0.0
 20
0.0
 30
0.0
  0
VERTEX
  5
BC
330
BB
100
AcDbEntity
  8
Livello 1
 62
     7
420
 16777215
370
     9
100
AcDbVertex
100
AcDb2dVertex
 10
-18.4970621698549
 20
422.8553262289216
 30
0.0
  0
VERTEX
  5
BD
330
BB
100
AcDbEntity
  8
Livello 1
 62
     7
420
 16777215
370
     9
100
AcDbVertex
100
AcDb2dVertex
 10
-18.4970621698549
 20
422.663951174716
 30
0.0
  0
SEQEND
  5
BE
330
BB
100
AcDbEntity
  8
Livello 1
370
     9
  0
POLYLINE
  5
BF
330
1F
100
AcDbEntity
  8
Livello 1
 62
     7
420
 16777215
370
     9
100
AcDb2dPolyline
 66
     1
 10
0.0
 20
0.0
 30
0.0
  0
VERTEX
  5
C0
330
BF
100
AcDbEntity
  8
Livello 1
 62
     7
420
 16777215
370
     9
100
AcDbVertex
100
AcDb2dVertex
 10
-26.39683837230704
 20
420.9274507953758
 30
0.0
  0
VERTEX
  5
C1
330
BF
100
AcDbEntity
  8
Livello 1
 62
     7
420
 16777215
370
     9
100
AcDbVertex
100
AcDb2dVertex
 10
-26.9747531399577
 20
422.0820745472573
 30
0.0
  0
SEQEND
  5
C2
330
BF
100
AcDbEntity
  8
Livello 1
370
     9
  0
POLYLINE
  5
C3
330
1F
100
AcDbEntity
  8
Livello 1
 62
     7
420
 16777215
370
     9
100
AcDb2dPolyline
 66
     1
 10
0.0
 20
0.0
 30
0.0
  0
VERTEX
  5
C4
330
C3
100
AcDbEntity
  8
Livello 1
 62
     7
420
 16777215
370
     9
100
AcDbVertex
100
AcDb2dVertex
 10
-18.4970621698549
 20
422.663951174716
 30
0.0
  0
VERTEX
  5
C5
330
C3
100
AcDbEntity
  8
Livello 1
 62
     7
420
 16777215
370
     9
100
AcDbVertex
100
AcDb2dVertex
 10
-17.72501627161041
 20
420.9274507953758
 30
0.0
  0
SEQEND
  5
C6
330
C3
100
AcDbEntity
  8
Livello 1
370
     9
  0
POLYLINE
  5
C7
330
1F
100
AcDbEntity
  8
Livello 1
 62
     7
420
 16777215
370
     9
100
AcDb2dPolyline
 66
     1
 10
0.0
 20
0.0
 30
0.0
  0
VERTEX
  5
C8
330
C7
100
AcDbEntity
  8
Livello 1
 62
     7
420
 16777215
370
     9
100
AcDbVertex
100
AcDb2dVertex
 10
125.4565971908581
 20
66.34254826900464
 30
0.0
  0
VERTEX
  5
C9
330
C7
100
AcDbEntity
  8
Livello 1
 62
     7
420
 16777215
370
     9
100
AcDbVertex
100
AcDb2dVertex
 10
34.88503688363986
 20
290.27237677205
 30
0.0
  0
SEQEND
  5
CA
330
C7
100
AcDbEntity
  8
Livello 1
370
     9
  0
POLYLINE
  5
CB
330
1F
100
AcDbEntity
  8
Livello 1
 62
     7
420
 16777215
370
     9
100
AcDb2dPolyline
 66
     1
 10
0.0
 20
0.0
 30
0.0
  0
VERTEX
  5
CC
330
CB
100
AcDbEntity
  8
Livello 1
 62
     7
420
 16777215
370
     9
100
AcDbVertex
100
AcDb2dVertex
 10
-26.20425753468158
 20
420.3454019131428
 30
0.0
  0
VERTEX
  5
CD
330
CB
100
AcDbEntity
  8
Livello 1
 62
     7
420
 16777215
370
     9
100
AcDbVertex
100
AcDb2dVertex
 10
116.7870144022269
 20
66.34254826900464
 30
0.0
  0
SEQEND
  5
CE
330
CB
100
AcDbEntity
  8
Livello 1
370
     9
  0
POLYLINE
  5
CF
330
1F
100
AcDbEntity
  8
Livello 1
 62
     7
420
 16777215
370
     9
100
AcDb2dPolyline
 66
     1
 10
0.0
 20
0.0
 30
0.0
  0
VERTEX
  5
D0
330
CF
100
AcDbEntity
  8
Livello 1
 62
     7
420
 16777215
370
     9
100
AcDbVertex
100
AcDb2dVertex
 10
32.76595865066268
 20
295.8606661586737
 30
0.0
  0
VERTEX
  5
D1
330
CF
100
AcDbEntity
  8
Livello 1
 62
     7
420
 16777215
370
     9
100
AcDbVertex
100
AcDb2dVertex
 10
-17.53209092443642
 20
420.3454019131428
 30
0.0
  0
SEQEND
  5
D2
330
CF
100
AcDbEntity
  8
Livello 1
370
     9
  0
POLYLINE
  5
D3
330
1F
100
AcDbEntity
  8
Livello 1
 62
     7
420
 16777215
370
     9
100
AcDb2dPolyline
 66
     1
 10
0.0
 20
0.0
 30
0.0
  0
VERTEX
  5
D4
330
D3
100
AcDbEntity
  8
Livello 1
 62
     7
420
 16777215
370
     9
100
AcDbVertex
100
AcDb2dVertex
 10
47.79587672416214
 20
56.32386608834959
 30
0.0
  0
VERTEX
  5
D5
330
D3
100
AcDbEntity
  8
Livello 1
 62
     7
420
 16777215
370
     9
100
AcDbVertex
100
AcDb2dVertex
 10
47.79587672416214
 20
55.7475016136673
 30
0.0
  0
VERTEX
  5
D6
330
D3
100
AcDbEntity
  8
Livello 1
 62
     7
420
 16777215
370
     9
100
AcDbVertex
100
AcDb2dVertex
 10
47.79587672416214
 20
54.77908527276357
 30
0.0
  0
VERTEX
  5
D7
330
D3
100
AcDbEntity
  8
Livello 1
 62
     7
420
 16777215
370
     9
100
AcDbVertex
100
AcDb2dVertex
 10
47.79587672416214
 20
53.81859265147591
 30
0.0
  0
VERTEX
  5
D8
330
D3
100
AcDbEntity
  8
Livello 1
 62
     7
420
 16777215
370
     9
100
AcDbVertex
100
AcDb2dVertex
 10
47.79587672416214
 20
53.23568249537163
 30
0.0
  0
VERTEX
  5
D9
330
D3
100
AcDbEntity
  8
Livello 1
 62
     7
420
 16777215
370
     9
100
AcDbVertex
100
AcDb2dVertex
 10
47.98811305223909
 20
53.23568249537163
 30
0.0
  0
VERTEX
  5
DA
330
D3
100
AcDbEntity
  8
Livello 1
 62
     7
420
 16777215
370
     9
100
AcDbVertex
100
AcDb2dVertex
 10
203.6988497754642
 20
53.23568249537163
 30
0.0
  0
SEQEND
  5
DB
330
D3
100
AcDbEntity
  8
Livello 1
370
     9
  0
POLYLINE
  5
DC
330
1F
100
AcDbEntity
  8
Livello 1
 62
     7
420
 16777215
370
     9
100
AcDb2dPolyline
 66
     1
 10
0.0
 20
0.0
 30
0.0
  0
VERTEX
  5
DD
330
DC
100
AcDbEntity
  8
Livello 1
 62
     7
420
 16777215
370
     9
100
AcDbVertex
100
AcDb2dVertex
 10
47.60415716040799
 20
59.02103134375169
 30
0.0
  0
VERTEX
  5
DE
330
DC
100
AcDbEntity
  8
Livello 1
 62
     7
420
 16777215
370
     9
100
AcDbVertex
100
AcDb2dVertex
 10
47.60415716040799
 20
58.8225938438013
 30
0.0
  0
VERTEX
  5
DF
330
DC
100
AcDbEntity
  8
Livello 1
 62
     7
420
 16777215
370
     9
100
AcDbVertex
100
AcDb2dVertex
 10
47.79587672416214
 20
58.24726289776458
 30
0.0
  0
VERTEX
  5
E0
330
DC
100
AcDbEntity
  8
Livello 1
 62
     7
420
 16777215
370
     9
100
AcDbVertex
100
AcDb2dVertex
 10
47.79587672416214
 20
57.47728405681124
 30
0.0
  0
VERTEX
  5
E1
330
DC
100
AcDbEntity
  8
Livello 1
 62
     7
420
 16777215
370
     9
100
AcDbVertex
100
AcDb2dVertex
 10
47.79587672416214
 20
56.51610241642653
 30
0.0
  0
VERTEX
  5
E2
330
DC
100
AcDbEntity
  8
Livello 1
 62
     7
420
 16777215
370
     9
100
AcDbVertex
100
AcDb2dVertex
 10
47.79587672416214
 20
56.32386608834959
 30
0.0
  0
SEQEND
  5
E3
330
DC
100
AcDbEntity
  8
Livello 1
370
     9
  0
POLYLINE
  5
E4
330
1F
100
AcDbEntity
  8
Livello 1
 62
     7
420
 16777215
370
     9
100
AcDb2dPolyline
 66
     1
 10
0.0
 20
0.0
 30
0.0
  0
VERTEX
  5
E5
330
E4
100
AcDbEntity
  8
Livello 1
 62
     7
420
 16777215
370
     9
100
AcDbVertex
100
AcDb2dVertex
 10
125.6515895953232
 20
60.17651636950448
 30
0.0
  0
VERTEX
  5
E6
330
E4
100
AcDbEntity
  8
Livello 1
 62
     7
420
 16777215
370
     9
100
AcDbVertex
100
AcDb2dVertex
 10
126.0357177419286
 20
60.17651636950448
 30
0.0
  0
VERTEX
  5
E7
330
E4
100
AcDbEntity
  8
Livello 1
 62
     7
420
 16777215
370
     9
100
AcDbVertex
100
AcDb2dVertex
 10
127.1913750224556
 20
60.17651636950448
 30
0.0
  0
VERTEX
  5
E8
330
E4
100
AcDbEntity
  8
Livello 1
 62
     7
420
 16777215
370
     9
100
AcDbVertex
100
AcDb2dVertex
 10
129.5051011503494
 20
60.17651636950448
 30
0.0
  0
VERTEX
  5
E9
330
E4
100
AcDbEntity
  8
Livello 1
 62
     7
420
 16777215
370
     9
100
AcDbVertex
100
AcDb2dVertex
 10
130.0819823893545
 20
60.17651636950448
 30
0.0
  0
VERTEX
  5
EA
330
E4
100
AcDbEntity
  8
Livello 1
 62
     7
420
 16777215
370
     9
100
AcDbVertex
100
AcDb2dVertex
 10
130.2740464626572
 20
60.17651636950448
 30
0.0
  0
VERTEX
  5
EB
330
E4
100
AcDbEntity
  8
Livello 1
 62
     7
420
 16777215
370
     9
100
AcDbVertex
100
AcDb2dVertex
 10
130.4697278862194
 20
60.17651636950448
 30
0.0
  0
VERTEX
  5
EC
330
E4
100
AcDbEntity
  8
Livello 1
 62
     7
420
 16777215
370
     9
100
AcDbVertex
100
AcDb2dVertex
 10
130.8536837780505
 20
60.17651636950448
 30
0.0
  0
VERTEX
  5
ED
330
E4
100
AcDbEntity
  8
Livello 1
 62
     7
420
 16777215
370
     9
100
AcDbVertex
100
AcDb2dVertex
 10
132.9734510301247
 20
60.17651636950448
 30
0.0
  0
VERTEX
  5
EE
330
E4
100
AcDbEntity
  8
Livello 1
 62
     7
420
 16777215
370
     9
100
AcDbVertex
100
AcDb2dVertex
 10
141.4518310193245
 20
60.17651636950448
 30
0.0
  0
VERTEX
  5
EF
330
E4
100
AcDbEntity
  8
Livello 1
 62
     7
420
 16777215
370
     9
100
AcDbVertex
100
AcDb2dVertex
 10
175.3705186193518
 20
60.17651636950448
 30
0.0
  0
VERTEX
  5
F0
330
E4
100
AcDbEntity
  8
Livello 1
 62
     7
420
 16777215
370
     9
100
AcDbVertex
100
AcDb2dVertex
 10
209.2854166143453
 20
60.17651636950448
 30
0.0
  0
VERTEX
  5
F1
330
E4
100
AcDbEntity
  8
Livello 1
 62
     7
420
 16777215
370
     9
100
AcDbVertex
100
AcDb2dVertex
 10
217.7651746417393
 20
60.17651636950448
 30
0.0
  0
VERTEX
  5
F2
330
E4
100
AcDbEntity
  8
Livello 1
 62
     7
420
 16777215
370
     9
100
AcDbVertex
100
AcDb2dVertex
 10
219.8832193460709
 20
60.17651636950448
 30
0.0
  0
VERTEX
  5
F3
330
E4
100
AcDbEntity
  8
Livello 1
 62
     7
420
 16777215
370
     9
100
AcDbVertex
100
AcDb2dVertex
 10
220.4637179353355
 20
60.17651636950448
 30
0.0
  0
VERTEX
  5
F4
330
E4
100
AcDbEntity
  8
Livello 1
 62
     7
420
 16777215
370
     9
100
AcDbVertex
100
AcDb2dVertex
 10
220.6549207347668
 20
60.17651636950448
 30
0.0
  0
SEQEND
  5
F5
330
E4
100
AcDbEntity
  8
Livello 1
370
     9
  0
POLYLINE
  5
F6
330
1F
100
AcDbEntity
  8
Livello 1
 62
     7
420
 16777215
370
     9
100
AcDb2dPolyline
 66
     1
 10
0.0
 20
0.0
 30
0.0
  0
VERTEX
  5
F7
330
F6
100
AcDbEntity
  8
Livello 1
 62
     7
420
 16777215
370
     9
100
AcDbVertex
100
AcDb2dVertex
 10
30.64377983174878
 20
60.17651636950448
 30
0.0
  0
VERTEX
  5
F8
330
F6
100
AcDbEntity
  8
Livello 1
 62
     7
420
 16777215
370
     9
100
AcDbVertex
100
AcDb2dVertex
 10
30.83911674576245
 20
60.17651636950448
 30
0.0
  0
VERTEX
  5
F9
330
F6
100
AcDbEntity
  8
Livello 1
 62
     7
420
 16777215
370
     9
100
AcDbVertex
100
AcDb2dVertex
 10
31.03186983816217
 20
60.17651636950448
 30
0.0
  0
VERTEX
  5
FA
330
F6
100
AcDbEntity
  8
Livello 1
 62
     7
420
 16777215
370
     9
100
AcDbVertex
100
AcDb2dVertex
 10
31.41582572999327
 20
60.17651636950448
 30
0.0
  0
VERTEX
  5
FB
330
F6
100
AcDbEntity
  8
Livello 1
 62
     7
420
 16777215
370
     9
100
AcDbVertex
100
AcDb2dVertex
 10
33.53404268909913
 20
60.17651636950448
 30
0.0
  0
VERTEX
  5
FC
330
F6
100
AcDbEntity
  8
Livello 1
 62
     7
420
 16777215
370
     9
100
AcDbVertex
100
AcDb2dVertex
 10
42.01414522604161
 20
60.17651636950448
 30
0.0
  0
VERTEX
  5
FD
330
F6
100
AcDbEntity
  8
Livello 1
 62
     7
420
 16777215
370
     9
100
AcDbVertex
100
AcDb2dVertex
 10
75.93283282606887
 20
60.17651636950448
 30
0.0
  0
VERTEX
  5
FE
330
F6
100
AcDbEntity
  8
Livello 1
 62
     7
420
 16777215
370
     9
100
AcDbVertex
100
AcDb2dVertex
 10
109.8499701331278
 20
60.17651636950448
 30
0.0
  0
VERTEX
  5
FF
330
F6
100
AcDbEntity
  8
Livello 1
 62
     7
420
 16777215
370
     9
100
AcDbVertex
100
AcDb2dVertex
 10
118.325938555488
 20
60.17651636950448
 30
0.0
  0
VERTEX
  5
100
330
F6
100
AcDbEntity
  8
Livello 1
 62
     7
420
 16777215
370
     9
100
AcDbVertex
100
AcDb2dVertex
 10
120.4477728648533
 20
60.17651636950448
 30
0.0
  0
VERTEX
  5
101
330
F6
100
AcDbEntity
  8
Livello 1
 62
     7
420
 16777215
370
     9
100
AcDbVertex
100
AcDb2dVertex
 10
121.0262043968268
 20
60.17651636950448
 30
0.0
  0
VERTEX
  5
102
330
F6
100
AcDbEntity
  8
Livello 1
 62
     7
420
 16777215
370
     9
100
AcDbVertex
100
AcDb2dVertex
 10
121.2189574892265
 20
60.17651636950448
 30
0.0
  0
VERTEX
  5
103
330
F6
100
AcDbEntity
  8
Livello 1
 62
     7
420
 16777215
370
     9
100
AcDbVertex
100
AcDb2dVertex
 10
121.7965277473287
 20
60.17651636950448
 30
0.0
  0
VERTEX
  5
104
330
F6
100
AcDbEntity
  8
Livello 1
 62
     7
420
 16777215
370
     9
100
AcDbVertex
100
AcDb2dVertex
 10
124.2993896173627
 20
60.17651636950448
 30
0.0
  0
VERTEX
  5
105
330
F6
100
AcDbEntity
  8
Livello 1
 62
     7
420
 16777215
370
     9
100
AcDbVertex
100
AcDb2dVertex
 10
125.2638440984583
 20
60.17651636950448
 30
0.0
  0
VERTEX
  5
106
330
F6
100
AcDbEntity
  8
Livello 1
 62
     7
420
 16777215
370
     9
100
AcDbVertex
100
AcDb2dVertex
 10
125.6515895953232
 20
60.17651636950448
 30
0.0
  0
SEQEND
  5
107
330
F6
100
AcDbEntity
  8
Livello 1
370
     9
  0
POLYLINE
  5
108
330
1F
100
AcDbEntity
  8
Livello 1
 62
     7
420
 16777215
370
     9
100
AcDb2dPolyline
 66
     1
 10
0.0
 20
0.0
 30
0.0
  0
VERTEX
  5
109
330
108
100
AcDbEntity
  8
Livello 1
 62
     7
420
 16777215
370
     9
100
AcDbVertex
100
AcDb2dVertex
 10
125.6515895953232
 20
66.34254826900464
 30
0.0
  0
VERTEX
  5
10A
330
108
100
AcDbEntity
  8
Livello 1
 62
     7
420
 16777215
370
     9
100
AcDbVertex
100
AcDb2dVertex
 10
126.0357177419286
 20
66.34254826900464
 30
0.0
  0
VERTEX
  5
10B
330
108
100
AcDbEntity
  8
Livello 1
 62
     7
420
 16777215
370
     9
100
AcDbVertex
100
AcDb2dVertex
 10
127.1913750224556
 20
66.34254826900464
 30
0.0
  0
VERTEX
  5
10C
330
108
100
AcDbEntity
  8
Livello 1
 62
     7
420
 16777215
370
     9
100
AcDbVertex
100
AcDb2dVertex
 10
129.5051011503494
 20
66.34254826900464
 30
0.0
  0
VERTEX
  5
10D
330
108
100
AcDbEntity
  8
Livello 1
 62
     7
420
 16777215
370
     9
100
AcDbVertex
100
AcDb2dVertex
 10
130.0819823893545
 20
66.34254826900464
 30
0.0
  0
VERTEX
  5
10E
330
108
100
AcDbEntity
  8
Livello 1
 62
     7
420
 16777215
370
     9
100
AcDbVertex
100
AcDb2dVertex
 10
130.2740464626572
 20
66.34254826900464
 30
0.0
  0
VERTEX
  5
10F
330
108
100
AcDbEntity
  8
Livello 1
 62
     7
420
 16777215
370
     9
100
AcDbVertex
100
AcDb2dVertex
 10
130.8536837780505
 20
66.34254826900464
 30
0.0
  0
VERTEX
  5
110
330
108
100
AcDbEntity
  8
Livello 1
 62
     7
420
 16777215
370
     9
100
AcDbVertex
100
AcDb2dVertex
 10
132.9734510301247
 20
66.34254826900464
 30
0.0
  0
VERTEX
  5
111
330
108
100
AcDbEntity
  8
Livello 1
 62
     7
420
 16777215
370
     9
100
AcDbVertex
100
AcDb2dVertex
 10
141.2595946912476
 20
66.34254826900464
 30
0.0
  0
VERTEX
  5
112
330
108
100
AcDbEntity
  8
Livello 1
 62
     7
420
 16777215
370
     9
100
AcDbVertex
100
AcDb2dVertex
 10
174.4058918834819
 20
66.34254826900464
 30
0.0
  0
VERTEX
  5
113
330
108
100
AcDbEntity
  8
Livello 1
 62
     7
420
 16777215
370
     9
100
AcDbVertex
100
AcDb2dVertex
 10
207.5521890757161
 20
66.34254826900464
 30
0.0
  0
VERTEX
  5
114
330
108
100
AcDbEntity
  8
Livello 1
 62
     7
420
 16777215
370
     9
100
AcDbVertex
100
AcDb2dVertex
 10
215.8379882272905
 20
66.34254826900464
 30
0.0
  0
VERTEX
  5
115
330
108
100
AcDbEntity
  8
Livello 1
 62
     7
420
 16777215
370
     9
100
AcDbVertex
100
AcDb2dVertex
 10
217.9563774411706
 20
66.34254826900464
 30
0.0
  0
VERTEX
  5
116
330
108
100
AcDbEntity
  8
Livello 1
 62
     7
420
 16777215
370
     9
100
AcDbVertex
100
AcDb2dVertex
 10
218.5368760304352
 20
66.34254826900464
 30
0.0
  0
VERTEX
  5
117
330
108
100
AcDbEntity
  8
Livello 1
 62
     7
420
 16777215
370
     9
100
AcDbVertex
100
AcDb2dVertex
 10
218.7298013776092
 20
66.34254826900464
 30
0.0
  0
SEQEND
  5
118
330
108
100
AcDbEntity
  8
Livello 1
370
     9
  0
POLYLINE
  5
119
330
1F
100
AcDbEntity
  8
Livello 1
 62
     7
420
 16777215
370
     9
100
AcDb2dPolyline
 66
     1
 10
0.0
 20
0.0
 30
0.0
  0
VERTEX
  5
11A
330
119
100
AcDbEntity
  8
Livello 1
 62
     7
420
 16777215
370
     9
100
AcDbVertex
100
AcDb2dVertex
 10
32.76595865066268
 20
66.34254826900464
 30
0.0
  0
VERTEX
  5
11B
330
119
100
AcDbEntity
  8
Livello 1
 62
     7
420
 16777215
370
     9
100
AcDbVertex
100
AcDb2dVertex
 10
32.95836723351388
 20
66.34254826900464
 30
0.0
  0
VERTEX
  5
11C
330
119
100
AcDbEntity
  8
Livello 1
 62
     7
420
 16777215
370
     9
100
AcDbVertex
100
AcDb2dVertex
 10
33.53404268909913
 20
66.34254826900464
 30
0.0
  0
VERTEX
  5
11D
330
119
100
AcDbEntity
  8
Livello 1
 62
     7
420
 16777215
370
     9
100
AcDbVertex
100
AcDb2dVertex
 10
35.46088459399937
 20
66.34254826900464
 30
0.0
  0
VERTEX
  5
11E
330
119
100
AcDbEntity
  8
Livello 1
 62
     7
420
 16777215
370
     9
100
AcDbVertex
100
AcDb2dVertex
 10
43.74926756718769
 20
66.34254826900464
 30
0.0
  0
VERTEX
  5
11F
330
119
100
AcDbEntity
  8
Livello 1
 62
     7
420
 16777215
370
     9
100
AcDbVertex
100
AcDb2dVertex
 10
77.08711206840184
 20
66.34254826900464
 30
0.0
  0
VERTEX
  5
120
330
119
100
AcDbEntity
  8
Livello 1
 62
     7
420
 16777215
370
     9
100
AcDbVertex
100
AcDb2dVertex
 10
110.2339260249589
 20
66.34254826900464
 30
0.0
  0
VERTEX
  5
121
330
119
100
AcDbEntity
  8
Livello 1
 62
     7
420
 16777215
370
     9
100
AcDbVertex
100
AcDb2dVertex
 10
118.5186916478877
 20
66.34254826900464
 30
0.0
  0
VERTEX
  5
122
330
119
100
AcDbEntity
  8
Livello 1
 62
     7
420
 16777215
370
     9
100
AcDbVertex
100
AcDb2dVertex
 10
120.6405259572531
 20
66.34254826900464
 30
0.0
  0
VERTEX
  5
123
330
119
100
AcDbEntity
  8
Livello 1
 62
     7
420
 16777215
370
     9
100
AcDbVertex
100
AcDb2dVertex
 10
121.0262043968268
 20
66.34254826900464
 30
0.0
  0
VERTEX
  5
124
330
119
100
AcDbEntity
  8
Livello 1
 62
     7
420
 16777215
370
     9
100
AcDbVertex
100
AcDb2dVertex
 10
121.2189574892265
 20
66.34254826900464
 30
0.0
  0
VERTEX
  5
125
330
119
100
AcDbEntity
  8
Livello 1
 62
     7
420
 16777215
370
     9
100
AcDbVertex
100
AcDb2dVertex
 10
121.4117105816262
 20
66.34254826900464
 30
0.0
  0
VERTEX
  5
126
330
119
100
AcDbEntity
  8
Livello 1
 62
     7
420
 16777215
370
     9
100
AcDbVertex
100
AcDb2dVertex
 10
121.9891085849541
 20
66.34254826900464
 30
0.0
  0
VERTEX
  5
127
330
119
100
AcDbEntity
  8
Livello 1
 62
     7
420
 16777215
370
     9
100
AcDbVertex
100
AcDb2dVertex
 10
124.2993896173627
 20
66.34254826900464
 30
0.0
  0
VERTEX
  5
128
330
119
100
AcDbEntity
  8
Livello 1
 62
     7
420
 16777215
370
     9
100
AcDbVertex
100
AcDb2dVertex
 10
125.2638440984583
 20
66.34254826900464
 30
0.0
  0
VERTEX
  5
129
330
119
100
AcDbEntity
  8
Livello 1
 62
     7
420
 16777215
370
     9
100
AcDbVertex
100
AcDb2dVertex
 10
125.6515895953232
 20
66.34254826900464
 30
0.0
  0
SEQEND
  5
12A
330
119
100
AcDbEntity
  8
Livello 1
370
     9
  0
POLYLINE
  5
12B
330
1F
100
AcDbEntity
  8
Livello 1
 62
     7
420
 16777215
370
     9
100
AcDb2dPolyline
 66
     1
 10
0.0
 20
0.0
 30
0.0
  0
VERTEX
  5
12C
330
12B
100
AcDbEntity
  8
Livello 1
 62
     7
420
 16777215
370
     9
100
AcDbVertex
100
AcDb2dVertex
 10
125.6515895953232
 20
423.4320352131524
 30
0.0
  0
VERTEX
  5
12D
330
12B
100
AcDbEntity
  8
Livello 1
 62
     7
420
 16777215
370
     9
100
AcDbVertex
100
AcDb2dVertex
 10
126.0357177419286
 20
423.4320352131524
 30
0.0
  0
VERTEX
  5
12E
330
12B
100
AcDbEntity
  8
Livello 1
 62
     7
420
 16777215
370
     9
100
AcDbVertex
100
AcDb2dVertex
 10
126.8074191306245
 20
423.4320352131524
 30
0.0
  0
VERTEX
  5
12F
330
12B
100
AcDbEntity
  8
Livello 1
 62
     7
420
 16777215
370
     9
100
AcDbVertex
100
AcDb2dVertex
 10
128.3501328889194
 20
423.4320352131524
 30
0.0
  0
VERTEX
  5
130
330
12B
100
AcDbEntity
  8
Livello 1
 62
     7
420
 16777215
370
     9
100
AcDbVertex
100
AcDb2dVertex
 10
128.9270141279245
 20
423.4320352131524
 30
0.0
  0
VERTEX
  5
131
330
12B
100
AcDbEntity
  8
Livello 1
 62
     7
420
 16777215
370
     9
100
AcDbVertex
100
AcDb2dVertex
 10
129.3123480579497
 20
423.4320352131524
 30
0.0
  0
VERTEX
  5
132
330
12B
100
AcDbEntity
  8
Livello 1
 62
     7
420
 16777215
370
     9
100
AcDbVertex
100
AcDb2dVertex
 10
130.2740464626572
 20
423.4320352131524
 30
0.0
  0
VERTEX
  5
133
330
12B
100
AcDbEntity
  8
Livello 1
 62
     7
420
 16777215
370
     9
100
AcDbVertex
100
AcDb2dVertex
 10
134.3241007151169
 20
423.4320352131524
 30
0.0
  0
VERTEX
  5
134
330
12B
100
AcDbEntity
  8
Livello 1
 62
     7
420
 16777215
370
     9
100
AcDbVertex
100
AcDb2dVertex
 10
150.7015678876718
 20
423.4320352131524
 30
0.0
  0
VERTEX
  5
135
330
12B
100
AcDbEntity
  8
Livello 1
 62
     7
420
 16777215
370
     9
100
AcDbVertex
100
AcDb2dVertex
 10
167.0826524104863
 20
423.4320352131524
 30
0.0
  0
VERTEX
  5
136
330
12B
100
AcDbEntity
  8
Livello 1
 62
     7
420
 16777215
370
     9
100
AcDbVertex
100
AcDb2dVertex
 10
171.1309841152034
 20
423.4320352131524
 30
0.0
  0
VERTEX
  5
137
330
12B
100
AcDbEntity
  8
Livello 1
 62
     7
420
 16777215
370
     9
100
AcDbVertex
100
AcDb2dVertex
 10
172.2878471791503
 20
423.4320352131524
 30
0.0
  0
VERTEX
  5
138
330
12B
100
AcDbEntity
  8
Livello 1
 62
     7
420
 16777215
370
     9
100
AcDbVertex
100
AcDb2dVertex
 10
172.4787054690331
 20
423.4320352131524
 30
0.0
  0
VERTEX
  5
139
330
12B
100
AcDbEntity
  8
Livello 1
 62
     7
420
 16777215
370
     9
100
AcDbVertex
100
AcDb2dVertex
 10
172.6716308162071
 20
423.4320352131524
 30
0.0
  0
SEQEND
  5
13A
330
12B
100
AcDbEntity
  8
Livello 1
370
     9
  0
POLYLINE
  5
13B
330
1F
100
AcDbEntity
  8
Livello 1
 62
     7
420
 16777215
370
     9
100
AcDb2dPolyline
 66
     1
 10
0.0
 20
0.0
 30
0.0
  0
VERTEX
  5
13C
330
13B
100
AcDbEntity
  8
Livello 1
 62
     7
420
 16777215
370
     9
100
AcDbVertex
100
AcDb2dVertex
 10
78.8241292120648
 20
423.4320352131524
 30
0.0
  0
VERTEX
  5
13D
330
13B
100
AcDbEntity
  8
Livello 1
 62
     7
420
 16777215
370
     9
100
AcDbVertex
100
AcDb2dVertex
 10
79.20825735867017
 20
423.4320352131524
 30
0.0
  0
VERTEX
  5
13E
330
13B
100
AcDbEntity
  8
Livello 1
 62
     7
420
 16777215
370
     9
100
AcDbVertex
100
AcDb2dVertex
 10
80.16978350860339
 20
423.4320352131524
 30
0.0
  0
VERTEX
  5
13F
330
13B
100
AcDbEntity
  8
Livello 1
 62
     7
420
 16777215
370
     9
100
AcDbVertex
100
AcDb2dVertex
 10
84.21759844899769
 20
423.4320352131524
 30
0.0
  0
VERTEX
  5
140
330
13B
100
AcDbEntity
  8
Livello 1
 62
     7
420
 16777215
370
     9
100
AcDbVertex
100
AcDb2dVertex
 10
100.5976494431666
 20
423.4320352131524
 30
0.0
  0
VERTEX
  5
141
330
13B
100
AcDbEntity
  8
Livello 1
 62
     7
420
 16777215
370
     9
100
AcDbVertex
100
AcDb2dVertex
 10
116.9795952398523
 20
423.4320352131524
 30
0.0
  0
VERTEX
  5
142
330
13B
100
AcDbEntity
  8
Livello 1
 62
     7
420
 16777215
370
     9
100
AcDbVertex
100
AcDb2dVertex
 10
121.2189574892265
 20
423.4320352131524
 30
0.0
  0
VERTEX
  5
143
330
13B
100
AcDbEntity
  8
Livello 1
 62
     7
420
 16777215
370
     9
100
AcDbVertex
100
AcDb2dVertex
 10
122.1803113843855
 20
423.4320352131524
 30
0.0
  0
VERTEX
  5
144
330
13B
100
AcDbEntity
  8
Livello 1
 62
     7
420
 16777215
370
     9
100
AcDbVertex
100
AcDb2dVertex
 10
122.5689181551217
 20
423.4320352131524
 30
0.0
  0
VERTEX
  5
145
330
13B
100
AcDbEntity
  8
Livello 1
 62
     7
420
 16777215
370
     9
100
AcDbVertex
100
AcDb2dVertex
 10
122.953046301727
 20
423.4320352131524
 30
0.0
  0
VERTEX
  5
146
330
13B
100
AcDbEntity
  8
Livello 1
 62
     7
420
 16777215
370
     9
100
AcDbVertex
100
AcDb2dVertex
 10
124.6871351142275
 20
423.4320352131524
 30
0.0
  0
VERTEX
  5
147
330
13B
100
AcDbEntity
  8
Livello 1
 62
     7
420
 16777215
370
     9
100
AcDbVertex
100
AcDb2dVertex
 10
125.4565971908581
 20
423.4320352131524
 30
0.0
  0
VERTEX
  5
148
330
13B
100
AcDbEntity
  8
Livello 1
 62
     7
420
 16777215
370
     9
100
AcDbVertex
100
AcDb2dVertex
 10
125.6515895953232
 20
423.4320352131524
 30
0.0
  0
SEQEND
  5
149
330
13B
100
AcDbEntity
  8
Livello 1
370
     9
  0
POLYLINE
  5
14A
330
1F
100
AcDbEntity
  8
Livello 1
 62
     7
420
 16777215
370
     9
100
AcDb2dPolyline
 66
     1
 10
0.0
 20
0.0
 30
0.0
  0
VERTEX
  5
14B
330
14A
100
AcDbEntity
  8
Livello 1
 62
     7
420
 16777215
370
     9
100
AcDbVertex
100
AcDb2dVertex
 10
32.76595865066268
 20
296.0535915058477
 30
0.0
  0
VERTEX
  5
14C
330
14A
100
AcDbEntity
  8
Livello 1
 62
     7
420
 16777215
370
     9
100
AcDbVertex
100
AcDb2dVertex
 10
32.18666584481792
 20
294.1257160723019
 30
0.0
  0
VERTEX
  5
14D
330
14A
100
AcDbEntity
  8
Livello 1
 62
     7
420
 16777215
370
     9
100
AcDbVertex
100
AcDb2dVertex
 10
30.64377983174878
 20
290.27237677205
 30
0.0
  0
SEQEND
  5
14E
330
14A
100
AcDbEntity
  8
Livello 1
370
     9
  0
POLYLINE
  5
14F
330
1F
100
AcDbEntity
  8
Livello 1
 62
     7
420
 16777215
370
     9
100
AcDb2dPolyline
 66
     1
 10
0.0
 20
0.0
 30
0.0
  0
VERTEX
  5
150
330
14F
100
AcDbEntity
  8
Livello 1
 62
     7
420
 16777215
370
     9
100
AcDbVertex
100
AcDb2dVertex
 10
32.76595865066268
 20
296.0535915058477
 30
0.0
  0
VERTEX
  5
151
330
14F
100
AcDbEntity
  8
Livello 1
 62
     7
420
 16777215
370
     9
100
AcDbVertex
100
AcDb2dVertex
 10
32.57062173664901
 20
296.6304727448528
 30
0.0
  0
VERTEX
  5
152
330
14F
100
AcDbEntity
  8
Livello 1
 62
     7
420
 16777215
370
     9
100
AcDbVertex
100
AcDb2dVertex
 10
32.37786864424928
 20
297.0144286366839
 30
0.0
  0
VERTEX
  5
153
330
14F
100
AcDbEntity
  8
Livello 1
 62
     7
420
 16777215
370
     9
100
AcDbVertex
100
AcDb2dVertex
 10
32.18666584481792
 20
297.3989012928378
 30
0.0
  0
VERTEX
  5
154
330
14F
100
AcDbEntity
  8
Livello 1
 62
     7
420
 16777215
370
     9
100
AcDbVertex
100
AcDb2dVertex
 10
32.18666584481792
 20
297.5901040922691
 30
0.0
  0
VERTEX
  5
155
330
14F
100
AcDbEntity
  8
Livello 1
 62
     7
420
 16777215
370
     9
100
AcDbVertex
100
AcDb2dVertex
 10
31.99391275241819
 20
297.9804334107479
 30
0.0
  0
SEQEND
  5
156
330
14F
100
AcDbEntity
  8
Livello 1
370
     9
  0
POLYLINE
  5
157
330
1F
100
AcDbEntity
  8
Livello 1
 62
     7
420
 16777215
370
     9
100
AcDb2dPolyline
 66
     1
 10
0.0
 20
0.0
 30
0.0
  0
VERTEX
  5
158
330
157
100
AcDbEntity
  8
Livello 1
 62
     7
420
 16777215
370
     9
100
AcDbVertex
100
AcDb2dVertex
 10
30.64377983174878
 20
290.27237677205
 30
0.0
  0
VERTEX
  5
159
330
157
100
AcDbEntity
  8
Livello 1
 62
     7
420
 16777215
370
     9
100
AcDbVertex
100
AcDb2dVertex
 10
31.22427842101338
 20
290.27237677205
 30
0.0
  0
VERTEX
  5
15A
330
157
100
AcDbEntity
  8
Livello 1
 62
     7
420
 16777215
370
     9
100
AcDbVertex
100
AcDb2dVertex
 10
31.608578822393
 20
290.27237677205
 30
0.0
  0
VERTEX
  5
15B
330
157
100
AcDbEntity
  8
Livello 1
 62
     7
420
 16777215
370
     9
100
AcDbVertex
100
AcDb2dVertex
 10
32.76595865066268
 20
290.27237677205
 30
0.0
  0
VERTEX
  5
15C
330
157
100
AcDbEntity
  8
Livello 1
 62
     7
420
 16777215
370
     9
100
AcDbVertex
100
AcDb2dVertex
 10
37.19738497333955
 20
290.27237677205
 30
0.0
  0
VERTEX
  5
15D
330
157
100
AcDbEntity
  8
Livello 1
 62
     7
420
 16777215
370
     9
100
AcDbVertex
100
AcDb2dVertex
 10
54.92601859520947
 20
290.27237677205
 30
0.0
  0
VERTEX
  5
15E
330
157
100
AcDbEntity
  8
Livello 1
 62
     7
420
 16777215
370
     9
100
AcDbVertex
100
AcDb2dVertex
 10
126.2284708343283
 20
290.27237677205
 30
0.0
  0
VERTEX
  5
15F
330
157
100
AcDbEntity
  8
Livello 1
 62
     7
420
 16777215
370
     9
100
AcDbVertex
100
AcDb2dVertex
 10
197.3378254714989
 20
290.27237677205
 30
0.0
  0
VERTEX
  5
160
330
157
100
AcDbEntity
  8
Livello 1
 62
     7
420
 16777215
370
     9
100
AcDbVertex
100
AcDb2dVertex
 10
215.0662868385946
 20
290.27237677205
 30
0.0
  0
VERTEX
  5
161
330
157
100
AcDbEntity
  8
Livello 1
 62
     7
420
 16777215
370
     9
100
AcDbVertex
100
AcDb2dVertex
 10
219.4990911994655
 20
290.27237677205
 30
0.0
  0
VERTEX
  5
162
330
157
100
AcDbEntity
  8
Livello 1
 62
     7
420
 16777215
370
     9
100
AcDbVertex
100
AcDb2dVertex
 10
220.6549207347668
 20
290.27237677205
 30
0.0
  0
VERTEX
  5
163
330
157
100
AcDbEntity
  8
Livello 1
 62
     7
420
 16777215
370
     9
100
AcDbVertex
100
AcDb2dVertex
 10
221.0397379004692
 20
290.27237677205
 30
0.0
  0
VERTEX
  5
164
330
157
100
AcDbEntity
  8
Livello 1
 62
     7
420
 16777215
370
     9
100
AcDbVertex
100
AcDb2dVertex
 10
221.2354193240314
 20
290.27237677205
 30
0.0
  0
SEQEND
  5
165
330
157
100
AcDbEntity
  8
Livello 1
370
     9
  0
POLYLINE
  5
166
330
1F
100
AcDbEntity
  8
Livello 1
 62
     7
420
 16777215
370
     9
100
AcDb2dPolyline
 66
     1
 10
0.0
 20
0.0
 30
0.0
  0
VERTEX
  5
167
330
166
100
AcDbEntity
  8
Livello 1
 62
     7
420
 16777215
370
     9
100
AcDbVertex
100
AcDb2dVertex
 10
33.3426676348935
 20
298.5561088663332
 30
0.0
  0
VERTEX
  5
168
330
166
100
AcDbEntity
  8
Livello 1
 62
     7
420
 16777215
370
     9
100
AcDbVertex
100
AcDb2dVertex
 10
33.3426676348935
 20
298.3643893025791
 30
0.0
  0
VERTEX
  5
169
330
166
100
AcDbEntity
  8
Livello 1
 62
     7
420
 16777215
370
     9
100
AcDbVertex
100
AcDb2dVertex
 10
33.53404268909913
 20
297.9804334107479
 30
0.0
  0
VERTEX
  5
16A
330
166
100
AcDbEntity
  8
Livello 1
 62
     7
420
 16777215
370
     9
100
AcDbVertex
100
AcDb2dVertex
 10
33.3426676348935
 20
297.7876803183482
 30
0.0
  0
VERTEX
  5
16B
330
166
100
AcDbEntity
  8
Livello 1
 62
     7
420
 16777215
370
     9
100
AcDbVertex
100
AcDb2dVertex
 10
33.3426676348935
 20
297.3989012928378
 30
0.0
  0
VERTEX
  5
16C
330
166
100
AcDbEntity
  8
Livello 1
 62
     7
420
 16777215
370
     9
100
AcDbVertex
100
AcDb2dVertex
 10
33.14991454249378
 20
297.0144286366839
 30
0.0
  0
VERTEX
  5
16D
330
166
100
AcDbEntity
  8
Livello 1
 62
     7
420
 16777215
370
     9
100
AcDbVertex
100
AcDb2dVertex
 10
33.14991454249378
 20
296.822192308607
 30
0.0
  0
VERTEX
  5
16E
330
166
100
AcDbEntity
  8
Livello 1
 62
     7
420
 16777215
370
     9
100
AcDbVertex
100
AcDb2dVertex
 10
32.95836723351388
 20
296.2463445982474
 30
0.0
  0
VERTEX
  5
16F
330
166
100
AcDbEntity
  8
Livello 1
 62
     7
420
 16777215
370
     9
100
AcDbVertex
100
AcDb2dVertex
 10
32.76595865066268
 20
296.0535915058477
 30
0.0
  0
SEQEND
  5
170
330
166
100
AcDbEntity
  8
Livello 1
370
     9
  0
POLYLINE
  5
171
330
1F
100
AcDbEntity
  8
Livello 1
 62
     7
420
 16777215
370
     9
100
AcDb2dPolyline
 66
     1
 10
0.0
 20
0.0
 30
0.0
  0
VERTEX
  5
172
330
171
100
AcDbEntity
  8
Livello 1
 62
     7
420
 16777215
370
     9
100
AcDbVertex
100
AcDb2dVertex
 10
34.11454127836372
 20
-118.8482150310518
 30
0.0
  0
VERTEX
  5
173
330
171
100
AcDbEntity
  8
Livello 1
 62
     7
420
 16777215
370
     9
100
AcDbVertex
100
AcDb2dVertex
 10
-26.9747531399577
 20
-118.8482150310518
 30
0.0
  0
VERTEX
  5
174
330
171
100
AcDbEntity
  8
Livello 1
 62
     7
420
 16777215
370
     9
100
AcDbVertex
100
AcDb2dVertex
 10
-26.9747531399577
 20
-100.5392550746916
 30
0.0
  0
VERTEX
  5
175
330
171
100
AcDbEntity
  8
Livello 1
 62
     7
420
 16777215
370
     9
100
AcDbVertex
100
AcDb2dVertex
 10
34.11454127836372
 20
-100.5392550746916
 30
0.0
  0
VERTEX
  5
176
330
171
100
AcDbEntity
  8
Livello 1
 62
     7
420
 16777215
370
     9
100
AcDbVertex
100
AcDb2dVertex
 10
34.11454127836372
 20
-118.8482150310518
 30
0.0
  0
SEQEND
  5
177
330
171
100
AcDbEntity
  8
Livello 1
370
     9
  0
POLYLINE
  5
178
330
1F
100
AcDbEntity
  8
Livello 1
 62
     7
420
 16777215
370
     9
100
AcDb2dPolyline
 66
     1
 10
0.0
 20
0.0
 30
0.0
  0
VERTEX
  5
179
330
178
100
AcDbEntity
  8
Livello 1
 62
     7
420
 16777215
370
     9
100
AcDbVertex
100
AcDb2dVertex
 10
31.22427842101338
 20
-99.96392412865485
 30
0.0
  0
VERTEX
  5
17A
330
178
100
AcDbEntity
  8
Livello 1
 62
     7
420
 16777215
370
     9
100
AcDbVertex
100
AcDb2dVertex
 10
32.57062173664901
 20
-90.5174723080998
 30
0.0
  0
VERTEX
  5
17B
330
178
100
AcDbEntity
  8
Livello 1
 62
     7
420
 16777215
370
     9
100
AcDbVertex
100
AcDb2dVertex
 10
35.076756447394
 20
-81.4592827487324
 30
0.0
  0
VERTEX
  5
17C
330
178
100
AcDbEntity
  8
Livello 1
 62
     7
420
 16777215
370
     9
100
AcDbVertex
100
AcDb2dVertex
 10
38.15942788759556
 20
-72.78901094100414
 30
0.0
  0
VERTEX
  5
17D
330
178
100
AcDbEntity
  8
Livello 1
 62
     7
420
 16777215
370
     9
100
AcDbVertex
100
AcDb2dVertex
 10
42.2070705732156
 20
-64.3133870281925
 30
0.0
  0
VERTEX
  5
17E
330
178
100
AcDbEntity
  8
Livello 1
 62
     7
420
 16777215
370
     9
100
AcDbVertex
100
AcDb2dVertex
 10
47.02365857114339
 20
-56.6039523513004
 30
0.0
  0
VERTEX
  5
17F
330
178
100
AcDbEntity
  8
Livello 1
 62
     7
420
 16777215
370
     9
100
AcDbVertex
100
AcDb2dVertex
 10
52.42108966788431
 20
-49.2776122923681
 30
0.0
  0
VERTEX
  5
180
330
178
100
AcDbEntity
  8
Livello 1
 62
     7
420
 16777215
370
     9
100
AcDbVertex
100
AcDb2dVertex
 10
58.58677705783595
 20
-42.53659395637974
 30
0.0
  0
VERTEX
  5
181
330
178
100
AcDbEntity
  8
Livello 1
 62
     7
420
 16777215
370
     9
100
AcDbVertex
100
AcDb2dVertex
 10
65.33296303705218
 20
-36.37125107597663
 30
0.0
  0
VERTEX
  5
182
330
178
100
AcDbEntity
  8
Livello 1
 62
     7
420
 16777215
370
     9
100
AcDbVertex
100
AcDb2dVertex
 10
72.65430770753088
 20
-30.7805501225132
 30
0.0
  0
VERTEX
  5
183
330
178
100
AcDbEntity
  8
Livello 1
 62
     7
420
 16777215
370
     9
100
AcDbVertex
100
AcDb2dVertex
 10
80.5546006743058
 20
-26.15137531898299
 30
0.0
  0
VERTEX
  5
184
330
178
100
AcDbEntity
  8
Livello 1
 62
     7
420
 16777215
370
     9
100
AcDbVertex
100
AcDb2dVertex
 10
88.84315590226838
 20
-22.10786674794526
 30
0.0
  0
VERTEX
  5
185
330
178
100
AcDbEntity
  8
Livello 1
 62
     7
420
 16777215
370
     9
100
AcDbVertex
100
AcDb2dVertex
 10
97.51497800296501
 20
-18.83020290327856
 30
0.0
  0
VERTEX
  5
186
330
178
100
AcDbEntity
  8
Livello 1
 62
     7
420
 16777215
370
     9
100
AcDbVertex
100
AcDb2dVertex
 10
106.7664374190549
 20
-16.51785481357887
 30
0.0
  0
VERTEX
  5
187
330
178
100
AcDbEntity
  8
Livello 1
 62
     7
420
 16777215
370
     9
100
AcDbVertex
100
AcDb2dVertex
 10
116.2078938511564
 20
-15.17392306478291
 30
0.0
  0
VERTEX
  5
188
330
178
100
AcDbEntity
  8
Livello 1
 62
     7
420
 16777215
370
     9
100
AcDbVertex
100
AcDb2dVertex
 10
125.8443426877229
 20
-14.58894585138749
 30
0.0
  0
VERTEX
  5
189
330
178
100
AcDbEntity
  8
Livello 1
 62
     7
420
 16777215
370
     9
100
AcDbVertex
100
AcDb2dVertex
 10
135.6704440307525
 20
-15.17392306478291
 30
0.0
  0
VERTEX
  5
18A
330
178
100
AcDbEntity
  8
Livello 1
 62
     7
420
 16777215
370
     9
100
AcDbVertex
100
AcDb2dVertex
 10
145.1141397749194
 20
-16.51785481357887
 30
0.0
  0
VERTEX
  5
18B
330
178
100
AcDbEntity
  8
Livello 1
 62
     7
420
 16777215
370
     9
100
AcDbVertex
100
AcDb2dVertex
 10
154.1707790413184
 20
-18.83020290327856
 30
0.0
  0
VERTEX
  5
18C
330
178
100
AcDbEntity
  8
Livello 1
 62
     7
420
 16777215
370
     9
100
AcDbVertex
100
AcDb2dVertex
 10
162.8427733967893
 20
-22.10786674794526
 30
0.0
  0
VERTEX
  5
18D
330
178
100
AcDbEntity
  8
Livello 1
 62
     7
420
 16777215
370
     9
100
AcDbVertex
100
AcDb2dVertex
 10
171.3232204432803
 20
-26.15137531898299
 30
0.0
  0
VERTEX
  5
18E
330
178
100
AcDbEntity
  8
Livello 1
 62
     7
420
 16777215
370
     9
100
AcDbVertex
100
AcDb2dVertex
 10
179.0333441392694
 20
-30.7805501225132
 30
0.0
  0
VERTEX
  5
18F
330
178
100
AcDbEntity
  8
Livello 1
 62
     7
420
 16777215
370
     9
100
AcDbVertex
100
AcDb2dVertex
 10
186.3552055740709
 20
-36.37125107597663
 30
0.0
  0
VERTEX
  5
190
330
178
100
AcDbEntity
  8
Livello 1
 62
     7
420
 16777215
370
     9
100
AcDbVertex
100
AcDb2dVertex
 10
193.0989799864475
 20
-42.53659395637974
 30
0.0
  0
VERTEX
  5
191
330
178
100
AcDbEntity
  8
Livello 1
 62
     7
420
 16777215
370
     9
100
AcDbVertex
100
AcDb2dVertex
 10
199.2650118859476
 20
-49.2776122923681
 30
0.0
  0
VERTEX
  5
192
330
178
100
AcDbEntity
  8
Livello 1
 62
     7
420
 16777215
370
     9
100
AcDbVertex
100
AcDb2dVertex
 10
204.8533012725714
 20
-56.6039523513004
 30
0.0
  0
VERTEX
  5
193
330
178
100
AcDbEntity
  8
Livello 1
 62
     7
420
 16777215
370
     9
100
AcDbVertex
100
AcDb2dVertex
 10
209.4817870570046
 20
-64.3133870281925
 30
0.0
  0
VERTEX
  5
194
330
178
100
AcDbEntity
  8
Livello 1
 62
     7
420
 16777215
370
     9
100
AcDbVertex
100
AcDb2dVertex
 10
213.5266736662364
 20
-72.78901094100414
 30
0.0
  0
VERTEX
  5
195
330
178
100
AcDbEntity
  8
Livello 1
 62
     7
420
 16777215
370
     9
100
AcDbVertex
100
AcDb2dVertex
 10
216.8005479058693
 20
-81.4592827487324
 30
0.0
  0
VERTEX
  5
196
330
178
100
AcDbEntity
  8
Livello 1
 62
     7
420
 16777215
370
     9
100
AcDbVertex
100
AcDb2dVertex
 10
219.1153075624087
 20
-90.5174723080998
 30
0.0
  0
VERTEX
  5
197
330
178
100
AcDbEntity
  8
Livello 1
 62
     7
420
 16777215
370
     9
100
AcDbVertex
100
AcDb2dVertex
 10
220.4637179353355
 20
-99.96392412865485
 30
0.0
  0
VERTEX
  5
198
330
178
100
AcDbEntity
  8
Livello 1
 62
     7
420
 16777215
370
     9
100
AcDbVertex
100
AcDb2dVertex
 10
221.0397379004692
 20
-109.7900254716844
 30
0.0
  0
SEQEND
  5
199
330
178
100
AcDbEntity
  8
Livello 1
370
     9
  0
POLYLINE
  5
19A
330
1F
100
AcDbEntity
  8
Livello 1
 62
     7
420
 16777215
370
     9
100
AcDb2dPolyline
 66
     1
 10
0.0
 20
0.0
 30
0.0
  0
VERTEX
  5
19B
330
19A
100
AcDbEntity
  8
Livello 1
 62
     7
420
 16777215
370
     9
100
AcDbVertex
100
AcDb2dVertex
 10
221.0397379004692
 20
-109.7900254716844
 30
0.0
  0
VERTEX
  5
19C
330
19A
100
AcDbEntity
  8
Livello 1
 62
     7
420
 16777215
370
     9
100
AcDbVertex
100
AcDb2dVertex
 10
220.4637179353355
 20
-119.4235459770886
 30
0.0
  0
VERTEX
  5
19D
330
19A
100
AcDbEntity
  8
Livello 1
 62
     7
420
 16777215
370
     9
100
AcDbVertex
100
AcDb2dVertex
 10
219.1153075624087
 20
-128.8703423071921
 30
0.0
  0
VERTEX
  5
19E
330
19A
100
AcDbEntity
  8
Livello 1
 62
     7
420
 16777215
370
     9
100
AcDbVertex
100
AcDb2dVertex
 10
216.8005479058693
 20
-138.121112704185
 30
0.0
  0
VERTEX
  5
19F
330
19A
100
AcDbEntity
  8
Livello 1
 62
     7
420
 16777215
370
     9
100
AcDbVertex
100
AcDb2dVertex
 10
213.5266736662364
 20
-146.7913845119133
 30
0.0
  0
VERTEX
  5
1A0
330
19A
100
AcDbEntity
  8
Livello 1
 62
     7
420
 16777215
370
     9
100
AcDbVertex
100
AcDb2dVertex
 10
209.4817870570046
 20
-155.0764946443906
 30
0.0
  0
VERTEX
  5
1A1
330
19A
100
AcDbEntity
  8
Livello 1
 62
     7
420
 16777215
370
     9
100
AcDbVertex
100
AcDb2dVertex
 10
204.8533012725714
 20
-162.97575408252
 30
0.0
  0
VERTEX
  5
1A2
330
19A
100
AcDbEntity
  8
Livello 1
 62
     7
420
 16777215
370
     9
100
AcDbVertex
100
AcDb2dVertex
 10
199.2650118859476
 20
-170.3003715937096
 30
0.0
  0
VERTEX
  5
1A3
330
19A
100
AcDbEntity
  8
Livello 1
 62
     7
420
 16777215
370
     9
100
AcDbVertex
100
AcDb2dVertex
 10
193.0989799864475
 20
-177.0482801206685
 30
0.0
  0
VERTEX
  5
1A4
330
19A
100
AcDbEntity
  8
Livello 1
 62
     7
420
 16777215
370
     9
100
AcDbVertex
100
AcDb2dVertex
 10
186.3552055740709
 20
-183.2143120201686
 30
0.0
  0
VERTEX
  5
1A5
330
19A
100
AcDbEntity
  8
Livello 1
 62
     7
420
 16777215
370
     9
100
AcDbVertex
100
AcDb2dVertex
 10
179.0333441392694
 20
-188.6113986073611
 30
0.0
  0
VERTEX
  5
1A6
330
19A
100
AcDbEntity
  8
Livello 1
 62
     7
420
 16777215
370
     9
100
AcDbVertex
100
AcDb2dVertex
 10
171.3232204432803
 20
-193.4259195479977
 30
0.0
  0
VERTEX
  5
1A7
330
19A
100
AcDbEntity
  8
Livello 1
 62
     7
420
 16777215
370
     9
100
AcDbVertex
100
AcDb2dVertex
 10
162.8427733967893
 20
-197.4725287049721
 30
0.0
  0
VERTEX
  5
1A8
330
19A
100
AcDbEntity
  8
Livello 1
 62
     7
420
 16777215
370
     9
100
AcDbVertex
100
AcDb2dVertex
 10
154.1707790413184
 20
-200.5603677884016
 30
0.0
  0
VERTEX
  5
1A9
330
19A
100
AcDbEntity
  8
Livello 1
 62
     7
420
 16777215
370
     9
100
AcDbVertex
100
AcDb2dVertex
 10
145.1141397749194
 20
-203.0594400534018
 30
0.0
  0
VERTEX
  5
1AA
330
19A
100
AcDbEntity
  8
Livello 1
 62
     7
420
 16777215
370
     9
100
AcDbVertex
100
AcDb2dVertex
 10
135.6704440307525
 20
-204.4140515982021
 30
0.0
  0
VERTEX
  5
1AB
330
19A
100
AcDbEntity
  8
Livello 1
 62
     7
420
 16777215
370
     9
100
AcDbVertex
100
AcDb2dVertex
 10
125.8443426877229
 20
-204.9893825442388
 30
0.0
  0
VERTEX
  5
1AC
330
19A
100
AcDbEntity
  8
Livello 1
 62
     7
420
 16777215
370
     9
100
AcDbVertex
100
AcDb2dVertex
 10
116.2078938511564
 20
-204.4140515982021
 30
0.0
  0
VERTEX
  5
1AD
330
19A
100
AcDbEntity
  8
Livello 1
 62
     7
420
 16777215
370
     9
100
AcDbVertex
100
AcDb2dVertex
 10
106.7664374190549
 20
-203.0594400534018
 30
0.0
  0
VERTEX
  5
1AE
330
19A
100
AcDbEntity
  8
Livello 1
 62
     7
420
 16777215
370
     9
100
AcDbVertex
100
AcDb2dVertex
 10
97.51497800296501
 20
-200.5603677884016
 30
0.0
  0
VERTEX
  5
1AF
330
19A
100
AcDbEntity
  8
Livello 1
 62
     7
420
 16777215
370
     9
100
AcDbVertex
100
AcDb2dVertex
 10
88.84315590226838
 20
-197.4725287049721
 30
0.0
  0
VERTEX
  5
1B0
330
19A
100
AcDbEntity
  8
Livello 1
 62
     7
420
 16777215
370
     9
100
AcDbVertex
100
AcDb2dVertex
 10
80.5546006743058
 20
-193.4259195479977
 30
0.0
  0
VERTEX
  5
1B1
330
19A
100
AcDbEntity
  8
Livello 1
 62
     7
420
 16777215
370
     9
100
AcDbVertex
100
AcDb2dVertex
 10
72.65430770753088
 20
-188.6113986073611
 30
0.0
  0
VERTEX
  5
1B2
330
19A
100
AcDbEntity
  8
Livello 1
 62
     7
420
 16777215
370
     9
100
AcDbVertex
100
AcDb2dVertex
 10
65.33296303705218
 20
-183.2143120201686
 30
0.0
  0
VERTEX
  5
1B3
330
19A
100
AcDbEntity
  8
Livello 1
 62
     7
420
 16777215
370
     9
100
AcDbVertex
100
AcDb2dVertex
 10
58.58677705783595
 20
-177.0482801206685
 30
0.0
  0
VERTEX
  5
1B4
330
19A
100
AcDbEntity
  8
Livello 1
 62
     7
420
 16777215
370
     9
100
AcDbVertex
100
AcDb2dVertex
 10
52.42108966788431
 20
-170.3003715937096
 30
0.0
  0
VERTEX
  5
1B5
330
19A
100
AcDbEntity
  8
Livello 1
 62
     7
420
 16777215
370
     9
100
AcDbVertex
100
AcDb2dVertex
 10
47.02365857114339
 20
-162.97575408252
 30
0.0
  0
VERTEX
  5
1B6
330
19A
100
AcDbEntity
  8
Livello 1
 62
     7
420
 16777215
370
     9
100
AcDbVertex
100
AcDb2dVertex
 10
42.2070705732156
 20
-155.0764946443906
 30
0.0
  0
VERTEX
  5
1B7
330
19A
100
AcDbEntity
  8
Livello 1
 62
     7
420
 16777215
370
     9
100
AcDbVertex
100
AcDb2dVertex
 10
38.15942788759556
 20
-146.7913845119133
 30
0.0
  0
VERTEX
  5
1B8
330
19A
100
AcDbEntity
  8
Livello 1
 62
     7
420
 16777215
370
     9
100
AcDbVertex
100
AcDb2dVertex
 10
35.076756447394
 20
-138.121112704185
 30
0.0
  0
VERTEX
  5
1B9
330
19A
100
AcDbEntity
  8
Livello 1
 62
     7
420
 16777215
370
     9
100
AcDbVertex
100
AcDb2dVertex
 10
32.57062173664901
 20
-128.8703423071921
 30
0.0
  0
VERTEX
  5
1BA
330
19A
100
AcDbEntity
  8
Livello 1
 62
     7
420
 16777215
370
     9
100
AcDbVertex
100
AcDb2dVertex
 10
31.22427842101338
 20
-119.4235459770886
 30
0.0
  0
SEQEND
  5
1BB
330
19A
100
AcDbEntity
  8
Livello 1
370
     9
  0
POLYLINE
  5
1BC
330
1F
100
AcDbEntity
  8
Livello 1
 62
     7
420
 16777215
370
     9
100
AcDb2dPolyline
 66
     1
 10
0.0
 20
0.0
 30
0.0
  0
VERTEX
  5
1BD
330
1BC
100
AcDbEntity
  8
Livello 1
 62
     7
420
 16777215
370
     9
100
AcDbVertex
100
AcDb2dVertex
 10
172.4787054690331
 20
-109.7900254716844
 30
0.0
  0
VERTEX
  5
1BE
330
1BC
100
AcDbEntity
  8
Livello 1
 62
     7
420
 16777215
370
     9
100
AcDbVertex
100
AcDb2dVertex
 10
172.2878471791503
 20
-104.9758490405963
 30
0.0
  0
VERTEX
  5
1BF
330
1BC
100
AcDbEntity
  8
Livello 1
 62
     7
420
 16777215
370
     9
100
AcDbVertex
100
AcDb2dVertex
 10
171.5161457904543
 20
-100.3466742370661
 30
0.0
  0
VERTEX
  5
1C0
330
1BC
100
AcDbEntity
  8
Livello 1
 62
     7
420
 16777215
370
     9
100
AcDbVertex
100
AcDb2dVertex
 10
170.3572156692163
 20
-95.72232256721526
 30
0.0
  0
VERTEX
  5
1C1
330
1BC
100
AcDbEntity
  8
Livello 1
 62
     7
420
 16777215
370
     9
100
AcDbVertex
100
AcDb2dVertex
 10
168.8165689682125
 20
-91.48347708216386
 30
0.0
  0
VERTEX
  5
1C2
330
1BC
100
AcDbEntity
  8
Livello 1
 62
     7
420
 16777215
370
     9
100
AcDbVertex
100
AcDb2dVertex
 10
166.8904160824094
 20
-87.43996851112612
 30
0.0
  0
VERTEX
  5
1C3
330
1BC
100
AcDbEntity
  8
Livello 1
 62
     7
420
 16777215
370
     9
100
AcDbVertex
100
AcDb2dVertex
 10
164.5794460309038
 20
-83.58111705809777
 30
0.0
  0
VERTEX
  5
1C4
330
1BC
100
AcDbEntity
  8
Livello 1
 62
     7
420
 16777215
370
     9
100
AcDbVertex
100
AcDb2dVertex
 10
161.880558227759
 20
-79.9203585954713
 30
0.0
  0
VERTEX
  5
1C5
330
1BC
100
AcDbEntity
  8
Livello 1
 62
     7
420
 16777215
370
     9
100
AcDbVertex
100
AcDb2dVertex
 10
158.797542278009
 20
-76.64476180809575
 30
0.0
  0
VERTEX
  5
1C6
330
1BC
100
AcDbEntity
  8
Livello 1
 62
     7
420
 16777215
370
     9
100
AcDbVertex
100
AcDb2dVertex
 10
155.5198784333423
 20
-73.55726723421485
 30
0.0
  0
VERTEX
  5
1C7
330
1BC
100
AcDbEntity
  8
Livello 1
 62
     7
420
 16777215
370
     9
100
AcDbVertex
100
AcDb2dVertex
 10
151.8608425184584
 20
-70.86216903610391
 30
0.0
  0
VERTEX
  5
1C8
330
1BC
100
AcDbEntity
  8
Livello 1
 62
     7
420
 16777215
370
     9
100
AcDbVertex
100
AcDb2dVertex
 10
148.0054361609153
 20
-68.55050996550126
 30
0.0
  0
VERTEX
  5
1C9
330
1BC
100
AcDbEntity
  8
Livello 1
 62
     7
420
 16777215
370
     9
100
AcDbVertex
100
AcDb2dVertex
 10
143.9567599466497
 20
-66.62366806060103
 30
0.0
  0
VERTEX
  5
1CA
330
1BC
100
AcDbEntity
  8
Livello 1
 62
     7
420
 16777215
370
     9
100
AcDbVertex
100
AcDb2dVertex
 10
139.5256781335214
 20
-64.88940699332626
 30
0.0
  0
VERTEX
  5
1CB
330
1BC
100
AcDbEntity
  8
Livello 1
 62
     7
420
 16777215
370
     9
100
AcDbVertex
100
AcDb2dVertex
 10
135.0923570083276
 20
-63.73840059170429
 30
0.0
  0
VERTEX
  5
1CC
330
1BC
100
AcDbEntity
  8
Livello 1
 62
     7
420
 16777215
370
     9
100
AcDbVertex
100
AcDb2dVertex
 10
130.4697278862194
 20
-63.15238984966329
 30
0.0
  0
VERTEX
  5
1CD
330
1BC
100
AcDbEntity
  8
Livello 1
 62
     7
420
 16777215
370
     9
100
AcDbVertex
100
AcDb2dVertex
 10
125.6515895953232
 20
-62.76998425080056
 30
0.0
  0
VERTEX
  5
1CE
330
1BC
100
AcDbEntity
  8
Livello 1
 62
     7
420
 16777215
370
     9
100
AcDbVertex
100
AcDb2dVertex
 10
120.8348293426212
 20
-63.15238984966329
 30
0.0
  0
VERTEX
  5
1CF
330
1BC
100
AcDbEntity
  8
Livello 1
 62
     7
420
 16777215
370
     9
100
AcDbVertex
100
AcDb2dVertex
 10
116.2078938511564
 20
-63.73840059170429
 30
0.0
  0
VERTEX
  5
1D0
330
1BC
100
AcDbEntity
  8
Livello 1
 62
     7
420
 16777215
370
     9
100
AcDbVertex
100
AcDb2dVertex
 10
111.7737114520913
 20
-64.88940699332626
 30
0.0
  0
VERTEX
  5
1D1
330
1BC
100
AcDbEntity
  8
Livello 1
 62
     7
420
 16777215
370
     9
100
AcDbVertex
100
AcDb2dVertex
 10
107.34331865806
 20
-66.62366806060103
 30
0.0
  0
VERTEX
  5
1D2
330
1BC
100
AcDbEntity
  8
Livello 1
 62
     7
420
 16777215
370
     9
100
AcDbVertex
100
AcDb2dVertex
 10
103.2961927367628
 20
-68.55050996550126
 30
0.0
  0
VERTEX
  5
1D3
330
1BC
100
AcDbEntity
  8
Livello 1
 62
     7
420
 16777215
370
     9
100
AcDbVertex
100
AcDb2dVertex
 10
99.44250892696229
 20
-70.86216903610391
 30
0.0
  0
VERTEX
  5
1D4
330
1BC
100
AcDbEntity
  8
Livello 1
 62
     7
420
 16777215
370
     9
100
AcDbVertex
100
AcDb2dVertex
 10
95.7808891904645
 20
-73.55726723421485
 30
0.0
  0
VERTEX
  5
1D5
330
1BC
100
AcDbEntity
  8
Livello 1
 62
     7
420
 16777215
370
     9
100
AcDbVertex
100
AcDb2dVertex
 10
92.50477563876618
 20
-76.64476180809575
 30
0.0
  0
VERTEX
  5
1D6
330
1BC
100
AcDbEntity
  8
Livello 1
 62
     7
420
 16777215
370
     9
100
AcDbVertex
100
AcDb2dVertex
 10
89.42210419856461
 20
-79.9203585954713
 30
0.0
  0
VERTEX
  5
1D7
330
1BC
100
AcDbEntity
  8
Livello 1
 62
     7
420
 16777215
370
     9
100
AcDbVertex
100
AcDb2dVertex
 10
86.72338865019415
 20
-83.58111705809777
 30
0.0
  0
VERTEX
  5
1D8
330
1BC
100
AcDbEntity
  8
Livello 1
 62
     7
420
 16777215
370
     9
100
AcDbVertex
100
AcDb2dVertex
 10
84.41259085346283
 20
-87.43996851112612
 30
0.0
  0
VERTEX
  5
1D9
330
1BC
100
AcDbEntity
  8
Livello 1
 62
     7
420
 16777215
370
     9
100
AcDbVertex
100
AcDb2dVertex
 10
82.48505992946555
 20
-91.48347708216386
 30
0.0
  0
VERTEX
  5
1DA
330
1BC
100
AcDbEntity
  8
Livello 1
 62
     7
420
 16777215
370
     9
100
AcDbVertex
100
AcDb2dVertex
 10
80.75097111696503
 20
-95.72232256721526
 30
0.0
  0
VERTEX
  5
1DB
330
1BC
100
AcDbEntity
  8
Livello 1
 62
     7
420
 16777215
370
     9
100
AcDbVertex
100
AcDb2dVertex
 10
79.59445256256667
 20
-100.3466742370661
 30
0.0
  0
VERTEX
  5
1DC
330
1BC
100
AcDbEntity
  8
Livello 1
 62
     7
420
 16777215
370
     9
100
AcDbVertex
100
AcDb2dVertex
 10
79.01550426627043
 20
-104.9758490405963
 30
0.0
  0
VERTEX
  5
1DD
330
1BC
100
AcDbEntity
  8
Livello 1
 62
     7
420
 16777215
370
     9
100
AcDbVertex
100
AcDb2dVertex
 10
78.8241292120648
 20
-109.7900254716844
 30
0.0
  0
VERTEX
  5
1DE
330
1BC
100
AcDbEntity
  8
Livello 1
 62
     7
420
 16777215
370
     9
100
AcDbVertex
100
AcDb2dVertex
 10
79.01550426627043
 20
-114.6100585650975
 30
0.0
  0
VERTEX
  5
1DF
330
1BC
100
AcDbEntity
  8
Livello 1
 62
     7
420
 16777215
370
     9
100
AcDbVertex
100
AcDb2dVertex
 10
79.59445256256667
 20
-119.236132782691
 30
0.0
  0
VERTEX
  5
1E0
330
1BC
100
AcDbEntity
  8
Livello 1
 62
     7
420
 16777215
370
     9
100
AcDbVertex
100
AcDb2dVertex
 10
80.75097111696503
 20
-123.6651475385282
 30
0.0
  0
VERTEX
  5
1E1
330
1BC
100
AcDbEntity
  8
Livello 1
 62
     7
420
 16777215
370
     9
100
AcDbVertex
100
AcDb2dVertex
 10
82.48505992946555
 20
-128.0941622943654
 30
0.0
  0
VERTEX
  5
1E2
330
1BC
100
AcDbEntity
  8
Livello 1
 62
     7
420
 16777215
370
     9
100
AcDbVertex
100
AcDb2dVertex
 10
84.41259085346283
 20
-132.1452500754706
 30
0.0
  0
VERTEX
  5
1E3
330
1BC
100
AcDbEntity
  8
Livello 1
 62
     7
420
 16777215
370
     9
100
AcDbVertex
100
AcDb2dVertex
 10
86.72338865019415
 20
-135.9965223184314
 30
0.0
  0
VERTEX
  5
1E4
330
1BC
100
AcDbEntity
  8
Livello 1
 62
     7
420
 16777215
370
     9
100
AcDbVertex
100
AcDb2dVertex
 10
89.42210419856461
 20
-139.6569362715094
 30
0.0
  0
VERTEX
  5
1E5
330
1BC
100
AcDbEntity
  8
Livello 1
 62
     7
420
 16777215
370
     9
100
AcDbVertex
100
AcDb2dVertex
 10
92.50477563876618
 20
-142.9377007021128
 30
0.0
  0
VERTEX
  5
1E6
330
1BC
100
AcDbEntity
  8
Livello 1
 62
     7
420
 16777215
370
     9
100
AcDbVertex
100
AcDb2dVertex
 10
95.7808891904645
 20
-146.0231282187026
 30
0.0
  0
VERTEX
  5
1E7
330
1BC
100
AcDbEntity
  8
Livello 1
 62
     7
420
 16777215
370
     9
100
AcDbVertex
100
AcDb2dVertex
 10
99.44250892696229
 20
-148.7182264168135
 30
0.0
  0
VERTEX
  5
1E8
330
1BC
100
AcDbEntity
  8
Livello 1
 62
     7
420
 16777215
370
     9
100
AcDbVertex
100
AcDb2dVertex
 10
103.2961927367628
 20
-151.0274739205765
 30
0.0
  0
VERTEX
  5
1E9
330
1BC
100
AcDbEntity
  8
Livello 1
 62
     7
420
 16777215
370
     9
100
AcDbVertex
100
AcDb2dVertex
 10
107.34331865806
 20
-152.9567273923164
 30
0.0
  0
VERTEX
  5
1EA
330
1BC
100
AcDbEntity
  8
Livello 1
 62
     7
420
 16777215
370
     9
100
AcDbVertex
100
AcDb2dVertex
 10
111.7737114520913
 20
-154.5008191888054
 30
0.0
  0
VERTEX
  5
1EB
330
1BC
100
AcDbEntity
  8
Livello 1
 62
     7
420
 16777215
370
     9
100
AcDbVertex
100
AcDb2dVertex
 10
116.2078938511564
 20
-155.6566487241067
 30
0.0
  0
VERTEX
  5
1EC
330
1BC
100
AcDbEntity
  8
Livello 1
 62
     7
420
 16777215
370
     9
100
AcDbVertex
100
AcDb2dVertex
 10
120.8348293426212
 20
-156.4249050173174
 30
0.0
  0
VERTEX
  5
1ED
330
1BC
100
AcDbEntity
  8
Livello 1
 62
     7
420
 16777215
370
     9
100
AcDbVertex
100
AcDb2dVertex
 10
125.6515895953232
 20
-156.6174858549429
 30
0.0
  0
VERTEX
  5
1EE
330
1BC
100
AcDbEntity
  8
Livello 1
 62
     7
420
 16777215
370
     9
100
AcDbVertex
100
AcDb2dVertex
 10
130.4697278862194
 20
-156.4249050173174
 30
0.0
  0
VERTEX
  5
1EF
330
1BC
100
AcDbEntity
  8
Livello 1
 62
     7
420
 16777215
370
     9
100
AcDbVertex
100
AcDb2dVertex
 10
135.0923570083276
 20
-155.6566487241067
 30
0.0
  0
VERTEX
  5
1F0
330
1BC
100
AcDbEntity
  8
Livello 1
 62
     7
420
 16777215
370
     9
100
AcDbVertex
100
AcDb2dVertex
 10
139.5256781335214
 20
-154.5008191888054
 30
0.0
  0
VERTEX
  5
1F1
330
1BC
100
AcDbEntity
  8
Livello 1
 62
     7
420
 16777215
370
     9
100
AcDbVertex
100
AcDb2dVertex
 10
143.9567599466497
 20
-152.9567273923164
 30
0.0
  0
VERTEX
  5
1F2
330
1BC
100
AcDbEntity
  8
Livello 1
 62
     7
420
 16777215
370
     9
100
AcDbVertex
100
AcDb2dVertex
 10
148.0054361609153
 20
-151.0274739205765
 30
0.0
  0
VERTEX
  5
1F3
330
1BC
100
AcDbEntity
  8
Livello 1
 62
     7
420
 16777215
370
     9
100
AcDbVertex
100
AcDb2dVertex
 10
151.8608425184584
 20
-148.7182264168135
 30
0.0
  0
VERTEX
  5
1F4
330
1BC
100
AcDbEntity
  8
Livello 1
 62
     7
420
 16777215
370
     9
100
AcDbVertex
100
AcDb2dVertex
 10
155.5198784333423
 20
-146.0231282187026
 30
0.0
  0
VERTEX
  5
1F5
330
1BC
100
AcDbEntity
  8
Livello 1
 62
     7
420
 16777215
370
     9
100
AcDbVertex
100
AcDb2dVertex
 10
158.797542278009
 20
-142.9377007021128
 30
0.0
  0
VERTEX
  5
1F6
330
1BC
100
AcDbEntity
  8
Livello 1
 62
     7
420
 16777215
370
     9
100
AcDbVertex
100
AcDb2dVertex
 10
161.880558227759
 20
-139.6569362715094
 30
0.0
  0
VERTEX
  5
1F7
330
1BC
100
AcDbEntity
  8
Livello 1
 62
     7
420
 16777215
370
     9
100
AcDbVertex
100
AcDb2dVertex
 10
164.5794460309038
 20
-135.9965223184314
 30
0.0
  0
VERTEX
  5
1F8
330
1BC
100
AcDbEntity
  8
Livello 1
 62
     7
420
 16777215
370
     9
100
AcDbVertex
100
AcDb2dVertex
 10
166.8904160824094
 20
-132.1452500754706
 30
0.0
  0
VERTEX
  5
1F9
330
1BC
100
AcDbEntity
  8
Livello 1
 62
     7
420
 16777215
370
     9
100
AcDbVertex
100
AcDb2dVertex
 10
168.8165689682125
 20
-128.0941622943654
 30
0.0
  0
VERTEX
  5
1FA
330
1BC
100
AcDbEntity
  8
Livello 1
 62
     7
420
 16777215
370
     9
100
AcDbVertex
100
AcDb2dVertex
 10
170.3572156692163
 20
-123.6651475385282
 30
0.0
  0
VERTEX
  5
1FB
330
1BC
100
AcDbEntity
  8
Livello 1
 62
     7
420
 16777215
370
     9
100
AcDbVertex
100
AcDb2dVertex
 10
171.5161457904543
 20
-119.236132782691
 30
0.0
  0
VERTEX
  5
1FC
330
1BC
100
AcDbEntity
  8
Livello 1
 62
     7
420
 16777215
370
     9
100
AcDbVertex
100
AcDb2dVertex
 10
172.2878471791503
 20
-114.6100585650975
 30
0.0
  0
VERTEX
  5
1FD
330
1BC
100
AcDbEntity
  8
Livello 1
 62
     7
420
 16777215
370
     9
100
AcDbVertex
100
AcDb2dVertex
 10
172.4787054690331
 20
-109.7900254716844
 30
0.0
  0
SEQEND
  5
1FE
330
1BC
100
AcDbEntity
  8
Livello 1
370
     9
  0
POLYLINE
  5
1FF
330
1F
100
AcDbEntity
  8
Livello 1
 62
     7
420
 16777215
370
     9
100
AcDb2dPolyline
 66
     1
 10
0.0
 20
0.0
 30
0.0
  0
VERTEX
  5
200
330
1FF
100
AcDbEntity
  8
Livello 1
 62
     7
420
 16777215
370
     9
100
AcDbVertex
100
AcDb2dVertex
 10
168.4327853311557
 20
-109.7900254716844
 30
0.0
  0
VERTEX
  5
201
330
1FF
100
AcDbEntity
  8
Livello 1
 62
     7
420
 16777215
370
     9
100
AcDbVertex
100
AcDb2dVertex
 10
168.2391709648847
 20
-105.3610107158473
 30
0.0
  0
VERTEX
  5
202
330
1FF
100
AcDbEntity
  8
Livello 1
 62
     7
420
 16777215
370
     9
100
AcDbVertex
100
AcDb2dVertex
 10
167.4709146716739
 20
-101.1197536639562
 30
0.0
  0
VERTEX
  5
203
330
1FF
100
AcDbEntity
  8
Livello 1
 62
     7
420
 16777215
370
     9
100
AcDbVertex
100
AcDb2dVertex
 10
166.5055989167069
 20
-97.07314450698172
 30
0.0
  0
VERTEX
  5
204
330
1FF
100
AcDbEntity
  8
Livello 1
 62
     7
420
 16777215
370
     9
100
AcDbVertex
100
AcDb2dVertex
 10
164.9639186870576
 20
-93.02274574497349
 30
0.0
  0
VERTEX
  5
205
330
1FF
100
AcDbEntity
  8
Livello 1
 62
     7
420
 16777215
370
     9
100
AcDbVertex
100
AcDb2dVertex
 10
163.2265570338461
 20
-89.36370983008963
 30
0.0
  0
VERTEX
  5
206
330
1FF
100
AcDbEntity
  8
Livello 1
 62
     7
420
 16777215
370
     9
100
AcDbVertex
100
AcDb2dVertex
 10
161.1085123295146
 20
-85.89587671463714
 30
0.0
  0
VERTEX
  5
207
330
1FF
100
AcDbEntity
  8
Livello 1
 62
     7
420
 16777215
370
     9
100
AcDbVertex
100
AcDb2dVertex
 10
158.6063394785776
 20
-82.61786836042192
 30
0.0
  0
VERTEX
  5
208
330
1FF
100
AcDbEntity
  8
Livello 1
 62
     7
420
 16777215
370
     9
100
AcDbVertex
100
AcDb2dVertex
 10
155.9077961849814
 20
-79.53760848706004
 30
0.0
  0
VERTEX
  5
209
330
1FF
100
AcDbEntity
  8
Livello 1
 62
     7
420
 16777215
370
     9
100
AcDbVertex
100
AcDb2dVertex
 10
152.8247802352313
 20
-76.83768715526975
 30
0.0
  0
VERTEX
  5
20A
330
1FF
100
AcDbEntity
  8
Livello 1
 62
     7
420
 16777215
370
     9
100
AcDbVertex
100
AcDb2dVertex
 10
149.545393842822
 20
-74.33310273749312
 30
0.0
  0
VERTEX
  5
20B
330
1FF
100
AcDbEntity
  8
Livello 1
 62
     7
420
 16777215
370
     9
100
AcDbVertex
100
AcDb2dVertex
 10
146.0785942560151
 20
-72.21057940903069
 30
0.0
  0
VERTEX
  5
20C
330
1FF
100
AcDbEntity
  8
Livello 1
 62
     7
420
 16777215
370
     9
100
AcDbVertex
100
AcDb2dVertex
 10
142.2242214271176
 20
-70.28683809006718
 30
0.0
  0
VERTEX
  5
20D
330
1FF
100
AcDbEntity
  8
Livello 1
 62
     7
420
 16777215
370
     9
100
AcDbVertex
100
AcDb2dVertex
 10
138.3705376173171
 20
-68.93532713120368
 30
0.0
  0
VERTEX
  5
20E
330
1FF
100
AcDbEntity
  8
Livello 1
 62
     7
420
 16777215
370
     9
100
AcDbVertex
100
AcDb2dVertex
 10
134.3241007151169
 20
-67.7815646531935
 30
0.0
  0
VERTEX
  5
20F
330
1FF
100
AcDbEntity
  8
Livello 1
 62
     7
420
 16777215
370
     9
100
AcDbVertex
100
AcDb2dVertex
 10
130.0819823893545
 20
-67.19899900663775
 30
0.0
  0
VERTEX
  5
210
330
1FF
100
AcDbEntity
  8
Livello 1
 62
     7
420
 16777215
370
     9
100
AcDbVertex
100
AcDb2dVertex
 10
125.6515895953232
 20
-67.00641816901229
 30
0.0
  0
VERTEX
  5
211
330
1FF
100
AcDbEntity
  8
Livello 1
 62
     7
420
 16777215
370
     9
100
AcDbVertex
100
AcDb2dVertex
 10
121.2189574892265
 20
-67.19899900663775
 30
0.0
  0
VERTEX
  5
212
330
1FF
100
AcDbEntity
  8
Livello 1
 62
     7
420
 16777215
370
     9
100
AcDbVertex
100
AcDb2dVertex
 10
116.9795952398523
 20
-67.7815646531935
 30
0.0
  0
VERTEX
  5
213
330
1FF
100
AcDbEntity
  8
Livello 1
 62
     7
420
 16777215
370
     9
100
AcDbVertex
100
AcDb2dVertex
 10
112.9326415733293
 20
-68.93532713120368
 30
0.0
  0
VERTEX
  5
214
330
1FF
100
AcDbEntity
  8
Livello 1
 62
     7
420
 16777215
370
     9
100
AcDbVertex
100
AcDb2dVertex
 10
109.0774074705605
 20
-70.28683809006718
 30
0.0
  0
VERTEX
  5
215
330
1FF
100
AcDbEntity
  8
Livello 1
 62
     7
420
 16777215
370
     9
100
AcDbVertex
100
AcDb2dVertex
 10
105.2244126798571
 20
-72.21057940903069
 30
0.0
  0
VERTEX
  5
216
330
1FF
100
AcDbEntity
  8
Livello 1
 62
     7
420
 16777215
370
     9
100
AcDbVertex
100
AcDb2dVertex
 10
101.7533067236936
 20
-74.33310273749312
 30
0.0
  0
VERTEX
  5
217
330
1FF
100
AcDbEntity
  8
Livello 1
 62
     7
420
 16777215
370
     9
100
AcDbVertex
100
AcDb2dVertex
 10
98.47943248406071
 20
-76.83768715526975
 30
0.0
  0
VERTEX
  5
218
330
1FF
100
AcDbEntity
  8
Livello 1
 62
     7
420
 16777215
370
     9
100
AcDbVertex
100
AcDb2dVertex
 10
95.39607202476209
 20
-79.53760848706004
 30
0.0
  0
VERTEX
  5
219
330
1FF
100
AcDbEntity
  8
Livello 1
 62
     7
420
 16777215
370
     9
100
AcDbVertex
100
AcDb2dVertex
 10
92.6975287311659
 20
-82.61786836042192
 30
0.0
  0
VERTEX
  5
21A
330
1FF
100
AcDbEntity
  8
Livello 1
 62
     7
420
 16777215
370
     9
100
AcDbVertex
100
AcDb2dVertex
 10
90.19018823700107
 20
-85.89587671463714
 30
0.0
  0
VERTEX
  5
21B
330
1FF
100
AcDbEntity
  8
Livello 1
 62
     7
420
 16777215
370
     9
100
AcDbVertex
100
AcDb2dVertex
 10
88.0719712778952
 20
-89.36370983008963
 30
0.0
  0
VERTEX
  5
21C
330
1FF
100
AcDbEntity
  8
Livello 1
 62
     7
420
 16777215
370
     9
100
AcDbVertex
100
AcDb2dVertex
 10
86.33581540810356
 20
-93.02274574497349
 30
0.0
  0
VERTEX
  5
21D
330
1FF
100
AcDbEntity
  8
Livello 1
 62
     7
420
 16777215
370
     9
100
AcDbVertex
100
AcDb2dVertex
 10
84.79654674529392
 20
-97.07314450698172
 30
0.0
  0
VERTEX
  5
21E
330
1FF
100
AcDbEntity
  8
Livello 1
 62
     7
420
 16777215
370
     9
100
AcDbVertex
100
AcDb2dVertex
 10
83.8336425571666
 20
-101.1197536639562
 30
0.0
  0
VERTEX
  5
21F
330
1FF
100
AcDbEntity
  8
Livello 1
 62
     7
420
 16777215
370
     9
100
AcDbVertex
100
AcDb2dVertex
 10
83.06176891369637
 20
-105.3610107158473
 30
0.0
  0
VERTEX
  5
220
330
1FF
100
AcDbEntity
  8
Livello 1
 62
     7
420
 16777215
370
     9
100
AcDbVertex
100
AcDb2dVertex
 10
82.86901582129664
 20
-109.7900254716844
 30
0.0
  0
VERTEX
  5
221
330
1FF
100
AcDbEntity
  8
Livello 1
 62
     7
420
 16777215
370
     9
100
AcDbVertex
100
AcDb2dVertex
 10
83.06176891369637
 20
-114.2214517943613
 30
0.0
  0
VERTEX
  5
222
330
1FF
100
AcDbEntity
  8
Livello 1
 62
     7
420
 16777215
370
     9
100
AcDbVertex
100
AcDb2dVertex
 10
83.8336425571666
 20
-118.4606417889612
 30
0.0
  0
VERTEX
  5
223
330
1FF
100
AcDbEntity
  8
Livello 1
 62
     7
420
 16777215
370
     9
100
AcDbVertex
100
AcDb2dVertex
 10
84.79654674529392
 20
-122.5110405509695
 30
0.0
  0
VERTEX
  5
224
330
1FF
100
AcDbEntity
  8
Livello 1
 62
     7
420
 16777215
370
     9
100
AcDbVertex
100
AcDb2dVertex
 10
86.33581540810356
 20
-126.3630018130273
 30
0.0
  0
VERTEX
  5
225
330
1FF
100
AcDbEntity
  8
Livello 1
 62
     7
420
 16777215
370
     9
100
AcDbVertex
100
AcDb2dVertex
 10
88.0719712778952
 20
-130.2187526801189
 30
0.0
  0
VERTEX
  5
226
330
1FF
100
AcDbEntity
  8
Livello 1
 62
     7
420
 16777215
370
     9
100
AcDbVertex
100
AcDb2dVertex
 10
90.19018823700107
 20
-133.6845187382803
 30
0.0
  0
VERTEX
  5
227
330
1FF
100
AcDbEntity
  8
Livello 1
 62
     7
420
 16777215
370
     9
100
AcDbVertex
100
AcDb2dVertex
 10
92.6975287311659
 20
-136.9642496402381
 30
0.0
  0
VERTEX
  5
228
330
1FF
100
AcDbEntity
  8
Livello 1
 62
     7
420
 16777215
370
     9
100
AcDbVertex
100
AcDb2dVertex
 10
95.39607202476209
 20
-140.0479546090853
 30
0.0
  0
VERTEX
  5
229
330
1FF
100
AcDbEntity
  8
Livello 1
 62
     7
420
 16777215
370
     9
100
AcDbVertex
100
AcDb2dVertex
 10
98.47943248406071
 20
-142.7451198644874
 30
0.0
  0
VERTEX
  5
22A
330
1FF
100
AcDbEntity
  8
Livello 1
 62
     7
420
 16777215
370
     9
100
AcDbVertex
100
AcDb2dVertex
 10
101.7533067236936
 20
-145.2469482058758
 30
0.0
  0
VERTEX
  5
22B
330
1FF
100
AcDbEntity
  8
Livello 1
 62
     7
420
 16777215
370
     9
100
AcDbVertex
100
AcDb2dVertex
 10
105.2244126798571
 20
-147.36671545795
 30
0.0
  0
VERTEX
  5
22C
330
1FF
100
AcDbEntity
  8
Livello 1
 62
     7
420
 16777215
370
     9
100
AcDbVertex
100
AcDb2dVertex
 10
109.0774074705605
 20
-149.1030435825159
 30
0.0
  0
VERTEX
  5
22D
330
1FF
100
AcDbEntity
  8
Livello 1
 62
     7
420
 16777215
370
     9
100
AcDbVertex
100
AcDb2dVertex
 10
112.9326415733293
 20
-150.6450683217138
 30
0.0
  0
VERTEX
  5
22E
330
1FF
100
AcDbEntity
  8
Livello 1
 62
     7
420
 16777215
370
     9
100
AcDbVertex
100
AcDb2dVertex
 10
116.9795952398523
 20
-151.6103840766807
 30
0.0
  0
VERTEX
  5
22F
330
1FF
100
AcDbEntity
  8
Livello 1
 62
     7
420
 16777215
370
     9
100
AcDbVertex
100
AcDb2dVertex
 10
121.2189574892265
 20
-152.3793293889885
 30
0.0
  0
VERTEX
  5
230
330
1FF
100
AcDbEntity
  8
Livello 1
 62
     7
420
 16777215
370
     9
100
AcDbVertex
100
AcDb2dVertex
 10
125.6515895953232
 20
-152.5708766979684
 30
0.0
  0
VERTEX
  5
231
330
1FF
100
AcDbEntity
  8
Livello 1
 62
     7
420
 16777215
370
     9
100
AcDbVertex
100
AcDb2dVertex
 10
130.0819823893545
 20
-152.3793293889885
 30
0.0
  0
VERTEX
  5
232
330
1FF
100
AcDbEntity
  8
Livello 1
 62
     7
420
 16777215
370
     9
100
AcDbVertex
100
AcDb2dVertex
 10
134.3241007151169
 20
-151.6103840766807
 30
0.0
  0
VERTEX
  5
233
330
1FF
100
AcDbEntity
  8
Livello 1
 62
     7
420
 16777215
370
     9
100
AcDbVertex
100
AcDb2dVertex
 10
138.3705376173171
 20
-150.6450683217138
 30
0.0
  0
VERTEX
  5
234
330
1FF
100
AcDbEntity
  8
Livello 1
 62
     7
420
 16777215
370
     9
100
AcDbVertex
100
AcDb2dVertex
 10
142.2242214271176
 20
-149.1030435825159
 30
0.0
  0
VERTEX
  5
235
330
1FF
100
AcDbEntity
  8
Livello 1
 62
     7
420
 16777215
370
     9
100
AcDbVertex
100
AcDb2dVertex
 10
146.0785942560151
 20
-147.36671545795
 30
0.0
  0
VERTEX
  5
236
330
1FF
100
AcDbEntity
  8
Livello 1
 62
     7
420
 16777215
370
     9
100
AcDbVertex
100
AcDb2dVertex
 10
149.545393842822
 20
-145.2469482058758
 30
0.0
  0
VERTEX
  5
237
330
1FF
100
AcDbEntity
  8
Livello 1
 62
     7
420
 16777215
370
     9
100
AcDbVertex
100
AcDb2dVertex
 10
152.8247802352313
 20
-142.7451198644874
 30
0.0
  0
VERTEX
  5
238
330
1FF
100
AcDbEntity
  8
Livello 1
 62
     7
420
 16777215
370
     9
100
AcDbVertex
100
AcDb2dVertex
 10
155.9077961849814
 20
-140.0479546090853
 30
0.0
  0
VERTEX
  5
239
330
1FF
100
AcDbEntity
  8
Livello 1
 62
     7
420
 16777215
370
     9
100
AcDbVertex
100
AcDb2dVertex
 10
158.6063394785776
 20
-136.9642496402381
 30
0.0
  0
VERTEX
  5
23A
330
1FF
100
AcDbEntity
  8
Livello 1
 62
     7
420
 16777215
370
     9
100
AcDbVertex
100
AcDb2dVertex
 10
161.1085123295146
 20
-133.6845187382803
 30
0.0
  0
VERTEX
  5
23B
330
1FF
100
AcDbEntity
  8
Livello 1
 62
     7
420
 16777215
370
     9
100
AcDbVertex
100
AcDb2dVertex
 10
163.2265570338461
 20
-130.2187526801189
 30
0.0
  0
VERTEX
  5
23C
330
1FF
100
AcDbEntity
  8
Livello 1
 62
     7
420
 16777215
370
     9
100
AcDbVertex
100
AcDb2dVertex
 10
164.9639186870576
 20
-126.3630018130273
 30
0.0
  0
VERTEX
  5
23D
330
1FF
100
AcDbEntity
  8
Livello 1
 62
     7
420
 16777215
370
     9
100
AcDbVertex
100
AcDb2dVertex
 10
166.5055989167069
 20
-122.5110405509695
 30
0.0
  0
VERTEX
  5
23E
330
1FF
100
AcDbEntity
  8
Livello 1
 62
     7
420
 16777215
370
     9
100
AcDbVertex
100
AcDb2dVertex
 10
167.4709146716739
 20
-118.4606417889612
 30
0.0
  0
VERTEX
  5
23F
330
1FF
100
AcDbEntity
  8
Livello 1
 62
     7
420
 16777215
370
     9
100
AcDbVertex
100
AcDb2dVertex
 10
168.2391709648847
 20
-114.2214517943613
 30
0.0
  0
VERTEX
  5
240
330
1FF
100
AcDbEntity
  8
Livello 1
 62
     7
420
 16777215
370
     9
100
AcDbVertex
100
AcDb2dVertex
 10
168.4327853311557
 20
-109.7900254716844
 30
0.0
  0
SEQEND
  5
241
330
1FF
100
AcDbEntity
  8
Livello 1
370
     9
  0
POLYLINE
  5
242
330
1F
100
AcDbEntity
  8
Livello 1
 62
     7
420
 16777215
370
     9
100
AcDb2dPolyline
 66
     1
 10
0.0
 20
0.0
 30
0.0
  0
VERTEX
  5
243
330
242
100
AcDbEntity
  8
Livello 1
 62
     7
420
 16777215
370
     9
100
AcDbVertex
100
AcDb2dVertex
 10
-20.23115098235541
 20
-118.8482150310518
 30
0.0
  0
VERTEX
  5
244
330
242
100
AcDbEntity
  8
Livello 1
 62
     7
420
 16777215
370
     9
100
AcDbVertex
100
AcDb2dVertex
 10
-26.9747531399577
 20
-118.8482150310518
 30
0.0
  0
VERTEX
  5
245
330
242
100
AcDbEntity
  8
Livello 1
 62
     7
420
 16777215
370
     9
100
AcDbVertex
100
AcDb2dVertex
 10
-26.9747531399577
 20
-100.5392550746916
 30
0.0
  0
VERTEX
  5
246
330
242
100
AcDbEntity
  8
Livello 1
 62
     7
420
 16777215
370
     9
100
AcDbVertex
100
AcDb2dVertex
 10
-20.23115098235541
 20
-100.5392550746916
 30
0.0
  0
VERTEX
  5
247
330
242
100
AcDbEntity
  8
Livello 1
 62
     7
420
 16777215
370
     9
100
AcDbVertex
100
AcDb2dVertex
 10
-20.23115098235541
 20
-118.8482150310518
 30
0.0
  0
SEQEND
  5
248
330
242
100
AcDbEntity
  8
Livello 1
370
     9
  0
ENDSEC
  0
SECTION
  2
OBJECTS
  0
DICTIONARY
  5
C
330
0
100
AcDbDictionary
281
     1
  3
ACAD_GROUP
350
D
  3
ACAD_LAYOUT
350
1A
  3
ACAD_MLINESTYLE
350
17
  3
ACAD_PLOTSETTINGS
350
19
  3
ACAD_PLOTSTYLENAME
350
E
  3
ACAD_TABLESTYLE
350
249
  3
ACAD_VISUALSTYLE
350
2A
  0
DICTIONARY
  5
D
102
{ACAD_REACTORS
330
C
102
}
330
C
100
AcDbDictionary
281
     1
  0
DICTIONARY
  5
1A
102
{ACAD_REACTORS
330
C
102
}
330
C
100
AcDbDictionary
281
     1
  3
Layout1
350
1E
  3
Layout2
350
26
  3
Model
350
22
  0
DICTIONARY
  5
17
102
{ACAD_REACTORS
330
C
102
}
330
C
100
AcDbDictionary
281
     1
  3
Standard
350
18
  0
DICTIONARY
  5
19
102
{ACAD_REACTORS
330
C
102
}
330
C
100
AcDbDictionary
281
     1
  0
ACDBDICTIONARYWDFLT
  5
E
102
{ACAD_REACTORS
330
C
102
}
330
C
100
AcDbDictionary
281
     1
  3
Normal
350
F
100
AcDbDictionaryWithDefault
340
F
  0
DICTIONARY
  5
249
102
{ACAD_REACTORS
330
C
102
}
330
C
100
AcDbDictionary
281
     1
  0
DICTIONARY
  5
2A
102
{ACAD_REACTORS
330
C
102
}
330
C
100
AcDbDictionary
281
     1
  3
2dWireframe
350
2F
  3
3D Hidden
350
31
  3
3dWireframe
350
30
  3
Basic
350
32
  3
Brighten
350
36
  3
ColorChange
350
3A
  3
Conceptual
350
34
  3
Dim
350
35
  3
Facepattern
350
39
  3
Flat
350
2B
  3
FlatWithEdges
350
2C
  3
Gouraud
350
2D
  3
GouraudWithEdges
350
2E
  3
Linepattern
350
38
  3
Realistic
350
33
  3
Thicken
350
37
  0
LAYOUT
  5
1E
102
{ACAD_REACTORS
330
1A
102
}
330
1A
100
AcDbPlotSettings
  1

  2
none_device
  4

  6

 40
0.0
 41
0.0
 42
0.0
 43
0.0
 44
0.0
 45
0.0
 46
0.0
 47
0.0
 48
0.0
 49
0.0
140
0.0
141
0.0
142
1.0
143
1.0
 70
   688
 72
     0
 73
     0
 74
     5
  7

 75
    16
 76
     0
 77
     2
 78
   300
147
1.0
148
0.0
149
0.0
100
AcDbLayout
  1
Layout1
 70
     1
 71
     1
 10
0.0
 20
0.0
 11
12.0
 21
9.0
 12
0.0
 22
0.0
 32
0.0
 14
1.000000000000000E+20
 24
1.000000000000000E+20
 34
1.000000000000000E+20
 15
-1.000000000000000E+20
 25
-1.000000000000000E+20
 35
-1.000000000000000E+20
146
0.0
 13
0.0
 23
0.0
 33
0.0
 16
1.0
 26
0.0
 36
0.0
 17
0.0
 27
1.0
 37
0.0
 76
     0
330
1B
  0
LAYOUT
  5
26
102
{ACAD_REACTORS
330
1A
102
}
330
1A
100
AcDbPlotSettings
  1

  2
none_device
  4

  6

 40
0.0
 41
0.0
 42
0.0
 43
0.0
 44
0.0
 45
0.0
 46
0.0
 47
0.0
 48
0.0
 49
0.0
140
0.0
141
0.0
142
1.0
143
1.0
 70
   688
 72
     0
 73
     0
 74
     5
  7

 75
    16
 76
     0
 77
     2
 78
   300
147
1.0
148
0.0
149
0.0
100
AcDbLayout
  1
Layout2
 70
     1
 71
     2
 10
0.0
 20
0.0
 11
0.0
 21
0.0
 12
0.0
 22
0.0
 32
0.0
 14
0.0
 24
0.0
 34
0.0
 15
0.0
 25
0.0
 35
0.0
146
0.0
 13
0.0
 23
0.0
 33
0.0
 16
1.0
 26
0.0
 36
0.0
 17
0.0
 27
1.0
 37
0.0
 76
     0
330
23
  0
LAYOUT
  5
22
102
{ACAD_REACTORS
330
1A
102
}
330
1A
100
AcDbPlotSettings
  1

  2
none_device
  4

  6

 40
0.0
 41
0.0
 42
0.0
 43
0.0
 44
0.0
 45
0.0
 46
0.0
 47
0.0
 48
0.0
 49
0.0
140
0.0
141
0.0
142
1.0
143
1.0
 70
  1712
 72
     0
 73
     0
 74
     0
  7

 75
     0
 76
     0
 77
     2
 78
   300
147
1.0
148
0.0
149
0.0
100
AcDbLayout
  1
Model
 70
     1
 71
     0
 10
0.0
 20
0.0
 11
12.0
 21
9.0
 12
0.0
 22
0.0
 32
0.0
 14
1.000000000000000E+20
 24
1.000000000000000E+20
 34
1.000000000000000E+20
 15
-1.000000000000000E+20
 25
-1.000000000000000E+20
 35
-1.000000000000000E+20
146
0.0
 13
0.0
 23
0.0
 33
0.0
 16
1.0
 26
0.0
 36
0.0
 17
0.0
 27
1.0
 37
0.0
 76
     0
330
1F
331
29
  0
MLINESTYLE
  5
18
102
{ACAD_REACTORS
330
17
102
}
330
17
100
AcDbMlineStyle
  2
Standard
 70
     0
  3

 62
   256
 51
90.0
 52
90.0
 71
     2
 49
0.5
 62
   256
  6
BYLAYER
 49
-0.5
 62
   256
  6
BYLAYER
  0
ACDBPLACEHOLDER
  5
F
102
{ACAD_REACTORS
330
E
102
}
330
E
  0
VISUALSTYLE
  5
2F
102
{ACAD_REACTORS
330
2A
102
}
330
2A
100
AcDbVisualStyle
  2
2dWireframe
 70
     4
 71
     0
 72
     2
 73
     0
 90
        0
 40
-0.6
 41
-30.0
 62
     5
 63
     7
421
 16777215
 74
     1
 91
        4
 64
     7
 65
   257
 75
     1
175
     1
 42
1.0
 92
        0
 66
   257
 43
1.0
 76
     1
 77
     6
 78
     2
 67
     7
 79
     5
170
     0
171
     0
290
     0
174
     0
 93
        1
 44
0.0
173
     0
291
     0
 45
0.0
1001
ACAD
1000
AcDbSavedByObjectVersion
1070
     0
  0
VISUALSTYLE
  5
31
102
{ACAD_REACTORS
330
2A
102
}
330
2A
100
AcDbVisualStyle
  2
3D Hidden
 70
     6
 71
     1
 72
     2
 73
     2
 90
        0
 40
-0.6
 41
-30.0
 62
     5
 63
     7
421
 16777215
 74
     2
 91
        2
 64
     7
 65
   257
 75
     2
175
     1
 42
40.0
 92
        0
 66
   257
 43
1.0
 76
     1
 77
     6
 78
     2
 67
     7
 79
     3
170
     0
171
     0
290
     0
174
     0
 93
        1
 44
0.0
173
     0
291
     0
 45
0.0
1001
ACAD
1000
AcDbSavedByObjectVersion
1070
     0
  0
VISUALSTYLE
  5
30
102
{ACAD_REACTORS
330
2A
102
}
330
2A
100
AcDbVisualStyle
  2
3dWireframe
 70
     5
 71
     0
 72
     2
 73
     0
 90
        0
 40
-0.6
 41
-30.0
 62
     5
 63
     7
421
 16777215
 74
     1
 91
        4
 64
     7
 65
   257
 75
     1
175
     1
 42
1.0
 92
        0
 66
   257
 43
1.0
 76
     1
 77
     6
 78
     2
 67
     7
 79
     5
170
     0
171
     0
290
     0
174
     0
 93
        1
 44
0.0
173
     0
291
     0
 45
0.0
1001
ACAD
1000
AcDbSavedByObjectVersion
1070
     0
  0
VISUALSTYLE
  5
32
102
{ACAD_REACTORS
330
2A
102
}
330
2A
100
AcDbVisualStyle
  2
Basic
 70
     7
 71
     1
 72
     0
 73
     1
 90
        0
 40
-0.6
 41
-30.0
 62
     5
 63
     7
421
 16777215
 74
     0
 91
        4
 64
     7
 65
   257
 75
     1
175
     1
 42
1.0
 92
        8
 66
     7
 43
1.0
 76
     1
 77
     6
 78
     2
 67
     7
 79
     5
170
     0
171
     0
290
     0
174
     0
 93
        1
 44
0.0
173
     0
291
     1
 45
0.0
1001
ACAD
1000
AcDbSavedByObjectVersion
1070
     0
  0
VISUALSTYLE
  5
36
102
{ACAD_REACTORS
330
2A
102
}
330
2A
100
AcDbVisualStyle
  2
Brighten
 70
    12
 71
     2
 72
     2
 73
     0
 90
        0
 40
-0.6
 41
-30.0
 62
     5
 63
     7
421
 16777215
 74
     1
 91
        4
 64
     7
 65
   257
 75
     1
175
     1
 42
1.0
 92
        8
 66
     7
 43
1.0
 76
     1
 77
     6
 78
     2
 67
     7
 79
     5
170
     0
171
     0
290
     0
174
     0
 93
        1
 44
50.0
173
     0
291
     1
 45
0.0
1001
ACAD
1000
AcDbSavedByObjectVersion
1070
     0
  0
VISUALSTYLE
  5
3A
102
{ACAD_REACTORS
330
2A
102
}
330
2A
100
AcDbVisualStyle
  2
ColorChange
 70
    16
 71
     2
 72
     2
 73
     3
 90
        0
 40
-0.6
 41
-30.0
 62
     5
 63
     8
421
  8421504
 74
     1
 91
        4
 64
     7
 65
   257
 75
     1
175
     1
 42
1.0
 92
        8
 66
     8
424
  8421504
 43
1.0
 76
     1
 77
     6
 78
     2
 67
     7
 79
     5
170
     0
171
     0
290
     0
174
     0
 93
        1
 44
0.0
173
     0
291
     1
 45
0.0
1001
ACAD
1000
AcDbSavedByObjectVersion
1070
     0
  0
VISUALSTYLE
  5
34
102
{ACAD_REACTORS
330
2A
102
}
330
2A
100
AcDbVisualStyle
  2
Conceptual
 70
     9
 71
     3
 72
     2
 73
     0
 90
        0
 40
-0.6
 41
-30.0
 62
     5
 63
     7
421
 16777215
 74
     2
 91
        2
 64
     7
 65
   257
 75
     1
175
     1
 42
40.0
 92
        8
 66
     7
 43
1.0
 76
     1
 77
     6
 78
     2
 67
     7
 79
     3
170
     0
171
     0
290
     0
174
     0
 93
        1
 44
0.0
173
     0
291
     0
 45
0.0
1001
ACAD
1000
AcDbSavedByObjectVersion
1070
     0
  0
VISUALSTYLE
  5
35
102
{ACAD_REACTORS
330
2A
102
}
330
2A
100
AcDbVisualStyle
  2
Dim
 70
    11
 71
     2
 72
     2
 73
     0
 90
        0
 40
-0.6
 41
-30.0
 62
     5
 63
     7
421
 16777215
 74
     1
 91
        4
 64
     7
 65
   257
 75
     1
175
     1
 42
1.0
 92
        8
 66
     7
 43
1.0
 76
     1
 77
     6
 78
     2
 67
     7
 79
     5
170
     0
171
     0
290
     0
174
     0
 93
        1
 44
-50.0
173
     0
291
     1
 45
0.0
1001
ACAD
1000
AcDbSavedByObjectVersion
1070
     0
  0
VISUALSTYLE
  5
39
102
{ACAD_REACTORS
330
2A
102
}
330
2A
100
AcDbVisualStyle
  2
Facepattern
 70
    15
 71
     2
 72
     2
 73
     0
 90
        0
 40
-0.6
 41
-30.0
 62
     5
 63
     7
421
 16777215
 74
     1
 91
        4
 64
     7
 65
   257
 75
     1
175
     1
 42
1.0
 92
        8
 66
     7
 43
1.0
 76
     1
 77
     6
 78
     2
 67
     7
 79
     5
170
     0
171
     0
290
     0
174
     0
 93
        1
 44
0.0
173
     0
291
     1
 45
0.0
1001
ACAD
1000
AcDbSavedByObjectVersion
1070
     0
  0
VISUALSTYLE
  5
2B
102
{ACAD_REACTORS
330
2A
102
}
330
2A
100
AcDbVisualStyle
  2
Flat
 70
     0
 71
     2
 72
     1
 73
     1
 90
        2
 40
-0.6
 41
30.0
 62
     5
 63
     7
421
 16777215
 74
     0
 91
        4
 64
     7
 65
   257
 75
     1
175
     1
 42
1.0
 92
        8
 66
     7
 43
1.0
 76
     1
 77
     6
 78
     2
 67
     7
 79
     5
170
     0
171
     0
290
     0
174
     0
 93
       13
 44
0.0
173
     0
291
     1
 45
0.0
1001
ACAD
1000
AcDbSavedByObjectVersion
1070
     0
  0
VISUALSTYLE
  5
2C
102
{ACAD_REACTORS
330
2A
102
}
330
2A
100
AcDbVisualStyle
  2
FlatWithEdges
 70
     1
 71
     2
 72
     1
 73
     1
 90
        2
 40
-0.6
 41
30.0
 62
     5
 63
     7
421
 16777215
 74
     1
 91
        4
 64
     7
 65
   257
 75
     1
175
     1
 42
1.0
 92
        0
 66
   257
 43
1.0
 76
     1
 77
     6
 78
     2
 67
     7
 79
     5
170
     0
171
     0
290
     0
174
     0
 93
       13
 44
0.0
173
     0
291
     1
 45
0.0
1001
ACAD
1000
AcDbSavedByObjectVersion
1070
     0
  0
VISUALSTYLE
  5
2D
102
{ACAD_REACTORS
330
2A
102
}
330
2A
100
AcDbVisualStyle
  2
Gouraud
 70
     2
 71
     2
 72
     2
 73
     1
 90
        2
 40
-0.6
 41
30.0
 62
     5
 63
     7
421
 16777215
 74
     0
 91
        4
 64
     7
 65
   257
 75
     1
175
     1
 42
1.0
 92
        0
 66
     7
 43
1.0
 76
     1
 77
     6
 78
     2
 67
     7
 79
     5
170
     0
171
     0
290
     0
174
     0
 93
       13
 44
0.0
173
     0
291
     1
 45
0.0
1001
ACAD
1000
AcDbSavedByObjectVersion
1070
     0
  0
VISUALSTYLE
  5
2E
102
{ACAD_REACTORS
330
2A
102
}
330
2A
100
AcDbVisualStyle
  2
GouraudWithEdges
 70
     3
 71
     2
 72
     2
 73
     1
 90
        2
 40
-0.6
 41
30.0
 62
     5
 63
     7
421
 16777215
 74
     1
 91
        4
 64
     7
 65
   257
 75
     1
175
     1
 42
1.0
 92
        0
 66
   257
 43
1.0
 76
     1
 77
     6
 78
     2
 67
     7
 79
     5
170
     0
171
     0
290
     0
174
     0
 93
       13
 44
0.0
173
     0
291
     1
 45
0.0
1001
ACAD
1000
AcDbSavedByObjectVersion
1070
     0
  0
VISUALSTYLE
  5
38
102
{ACAD_REACTORS
330
2A
102
}
330
2A
100
AcDbVisualStyle
  2
Linepattern
 70
    14
 71
     2
 72
     2
 73
     0
 90
        0
 40
-0.6
 41
-30.0
 62
     5
 63
     7
421
 16777215
 74
     1
 91
        4
 64
     7
 65
   257
 75
     7
175
     7
 42
1.0
 92
        8
 66
     7
 43
1.0
 76
     1
 77
     6
 78
     2
 67
     7
 79
     5
170
     0
171
     0
290
     0
174
     0
 93
        1
 44
0.0
173
     0
291
     1
 45
0.0
1001
ACAD
1000
AcDbSavedByObjectVersion
1070
     0
  0
VISUALSTYLE
  5
33
102
{ACAD_REACTORS
330
2A
102
}
330
2A
100
AcDbVisualStyle
  2
Realistic
 70
     8
 71
     2
 72
     2
 73
     0
 90
        0
 40
-0.6
 41
-30.0
 62
     5
 63
     7
421
 16777215
 74
     1
 91
        0
 64
     7
 65
   257
 75
     1
175
     1
 42
1.0
 92
        8
 66
     8
424
  7895160
 43
1.0
 76
     1
 77
     6
 78
     2
 67
     7
 79
     5
170
     0
171
     0
290
     0
174
     0
 93
       13
 44
0.0
173
     0
291
     0
 45
0.0
1001
ACAD
1000
AcDbSavedByObjectVersion
1070
     0
  0
VISUALSTYLE
  5
37
102
{ACAD_REACTORS
330
2A
102
}
330
2A
100
AcDbVisualStyle
  2
Thicken
 70
    13
 71
     2
 72
     2
 73
     0
 90
        0
 40
-0.6
 41
-30.0
 62
     5
 63
     7
421
 16777215
 74
     1
 91
        4
 64
     7
 65
   257
 75
     1
175
     1
 42
1.0
 92
       12
 66
     7
 43
1.0
 76
     1
 77
     6
 78
     2
 67
     7
 79
     5
170
     0
171
     0
290
     0
174
     0
 93
        1
 44
0.0
173
     0
291
     1
 45
0.0
1001
ACAD
1000
AcDbSavedByObjectVersion
1070
     0
  0
ENDSEC
  0
EOF
