  0
SECTION
  2
HEADER
  9
$ACADVER
  1
AC1015
  9
$ACADMAINTVER
 70
    20
  9
$DWGCODEPAGE
  3
ANSI_1252
  9
$INSBASE
 10
0.0
 20
0.0
 30
0.0
  9
$EXTMIN
 10
-224.0363476483188
 20
-682.3952733446012
 30
0.0
  9
$EXTMAX
 10
1079.303896842499
 20
356.7237211786097
 30
0.0
  9
$LIMMIN
 10
0.0
 20
0.0
  9
$LIMMAX
 10
0.0
 20
0.0
  9
$ORTHOMODE
 70
     0
  9
$REGENMODE
 70
     1
  9
$FILLMODE
 70
     1
  9
$QTEXTMODE
 70
     0
  9
$MIRRTEXT
 70
     1
  9
$LTSCALE
 40
1.0
  9
$ATTMODE
 70
     1
  9
$TEXTSIZE
 40
0.0
  9
$TRACEWID
 40
0.05
  9
$TEXTSTYLE
  7
STANDARD
  9
$CLAYER
  8
0
  9
$CELTYPE
  6
CONTINUOUS
  9
$CECOLOR
 62
   256
  9
$CELTSCALE
 40
1.0
  9
$DISPSILH
 70
     0
  9
$DIMSCALE
 40
1.0
  9
$DIMASZ
 40
6.0
  9
$DIMEXO
 40
1.0
  9
$DIMDLI
 40
0.38
  9
$DIMRND
 40
0.0
  9
$DIMDLE
 40
1.0
  9
$DIMEXE
 40
0.18
  9
$DIMTP
 40
0.0
  9
$DIMTM
 40
0.0
  9
$DIMTXT
 40
3.5
  9
$DIMCEN
 40
0.09
  9
$DIMTSZ
 40
0.0
  9
$DIMTOL
 70
     0
  9
$DIMLIM
 70
     0
  9
$DIMTIH
 70
     1
  9
$DIMTOH
 70
     1
  9
$DIMSE1
 70
     0
  9
$DIMSE2
 70
     0
  9
$DIMTAD
 70
     1
  9
$DIMZIN
 70
     0
  9
$DIMBLK
  1

  9
$DIMASO
 70
     1
  9
$DIMSHO
 70
     1
  9
$DIMPOST
  1

  9
$DIMAPOST
  1

  9
$DIMALT
 70
     0
  9
$DIMALTD
 70
     2
  9
$DIMALTF
 40
0.0394
  9
$DIMLFAC
 40
1.0
  9
$DIMTOFL
 70
     0
  9
$DIMTVP
 40
0.0
  9
$DIMTIX
 70
     0
  9
$DIMSOXD
 70
     0
  9
$DIMSAH
 70
     0
  9
$DIMBLK1
  1

  9
$DIMBLK2
  1

  9
$DIMSTYLE
  2
STANDARD
  9
$DIMCLRD
 70
     0
  9
$DIMCLRE
 70
     0
  9
$DIMCLRT
 70
     0
  9
$DIMTFAC
 40
1.0
  9
$DIMGAP
 40
1.0
  9
$DIMJUST
 70
     0
  9
$DIMSD1
 70
     0
  9
$DIMSD2
 70
     0
  9
$DIMTOLJ
 70
     1
  9
$DIMTZIN
 70
     0
  9
$DIMALTZ
 70
     0
  9
$DIMALTTZ
 70
     0
  9
$DIMUPT
 70
     0
  9
$DIMDEC
 70
     4
  9
$DIMTDEC
 70
     4
  9
$DIMALTU
 70
     2
  9
$DIMALTTD
 70
     2
  9
$DIMTXSTY
  7
STANDARD
  9
$DIMAUNIT
 70
     0
  9
$DIMADEC
 70
     0
  9
$DIMALTRND
 40
0.0
  9
$DIMAZIN
 70
     0
  9
$DIMDSEP
 70
    46
  9
$DIMATFIT
 70
     3
  9
$DIMFRAC
 70
     0
  9
$DIMLDRBLK
  1

  9
$DIMLUNIT
 70
     2
  9
$DIMLWD
 70
    -2
  9
$DIMLWE
 70
    -2
  9
$DIMTMOVE
 70
     0
  9
$LUNITS
 70
     2
  9
$LUPREC
 70
     2
  9
$SKETCHINC
 40
0.1
  9
$FILLETRAD
 40
0.0
  9
$AUNITS
 70
     0
  9
$AUPREC
 70
     2
  9
$MENU
  1
acad
  9
$ELEVATION
 40
0.0
  9
$PELEVATION
 40
0.0
  9
$THICKNESS
 40
0.0
  9
$LIMCHECK
 70
     0
  9
$CHAMFERA
 40
0.0
  9
$CHAMFERB
 40
0.0
  9
$CHAMFERC
 40
0.0
  9
$CHAMFERD
 40
0.0
  9
$SKPOLY
 70
     0
  9
$TDCREATE
 40
2444972.041666667
  9
$TDUCREATE
 40
2444972.000000000
  9
$TDUPDATE
 40
2453768.896901216
  9
$TDUUPDATE
 40
2453768.855234549
  9
$TDINDWG
 40
0.0002325694
  9
$TDUSRTIMER
 40
0.0002325694
  9
$USRTIMER
 70
     1
  9
$ANGBASE
 50
0.0
  9
$ANGDIR
 70
     0
  9
$PDMODE
 70
     0
  9
$PDSIZE
 40
-1.0
  9
$PLINEWID
 40
0.0
  9
$SPLFRAME
 70
     0
  9
$SPLINETYPE
 70
     6
  9
$SPLINESEGS
 70
     8
  9
$HANDSEED
  5
10A
  9
$SURFTAB1
 70
     6
  9
$SURFTAB2
 70
     6
  9
$SURFTYPE
 70
     6
  9
$SURFU
 70
     6
  9
$SURFV
 70
     6
  9
$UCSBASE
  2

  9
$UCSNAME
  2

  9
$UCSORG
 10
0.0
 20
0.0
 30
0.0
  9
$UCSXDIR
 10
1.0
 20
0.0
 30
0.0
  9
$UCSYDIR
 10
0.0
 20
1.0
 30
0.0
  9
$UCSORTHOREF
  2

  9
$UCSORTHOVIEW
 70
     1
  9
$UCSORGTOP
 10
0.0
 20
0.0
 30
0.0
  9
$UCSORGBOTTOM
 10
0.0
 20
0.0
 30
0.0
  9
$UCSORGLEFT
 10
0.0
 20
0.0
 30
0.0
  9
$UCSORGRIGHT
 10
0.0
 20
0.0
 30
0.0
  9
$UCSORGFRONT
 10
0.0
 20
0.0
 30
0.0
  9
$UCSORGBACK
 10
0.0
 20
0.0
 30
0.0
  9
$PUCSBASE
  2

  9
$PUCSNAME
  2

  9
$PUCSORG
 10
0.0
 20
0.0
 30
0.0
  9
$PUCSXDIR
 10
1.0
 20
0.0
 30
0.0
  9
$PUCSYDIR
 10
0.0
 20
1.0
 30
0.0
  9
$PUCSORTHOREF
  2

  9
$PUCSORTHOVIEW
 70
     0
  9
$PUCSORGTOP
 10
0.0
 20
0.0
 30
0.0
  9
$PUCSORGBOTTOM
 10
0.0
 20
0.0
 30
0.0
  9
$PUCSORGLEFT
 10
0.0
 20
0.0
 30
0.0
  9
$PUCSORGRIGHT
 10
0.0
 20
0.0
 30
0.0
  9
$PUCSORGFRONT
 10
0.0
 20
0.0
 30
0.0
  9
$PUCSORGBACK
 10
0.0
 20
0.0
 30
0.0
  9
$USERI1
 70
     0
  9
$USERI2
 70
     0
  9
$USERI3
 70
     0
  9
$USERI4
 70
     0
  9
$USERI5
 70
     0
  9
$USERR1
 40
0.0
  9
$USERR2
 40
0.0
  9
$USERR3
 40
0.0
  9
$USERR4
 40
0.0
  9
$USERR5
 40
0.0
  9
$WORLDVIEW
 70
     1
  9
$SHADEDGE
 70
     3
  9
$SHADEDIF
 70
    70
  9
$TILEMODE
 70
     1
  9
$MAXACTVP
 70
    16
  9
$PINSBASE
 10
0.0
 20
0.0
 30
0.0
  9
$PLIMCHECK
 70
     0
  9
$PEXTMIN
 10
1.000000000000000E+20
 20
1.000000000000000E+20
 30
1.000000000000000E+20
  9
$PEXTMAX
 10
-1.000000000000000E+20
 20
-1.000000000000000E+20
 30
-1.000000000000000E+20
  9
$PLIMMIN
 10
0.0
 20
0.0
  9
$PLIMMAX
 10
12.0
 20
9.0
  9
$UNITMODE
 70
     0
  9
$VISRETAIN
 70
     0
  9
$PLINEGEN
 70
     1
  9
$PSLTSCALE
 70
     1
  9
$TREEDEPTH
 70
  3020
  9
$CMLSTYLE
  2
STANDARD
  9
$CMLJUST
 70
     0
  9
$CMLSCALE
 40
1.0
  9
$PROXYGRAPHICS
 70
     0
  9
$MEASUREMENT
 70
     0
  9
$CELWEIGHT
370
    -1
  9
$ENDCAPS
280
     0
  9
$JOINSTYLE
280
     0
  9
$LWDISPLAY
290
     0
  9
$INSUNITS
 70
     0
  9
$HYPERLINKBASE
  1

  9
$STYLESHEET
  1

  9
$XEDIT
290
     1
  9
$CEPSNTYPE
380
     0
  9
$PSTYLEMODE
290
     1
  9
$FINGERPRINTGUID
  2
{1A8D6412-317E-42AB-828C-4E8C8AD3563B}
  9
$VERSIONGUID
  2
{F986199D-9BEE-4C49-B120-F2B3349BD994}
  9
$EXTNAMES
290
     1
  9
$PSVPSCALE
 40
0.0
  9
$OLESTARTUP
290
     0
  0
ENDSEC
  0
SECTION
  2
CLASSES
  0
CLASS
  1
IMAGE
  2
AcDbRasterImage
  3
ISM
 90
    32895
280
     0
281
     1
  0
CLASS
  1
DICTIONARYVAR
  2
AcDbDictionaryVar
  3
ObjectDBX Classes
 90
        0
280
     0
281
     0
  0
CLASS
  1
RASTERVARIABLES
  2
AcDbRasterVariables
  3
ISM
 90
    32768
280
     0
281
     0
  0
CLASS
  1
IMAGEDEF
  2
AcDbRasterImageDef
  3
ISM
 90
    32768
280
     0
281
     0
  0
CLASS
  1
IMAGEDEF_REACTOR
  2
AcDbRasterImageDefReactor
  3
ISM
 90
    32769
280
     0
281
     0
  0
CLASS
  1
IDBUFFER
  2
AcDbIdBuffer
  3
ObjectDBX Classes
 90
    32768
280
     0
281
     0
  0
CLASS
  1
SPATIAL_FILTER
  2
AcDbSpatialFilter
  3
ObjectDBX Classes
 90
    32768
280
     0
281
     0
  0
CLASS
  1
SORTENTSTABLE
  2
AcDbSortentsTable
  3
ObjectDBX Classes
 90
    32768
280
     0
281
     0
  0
CLASS
  1
LAYER_INDEX
  2
AcDbLayerIndex
  3
ObjectDBX Classes
 90
    32768
280
     0
281
     0
  0
CLASS
  1
SPATIAL_INDEX
  2
AcDbSpatialIndex
  3
ObjectDBX Classes
 90
    32768
280
     0
281
     0
  0
CLASS
  1
OBJECT_PTR
  2
CAseDLPNTableRecord
  3
ASE-LPNTableRecord
 90
    32769
280
     0
281
     0
  0
CLASS
  1
LAYOUT
  2
AcDbLayout
  3
ObjectDBX Classes
 90
        0
280
     0
281
     0
  0
CLASS
  1
PLOTSETTINGS
  2
AcDbPlotSettings
  3
ObjectDBX Classes
 90
    32768
280
     0
281
     0
  0
CLASS
  1
ACDBDICTIONARYWDFLT
  2
AcDbDictionaryWithDefault
  3
ObjectDBX Classes
 90
        0
280
     0
281
     0
  0
CLASS
  1
ACDBPLACEHOLDER
  2
AcDbPlaceHolder
  3
ObjectDBX Classes
 90
        0
280
     0
281
     0
  0
CLASS
  1
VBA_PROJECT
  2
AcDbVbaProject
  3
acad
 90
    32768
280
     0
281
     0
  0
CLASS
  1
WIPEOUT
  2
AcDbWipeout
  3
"WipeOut|Product Desc: Object Enabler for WipeOut entity^I^I^I^I^I^I|Company: Autodesk, Inc.^I^I^I^I^I^I|WEB Address: www.autodesk.com"
 90
    32895
280
     0
281
     1
  0
CLASS
  1
WIPEOUTVARIABLES
  2
AcDbWipeoutVariables
  3
"WipeOut|Product Desc:     WipeOut Dbx Application|Company:          Autodesk, Inc.|WEB Address:      www.autodesk.com"
 90
    32768
280
     0
281
     0
  0
CLASS
  1
RTEXT
  2
RText
  3
RText|AutoCAD Express Tool|expresstools@autodesk.com
 90
    32768
280
     0
281
     1
  0
CLASS
  1
ARCALIGNEDTEXT
  2
AcDbArcAlignedText
  3
ATEXT|AutoCAD Express Tool|expresstools@autodesk.com
 90
    32768
280
     0
281
     1
  0
ENDSEC
  0
SECTION
  2
TABLES
  0
TABLE
  2
VPORT
  5
7
330
0
100
AcDbSymbolTable
 70
     2
  0
VPORT
  5
102
330
7
100
AcDbSymbolTableRecord
100
AcDbViewportTableRecord
  2
*Active
 70
     0
 10
0.0
 20
0.0
 11
1.0
 21
1.0
 12
482.3832779544614
 22
-175.7799499071554
 13
0.0
 23
0.0
 14
1.0
 24
1.0
 15
0.0
 25
0.0
 16
0.0
 26
0.0
 36
1.0
 17
0.0
 27
0.0
 37
0.0
 40
1021.535816111573
 41
1.569570871261378
 42
50.0
 43
0.0
 44
0.0
 50
0.0
 51
0.0
 71
     0
 72
  2000
 73
     1
 74
     1
 75
     0
 76
     0
 77
     0
 78
     0
281
     0
 65
     1
110
0.0
120
0.0
130
0.0
111
1.0
121
0.0
131
0.0
112
0.0
122
1.0
132
0.0
 79
     1
146
0.0
  0
ENDTAB
  0
TABLE
  2
LTYPE
  5
4
330
0
100
AcDbSymbolTable
 70
     6
  0
LTYPE
  5
11
330
4
100
AcDbSymbolTableRecord
100
AcDbLinetypeTableRecord
  2
BYBLOCK
 70
     0
  3

 72
    65
 73
     0
 40
0.0
  0
LTYPE
  5
12
330
4
100
AcDbSymbolTableRecord
100
AcDbLinetypeTableRecord
  2
BYLAYER
 70
     0
  3

 72
    65
 73
     0
 40
0.0
  0
LTYPE
  5
13
330
4
100
AcDbSymbolTableRecord
100
AcDbLinetypeTableRecord
  2
CONTINUOUS
 70
     0
  3
Solid line
 72
    65
 73
     0
 40
0.0
  0
LTYPE
  5
1E
330
4
100
AcDbSymbolTableRecord
100
AcDbLinetypeTableRecord
  2
HIDDEN
 70
     0
  3
Hidden __ __ __ __ __ __ __ __ __ __ __ __ __ __
 72
    65
 73
     2
 40
1.905
 49
1.27
 74
     0
 49
-0.635
 74
     0
  0
LTYPE
  5
1F
330
4
100
AcDbSymbolTableRecord
100
AcDbLinetypeTableRecord
  2
PHANTOM
 70
     0
  3
Phantom ______  __  __  ______  __  __  ______
 72
    65
 73
     6
 40
12.7
 49
6.349999999999999
 74
     0
 49
-1.27
 74
     0
 49
1.27
 74
     0
 49
-1.27
 74
     0
 49
1.27
 74
     0
 49
-1.27
 74
     0
  0
LTYPE
  5
20
330
4
100
AcDbSymbolTableRecord
100
AcDbLinetypeTableRecord
  2
CENTER
 70
     0
  3
Center ____ _ ____ _ ____ _ ____ _ ____ _ ____
 72
    65
 73
     4
 40
10.16
 49
6.349999999999999
 74
     0
 49
-1.27
 74
     0
 49
1.27
 74
     0
 49
-1.27
 74
     0
  0
LTYPE
  5
21
330
4
100
AcDbSymbolTableRecord
100
AcDbLinetypeTableRecord
  2
CENTERX2
 70
     0
  3
Center (2x) ________  __  ________  __  _____
 72
    65
 73
     4
 40
20.32
 49
12.7
 74
     0
 49
-2.54
 74
     0
 49
2.54
 74
     0
 49
-2.54
 74
     0
  0
LTYPE
  5
22
330
4
100
AcDbSymbolTableRecord
100
AcDbLinetypeTableRecord
  2
DOT2
 70
     0
  3
Dot (.5x) ........................................
 72
    65
 73
     2
 40
0.635
 49
0.0
 74
     0
 49
-0.635
 74
     0
  0
ENDTAB
  0
TABLE
  2
LAYER
  5
2
330
0
100
AcDbSymbolTable
 70
     2
  0
LAYER
  5
14
330
2
100
AcDbSymbolTableRecord
100
AcDbLayerTableRecord
  2
0
 70
     0
 62
     7
  6
CONTINUOUS
370
    -3
390
E7
  0
LAYER
  5
26
330
2
100
AcDbSymbolTableRecord
100
AcDbLayerTableRecord
  2
DEFPOINTS
 70
     0
 62
     7
  6
CONTINUOUS
290
     0
370
    -3
390
E7
  0
ENDTAB
  0
TABLE
  2
STYLE
  5
3
330
0
100
AcDbSymbolTable
 70
     1
  0
STYLE
  5
17
330
3
100
AcDbSymbolTableRecord
100
AcDbTextStyleTableRecord
  2
STANDARD
 70
     0
 40
0.0
 41
1.0
 50
0.0
 71
     0
 42
0.0
  3
Century Gothic
  4

  0
ENDTAB
  0
TABLE
  2
VIEW
  5
5
330
0
100
AcDbSymbolTable
 70
     0
  0
ENDTAB
  0
TABLE
  2
UCS
  5
6
330
0
100
AcDbSymbolTable
 70
     0
  0
ENDTAB
  0
TABLE
  2
APPID
  5
8
330
0
100
AcDbSymbolTable
 70
     2
  0
APPID
  5
16
330
8
100
AcDbSymbolTableRecord
100
AcDbRegAppTableRecord
  2
ACAD
 70
     0
  0
APPID
  5
F2
330
8
100
AcDbSymbolTableRecord
100
AcDbRegAppTableRecord
  2
DCO15
 70
     0
  0
ENDTAB
  0
TABLE
  2
DIMSTYLE
  5
9
330
0
100
AcDbSymbolTable
 70
     1
100
AcDbDimStyleTable
 71
     0
  0
DIMSTYLE
105
18
330
9
100
AcDbSymbolTableRecord
100
AcDbDimStyleTableRecord
  2
STANDARD
 70
     0
289
     0
340
17
  0
ENDTAB
  0
TABLE
  2
BLOCK_RECORD
  5
1
330
0
100
AcDbSymbolTable
 70
     0
  0
BLOCK_RECORD
  5
A
330
1
100
AcDbSymbolTableRecord
100
AcDbBlockTableRecord
  2
*MODEL_SPACE
340
EC
  0
BLOCK_RECORD
  5
B
330
1
100
AcDbSymbolTableRecord
100
AcDbBlockTableRecord
  2
*PAPER_SPACE
340
ED
  0
ENDTAB
  0
ENDSEC
  0
SECTION
  2
BLOCKS
  0
BLOCK
  5
D
330
A
100
AcDbEntity
  8
0
100
AcDbBlockBegin
  2
*MODEL_SPACE
 70
     0
 10
0.0
 20
0.0
 30
0.0
  3
*MODEL_SPACE
  1

  0
ENDBLK
  5
E
330
A
100
AcDbEntity
  8
0
100
AcDbBlockEnd
  0
BLOCK
  5
F
330
B
100
AcDbEntity
 67
     1
  8
0
100
AcDbBlockBegin
  2
*PAPER_SPACE
 70
     0
 10
0.0
 20
0.0
 30
0.0
  3
*PAPER_SPACE
  1

  0
ENDBLK
  5
10
330
B
100
AcDbEntity
 67
     1
  8
0
100
AcDbBlockEnd
  0
ENDSEC
  0
SECTION
  2
ENTITIES
  0
ARC
  5
27
330
A
100
AcDbEntity
  8
0
  6
Continuous
 62
     7
100
AcDbCircle
 10
212.8480000000001
 20
205.8353735302911
 30
0.0
 40
125.0
100
AcDbArc
 50
0.0
 51
90.0
  0
ARC
  5
28
330
A
100
AcDbEntity
  8
0
  6
Continuous
 62
     7
100
AcDbCircle
 10
-73.14800000000007
 20
205.8353735302911
 30
0.0
 40
125.0
100
AcDbArc
 50
90.0
 51
180.0000000000004
  0
LINE
  5
29
330
A
100
AcDbEntity
  8
0
  6
Continuous
 62
     7
100
AcDbLine
 10
212.8480000000001
 20
330.8353735302911
 30
0.0
 11
-73.14800000000007
 21
330.8353735302911
 31
0.0
  0
LINE
  5
2A
330
A
100
AcDbEntity
  8
0
  6
Continuous
 62
     7
100
AcDbLine
 10
337.848
 20
190.0146264697088
 30
0.0
 11
337.848
 21
205.8353735302911
 31
0.0
  0
LINE
  5
2B
330
A
100
AcDbEntity
  8
0
  6
Continuous
 62
     7
100
AcDbLine
 10
-198.1480000000001
 20
205.8353735302911
 30
0.0
 11
-198.1480000000001
 21
190.0146264697088
 31
0.0
  0
LINE
  5
2C
330
A
100
AcDbEntity
  8
0
  6
Continuous
 62
     7
100
AcDbLine
 10
176.098
 20
-6.385373530291116
 30
0.0
 11
176.098
 21
5.014626469708904
 31
0.0
  0
LINE
  5
2D
330
A
100
AcDbEntity
  8
0
  6
Continuous
 62
     7
100
AcDbLine
 10
-36.39800000000001
 20
5.014626469708904
 30
0.0
 11
-36.39800000000001
 21
-6.385373530291116
 31
0.0
  0
LINE
  5
2E
330
A
100
AcDbEntity
  8
0
  6
Continuous
 62
     7
100
AcDbLine
 10
176.098
 20
5.014626469708904
 30
0.0
 11
174.0979999999999
 21
7.014626469708878
 31
0.0
  0
LINE
  5
2F
330
A
100
AcDbEntity
  8
0
  6
Continuous
 62
     7
100
AcDbLine
 10
-34.39799999999971
 20
7.014626469708878
 30
0.0
 11
-36.39800000000001
 21
5.014626469708904
 31
0.0
  0
LINE
  5
30
330
A
100
AcDbEntity
  8
0
  6
Continuous
 62
     7
100
AcDbLine
 10
-32.89800000000001
 20
-6.735373530291105
 30
0.0
 11
-32.64799999999998
 21
-6.985373530291106
 31
0.0
  0
LINE
  5
31
330
A
100
AcDbEntity
  8
0
  6
Continuous
 62
     7
100
AcDbLine
 10
172.348
 20
-6.985373530291106
 30
0.0
 11
172.598
 21
-6.735373530291105
 31
0.0
  0
LWPOLYLINE
  5
32
330
A
100
AcDbEntity
  8
0
  6
Continuous
 62
     7
100
AcDbPolyline
 90
       36
 70
   128
 43
0.0
 10
164.85
 20
7.014626469708878
 10
162.0913217922504
 20
7.194833228772595
 10
159.3376149090919
 20
7.735128761203579
 10
156.5938417164529
 20
8.63453941793349
 10
153.8649466790798
 20
9.891444400167175
 10
151.1558474502778
 20
11.50357868017163
 10
148.4714260099669
 20
13.46803708300911
 10
145.8165198670242
 20
15.78127952185868
 10
143.1959133417663
 20
18.43913737749203
 10
140.61432894428
 20
21.436821010407
 10
138.0764188641405
 20
24.76892839208173
 10
135.5867565868512
 20
28.42945483979517
 10
133.1498286521138
 20
32.41180383747125
 10
130.7700265687799
 20
36.7087989230466
 10
128.4516389010563
 20
41.31269662094045
 10
126.1988435402214
 20
46.21520039632076
 10
124.0157001757833
 20
51.40747560602097
 10
121.9061429796447
 20
56.88016541916399
 10
119.8739735164595
 20
62.62340767880395
 10
117.9228538929559
 20
68.62685267419959
 10
116.056300158573
 20
74.87968179169254
 10
114.2776759693015
 20
81.37062701058036
 10
112.5901865261489
 20
88.08799120885153
 10
110.9968727991503
 20
95.01966924218974
 10
109.5006060473348
 20
102.1531697582625
 10
108.1040826445228
 20
109.4756377069819
 10
106.8098192202781
 20
116.9738775061742
 10
105.6201481247712
 20
124.6343768209104
 10
104.5372132257269
 20
132.4433309136471
 10
103.5629660450295
 20
140.3866675212974
 10
102.6991622419487
 20
148.4500722143989
 10
101.9473584493226
 20
156.6190141926839
 10
101.3089094684004
 20
164.8787724705637
 10
100.7849658273989
 20
173.2144624053392
 10
100.376471708173
 20
181.6110625203333
 10
100.0852381692019
 20
190.0146264697088
  0
LWPOLYLINE
  5
58
330
A
100
AcDbEntity
  8
0
  6
Continuous
 62
     7
100
AcDbPolyline
 90
       36
 70
   128
 43
0.0
 10
39.61476183079804
 20
190.0146264697088
 10
39.32352829182695
 20
181.611062520333
 10
38.915034172601
 20
173.214462405339
 10
38.39109053159955
 20
164.8787724705635
 10
37.75264155067737
 20
156.6190141926837
 10
37.00083775805125
 20
148.4500722143987
 10
36.13703395497041
 20
140.3866675212972
 10
35.16278677427304
 20
132.443330913647
 10
34.07985187522875
 20
124.6343768209101
 10
32.89018077972187
 20
116.973877506174
 10
31.59591735547715
 20
109.4756377069817
 10
30.19939395266515
 20
102.1531697582623
 10
28.70312720084964
 20
95.0196692421896
 10
27.10981347385104
 20
88.08799120885137
 10
25.42232403069848
 20
81.37062701058024
 10
23.64369984142699
 20
74.8796817916924
 10
21.77714610704399
 20
68.62685267419947
 10
19.8260264835404
 20
62.62340767880384
 10
17.79385702035519
 20
56.88016541916385
 10
15.68429982421664
 20
51.40747560602083
 10
13.50115645977853
 20
46.21520039632062
 10
11.24836109894359
 20
41.31269662094033
 10
8.929973431219949
 20
36.70879892304652
 10
6.55017134788613
 20
32.41180383747114
 10
4.113243413148656
 20
28.42945483979509
 10
1.623581135859419
 20
24.76892839208164
 10
-0.9143289442800488
 20
21.43682101040695
 10
-3.495913341766368
 20
18.43913737749198
 10
-6.116519867024328
 20
15.78127952185862
 10
-8.771426009966971
 20
13.46803708300906
 10
-11.4558474502779
 20
11.5035786801716
 10
-14.16494667907991
 20
9.891444400167149
 10
-16.89384171645298
 20
8.63453941793349
 10
-19.63761490909201
 20
7.735128761203552
 10
-22.39132179225046
 20
7.194833228772568
 10
-25.1500000000001
 20
7.014626469708878
  0
LINE
  5
7E
330
A
100
AcDbEntity
  8
0
  6
Continuous
 62
     7
100
AcDbLine
 10
337.848
 20
190.0146264697088
 30
0.0
 11
-198.1480000000001
 21
190.0146264697088
 31
0.0
  0
LINE
  5
7F
330
A
100
AcDbEntity
  8
0
  6
Continuous
 62
     7
100
AcDbLine
 10
176.098
 20
5.014626469708904
 30
0.0
 11
-36.39800000000001
 21
5.014626469708904
 31
0.0
  0
LINE
  5
80
330
A
100
AcDbEntity
  8
0
  6
Continuous
 62
     7
100
AcDbLine
 10
176.098
 20
-6.385373530291116
 30
0.0
 11
-36.39800000000001
 21
-6.385373530291116
 31
0.0
  0
LINE
  5
81
330
A
100
AcDbEntity
  8
0
  6
Continuous
 62
     7
100
AcDbLine
 10
174.0979999999999
 20
7.014626469708878
 30
0.0
 11
-34.39799999999971
 21
7.014626469708878
 31
0.0
  0
LINE
  5
82
330
A
100
AcDbEntity
  8
0
  6
Continuous
 62
     7
100
AcDbLine
 10
172.598
 20
-6.735373530291105
 30
0.0
 11
-32.89800000000001
 21
-6.735373530291105
 31
0.0
  0
LINE
  5
83
330
A
100
AcDbEntity
  8
0
  6
Continuous
 62
     7
100
AcDbLine
 10
172.348
 20
-6.985373530291106
 30
0.0
 11
-32.64799999999998
 21
-6.985373530291106
 31
0.0
  0
LINE
  5
84
330
A
100
AcDbEntity
  8
0
  6
PHANTOM
 62
     7
100
AcDbLine
 10
337.848
 20
205.8353735302911
 30
0.0
 11
-198.1480000000001
 21
205.8353735302911
 31
0.0
  0
CIRCLE
  5
85
330
A
100
AcDbEntity
  8
0
  6
Continuous
 62
     7
100
AcDbCircle
 10
69.84999999999999
 20
-414.3972733446012
 30
0.0
 40
23.99800000000005
  0
CIRCLE
  5
86
330
A
100
AcDbEntity
  8
0
  6
Continuous
 62
     7
100
AcDbCircle
 10
69.84999999999999
 20
-414.3972733446011
 30
0.0
 40
267.9980000000002
  0
ARC
  5
87
330
A
100
AcDbEntity
  8
0
  6
Continuous
 62
     7
100
AcDbCircle
 10
928.4155491941804
 20
205.8353735302911
 30
0.0
 40
125.0000000000001
100
AcDbArc
 50
0.0
 51
90.0
  0
ARC
  5
88
330
A
100
AcDbEntity
  8
0
  6
Continuous
 62
     7
100
AcDbCircle
 10
642.4195491941802
 20
205.8353735302911
 30
0.0
 40
125.0
100
AcDbArc
 50
90.0
 51
180.0000000000004
  0
LINE
  5
89
330
A
100
AcDbEntity
  8
0
  6
Continuous
 62
     7
100
AcDbLine
 10
928.4155491941804
 20
330.8353735302911
 30
0.0
 11
642.4195491941802
 21
330.8353735302911
 31
0.0
  0
LINE
  5
8A
330
A
100
AcDbEntity
  8
0
  6
Continuous
 62
     7
100
AcDbLine
 10
1053.415549194181
 20
190.0146264697088
 30
0.0
 11
1053.415549194181
 21
205.8353735302911
 31
0.0
  0
LINE
  5
8B
330
A
100
AcDbEntity
  8
0
  6
Continuous
 62
     7
100
AcDbLine
 10
517.4195491941802
 20
205.8353735302911
 30
0.0
 11
517.4195491941802
 21
190.0146264697088
 31
0.0
  0
LINE
  5
8C
330
A
100
AcDbEntity
  8
0
  6
Continuous
 62
     7
100
AcDbLine
 10
891.6655491941803
 20
5.014626469708904
 30
0.0
 11
889.6655491941803
 21
7.014626469708878
 31
0.0
  0
LINE
  5
8D
330
A
100
AcDbEntity
  8
0
  6
Continuous
 62
     7
100
AcDbLine
 10
681.1695491941804
 20
7.014626469708878
 30
0.0
 11
679.1695491941803
 21
5.014626469708904
 31
0.0
  0
LINE
  5
8E
330
A
100
AcDbEntity
  8
0
  6
Continuous
 62
     7
100
AcDbLine
 10
891.6655491941803
 20
-6.385373530291116
 30
0.0
 11
891.6655491941803
 21
5.014626469708904
 31
0.0
  0
LINE
  5
8F
330
A
100
AcDbEntity
  8
0
  6
Continuous
 62
     7
100
AcDbLine
 10
679.1695491941803
 20
5.014626469708904
 30
0.0
 11
679.1695491941803
 21
-6.385373530291116
 31
0.0
  0
LINE
  5
90
330
A
100
AcDbEntity
  8
0
  6
Continuous
 62
     7
100
AcDbLine
 10
682.6695491941803
 20
-6.735373530291105
 30
0.0
 11
682.9195491941804
 21
-6.985373530291106
 31
0.0
  0
LINE
  5
91
330
A
100
AcDbEntity
  8
0
  6
Continuous
 62
     7
100
AcDbLine
 10
887.9155491941803
 20
-6.985373530291106
 30
0.0
 11
888.1655491941804
 21
-6.735373530291105
 31
0.0
  0
LWPOLYLINE
  5
92
330
A
100
AcDbEntity
  8
0
  6
Continuous
 62
     7
100
AcDbPolyline
 90
       36
 70
   128
 43
0.0
 10
880.4175491941803
 20
7.014626469708878
 10
877.6588709864308
 20
7.194833228772595
 10
874.9051641032723
 20
7.735128761203579
 10
872.1613909106332
 20
8.63453941793349
 10
869.4324958732602
 20
9.891444400167175
 10
866.7233966444582
 20
11.50357868017163
 10
864.0389752041473
 20
13.46803708300911
 10
861.3840690612047
 20
15.78127952185868
 10
858.7634625359466
 20
18.43913737749203
 10
856.1818781384603
 20
21.436821010407
 10
853.6439680583209
 20
24.76892839208173
 10
851.1543057810316
 20
28.42945483979517
 10
848.7173778462942
 20
32.41180383747125
 10
846.3375757629604
 20
36.7087989230466
 10
844.0191880952367
 20
41.31269662094045
 10
841.7663927344019
 20
46.21520039632076
 10
839.5832493699636
 20
51.40747560602097
 10
837.4736921738252
 20
56.88016541916399
 10
835.44152271064
 20
62.62340767880395
 10
833.4904030871364
 20
68.62685267419959
 10
831.6238493527533
 20
74.87968179169254
 10
829.8452251634818
 20
81.37062701058036
 10
828.1577357203293
 20
88.08799120885153
 10
826.5644219933307
 20
95.01966924218974
 10
825.0681552415151
 20
102.1531697582625
 10
823.6716318387031
 20
109.4756377069819
 10
822.3773684144585
 20
116.9738775061742
 10
821.1876973189514
 20
124.6343768209104
 10
820.1047624199073
 20
132.4433309136471
 10
819.13051523921
 20
140.3866675212974
 10
818.266711436129
 20
148.4500722143989
 10
817.514907643503
 20
156.6190141926839
 10
816.8764586625808
 20
164.8787724705637
 10
816.3525150215793
 20
173.2144624053392
 10
815.9440209023534
 20
181.6110625203333
 10
815.6527873633823
 20
190.0146264697088
  0
LWPOLYLINE
  5
B8
330
A
100
AcDbEntity
  8
0
  6
Continuous
 62
     7
100
AcDbPolyline
 90
       36
 70
   128
 43
0.0
 10
755.1823110249785
 20
190.0146264697088
 10
754.8910774860074
 20
181.611062520333
 10
754.4825833667815
 20
173.214462405339
 10
753.9586397257798
 20
164.8787724705635
 10
753.3201907448577
 20
156.6190141926837
 10
752.5683869522315
 20
148.4500722143987
 10
751.7045831491508
 20
140.3866675212972
 10
750.7303359684533
 20
132.443330913647
 10
749.6474010694091
 20
124.6343768209101
 10
748.4577299739022
 20
116.973877506174
 10
747.1634665496576
 20
109.4756377069817
 10
745.7669431468454
 20
102.1531697582623
 10
744.2706763950301
 20
95.0196692421896
 10
742.6773626680313
 20
88.08799120885137
 10
740.9898732248787
 20
81.37062701058024
 10
739.2112490356074
 20
74.8796817916924
 10
737.3446953012244
 20
68.62685267419947
 10
735.3935756777208
 20
62.62340767880384
 10
733.3614062145356
 20
56.88016541916385
 10
731.251849018397
 20
51.40747560602083
 10
729.0687056539589
 20
46.21520039632062
 10
726.815910293124
 20
41.31269662094033
 10
724.4975226254004
 20
36.70879892304652
 10
722.1177205420665
 20
32.41180383747114
 10
719.680792607329
 20
28.42945483979509
 10
717.1911303300397
 20
24.76892839208164
 10
714.6532202499003
 20
21.43682101040695
 10
712.071635852414
 20
18.43913737749198
 10
709.4510293271561
 20
15.78127952185862
 10
706.7961231842134
 20
13.46803708300906
 10
704.1117017439025
 20
11.5035786801716
 10
701.4026025151004
 20
9.891444400167149
 10
698.6737074777273
 20
8.63453941793349
 10
695.9299342850884
 20
7.735128761203552
 10
693.1762274019299
 20
7.194833228772568
 10
690.4175491941803
 20
7.014626469708878
  0
LINE
  5
DE
330
A
100
AcDbEntity
  8
0
  6
Continuous
 62
     7
100
AcDbLine
 10
1053.415549194181
 20
190.0146264697088
 30
0.0
 11
517.4195491941802
 21
190.0146264697088
 31
0.0
  0
LINE
  5
DF
330
A
100
AcDbEntity
  8
0
  6
Continuous
 62
     7
100
AcDbLine
 10
889.6655491941803
 20
7.014626469708878
 30
0.0
 11
681.1695491941804
 21
7.014626469708878
 31
0.0
  0
LINE
  5
E0
330
A
100
AcDbEntity
  8
0
  6
Continuous
 62
     7
100
AcDbLine
 10
891.6655491941803
 20
5.014626469708904
 30
0.0
 11
679.1695491941803
 21
5.014626469708904
 31
0.0
  0
LINE
  5
E1
330
A
100
AcDbEntity
  8
0
  6
Continuous
 62
     7
100
AcDbLine
 10
891.6655491941803
 20
-6.385373530291116
 30
0.0
 11
679.1695491941803
 21
-6.385373530291116
 31
0.0
  0
LINE
  5
E2
330
A
100
AcDbEntity
  8
0
  6
Continuous
 62
     7
100
AcDbLine
 10
888.1655491941804
 20
-6.735373530291105
 30
0.0
 11
682.6695491941803
 21
-6.735373530291105
 31
0.0
  0
LINE
  5
E3
330
A
100
AcDbEntity
  8
0
  6
Continuous
 62
     7
100
AcDbLine
 10
887.9155491941803
 20
-6.985373530291106
 30
0.0
 11
682.9195491941804
 21
-6.985373530291106
 31
0.0
  0
LINE
  5
E4
330
A
100
AcDbEntity
  8
0
  6
PHANTOM
 62
     7
100
AcDbLine
 10
1053.415549194181
 20
205.8353735302911
 30
0.0
 11
517.4195491941802
 21
205.8353735302911
 31
0.0
  0
ENDSEC
  0
SECTION
  2
OBJECTS
  0
DICTIONARY
  5
19
330
0
100
AcDbDictionary
281
     1
  3
ACAD_COLOR
350
E9
  3
ACAD_GROUP
350
1A
  3
ACAD_LAYOUT
350
EA
  3
ACAD_MATERIAL
350
E8
  3
ACAD_MLINESTYLE
350
1B
  3
ACAD_PLOTSETTINGS
350
EB
  3
ACAD_PLOTSTYLENAME
350
E6
  3
ACDBHEADERROUNDTRIPXREC
350
103
  3
AcDbVariableDictionary
350
FC
  3
ASE_INDEX_DICTIONARY
350
F1
  0
DICTIONARY
  5
E9
102
{ACAD_REACTORS
330
19
102
}
330
19
100
AcDbDictionary
281
     1
  0
DICTIONARY
  5
1A
102
{ACAD_REACTORS
330
19
102
}
330
19
100
AcDbDictionary
281
     1
  0
DICTIONARY
  5
EA
102
{ACAD_REACTORS
330
19
102
}
330
19
100
AcDbDictionary
281
     1
  3
Layout1
350
ED
  3
Model
350
EC
  0
DICTIONARY
  5
E8
102
{ACAD_REACTORS
330
19
102
}
330
19
100
AcDbDictionary
281
     1
  0
DICTIONARY
  5
1B
102
{ACAD_REACTORS
330
19
102
}
330
19
100
AcDbDictionary
281
     1
  3
STANDARD
350
1C
  0
DICTIONARY
  5
EB
102
{ACAD_REACTORS
330
19
102
}
330
19
100
AcDbDictionary
281
     1
  0
ACDBDICTIONARYWDFLT
  5
E6
102
{ACAD_REACTORS
330
19
102
}
330
19
100
AcDbDictionary
281
     1
  3
Normal
350
E7
100
AcDbDictionaryWithDefault
340
E7
  0
DICTIONARY
  5
103
102
{ACAD_REACTORS
330
19
102
}
330
19
100
AcDbDictionary
281
     1
  3
COLORDICT
350
105
  3
MATERIALDICT
350
104
  0
DICTIONARY
  5
FC
102
{ACAD_REACTORS
330
19
102
}
330
19
100
AcDbDictionary
281
     1
  3
DIMASSOC
350
FD
  3
PROJECTNAME
350
FE
  0
DICTIONARY
  5
F1
102
{ACAD_REACTORS
330
19
102
}
330
19
100
AcDbDictionary
281
     1
  3
ASEBlockHierarchyIndexRecord
350
F3
1001
DCO15
1040
1522042468.312
  0
LAYOUT
  5
ED
102
{ACAD_XDICTIONARY
360
108
102
}
102
{ACAD_REACTORS
330
EA
102
}
330
EA
100
AcDbPlotSettings
  1

  2
ProgeSOFT PDF Wizard
  4

  6

 40
0.0
 41
0.0
 42
0.0
 43
0.0
 44
0.0
 45
0.0
 46
0.0
 47
0.0
 48
0.0
 49
0.0
140
0.0
141
0.0
142
1.0
143
1.0
 70
   688
 72
     0
 73
     0
 74
     5
  7

 75
    16
147
1.0
148
0.0
149
0.0
100
AcDbLayout
  1
Layout1
 70
     1
 71
     1
 10
0.0
 20
0.0
 11
12.0
 21
9.0
 12
0.0
 22
0.0
 32
0.0
 14
1.000000000000000E+20
 24
1.000000000000000E+20
 34
1.000000000000000E+20
 15
-1.000000000000000E+20
 25
-1.000000000000000E+20
 35
-1.000000000000000E+20
146
0.0
 13
0.0
 23
0.0
 33
0.0
 16
1.0
 26
0.0
 36
0.0
 17
0.0
 27
1.0
 37
0.0
 76
     0
330
B
  0
LAYOUT
  5
EC
102
{ACAD_XDICTIONARY
360
106
102
}
102
{ACAD_REACTORS
330
EA
102
}
330
EA
100
AcDbPlotSettings
  1

  2
ProgeSOFT PDF Wizard
  4

  6

 40
0.0
 41
0.0
 42
0.0
 43
0.0
 44
0.0
 45
0.0
 46
0.0
 47
0.0
 48
0.0
 49
0.0
140
0.0
141
0.0
142
1.0
143
1.0
 70
  1712
 72
     0
 73
     0
 74
     0
  7

 75
     0
147
1.0
148
0.0
149
0.0
100
AcDbLayout
  1
Model
 70
     1
 71
     0
 10
0.0
 20
0.0
 11
12.0
 21
9.0
 12
0.0
 22
0.0
 32
0.0
 14
0.0
 24
0.0
 34
0.0
 15
0.0
 25
0.0
 35
0.0
146
0.0
 13
0.0
 23
0.0
 33
0.0
 16
1.0
 26
0.0
 36
0.0
 17
0.0
 27
1.0
 37
0.0
 76
     0
330
A
  0
MLINESTYLE
  5
1C
102
{ACAD_REACTORS
330
1B
102
}
330
1B
100
AcDbMlineStyle
  2
STANDARD
 70
     0
  3

 62
     0
 51
90.0
 52
90.0
 71
     2
 49
0.5
 62
   256
  6
BYLAYER
 49
-0.5
 62
   256
  6
BYLAYER
  0
ACDBPLACEHOLDER
  5
E7
102
{ACAD_REACTORS
330
E6
102
}
330
E6
  0
XRECORD
  5
105
102
{ACAD_REACTORS
330
103
102
}
330
103
100
AcDbXrecord
280
     1
340
E9
  0
XRECORD
  5
104
102
{ACAD_REACTORS
330
103
102
}
330
103
100
AcDbXrecord
280
     1
340
E8
  0
DICTIONARYVAR
  5
FD
102
{ACAD_REACTORS
330
FC
102
}
330
FC
100
DictionaryVariables
280
     0
  1
1
  0
DICTIONARYVAR
  5
FE
102
{ACAD_REACTORS
330
FC
102
}
330
FC
100
DictionaryVariables
280
     0
  1

  0
XRECORD
  5
F3
102
{ACAD_REACTORS
330
F1
102
}
330
F1
100
AcDbXrecord
280
     1
  0
DICTIONARY
  5
108
330
ED
100
AcDbDictionary
280
     1
281
     1
  3
ACAD_XREC_ROUNDTRIP
360
109
  0
DICTIONARY
  5
106
330
EC
100
AcDbDictionary
280
     1
281
     1
  3
ACAD_XREC_ROUNDTRIP
360
107
  0
XRECORD
  5
109
102
{ACAD_REACTORS
330
108
102
}
330
108
100
AcDbXrecord
280
     1
102
SHADEPLOT
 70
     0
102
SHADEPLOTRESLEVEL
 70
     2
102
SHADEPLOTCUSTOMDPI
 70
   300
  0
XRECORD
  5
107
102
{ACAD_REACTORS
330
106
102
}
330
106
100
AcDbXrecord
280
     1
102
SHADEPLOT
 70
     0
102
SHADEPLOTRESLEVEL
 70
     2
102
SHADEPLOTCUSTOMDPI
 70
   300
  0
ENDSEC
  0
EOF
