  0
SECTION
  2
HEADER
  9
$ACADVER
  1
AC1018
  9
$ACADMAINTVER
 70
     0
  9
$DWGCODEPAGE
  3
ANSI_1252
  9
$INSBASE
 10
0.0
 20
0.0
 30
0.0
  9
$EXTMIN
 10
0.0
 20
-0.0000000000000142
 30
0.0
  9
$EXTMAX
 10
837.7708763999653
 20
740.7736347142784
 30
0.0
  9
$LIMMIN
 10
0.0
 20
0.0
  9
$LIMMAX
 10
12.0
 20
9.0
  9
$ORTHOMODE
 70
     0
  9
$REGENMODE
 70
     1
  9
$FILLMODE
 70
     1
  9
$QTEXTMODE
 70
     0
  9
$MIRRTEXT
 70
     1
  9
$LTSCALE
 40
1.0
  9
$ATTMODE
 70
     1
  9
$TEXTSIZE
 40
0.2
  9
$TRACEWID
 40
0.05
  9
$TEXTSTYLE
  7
Standard
  9
$CLAYER
  8
0
  9
$CELTYPE
  6
ByLayer
  9
$CECOLOR
 62
   256
  9
$CELTSCALE
 40
1.0
  9
$DISPSILH
 70
     0
  9
$DIMSCALE
 40
1.0
  9
$DIMASZ
 40
0.18
  9
$DIMEXO
 40
0.0625
  9
$DIMDLI
 40
0.38
  9
$DIMRND
 40
0.0
  9
$DIMDLE
 40
0.0
  9
$DIMEXE
 40
0.18
  9
$DIMTP
 40
0.0
  9
$DIMTM
 40
0.0
  9
$DIMTXT
 40
0.18
  9
$DIMCEN
 40
0.09
  9
$DIMTSZ
 40
0.0
  9
$DIMTOL
 70
     0
  9
$DIMLIM
 70
     0
  9
$DIMTIH
 70
     1
  9
$DIMTOH
 70
     1
  9
$DIMSE1
 70
     0
  9
$DIMSE2
 70
     0
  9
$DIMTAD
 70
     0
  9
$DIMZIN
 70
     0
  9
$DIMBLK
  1

  9
$DIMASO
 70
     1
  9
$DIMSHO
 70
     1
  9
$DIMPOST
  1

  9
$DIMAPOST
  1

  9
$DIMALT
 70
     0
  9
$DIMALTD
 70
     2
  9
$DIMALTF
 40
25.4
  9
$DIMLFAC
 40
1.0
  9
$DIMTOFL
 70
     0
  9
$DIMTVP
 40
0.0
  9
$DIMTIX
 70
     0
  9
$DIMSOXD
 70
     0
  9
$DIMSAH
 70
     0
  9
$DIMBLK1
  1

  9
$DIMBLK2
  1

  9
$DIMSTYLE
  2
Standard
  9
$DIMCLRD
 70
     0
  9
$DIMCLRE
 70
     0
  9
$DIMCLRT
 70
     0
  9
$DIMTFAC
 40
1.0
  9
$DIMGAP
 40
0.09
  9
$DIMJUST
 70
     0
  9
$DIMSD1
 70
     0
  9
$DIMSD2
 70
     0
  9
$DIMTOLJ
 70
     1
  9
$DIMTZIN
 70
     0
  9
$DIMALTZ
 70
     0
  9
$DIMALTTZ
 70
     0
  9
$DIMUPT
 70
     0
  9
$DIMDEC
 70
     4
  9
$DIMTDEC
 70
     4
  9
$DIMALTU
 70
     2
  9
$DIMALTTD
 70
     2
  9
$DIMTXSTY
  7
Standard
  9
$DIMAUNIT
 70
     0
  9
$DIMADEC
 70
     0
  9
$DIMALTRND
 40
0.0
  9
$DIMAZIN
 70
     0
  9
$DIMDSEP
 70
    46
  9
$DIMATFIT
 70
     3
  9
$DIMFRAC
 70
     0
  9
$DIMLDRBLK
  1

  9
$DIMLUNIT
 70
     2
  9
$DIMLWD
 70
    -2
  9
$DIMLWE
 70
    -2
  9
$DIMTMOVE
 70
     2
  9
$LUNITS
 70
     2
  9
$LUPREC
 70
     3
  9
$SKETCHINC
 40
0.1
  9
$FILLETRAD
 40
0.5
  9
$AUNITS
 70
     0
  9
$AUPREC
 70
     0
  9
$MENU
  1
.
  9
$ELEVATION
 40
0.0
  9
$PELEVATION
 40
0.0
  9
$THICKNESS
 40
0.0
  9
$LIMCHECK
 70
     0
  9
$CHAMFERA
 40
0.5
  9
$CHAMFERB
 40
0.5
  9
$CHAMFERC
 40
1.0
  9
$CHAMFERD
 40
0.0
  9
$SKPOLY
 70
     0
  9
$TDCREATE
 40
2455882.59617044
  9
$TDUCREATE
 40
2455882.554503773
  9
$TDUPDATE
 40
2455882.596170451
  9
$TDUUPDATE
 40
2455882.554503785
  9
$TDINDWG
 40
0.0000000116
  9
$TDUSRTIMER
 40
0.0000000116
  9
$USRTIMER
 70
     1
  9
$ANGBASE
 50
0.0
  9
$ANGDIR
 70
     0
  9
$PDMODE
 70
     0
  9
$PDSIZE
 40
0.0
  9
$PLINEWID
 40
0.0
  9
$SPLFRAME
 70
     0
  9
$SPLINETYPE
 70
     6
  9
$SPLINESEGS
 70
     8
  9
$HANDSEED
  5
2B6
  9
$SURFTAB1
 70
     6
  9
$SURFTAB2
 70
     6
  9
$SURFTYPE
 70
     6
  9
$SURFU
 70
     6
  9
$SURFV
 70
     6
  9
$UCSBASE
  2

  9
$UCSNAME
  2

  9
$UCSORG
 10
0.0
 20
0.0
 30
0.0
  9
$UCSXDIR
 10
1.0
 20
0.0
 30
0.0
  9
$UCSYDIR
 10
0.0
 20
1.0
 30
0.0
  9
$UCSORTHOREF
  2

  9
$UCSORTHOVIEW
 70
     0
  9
$UCSORGTOP
 10
0.0
 20
0.0
 30
0.0
  9
$UCSORGBOTTOM
 10
0.0
 20
0.0
 30
0.0
  9
$UCSORGLEFT
 10
0.0
 20
0.0
 30
0.0
  9
$UCSORGRIGHT
 10
0.0
 20
0.0
 30
0.0
  9
$UCSORGFRONT
 10
0.0
 20
0.0
 30
0.0
  9
$UCSORGBACK
 10
0.0
 20
0.0
 30
0.0
  9
$PUCSBASE
  2

  9
$PUCSNAME
  2

  9
$PUCSORG
 10
0.0
 20
0.0
 30
0.0
  9
$PUCSXDIR
 10
1.0
 20
0.0
 30
0.0
  9
$PUCSYDIR
 10
0.0
 20
1.0
 30
0.0
  9
$PUCSORTHOREF
  2

  9
$PUCSORTHOVIEW
 70
     0
  9
$PUCSORGTOP
 10
0.0
 20
0.0
 30
0.0
  9
$PUCSORGBOTTOM
 10
0.0
 20
0.0
 30
0.0
  9
$PUCSORGLEFT
 10
0.0
 20
0.0
 30
0.0
  9
$PUCSORGRIGHT
 10
0.0
 20
0.0
 30
0.0
  9
$PUCSORGFRONT
 10
0.0
 20
0.0
 30
0.0
  9
$PUCSORGBACK
 10
0.0
 20
0.0
 30
0.0
  9
$USERI1
 70
     0
  9
$USERI2
 70
     0
  9
$USERI3
 70
     0
  9
$USERI4
 70
     0
  9
$USERI5
 70
     0
  9
$USERR1
 40
0.0
  9
$USERR2
 40
0.0
  9
$USERR3
 40
0.0
  9
$USERR4
 40
0.0
  9
$USERR5
 40
0.0
  9
$WORLDVIEW
 70
     1
  9
$SHADEDGE
 70
     3
  9
$SHADEDIF
 70
    70
  9
$TILEMODE
 70
     1
  9
$MAXACTVP
 70
    64
  9
$PINSBASE
 10
0.0
 20
0.0
 30
0.0
  9
$PLIMCHECK
 70
     0
  9
$PEXTMIN
 10
1.000000000000000E+20
 20
1.000000000000000E+20
 30
1.000000000000000E+20
  9
$PEXTMAX
 10
-1.000000000000000E+20
 20
-1.000000000000000E+20
 30
-1.000000000000000E+20
  9
$PLIMMIN
 10
0.0
 20
0.0
  9
$PLIMMAX
 10
12.0
 20
9.0
  9
$UNITMODE
 70
     0
  9
$VISRETAIN
 70
     1
  9
$PLINEGEN
 70
     0
  9
$PSLTSCALE
 70
     1
  9
$TREEDEPTH
 70
  3020
  9
$CMLSTYLE
  2
Standard
  9
$CMLJUST
 70
     0
  9
$CMLSCALE
 40
1.0
  9
$PROXYGRAPHICS
 70
     1
  9
$MEASUREMENT
 70
     0
  9
$CELWEIGHT
370
    -1
  9
$ENDCAPS
280
     0
  9
$JOINSTYLE
280
     0
  9
$LWDISPLAY
290
     0
  9
$INSUNITS
 70
     4
  9
$HYPERLINKBASE
  1

  9
$STYLESHEET
  1

  9
$XEDIT
290
     1
  9
$CEPSNTYPE
380
     0
  9
$PSTYLEMODE
290
     1
  9
$FINGERPRINTGUID
  2
{099EF212-E674-466F-BCE2-BA6CCEA530AD}
  9
$VERSIONGUID
  2
{FAEB1C32-E019-11D5-929B-00C0DF256EC4}
  9
$EXTNAMES
290
     1
  9
$PSVPSCALE
 40
0.0
  9
$OLESTARTUP
290
     0
  9
$SORTENTS
280
   127
  9
$INDEXCTL
280
     0
  9
$HIDETEXT
280
     1
  9
$XCLIPFRAME
290
     0
  9
$HALOGAP
280
     0
  9
$OBSCOLOR
 70
   257
  9
$OBSLTYPE
280
     0
  9
$INTERSECTIONDISPLAY
280
     0
  9
$INTERSECTIONCOLOR
 70
   257
  9
$DIMASSOC
280
     2
  9
$PROJECTNAME
  1

  0
ENDSEC
  0
SECTION
  2
CLASSES
  0
CLASS
  1
ACDBDICTIONARYWDFLT
  2
AcDbDictionaryWithDefault
  3
ObjectDBX Classes
 90
        0
 91
        4
280
     0
281
     0
  0
CLASS
  1
VISUALSTYLE
  2
AcDbVisualStyle
  3
ObjectDBX Classes
 90
     4095
 91
        4
280
     0
281
     0
  0
ENDSEC
  0
SECTION
  2
TABLES
  0
TABLE
  2
VPORT
  5
8
330
0
100
AcDbSymbolTable
 70
     1
  0
VPORT
  5
29
330
8
100
AcDbSymbolTableRecord
100
AcDbViewportTableRecord
  2
*Active
 70
     0
 10
0.0
 20
0.0
 11
1.0
 21
1.0
 12
418.8854381999827
 22
370.3868173571392
 13
0.0
 23
0.0
 14
0.5
 24
0.5
 15
0.5
 25
0.5
 16
0.0
 26
0.0
 36
1.0
 17
0.0
 27
0.0
 37
0.0
 40
755.589107408564
 41
1.13094046162037
 42
50.0
 43
0.0
 44
0.0
 50
0.0
 51
0.0
 71
     0
 72
   100
 73
     1
 74
     3
 75
     0
 76
     0
 77
     0
 78
     0
281
     0
 65
     1
110
0.0
120
0.0
130
0.0
111
1.0
121
0.0
131
0.0
112
0.0
122
1.0
132
0.0
 79
     0
146
0.0
  0
ENDTAB
  0
TABLE
  2
LTYPE
  5
5
330
0
100
AcDbSymbolTable
 70
     1
  0
LTYPE
  5
14
330
5
100
AcDbSymbolTableRecord
100
AcDbLinetypeTableRecord
  2
ByBlock
 70
     0
  3

 72
    65
 73
     0
 40
0.0
  0
LTYPE
  5
15
330
5
100
AcDbSymbolTableRecord
100
AcDbLinetypeTableRecord
  2
ByLayer
 70
     0
  3

 72
    65
 73
     0
 40
0.0
  0
LTYPE
  5
16
330
5
100
AcDbSymbolTableRecord
100
AcDbLinetypeTableRecord
  2
Continuous
 70
     0
  3
Solid line
 72
    65
 73
     0
 40
0.0
  0
ENDTAB
  0
TABLE
  2
LAYER
  5
2
330
0
100
AcDbSymbolTable
 70
     2
  0
LAYER
  5
10
330
2
100
AcDbSymbolTableRecord
100
AcDbLayerTableRecord
  2
0
 70
     0
 62
     7
  6
Continuous
370
    -3
390
F
  0
LAYER
  5
3B
330
2
100
AcDbSymbolTableRecord
100
AcDbLayerTableRecord
  2
Linee visibili 2D
 70
     0
 62
     7
  6
Continuous
370
    -3
390
F
  0
ENDTAB
  0
TABLE
  2
STYLE
  5
3
330
0
100
AcDbSymbolTable
 70
     1
  0
STYLE
  5
11
330
3
100
AcDbSymbolTableRecord
100
AcDbTextStyleTableRecord
  2
Standard
 70
     0
 40
0.0
 41
1.0
 50
0.0
 71
     0
 42
0.2
  3
txt
  4

  0
ENDTAB
  0
TABLE
  2
VIEW
  5
6
330
0
100
AcDbSymbolTable
 70
     0
  0
ENDTAB
  0
TABLE
  2
UCS
  5
7
330
0
100
AcDbSymbolTable
 70
     0
  0
ENDTAB
  0
TABLE
  2
APPID
  5
9
330
0
100
AcDbSymbolTable
 70
     1
  0
APPID
  5
12
330
9
100
AcDbSymbolTableRecord
100
AcDbRegAppTableRecord
  2
ACAD
 70
     0
  0
ENDTAB
  0
TABLE
  2
DIMSTYLE
  5
A
330
0
100
AcDbSymbolTable
 70
     1
100
AcDbDimStyleTable
  0
DIMSTYLE
105
27
330
A
100
AcDbSymbolTableRecord
100
AcDbDimStyleTableRecord
  2
Standard
 70
     0
340
11
  0
ENDTAB
  0
TABLE
  2
BLOCK_RECORD
  5
1
330
0
100
AcDbSymbolTable
 70
     1
  0
BLOCK_RECORD
  5
1F
330
1
100
AcDbSymbolTableRecord
100
AcDbBlockTableRecord
  2
*Model_Space
340
22
  0
BLOCK_RECORD
  5
1B
330
1
100
AcDbSymbolTableRecord
100
AcDbBlockTableRecord
  2
*Paper_Space
340
1E
  0
BLOCK_RECORD
  5
23
330
1
100
AcDbSymbolTableRecord
100
AcDbBlockTableRecord
  2
*Paper_Space0
340
26
  0
ENDTAB
  0
ENDSEC
  0
SECTION
  2
BLOCKS
  0
BLOCK
  5
20
330
1F
100
AcDbEntity
  8
0
100
AcDbBlockBegin
  2
*Model_Space
 70
     0
 10
0.0
 20
0.0
 30
0.0
  3
*Model_Space
  1

  0
ENDBLK
  5
21
330
1F
100
AcDbEntity
  8
0
100
AcDbBlockEnd
  0
BLOCK
  5
1C
330
1B
100
AcDbEntity
 67
     1
  8
0
100
AcDbBlockBegin
  2
*Paper_Space
 70
     0
 10
0.0
 20
0.0
 30
0.0
  3
*Paper_Space
  1

  0
ENDBLK
  5
1D
330
1B
100
AcDbEntity
 67
     1
  8
0
100
AcDbBlockEnd
  0
BLOCK
  5
24
330
23
100
AcDbEntity
  8
0
100
AcDbBlockBegin
  2
*Paper_Space0
 70
     0
 10
0.0
 20
0.0
 30
0.0
  3
*Paper_Space0
  1

  0
ENDBLK
  5
25
330
23
100
AcDbEntity
  8
0
100
AcDbBlockEnd
  0
ENDSEC
  0
SECTION
  2
ENTITIES
  0
SPLINE
  5
3C
330
1F
100
AcDbEntity
  8
Linee visibili 2D
100
AcDbSpline
210
0.0
220
0.0
230
1.0
 70
    12
 71
     2
 72
     6
 73
     3
 74
     0
 42
0.0000000001
 43
0.0000000001
 40
0.0
 40
0.0
 40
0.0
 40
2.862748526334945
 40
2.862748526334945
 40
2.862748526334945
 10
108.7093459213354
 20
57.79757506253709
 30
0.0
 41
1.0
 10
109.7735756940798
 20
58.7556648217664
 30
0.0
 41
0.9993823217954668
 10
110.9024740609669
 20
59.63663557790731
 30
0.0
 41
1.0
  0
SPLINE
  5
3D
330
1F
100
AcDbEntity
  8
Linee visibili 2D
100
AcDbSpline
210
0.0
220
0.0
230
1.0
 70
    12
 71
     2
 72
     6
 73
     3
 74
     0
 42
0.0000000001
 43
0.0000000001
 40
0.0
 40
0.0
 40
0.0
 40
3.981487246105083
 40
3.981487246105083
 40
3.981487246105083
 10
109.6317086730689
 20
58.5219506205308
 30
0.0
 41
1.0
 10
111.1131974559972
 20
59.85406240197536
 30
0.0
 41
0.9988151237183932
 10
112.7171715058628
 20
61.03583990199969
 30
0.0
 41
1.0
  0
SPLINE
  5
3E
330
1F
100
AcDbEntity
  8
Linee visibili 2D
100
AcDbSpline
210
0.0
220
0.0
230
1.0
 70
    12
 71
     2
 72
     6
 73
     3
 74
     0
 42
0.0000000001
 43
0.0000000001
 40
0.0
 40
0.0
 40
0.0
 40
0.3777230594945666
 40
0.3777230594945666
 40
0.3777230594945666
 10
99.84734103588616
 20
33.71108778734334
 30
0.0
 41
1.0
 10
99.84590096536017
 20
33.89995001938701
 30
0.0
 41
0.9999508197154171
 10
99.84820710185578
 20
34.0888036617403
 30
0.0
 41
1.0
  0
SPLINE
  5
3F
330
1F
100
AcDbEntity
  8
Linee visibili 2D
100
AcDbSpline
210
0.0
220
0.0
230
1.0
 70
    12
 71
     2
 72
     6
 73
     3
 74
     0
 42
0.0000000001
 43
0.0000000001
 40
0.0
 40
0.0
 40
0.0
 40
0.5728127546272263
 40
0.5728127546272263
 40
0.5728127546272263
 10
100.8055244192613
 20
40.53353815342675
 30
0.0
 41
1.0
 10
100.8154290954966
 20
40.24728015487537
 30
0.0
 41
0.9998799565446882
 10
100.8341986704165
 20
39.96146649634362
 30
0.0
 41
1.0
  0
SPLINE
  5
40
330
1F
100
AcDbEntity
  8
Linee visibili 2D
100
AcDbSpline
210
0.0
220
0.0
230
1.0
 70
    12
 71
     2
 72
     6
 73
     3
 74
     0
 42
0.0000000001
 43
0.0000000001
 40
0.0
 40
0.0
 40
0.0
 40
0.4698223522376281
 40
0.4698223522376281
 40
0.4698223522376281
 10
219.7628086463319
 20
33.5301063754039
 30
0.0
 41
1.0
 10
219.7651906945809
 20
33.76501739113507
 30
0.0
 41
0.9999239137965013
 10
219.7617769299997
 20
33.99991567907497
 30
0.0
 41
1.0
  0
SPLINE
  5
41
330
1F
100
AcDbEntity
  8
Linee visibili 2D
100
AcDbSpline
210
0.0
220
0.0
230
1.0
 70
     8
 71
     3
 72
    16
 73
    12
 74
     0
 42
0.0000000001
 43
0.0000000001
 40
0.0
 40
0.0
 40
0.0
 40
0.0
 40
7.028010530762184
 40
14.70160907342677
 40
30.71505472193004
 40
38.83499339825869
 40
46.37531276805324
 40
53.35214563387846
 40
56.4598969977787
 40
57.80140050718819
 40
58.83354118168253
 40
58.83354118168253
 40
58.83354118168253
 40
58.83354118168253
 10
134.3651928692022
 20
195.2094229530686
 30
0.0
 10
136.6317301020141
 20
194.6164536493553
 30
0.0
 10
141.4332067541891
 20
193.6141311112873
 30
0.0
 10
151.5944851403509
 20
192.3078686989763
 30
0.0
 10
162.2167047419821
 20
192.0325520998253
 30
0.0
 10
172.7532208981684
 20
192.7777254985318
 30
0.0
 10
180.2282195469548
 20
193.8511514659392
 30
0.0
 10
185.9645434674126
 20
195.1443887351924
 30
0.0
 10
189.59990458367
 20
196.2908775223186
 30
0.0
 10
191.3058577564769
 20
196.9452541772752
 30
0.0
 10
192.0311723708502
 20
197.2628400314836
 30
0.0
 10
192.3380955542292
 20
197.4183498005188
 30
0.0
  0
SPLINE
  5
42
330
1F
100
AcDbEntity
  8
Linee visibili 2D
100
AcDbSpline
210
0.0
220
0.0
230
1.0
 70
     8
 71
     3
 72
    15
 73
    11
 74
     0
 42
0.0000000001
 43
0.0000000001
 40
0.0
 40
0.0
 40
0.0
 40
0.0
 40
18.43146516243713
 40
38.01638083964397
 40
58.71589911291401
 40
80.53306815794151
 40
103.2308797390599
 40
126.1355967212858
 40
148.8506308703946
 40
170.8060686150038
 40
170.8060686150038
 40
170.8060686150038
 40
170.8060686150038
 10
50.41896350534041
 20
238.6317087738427
 30
0.0
 10
55.54544875418809
 20
242.0186084588505
 30
0.0
 10
66.60904292016512
 20
248.2526780515906
 30
0.0
 10
84.75457284568817
 20
255.6780518238436
 30
0.0
 10
104.6891826852297
 20
261.3598160997564
 30
0.0
 10
126.1054231973686
 20
265.2260207336404
 30
0.0
 10
148.5156068665277
 20
267.1841837138878
 30
0.0
 10
171.309480534265
 20
267.17638728245
 30
0.0
 10
193.770121164074
 20
265.1990837314734
 30
0.0
 10
208.4375577543893
 20
262.5389783065861
 30
0.0
 10
215.5630108093961
 20
260.8677192837754
 30
0.0
  0
SPLINE
  5
43
330
1F
100
AcDbEntity
  8
Linee visibili 2D
100
AcDbSpline
210
0.0
220
0.0
230
1.0
 70
     8
 71
     3
 72
    11
 73
     7
 74
     0
 42
0.0000000001
 43
0.0000000001
 40
0.0
 40
0.0
 40
0.0
 40
0.0
 40
0.5338717580663874
 40
1.214919962150931
 40
2.757110499467252
 40
6.299023143865355
 40
6.299023143865355
 40
6.299023143865355
 40
6.299023143865355
 10
127.7116261173373
 20
197.4994438938301
 30
0.0
 10
127.8697509602696
 20
197.4177601861041
 30
0.0
 10
128.2367610174074
 20
197.2463269811402
 30
0.0
 10
129.082634383077
 20
196.8866796912402
 30
0.0
 10
130.8826398334602
 20
196.2118956411019
 30
0.0
 10
132.5048462735016
 20
195.7174258700607
 30
0.0
 10
133.6429031211989
 20
195.4036087665731
 30
0.0
  0
SPLINE
  5
44
330
1F
100
AcDbEntity
  8
Linee visibili 2D
100
AcDbSpline
210
0.0
220
0.0
230
1.0
 70
    12
 71
     2
 72
     6
 73
     3
 74
     0
 42
0.0000000001
 43
0.0000000001
 40
0.0
 40
0.0
 40
0.0
 40
0.640843986033091
 40
0.640843986033091
 40
0.640843986033091
 10
687.6726997895
 20
149.6450692562527
 30
0.0
 41
1.0
 10
687.9043210671
 20
149.8665553328675
 30
0.0
 41
0.9997499254016039
 10
688.1258071437148
 20
150.0981766104676
 30
0.0
 41
1.0
  0
SPLINE
  5
45
330
1F
100
AcDbEntity
  8
Linee visibili 2D
100
AcDbSpline
210
0.0
220
0.0
230
1.0
 70
    12
 71
     2
 72
     6
 73
     3
 74
     0
 42
0.0000000001
 43
0.0000000001
 40
0.0
 40
0.0
 40
0.0
 40
0.6408439860302143
 40
0.6408439860302143
 40
0.6408439860302143
 10
667.8690530104313
 20
170.3549307437474
 30
0.0
 41
1.0
 10
667.6374317328325
 20
170.1334446671334
 30
0.0
 41
0.9997499254016142
 10
667.4159456562186
 20
169.9018233895345
 30
0.0
 41
1.0
  0
SPLINE
  5
46
330
1F
100
AcDbEntity
  8
Linee visibili 2D
100
AcDbSpline
210
0.0
220
0.0
230
1.0
 70
    12
 71
     2
 72
     6
 73
     3
 74
     0
 42
0.0000000001
 43
0.0000000001
 40
0.0
 40
0.0
 40
0.0
 40
0.6408439860339322
 40
0.6408439860339322
 40
0.6408439860339322
 10
688.1258071437131
 20
169.9018233895337
 30
0.0
 41
1.0
 10
687.9043210670977
 20
170.1334446671339
 30
0.0
 41
0.9997499254016157
 10
687.6726997894976
 20
170.3549307437492
 30
0.0
 41
1.0
  0
SPLINE
  5
47
330
1F
100
AcDbEntity
  8
Linee visibili 2D
100
AcDbSpline
210
0.0
220
0.0
230
1.0
 70
    12
 71
     2
 72
     6
 73
     3
 74
     0
 42
0.0000000001
 43
0.0000000001
 40
0.0
 40
0.0
 40
0.0
 40
0.6408439860291276
 40
0.6408439860291276
 40
0.6408439860291276
 10
667.4159456562186
 20
150.0981766104652
 30
0.0
 41
1.0
 10
667.6374317328322
 20
149.8665553328667
 30
0.0
 41
0.999749925401619
 10
667.8690530104305
 20
149.6450692562531
 30
0.0
 41
1.0
  0
SPLINE
  5
48
330
1F
100
AcDbEntity
  8
Linee visibili 2D
100
AcDbSpline
210
0.0
220
0.0
230
1.0
 70
    12
 71
     3
 72
     8
 73
     4
 74
     0
 42
0.0000000001
 43
0.0000000001
 40
9.05485141889357
 40
9.05485141889357
 40
9.05485141889357
 40
9.05485141889357
 40
205.4308785282933
 40
205.4308785282933
 40
205.4308785282933
 40
205.4308785282933
 10
695.7575416343294
 20
650.7736347142785
 30
0.0
 41
0.9755021577528578
 10
697.1040315504148
 20
577.726084984575
 30
0.0
 41
0.8065033651997225
 10
712.7220605676847
 20
527.82452684982
 30
0.0
 41
0.8131557449563664
 10
734.0579947635279
 20
527.020673111155
 30
0.0
 41
0.9954592970227895
  0
SPLINE
  5
49
330
1F
100
AcDbEntity
  8
Linee visibili 2D
100
AcDbSpline
210
0.0
220
0.0
230
1.0
 70
    12
 71
     3
 72
     8
 73
     4
 74
     0
 42
0.0000000001
 43
0.0000000001
 40
-205.1624802329714
 40
-205.1624802329714
 40
-205.1624802329714
 40
-205.1624802329714
 40
-9.054851418893573
 40
-9.054851418893573
 40
-9.054851418893573
 40
-9.054851418893573
 10
621.5552459657134
 20
527.0235905594549
 30
0.0
 41
0.9947127874571318
 10
642.8620161434629
 20
527.959911105243
 30
0.0
 41
0.8131378887048343
 10
658.4399465674944
 20
577.8468092645866
 30
0.0
 41
0.8067343454700763
 10
659.7842111656015
 20
650.7736347142785
 30
0.0
 41
0.9755021577528578
  0
SPLINE
  5
4A
330
1F
100
AcDbEntity
  8
Linee visibili 2D
100
AcDbSpline
210
0.0
220
0.0
230
1.0
 70
     8
 71
     3
 72
    19
 73
    15
 74
     0
 42
0.0000000001
 43
0.0000000001
 40
0.0
 40
0.0
 40
0.0
 40
0.0
 40
24.40776353434096
 40
47.72035635294153
 40
69.42248127382592
 40
88.5620377350349
 40
97.07989129140584
 40
104.8085412095864
 40
111.7887336870607
 40
117.9197397948369
 40
123.2637640851216
 40
127.8974699598368
 40
131.9442122104893
 40
135.6544157643313
 40
135.6544157643313
 40
135.6544157643313
 40
135.6544157643313
 10
177.986727187791
 20
650.7736347142785
 30
0.0
 10
178.1367706361178
 20
642.6389350447619
 30
0.0
 10
178.8612588570663
 20
626.7429768338089
 30
0.0
 10
181.2373886075059
 20
603.7133597992179
 30
0.0
 10
184.8031783467427
 20
582.6156275725496
 30
0.0
 10
188.7986301758294
 20
566.637733027012
 30
0.0
 10
192.5644359312535
 20
555.4531356975167
 30
0.0
 10
195.493269101768
 20
548.2819842668584
 30
0.0
 10
198.602114238077
 20
542.0626544293328
 30
0.0
 10
201.8755348832361
 20
536.8436133815202
 30
0.0
 10
205.2812417399665
 20
532.6748439402543
 30
0.0
 10
208.8135241806588
 20
529.5803351067307
 30
0.0
 10
212.4773381613528
 20
527.6015558350733
 30
0.0
 10
215.039843365352
 20
527.0667049507215
 30
0.0
 10
216.2757948172524
 20
527.0211046784738
 30
0.0
  0
SPLINE
  5
4B
330
1F
100
AcDbEntity
  8
Linee visibili 2D
100
AcDbSpline
210
0.0
220
0.0
230
1.0
 70
     8
 71
     3
 72
    19
 73
    15
 74
     0
 42
0.0000000001
 43
0.0000000001
 40
0.0
 40
0.0
 40
0.0
 40
0.0
 40
3.71092145662598
 40
7.757078606504486
 40
12.3906507447906
 40
17.73467503507509
 40
23.86568114285144
 40
30.84587362032589
 40
38.57452353850629
 40
47.09237709487743
 40
66.23193355608645
 40
87.93405847697045
 40
111.2466571482098
 40
135.6544157125739
 40
135.6544157125739
 40
135.6544157125739
 40
135.6544157125739
 10
103.7242047156819
 20
527.0211076504405
 30
0.0
 10
104.960366027289
 20
527.0666671384032
 30
0.0
 10
107.5229505672119
 20
527.601749257556
 30
0.0
 10
111.1867442238414
 20
529.5804814184892
 30
0.0
 10
114.7187523277588
 20
532.6748936586292
 30
0.0
 10
118.1244875058752
 20
536.8436048177579
 30
0.0
 10
121.3978733254699
 20
542.0626590739619
 30
0.0
 10
124.506738193067
 20
548.28198146293
 30
0.0
 10
127.4355617919067
 20
555.453136807805
 30
0.0
 10
131.2013696439948
 20
566.6377324711516
 30
0.0
 10
135.1968257089619
 20
582.6156274767307
 30
0.0
 10
138.7626010512528
 20
603.7133626396969
 30
0.0
 10
141.1387853238792
 20
626.742974788241
 30
0.0
 10
141.8632090434048
 20
642.6389381598528
 30
0.0
 10
142.0132728122087
 20
650.7736347142787
 30
0.0
  0
SPLINE
  5
4C
330
1F
100
AcDbEntity
  8
Linee visibili 2D
100
AcDbSpline
210
0.0
220
0.0
230
1.0
 70
    12
 71
     2
 72
     6
 73
     3
 74
     0
 42
0.0000000001
 43
0.0000000001
 40
0.0
 40
0.0
 40
0.0
 40
0.1272773278734716
 40
0.1272773278734716
 40
0.1272773278734716
 10
201.6673265201408
 20
60.1428624729514
 30
0.0
 41
1.0
 10
201.7196180487609
 20
60.10659290538449
 30
0.0
 41
0.9999988982305336
 10
201.7718008859252
 20
60.07016713148391
 30
0.0
 41
1.0
  0
SPLINE
  5
4D
330
1F
100
AcDbEntity
  8
Linee visibili 2D
100
AcDbSpline
210
0.0
220
0.0
230
1.0
 70
    12
 71
     3
 72
     8
 73
     4
 74
     0
 42
0.0000000001
 43
0.0000000001
 40
93.06201777889842
 40
93.06201777889842
 40
93.06201777889842
 40
93.06201777889842
 40
105.1479941138203
 40
105.1479941138203
 40
105.1479941138203
 40
105.1479941138203
 10
201.7718008859252
 20
60.0701671314839
 30
0.0
 41
752.0297534099061
 10
205.0092274272212
 20
57.81035431879976
 30
0.0
 41
765.2692166509459
 10
207.5957476726556
 20
55.34208539955396
 30
0.0
 41
784.0927388168061
 10
209.5232317356145
 20
52.73106219262879
 30
0.0
 41
808.500319907487
  0
SPLINE
  5
4E
330
1F
100
AcDbEntity
  8
Linee visibili 2D
100
AcDbSpline
210
0.0
220
0.0
230
1.0
 70
    12
 71
     2
 72
     6
 73
     3
 74
     0
 42
0.0000000001
 43
0.0000000001
 40
0.0
 40
0.0
 40
0.0
 40
0.3424237799163602
 40
0.3424237799163602
 40
0.3424237799163602
 10
209.5232317356145
 20
52.73106219262878
 30
0.0
 41
1.0
 10
209.6249212544335
 20
52.59331732758155
 30
0.0
 41
0.9999771092714296
 10
209.7247366320127
 20
52.45420830598987
 30
0.0
 41
1.0
  0
SPLINE
  5
4F
330
1F
100
AcDbEntity
  8
Linee visibili 2D
100
AcDbSpline
210
0.0
220
0.0
230
1.0
 70
    12
 71
     2
 72
     6
 73
     3
 74
     0
 42
0.0000000001
 43
0.0000000001
 40
-4.926324602670213
 40
-4.926324602670213
 40
-4.926324602670213
 40
0.0
 40
0.0
 40
0.0
 10
209.7247366320127
 20
52.45420830598987
 30
0.0
 41
1.0
 10
211.1756307372723
 20
50.45109814933692
 30
0.0
 41
0.9938228005955606
 10
212.1489285196376
 20
48.17728305054985
 30
0.0
 41
0.9999999999775959
  0
SPLINE
  5
50
330
1F
100
AcDbEntity
  8
Linee visibili 2D
100
AcDbSpline
210
0.0
220
0.0
230
1.0
 70
    12
 71
     2
 72
     6
 73
     3
 74
     0
 42
0.0000000001
 43
0.0000000001
 40
0.0
 40
0.0
 40
0.0
 40
0.2554135946198289
 40
0.2554135946198289
 40
0.2554135946198289
 10
212.1489285196376
 20
48.17728305054985
 30
0.0
 41
0.9999999999981779
 10
212.1986870483678
 20
48.05966685727693
 30
0.0
 41
0.9999790562997052
 10
212.2469180010561
 20
47.94141601463111
 30
0.0
 41
1.0
  0
SPLINE
  5
51
330
1F
100
AcDbEntity
  8
Linee visibili 2D
100
AcDbSpline
210
0.0
220
0.0
230
1.0
 70
    12
 71
     2
 72
     6
 73
     3
 74
     0
 42
0.0000000001
 43
0.0000000001
 40
-0.553233275489039
 40
-0.553233275489039
 40
-0.553233275489039
 40
0.0
 40
0.0
 40
0.0
 10
212.2469180010561
 20
47.94141601463111
 30
0.0
 41
1.0
 10
212.3514043758285
 20
47.6852720381819
 30
0.0
 41
0.9998984584179065
 10
212.4485499428791
 20
47.4262549169583
 30
0.0
 41
1.0
  0
SPLINE
  5
52
330
1F
100
AcDbEntity
  8
Linee visibili 2D
100
AcDbSpline
210
0.0
220
0.0
230
1.0
 70
    12
 71
     2
 72
     6
 73
     3
 74
     0
 42
0.0000000001
 43
0.0000000001
 40
0.0
 40
0.0
 40
0.0
 40
0.2140426307318694
 40
0.2140426307318694
 40
0.2140426307318694
 10
212.4485499428791
 20
47.4262549169583
 30
0.0
 41
1.0
 10
212.4861287998396
 20
47.32604697000945
 30
0.0
 41
0.9999843369726624
 10
212.522582311943
 20
47.22542418068954
 30
0.0
 41
1.0
  0
SPLINE
  5
53
330
1F
100
AcDbEntity
  8
Linee visibili 2D
100
AcDbSpline
210
0.0
220
0.0
230
1.0
 70
    12
 71
     2
 72
     6
 73
     3
 74
     0
 42
0.0000000001
 43
0.0000000001
 40
-0.5774257536732587
 40
-0.5774257536732587
 40
-0.5774257536732587
 40
0.0
 40
0.0
 40
0.0
 10
212.522582311943
 20
47.22542418068954
 30
0.0
 41
1.0
 10
212.6209439300683
 20
46.95395930727551
 30
0.0
 41
0.9998825829839206
 10
212.710941867767
 20
46.67960816015388
 30
0.0
 41
1.0
  0
SPLINE
  5
54
330
1F
100
AcDbEntity
  8
Linee visibili 2D
100
AcDbSpline
210
0.0
220
0.0
230
1.0
 70
    12
 71
     2
 72
     6
 73
     3
 74
     0
 42
0.0000000001
 43
0.0000000001
 40
0.0
 40
0.0
 40
0.0
 40
0.183126691901841
 40
0.183126691901841
 40
0.183126691901841
 10
212.710941867767
 20
46.67960816015388
 30
0.0
 41
1.0
 10
212.7394783398861
 20
46.59260440782421
 30
0.0
 41
0.999987864117401
 10
212.7671548854064
 20
46.50532329664356
 30
0.0
 41
1.0
  0
SPLINE
  5
55
330
1F
100
AcDbEntity
  8
Linee visibili 2D
100
AcDbSpline
210
0.0
220
0.0
230
1.0
 70
    12
 71
     2
 72
     6
 73
     3
 74
     0
 42
0.0000000001
 43
0.0000000001
 40
-0.5921997271831337
 40
-0.5921997271831337
 40
-0.5921997271831337
 40
0.0
 40
0.0
 40
0.0
 10
212.7671548854064
 20
46.50532329664356
 30
0.0
 41
1.0
 10
212.8566780640381
 20
46.22305397903538
 30
0.0
 41
0.9998697147991971
 10
212.9370443321249
 20
45.93804235206022
 30
0.0
 41
1.0
  0
SPLINE
  5
56
330
1F
100
AcDbEntity
  8
Linee visibili 2D
100
AcDbSpline
210
0.0
220
0.0
230
1.0
 70
    12
 71
     2
 72
     6
 73
     3
 74
     0
 42
0.0000000001
 43
0.0000000001
 40
0.0
 40
0.0
 40
0.0
 40
0.1625233550837969
 40
0.1625233550837969
 40
0.1625233550837969
 10
212.9370443321249
 20
45.93804235206022
 30
0.0
 41
1.0
 10
212.9590948612457
 20
45.85982903113105
 30
0.0
 41
0.9999899468926113
 10
212.9804421166098
 20
45.7814208409326
 30
0.0
 41
1.0
  0
SPLINE
  5
57
330
1F
100
AcDbEntity
  8
Linee visibili 2D
100
AcDbSpline
210
0.0
220
0.0
230
1.0
 70
    12
 71
     2
 72
     6
 73
     3
 74
     0
 42
0.0000000001
 43
0.0000000001
 40
-0.5976940465119541
 40
-0.5976940465119541
 40
-0.5976940465119541
 40
0.0
 40
0.0
 40
0.0
 10
212.9804421166098
 20
45.7814208409326
 30
0.0
 41
1.0
 10
213.0589697124938
 20
45.49304690249097
 30
0.0
 41
0.9998609140415159
 10
213.1278367445782
 20
45.20221457654844
 30
0.0
 41
1.0
  0
SPLINE
  5
58
330
1F
100
AcDbEntity
  8
Linee visibili 2D
100
AcDbSpline
210
0.0
220
0.0
230
1.0
 70
    12
 71
     2
 72
     6
 73
     3
 74
     0
 42
0.0000000001
 43
0.0000000001
 40
0.0
 40
0.0
 40
0.0
 40
3.11866843185417
 40
3.11866843185417
 40
3.11866843185417
 10
213.1278367445782
 20
45.20221457654844
 30
0.0
 41
1.0
 10
213.4894695980651
 20
43.68097817363244
 30
0.0
 41
0.9958842002215365
 10
213.5705335181983
 20
42.11945098594406
 30
0.0
 41
1.0
  0
SPLINE
  5
59
330
1F
100
AcDbEntity
  8
Linee visibili 2D
100
AcDbSpline
210
0.0
220
0.0
230
1.0
 70
    12
 71
     2
 72
     6
 73
     3
 74
     0
 42
0.0000000001
 43
0.0000000001
 40
-0.4906154278351235
 40
-0.4906154278351235
 40
-0.4906154278351235
 40
0.0
 40
0.0
 40
0.0
 10
213.5705335181983
 20
42.11945098594406
 30
0.0
 41
1.0
 10
213.5830728609795
 20
41.87444653440601
 30
0.0
 41
0.9998936108814707
 10
213.5884755646551
 20
41.62918091785212
 30
0.0
 41
1.0
  0
SPLINE
  5
5A
330
1F
100
AcDbEntity
  8
Linee visibili 2D
100
AcDbSpline
210
0.0
220
0.0
230
1.0
 70
    12
 71
     2
 72
     6
 73
     3
 74
     0
 42
0.0000000001
 43
0.0000000001
 40
0.0
 40
0.0
 40
0.0
 40
0.2468636897475825
 40
0.2468636897475825
 40
0.2468636897475825
 10
213.5884755646551
 20
41.62918091785212
 30
0.0
 41
0.999999999999998
 10
213.5911952442907
 20
41.50577682021546
 30
0.0
 41
0.9999730443325648
 10
213.592089275716
 20
41.38234598680636
 30
0.0
 41
1.0
  0
SPLINE
  5
5B
330
1F
100
AcDbEntity
  8
Linee visibili 2D
100
AcDbSpline
210
0.0
220
0.0
230
1.0
 70
    12
 71
     2
 72
     6
 73
     3
 74
     0
 42
0.0000000001
 43
0.0000000001
 40
-0.4431456930371997
 40
-0.4431456930371997
 40
-0.4431456930371997
 40
0.0
 40
0.0
 40
0.0
 10
213.592089275716
 20
41.38234598680636
 30
0.0
 41
1.0
 10
213.5936989996201
 20
41.16076611852608
 30
0.0
 41
0.9999129428650227
 10
213.58947639076
 20
40.93922064782772
 30
0.0
 41
1.0
  0
SPLINE
  5
5C
330
1F
100
AcDbEntity
  8
Linee visibili 2D
100
AcDbSpline
210
0.0
220
0.0
230
1.0
 70
    12
 71
     2
 72
     6
 73
     3
 74
     0
 42
0.0000000001
 43
0.0000000001
 40
0.0
 40
0.0
 40
0.0
 40
0.294642471579746
 40
0.294642471579746
 40
0.294642471579746
 10
213.58947639076
 20
40.93922064782772
 30
0.0
 41
1.0
 10
213.5866738750432
 20
40.7919222876843
 30
0.0
 41
0.9999614994454434
 10
213.5812680023227
 20
40.64469647511385
 30
0.0
 41
1.0
  0
SPLINE
  5
5D
330
1F
100
AcDbEntity
  8
Linee visibili 2D
100
AcDbSpline
210
0.0
220
0.0
230
1.0
 70
    12
 71
     2
 72
     6
 73
     3
 74
     0
 42
0.0000000001
 43
0.0000000001
 40
-0.3867218869593333
 40
-0.3867218869593333
 40
-0.3867218869593333
 40
0.0
 40
0.0
 40
0.0
 10
213.5812680023227
 20
40.64469647511385
 30
0.0
 41
1.0
 10
213.574175493537
 20
40.45145712860414
 30
0.0
 41
0.9999339924942129
 10
213.5626620686182
 20
40.25843074082425
 30
0.0
 41
0.9999999999999498
  0
SPLINE
  5
5E
330
1F
100
AcDbEntity
  8
Linee visibili 2D
100
AcDbSpline
210
0.0
220
0.0
230
1.0
 70
    12
 71
     2
 72
     6
 73
     3
 74
     0
 42
0.0000000001
 43
0.0000000001
 40
0.0
 40
0.0
 40
0.0
 40
0.3524776989538917
 40
0.3524776989538917
 40
0.3524776989538917
 10
213.5626620686182
 20
40.25843074082425
 30
0.0
 41
0.9999999999999019
 10
213.5521649530795
 20
40.08249836994482
 30
0.0
 41
0.9999455170116146
 10
213.5379850035012
 20
39.90682446978808
 30
0.0
 41
1.0
  0
SPLINE
  5
5F
330
1F
100
AcDbEntity
  8
Linee visibili 2D
100
AcDbSpline
210
0.0
220
0.0
230
1.0
 70
    12
 71
     2
 72
     6
 73
     3
 74
     0
 42
0.0000000001
 43
0.0000000001
 40
-2.948681272219434
 40
-2.948681272219434
 40
-2.948681272219434
 40
0.0
 40
0.0
 40
0.0
 10
213.5379850035012
 20
39.90682446978808
 30
0.0
 41
1.0
 10
213.4180511653743
 20
38.43377524094126
 30
0.0
 41
0.9963674915951491
 10
213.0498907835078
 20
37.00244157430402
 30
0.0
 41
0.9999999999983231
  0
SPLINE
  5
60
330
1F
100
AcDbEntity
  8
Linee visibili 2D
100
AcDbSpline
210
0.0
220
0.0
230
1.0
 70
    12
 71
     2
 72
     6
 73
     3
 74
     0
 42
0.0000000001
 43
0.0000000001
 40
0.0
 40
0.0
 40
0.0
 40
0.0440316368771823
 40
0.0440316368771823
 40
0.0440316368771823
 10
213.0498907835078
 20
37.00244157430402
 30
0.0
 41
0.9999999999999996
 10
213.0444264735657
 20
36.98111464144717
 30
0.0
 41
0.9999992472496163
 10
213.0389084312134
 20
36.95980151569864
 30
0.0
 41
1.0
  0
SPLINE
  5
61
330
1F
100
AcDbEntity
  8
Linee visibili 2D
100
AcDbSpline
210
0.0
220
0.0
230
1.0
 70
    12
 71
     3
 72
     8
 73
     4
 74
     0
 42
0.0000000001
 43
0.0000000001
 40
131.8195992721444
 40
131.8195992721444
 40
131.8195992721444
 40
131.8195992721444
 40
146.2403136525547
 40
146.2403136525547
 40
146.2403136525547
 40
146.2403136525547
 10
213.0389084312134
 20
36.95980151569864
 30
0.0
 41
1051.674124099803
 10
212.4297051797275
 20
34.60648350971556
 30
0.0
 41
1110.203815573338
 10
211.3431794285486
 20
32.37452450956071
 30
0.0
 41
1176.683377721806
 10
209.8761329917434
 20
30.28712559998285
 30
0.0
 41
1251.112810545209
  0
SPLINE
  5
62
330
1F
100
AcDbEntity
  8
Linee visibili 2D
100
AcDbSpline
210
0.0
220
0.0
230
1.0
 70
    12
 71
     2
 72
     6
 73
     3
 74
     0
 42
0.0000000001
 43
0.0000000001
 40
0.0
 40
0.0
 40
0.0
 40
4.151988401886972
 40
4.151988401886972
 40
4.151988401886972
 10
209.8761329917434
 20
30.28712559998285
 30
0.0
 41
0.9999999999965801
 10
208.6755408630033
 20
28.58863064512732
 30
0.0
 41
0.9971298411023479
 10
207.2322621747069
 20
27.09088118143318
 30
0.0
 41
1.0
  0
SPLINE
  5
63
330
1F
100
AcDbEntity
  8
Linee visibili 2D
100
AcDbSpline
210
0.0
220
0.0
230
1.0
 70
    12
 71
     2
 72
     6
 73
     3
 74
     0
 42
0.0000000001
 43
0.0000000001
 40
0.0
 40
0.0
 40
0.0
 40
6.665460561175454
 40
6.665460561175454
 40
6.665460561175454
 10
207.2322621747069
 20
27.09088118143318
 30
0.0
 41
1.0
 10
204.9072398277417
 20
24.6896059920891
 30
0.0
 41
0.9956518219292321
 10
202.1771418655846
 20
22.76128647676789
 30
0.0
 41
0.9999999999253428
  0
SPLINE
  5
64
330
1F
100
AcDbEntity
  8
Linee visibili 2D
100
AcDbSpline
210
0.0
220
0.0
230
1.0
 70
    12
 71
     3
 72
     8
 73
     4
 74
     0
 42
0.0000000001
 43
0.0000000001
 40
12.08598574032827
 40
12.08598574032827
 40
12.08598574032827
 40
12.08598574032827
 40
36.25792500519676
 40
36.25792500519676
 40
36.25792500519676
 40
36.25792500519676
 10
202.1771418655846
 20
22.76128647676789
 30
0.0
 41
1184.224534167909
 10
197.5680433748686
 20
19.47303803974439
 30
0.0
 41
1058.689771020887
 10
191.5723516639452
 20
16.59649717820692
 30
0.0
 41
956.8759131984523
 10
184.1936468183457
 20
14.50770165201595
 30
0.0
 41
878.7829607006047
  0
SPLINE
  5
65
330
1F
100
AcDbEntity
  8
Linee visibili 2D
100
AcDbSpline
210
0.0
220
0.0
230
1.0
 70
     8
 71
     3
 72
    15
 73
    11
 74
     0
 42
0.0000000001
 43
0.0000000001
 40
0.0
 40
0.0
 40
0.0
 40
0.0
 40
12.25944467733028
 40
24.18976507810676
 40
36.16263907220573
 40
48.72962213528187
 40
60.12268949529584
 40
70.26443786418484
 40
79.22058699098773
 40
86.87524811665246
 40
86.87524811665246
 40
86.87524811665246
 40
86.87524811665246
 10
184.1936468183457
 20
14.50770165201595
 30
0.0
 10
180.2608167313905
 20
13.39546738965179
 30
0.0
 10
172.3336022220937
 20
11.81347746710128
 30
0.0
 10
160.2823830637541
 20
11.02450627787892
 30
0.0
 10
148.1218721304975
 20
11.72839875676686
 30
0.0
 10
136.3310948883714
 20
13.99697865225142
 30
0.0
 10
125.5854597067275
 20
17.82322580487408
 30
0.0
 10
116.7338136024247
 20
22.91717470079742
 30
0.0
 10
110.1782611755943
 20
29.08341111498384
 30
0.0
 10
107.4802212430576
 20
34.01718509799984
 30
0.0
 10
106.7587690963048
 20
36.46829971725307
 30
0.0
  0
SPLINE
  5
66
330
1F
100
AcDbEntity
  8
Linee visibili 2D
100
AcDbSpline
210
0.0
220
0.0
230
1.0
 70
    12
 71
     2
 72
     6
 73
     3
 74
     0
 42
0.0000000001
 43
0.0000000001
 40
-0.2521098141002356
 40
-0.2521098141002356
 40
-0.2521098141002356
 40
0.0
 40
0.0
 40
0.0
 10
106.7587690963048
 20
36.46829971725307
 30
0.0
 41
1.0
 10
106.72295981452
 20
36.589163530967
 30
0.0
 41
0.9999761080098998
 10
106.6888236089954
 20
36.71051039972954
 30
0.0
 41
0.9999999999959284
  0
SPLINE
  5
67
330
1F
100
AcDbEntity
  8
Linee visibili 2D
100
AcDbSpline
210
0.0
220
0.0
230
1.0
 70
    12
 71
     2
 72
     6
 73
     3
 74
     0
 42
0.0000000001
 43
0.0000000001
 40
0.0
 40
0.0
 40
0.0
 40
0.5463381103301136
 40
0.5463381103301136
 40
0.5463381103301136
 10
106.6888236089954
 20
36.71051039972954
 30
0.0
 41
0.9999999999909652
 10
106.614835876598
 20
36.97349060142941
 30
0.0
 41
0.9998849945144082
 10
106.5488592334289
 20
37.23859419056687
 30
0.0
 41
1.0
  0
SPLINE
  5
68
330
1F
100
AcDbEntity
  8
Linee visibili 2D
100
AcDbSpline
210
0.0
220
0.0
230
1.0
 70
    12
 71
     2
 72
     6
 73
     3
 74
     0
 42
0.0000000001
 43
0.0000000001
 40
-0.2114841264372531
 40
-0.2114841264372531
 40
-0.2114841264372531
 40
0.0
 40
0.0
 40
0.0
 10
106.5488592334289
 20
37.23859419056687
 30
0.0
 41
1.0
 10
106.5233258047451
 20
37.34120857689649
 30
0.0
 41
0.9999823858653683
 10
106.499010709631
 20
37.4441183500934
 30
0.0
 41
0.9999999999979976
  0
SPLINE
  5
69
330
1F
100
AcDbEntity
  8
Linee visibili 2D
100
AcDbSpline
210
0.0
220
0.0
230
1.0
 70
    12
 71
     2
 72
     6
 73
     3
 74
     0
 42
0.0000000001
 43
0.0000000001
 40
0.0
 40
0.0
 40
0.0
 40
0.5708678158175479
 40
0.5708678158175479
 40
0.5708678158175479
 10
106.499010709631
 20
37.4441183500934
 30
0.0
 41
0.9999999999944942
 10
106.433362852147
 20
37.72192603235404
 30
0.0
 41
0.9998689613691528
 10
106.3767442283189
 20
38.0017137125277
 30
0.0
 41
1.0
  0
SPLINE
  5
6A
330
1F
100
AcDbEntity
  8
Linee visibili 2D
100
AcDbSpline
210
0.0
220
0.0
230
1.0
 70
    12
 71
     2
 72
     6
 73
     3
 74
     0
 42
0.0000000001
 43
0.0000000001
 40
-0.1811616004561354
 40
-0.1811616004561354
 40
-0.1811616004561354
 40
0.0
 40
0.0
 40
0.0
 10
106.3767442283189
 20
38.0017137125277
 30
0.0
 41
1.0
 10
106.3587816435802
 20
38.09049655984474
 30
0.0
 41
0.9999865589744273
 10
106.3417391339212
 20
38.17946048879188
 30
0.0
 41
0.9999999999989735
  0
SPLINE
  5
6B
330
1F
100
AcDbEntity
  8
Linee visibili 2D
100
AcDbSpline
210
0.0
220
0.0
230
1.0
 70
    12
 71
     2
 72
     6
 73
     3
 74
     0
 42
0.0000000001
 43
0.0000000001
 40
0.0
 40
0.0
 40
0.0
 40
0.5862637224970778
 40
0.5862637224970778
 40
0.5862637224970778
 10
106.3417391339212
 20
38.17946048879188
 30
0.0
 41
0.9999999999966336
 10
106.2865752054716
 20
38.46738344687085
 30
0.0
 41
0.9998568568414685
 10
106.2411857954896
 20
38.75700830044909
 30
0.0
 41
1.0
  0
SPLINE
  5
6C
330
1F
100
AcDbEntity
  8
Linee visibili 2D
100
AcDbSpline
210
0.0
220
0.0
230
1.0
 70
    12
 71
     2
 72
     6
 73
     3
 74
     0
 42
0.0000000001
 43
0.0000000001
 40
-0.1610130899247937
 40
-0.1610130899247937
 40
-0.1610130899247937
 40
0.0
 40
0.0
 40
0.0
 10
106.2411857954896
 20
38.75700830044909
 30
0.0
 41
1.0
 10
106.2287238928094
 20
38.83654519194818
 30
0.0
 41
0.9999890433982818
 10
106.2170059942407
 20
38.91619498149133
 30
0.0
 41
0.9999999999994145
  0
SPLINE
  5
6D
330
1F
100
AcDbEntity
  8
Linee visibili 2D
100
AcDbSpline
210
0.0
220
0.0
230
1.0
 70
    12
 71
     2
 72
     6
 73
     3
 74
     0
 42
0.0000000001
 43
0.0000000001
 40
0.0
 40
0.0
 40
0.0
 40
0.592619233071335
 40
0.592619233071335
 40
0.592619233071335
 10
106.2170059942407
 20
38.91619498149133
 30
0.0
 41
0.9999999999978242
 10
106.1738677445137
 20
39.20937765552134
 30
0.0
 41
0.9998496750315105
 10
106.1409215775936
 20
39.5038799513398
 30
0.0
 41
1.0
  0
SPLINE
  5
6E
330
1F
100
AcDbEntity
  8
Linee visibili 2D
100
AcDbSpline
210
0.0
220
0.0
230
1.0
 70
    12
 71
     2
 72
     6
 73
     3
 74
     0
 42
0.0000000001
 43
0.0000000001
 40
-2.368947494267978
 40
-2.368947494267978
 40
-2.368947494267978
 40
0.0
 40
0.0
 40
0.0
 10
106.1409215775936
 20
39.5038799513398
 30
0.0
 41
1.0
 10
106.0088028559612
 20
40.68293257544362
 30
0.0
 41
0.9975263970447477
 10
106.0433347114697
 20
41.86886163952431
 30
0.0
 41
0.9999999999947526
  0
SPLINE
  5
6F
330
1F
100
AcDbEntity
  8
Linee visibili 2D
100
AcDbSpline
210
0.0
220
0.0
230
1.0
 70
    12
 71
     2
 72
     6
 73
     3
 74
     0
 42
0.0000000001
 43
0.0000000001
 40
0.0
 40
0.0
 40
0.0
 40
0.5286215935085726
 40
0.5286215935085726
 40
0.5286215935085726
 10
106.0433347114697
 20
41.86886163952431
 30
0.0
 41
0.9999999999987332
 10
106.0510465580728
 20
42.13308165146732
 30
0.0
 41
0.9998766585598015
 10
106.0670630762242
 20
42.39692858552846
 30
0.0
 41
1.0
  0
SPLINE
  5
70
330
1F
100
AcDbEntity
  8
Linee visibili 2D
100
AcDbSpline
210
0.0
220
0.0
230
1.0
 70
    12
 71
     2
 72
     6
 73
     3
 74
     0
 42
0.0000000001
 43
0.0000000001
 40
-0.2088195890449291
 40
-0.2088195890449291
 40
-0.2088195890449291
 40
0.0
 40
0.0
 40
0.0
 10
106.0670630762242
 20
42.39692858552846
 30
0.0
 41
1.0
 10
106.0733956454114
 20
42.50114758704952
 30
0.0
 41
0.9999808360302916
 10
106.0810022985187
 20
42.60528126225458
 30
0.0
 41
0.9999999999994016
  0
SPLINE
  5
71
330
1F
100
AcDbEntity
  8
Linee visibili 2D
100
AcDbSpline
210
0.0
220
0.0
230
1.0
 70
    12
 71
     2
 72
     6
 73
     3
 74
     0
 42
0.0000000001
 43
0.0000000001
 40
0.0
 40
0.0
 40
0.0
 40
0.4910632958337983
 40
0.4910632958337983
 40
0.4910632958337983
 10
106.0810022985187
 20
42.60528126225458
 30
0.0
 41
0.999999999998574
 10
106.0989044509706
 20
42.85017670353829
 30
0.0
 41
0.9998945811636122
 10
106.1239254650581
 20
43.09444752793566
 30
0.0
 41
1.0
  0
SPLINE
  5
72
330
1F
100
AcDbEntity
  8
Linee visibili 2D
100
AcDbSpline
210
0.0
220
0.0
230
1.0
 70
    12
 71
     2
 72
     6
 73
     3
 74
     0
 42
0.0000000001
 43
0.0000000001
 40
-0.2473332191934791
 40
-0.2473332191934791
 40
-0.2473332191934791
 40
0.0
 40
0.0
 40
0.0
 10
106.1239254650581
 20
43.09444752793566
 30
0.0
 41
1.0
 10
106.1365276265473
 20
43.21747259338584
 30
0.0
 41
0.9999735198522728
 10
106.1509058127374
 20
43.34030271027753
 30
0.0
 41
0.9999999999991416
  0
SPLINE
  5
73
330
1F
100
AcDbEntity
  8
Linee visibili 2D
100
AcDbSpline
210
0.0
220
0.0
230
1.0
 70
    12
 71
     2
 72
     6
 73
     3
 74
     0
 42
0.0000000001
 43
0.0000000001
 40
0.0
 40
0.0
 40
0.0
 40
0.444411306559674
 40
0.444411306559674
 40
0.444411306559674
 10
106.1509058127374
 20
43.34030271027753
 30
0.0
 41
0.9999999999984661
 10
106.1767473563352
 20
43.56101323414867
 30
0.0
 41
0.9999154140041248
 10
106.208335935759
 20
43.78097482783416
 30
0.0
 41
1.0
  0
SPLINE
  5
74
330
1F
100
AcDbEntity
  8
Linee visibili 2D
100
AcDbSpline
210
0.0
220
0.0
230
1.0
 70
    12
 71
     2
 72
     6
 73
     3
 74
     0
 42
0.0000000001
 43
0.0000000001
 40
-0.295768585534413
 40
-0.295768585534413
 40
-0.295768585534413
 40
0.0
 40
0.0
 40
0.0
 10
106.208335935759
 20
43.78097482783416
 30
0.0
 41
1.0
 10
106.2293626682281
 20
43.92736039189537
 30
0.0
 41
0.9999629669714414
 10
106.2528873617835
 20
44.07336529636889
 30
0.0
 41
0.9999999999987659
  0
SPLINE
  5
75
330
1F
100
AcDbEntity
  8
Linee visibili 2D
100
AcDbSpline
210
0.0
220
0.0
230
1.0
 70
     8
 71
     3
 72
    11
 73
     7
 74
     0
 42
0.0000000001
 43
0.0000000001
 40
0.0
 40
0.0
 40
0.0
 40
0.0
 40
1.265613767957516
 40
2.544363230519493
 40
5.156936212943104
 40
10.67321816802143
 40
10.67321816802143
 40
10.67321816802143
 40
10.67321816802143
 10
106.2528873617835
 20
44.07336529636889
 30
0.0
 10
106.3199519780063
 20
44.48979675373369
 30
0.0
 10
106.4858995418081
 20
45.32234019843959
 30
0.0
 10
106.9415836672612
 20
46.98050617132111
 30
0.0
 10
108.0903785886461
 20
49.90743830693473
 30
0.0
 10
109.5695620421622
 20
52.20246356293552
 30
0.0
 10
110.7182984635729
 20
53.63677505988933
 30
0.0
  0
SPLINE
  5
76
330
1F
100
AcDbEntity
  8
Linee visibili 2D
100
AcDbSpline
210
0.0
220
0.0
230
1.0
 70
    12
 71
     2
 72
     6
 73
     3
 74
     0
 42
0.0000000001
 43
0.0000000001
 40
-4.790425505431904
 40
-4.790425505431904
 40
-4.790425505431904
 40
0.0
 40
0.0
 40
0.0
 10
110.7182984635729
 20
53.63677505988933
 30
0.0
 41
1.0
 10
112.2247878676926
 20
55.50536269182647
 30
0.0
 41
0.9968641085974292
 10
114.007213806474
 20
57.11287248520089
 30
0.0
 41
1.0
  0
SPLINE
  5
77
330
1F
100
AcDbEntity
  8
Linee visibili 2D
100
AcDbSpline
210
0.0
220
0.0
230
1.0
 70
    12
 71
     2
 72
     6
 73
     3
 74
     0
 42
0.0000000001
 43
0.0000000001
 40
-5.099891342467733
 40
-5.099891342467733
 40
-5.099891342467733
 40
0.0
 40
0.0
 40
0.0
 10
114.007213806474
 20
57.11287248520089
 30
0.0
 41
1.0
 10
115.9028259078706
 20
58.82406582214271
 30
0.0
 41
0.9977796936714806
 10
118.009049367486
 20
60.26814013239167
 30
0.0
 41
1.0
  0
SPLINE
  5
78
330
1F
100
AcDbEntity
  8
Linee visibili 2D
100
AcDbSpline
210
0.0
220
0.0
230
1.0
 70
    24
 71
     2
 72
     6
 73
     3
 74
     0
 42
0.0000000001
 43
0.0000000001
 40
-6.089414937469471
 40
-6.089414937469471
 40
-6.089414937469471
 40
0.0
 40
0.0
 40
0.0
 10
99.6971933420911
 20
39.45621804496734
 30
0.0
 10
99.77511083681685
 20
36.41250752917405
 30
0.0
 10
99.85302833154262
 20
33.36879701338076
 30
0.0
  0
SPLINE
  5
79
330
1F
100
AcDbEntity
  8
Linee visibili 2D
100
AcDbSpline
210
0.0
220
0.0
230
1.0
 70
    12
 71
     2
 72
     6
 73
     3
 74
     0
 42
0.0000000001
 43
0.0000000001
 40
0.0
 40
0.0
 40
0.0
 40
0.145095208436393
 40
0.145095208436393
 40
0.145095208436393
 10
99.85302833154262
 20
33.36879701338076
 30
0.0
 41
1.0
 10
99.85488495072215
 20
33.29627240249877
 30
0.0
 41
0.9999927568545942
 10
99.85729325300534
 20
33.22376441501251
 30
0.0
 41
1.0
  0
SPLINE
  5
7A
330
1F
100
AcDbEntity
  8
Linee visibili 2D
100
AcDbSpline
210
0.0
220
0.0
230
1.0
 70
    12
 71
     2
 72
     6
 73
     3
 74
     0
 42
0.0000000001
 43
0.0000000001
 40
-0.3417000847614516
 40
-0.3417000847614516
 40
-0.3417000847614516
 40
0.0
 40
0.0
 40
0.0
 10
99.85729325300534
 20
33.22376441501251
 30
0.0
 41
1.0
 10
99.86296598968202
 20
33.05300398958396
 30
0.0
 41
0.9999599110363996
 10
99.87169610059696
 20
32.88237256750679
 30
0.0
 41
0.999999999999623
  0
SPLINE
  5
7B
330
1F
100
AcDbEntity
  8
Linee visibili 2D
100
AcDbSpline
210
0.0
220
0.0
230
1.0
 70
    12
 71
     2
 72
     6
 73
     3
 74
     0
 42
0.0000000001
 43
0.0000000001
 40
0.0
 40
0.0
 40
0.0
 40
0.5275589847135956
 40
0.5275589847135956
 40
0.5275589847135956
 10
99.87169610059696
 20
32.88237256750679
 30
0.0
 41
0.9999999999994209
 10
99.88517637318564
 20
32.61892100922505
 30
0.0
 41
0.9999049284581224
 10
99.90591629782253
 20
32.35594133076203
 30
0.0
 41
1.0
  0
SPLINE
  5
7C
330
1F
100
AcDbEntity
  8
Linee visibili 2D
100
AcDbSpline
210
0.0
220
0.0
230
1.0
 70
    12
 71
     2
 72
     6
 73
     3
 74
     0
 42
0.0000000001
 43
0.0000000001
 40
-7.168326893587813
 40
-7.168326893587813
 40
-7.168326893587813
 40
0.0
 40
0.0
 40
0.0
 10
99.90591629782253
 20
32.35594133076203
 30
0.0
 41
1.0
 10
100.2070250611013
 20
28.74734154392945
 30
0.0
 41
0.9847529691374362
 10
101.7262613294122
 20
25.46030946808905
 30
0.0
 41
0.9999999997551205
  0
SPLINE
  5
7D
330
1F
100
AcDbEntity
  8
Linee visibili 2D
100
AcDbSpline
210
0.0
220
0.0
230
1.0
 70
    12
 71
     2
 72
     6
 73
     3
 74
     0
 42
0.0000000001
 43
0.0000000001
 40
0.0
 40
0.0
 40
0.0
 40
0.0468091351870016
 40
0.0468091351870016
 40
0.0468091351870016
 10
101.7262613294122
 20
25.46030946808905
 30
0.0
 41
0.9999999999986728
 10
101.735951778064
 20
25.43900529096025
 30
0.0
 41
0.999999482339354
 10
101.7456847225221
 20
25.41772046542655
 30
0.0
 41
1.0
  0
SPLINE
  5
7E
330
1F
100
AcDbEntity
  8
Linee visibili 2D
100
AcDbSpline
210
0.0
220
0.0
230
1.0
 70
    12
 71
     2
 72
     6
 73
     3
 74
     0
 42
0.0000000001
 43
0.0000000001
 40
-0.8519531648917609
 40
-0.8519531648917609
 40
-0.8519531648917609
 40
0.0
 40
0.0
 40
0.0
 10
101.7456847225221
 20
25.41772046542655
 30
0.0
 41
1.0
 10
101.9228953808748
 20
25.03030269118601
 30
0.0
 41
0.999834384680881
 10
102.1140889224222
 20
24.64959130938292
 30
0.0
 41
0.9999999999999452
  0
SPLINE
  5
7F
330
1F
100
AcDbEntity
  8
Linee visibili 2D
100
AcDbSpline
210
0.0
220
0.0
230
1.0
 70
    12
 71
     2
 72
     6
 73
     3
 74
     0
 42
0.0000000001
 43
0.0000000001
 40
0.0
 40
0.0
 40
0.0
 40
0.0954732474337772
 40
0.0954732474337772
 40
0.0954732474337772
 10
102.1140889224222
 20
24.64959130938292
 30
0.0
 41
0.9999999999999896
 10
102.1355091015283
 20
24.60693023525046
 30
0.0
 41
0.9999979970103726
 10
102.1570979420862
 20
24.5643542185618
 30
0.0
 41
1.0
  0
SPLINE
  5
80
330
1F
100
AcDbEntity
  8
Linee visibili 2D
100
AcDbSpline
210
0.0
220
0.0
230
1.0
 70
    12
 71
     2
 72
     6
 73
     3
 74
     0
 42
0.0000000001
 43
0.0000000001
 40
-0.8142269269511246
 40
-0.8142269269511246
 40
-0.8142269269511246
 40
0.0
 40
0.0
 40
0.0
 10
102.1570979420862
 20
24.5643542185618
 30
0.0
 41
1.0
 10
102.3412719482608
 20
24.20123939642147
 30
0.0
 41
0.9998595953662164
 10
102.5375121982426
 20
23.84450115962686
 30
0.0
 41
0.9999999999997342
  0
SPLINE
  5
81
330
1F
100
AcDbEntity
  8
Linee visibili 2D
100
AcDbSpline
210
0.0
220
0.0
230
1.0
 70
    12
 71
     2
 72
     6
 73
     3
 74
     0
 42
0.0000000001
 43
0.0000000001
 40
0.0
 40
0.0
 40
0.0
 40
0.1456910221961548
 40
0.1456910221961548
 40
0.1456910221961548
 10
102.5375121982426
 20
23.84450115962686
 30
0.0
 41
0.9999999999999472
 10
102.5726177779588
 20
23.78067250414896
 30
0.0
 41
0.9999956803077448
 10
102.6080957050397
 20
23.71705000663493
 30
0.0
 41
1.0
  0
SPLINE
  5
82
330
1F
100
AcDbEntity
  8
Linee visibili 2D
100
AcDbSpline
210
0.0
220
0.0
230
1.0
 70
    12
 71
     3
 72
    10
 73
     6
 74
     0
 42
0.0000000001
 43
0.0000000001
 40
-75.31601903930395
 40
-75.31601903930395
 40
-75.31601903930395
 40
-75.31601903930395
 40
-41.79605675681237
 40
-41.79605675681237
 40
-34.86496193956307
 40
-34.86496193956307
 40
-34.86496193956307
 40
-34.86496193956307
 10
102.6080957050397
 20
23.71705000663493
 30
0.0
 41
1401.206494398439
 10
104.5279400024396
 20
20.27431670674228
 30
0.0
 41
1395.765797669586
 10
107.4190500790657
 20
17.01455086766036
 30
0.0
 41
1390.653050947835
 10
111.9732564848974
 20
13.45419040695366
 30
0.0
 41
1385.111465727386
 10
112.7914365566254
 20
12.85764964695943
 30
0.0
 41
1384.187286435127
 10
113.6433384510516
 20
12.27751321145202
 30
0.0
 41
1383.289703158938
  0
SPLINE
  5
83
330
1F
100
AcDbEntity
  8
Linee visibili 2D
100
AcDbSpline
210
0.0
220
0.0
230
1.0
 70
    12
 71
     2
 72
     6
 73
     3
 74
     0
 42
0.0000000001
 43
0.0000000001
 40
-358.8055417491262
 40
-358.8055417491262
 40
-358.8055417491262
 40
-323.430358683411
 40
-323.430358683411
 40
-323.430358683411
 10
113.6433384510516
 20
12.27751321145202
 30
0.0
 41
1244.808624429796
 10
120.1599120823563
 20
7.83979614041023
 30
0.0
 41
1288.271588172012
 10
128.9114686117578
 20
4.864989211860411
 30
0.0
 41
1371.922714497236
  0
SPLINE
  5
84
330
1F
100
AcDbEntity
  8
Linee visibili 2D
100
AcDbSpline
210
0.0
220
0.0
230
1.0
 70
    12
 71
     2
 72
     6
 73
     3
 74
     0
 42
0.0000000001
 43
0.0000000001
 40
-323.430358683411
 40
-323.430358683411
 40
-323.430358683411
 40
-288.0551632024128
 40
-288.0551632024128
 40
-288.0551632024128
 10
128.9114686117578
 20
4.864989211860411
 30
0.0
 41
1371.922714497236
 10
137.7211335498501
 20
1.870430220211919
 30
0.0
 41
1279.774619051545
 10
147.7918927086675
 20
0.6985903996655319
 30
0.0
 41
1228.903518939552
  0
SPLINE
  5
85
330
1F
100
AcDbEntity
  8
Linee visibili 2D
100
AcDbSpline
210
0.0
220
0.0
230
1.0
 70
     8
 71
     3
 72
    12
 73
     8
 74
     0
 42
0.0000000001
 43
0.0000000001
 40
-54.16128321968426
 40
-54.16128321968426
 40
-54.16128321968426
 40
-54.16128321968426
 40
-39.9846742294063
 40
-25.83352282681916
 40
-12.40008522252076
 40
-6.010099954316408
 40
0.0
 40
0.0
 40
0.0
 40
0.0
 10
147.7918927086675
 20
0.6985903996655319
 30
0.0
 10
152.4859822545998
 20
0.1532197795420971
 30
0.0
 10
161.9390663248339
 20
-0.2935304179877892
 30
0.0
 10
175.8395096981368
 20
0.891291875140633
 30
0.0
 10
186.9137794318357
 20
3.405346388814445
 30
0.0
 10
195.0297849889367
 20
6.30887420991329
 30
0.0
 10
198.7884228802812
 20
8.037616813330178
 30
0.0
 10
200.5653169471912
 20
8.96337899368418
 30
0.0
  0
SPLINE
  5
86
330
1F
100
AcDbEntity
  8
Linee visibili 2D
100
AcDbSpline
210
0.0
220
0.0
230
1.0
 70
    12
 71
     2
 72
     6
 73
     3
 74
     0
 42
0.0000000001
 43
0.0000000001
 40
-197.0903748227032
 40
-197.0903748227032
 40
-197.0903748227032
 40
-161.715179341705
 40
-161.715179341705
 40
-161.715179341705
 10
200.5653169471912
 20
8.96337899368418
 30
0.0
 41
1240.21432017987
 10
208.012602704278
 20
12.84536537846545
 30
0.0
 41
1295.484065220889
 10
212.7715650868952
 20
17.89533142025889
 30
0.0
 41
1392.030805599359
  0
SPLINE
  5
87
330
1F
100
AcDbEntity
  8
Linee visibili 2D
100
AcDbSpline
210
0.0
220
0.0
230
1.0
 70
    12
 71
     2
 72
     6
 73
     3
 74
     0
 42
0.0000000001
 43
0.0000000001
 40
-161.715179341705
 40
-161.715179341705
 40
-161.715179341705
 40
-137.4626371579547
 40
-137.4626371579547
 40
-137.4626371579547
 10
212.7715650868952
 20
17.89533142025889
 30
0.0
 41
1392.030805599359
 10
215.9354374889178
 20
21.2526700386816
 30
0.0
 41
1335.930321976759
 10
217.6939471319575
 20
24.92390582900988
 30
0.0
 41
1298.344452964354
  0
SPLINE
  5
88
330
1F
100
AcDbEntity
  8
Linee visibili 2D
100
AcDbSpline
210
0.0
220
0.0
230
1.0
 70
    12
 71
     2
 72
     6
 73
     3
 74
     0
 42
0.0000000001
 43
0.0000000001
 40
-0.350365522934433
 40
-0.350365522934433
 40
-0.350365522934433
 40
0.0
 40
0.0
 40
0.0
 10
217.6939471319575
 20
24.92390582900988
 30
0.0
 41
0.9999999999997307
 10
217.769629527109
 20
25.08190059040814
 30
0.0
 41
0.9999714092491717
 10
217.8429136676272
 20
25.2410219510363
 30
0.0
 41
1.0
  0
SPLINE
  5
89
330
1F
100
AcDbEntity
  8
Linee visibili 2D
100
AcDbSpline
210
0.0
220
0.0
230
1.0
 70
    12
 71
     2
 72
     6
 73
     3
 74
     0
 42
0.0000000001
 43
0.0000000001
 40
0.0
 40
0.0
 40
0.0
 40
0.5401873754411427
 40
0.5401873754411427
 40
0.5401873754411427
 10
217.8429136676272
 20
25.2410219510363
 30
0.0
 41
1.0
 10
217.9559107233871
 20
25.48635663983732
 30
0.0
 41
0.9999296889855235
 10
218.0630582440308
 20
25.73430189224158
 30
0.0
 41
0.9999999999996376
  0
SPLINE
  5
8A
330
1F
100
AcDbEntity
  8
Linee visibili 2D
100
AcDbSpline
210
0.0
220
0.0
230
1.0
 70
    12
 71
     2
 72
     6
 73
     3
 74
     0
 42
0.0000000001
 43
0.0000000001
 40
-0.3285525070286782
 40
-0.3285525070286782
 40
-0.3285525070286782
 40
0.0
 40
0.0
 40
0.0
 10
218.0630582440308
 20
25.73430189224158
 30
0.0
 41
0.9999999999997715
 10
218.1282218784727
 20
25.88510426131499
 30
0.0
 41
0.9999731395655315
 10
218.191167560781
 20
26.03684581550473
 30
0.0
 41
1.0
  0
SPLINE
  5
8B
330
1F
100
AcDbEntity
  8
Linee visibili 2D
100
AcDbSpline
210
0.0
220
0.0
230
1.0
 70
    12
 71
     2
 72
     6
 73
     3
 74
     0
 42
0.0000000001
 43
0.0000000001
 40
0.0
 40
0.0
 40
0.0
 40
0.5518135795989925
 40
0.5518135795989925
 40
0.5518135795989925
 10
218.191167560781
 20
26.03684581550473
 30
0.0
 41
1.0
 10
218.296896982529
 20
26.29170615131902
 30
0.0
 41
0.9999218044011136
 10
218.3962201994051
 20
26.5491306889385
 30
0.0
 41
0.9999999999996998
  0
SPLINE
  5
8C
330
1F
100
AcDbEntity
  8
Linee visibili 2D
100
AcDbSpline
210
0.0
220
0.0
230
1.0
 70
    12
 71
     2
 72
     6
 73
     3
 74
     0
 42
0.0000000001
 43
0.0000000001
 40
-0.3128141351083825
 40
-0.3128141351083825
 40
-0.3128141351083825
 40
0.0
 40
0.0
 40
0.0
 10
218.3962201994051
 20
26.5491306889385
 30
0.0
 41
0.9999999999998228
 10
218.4525191653229
 20
26.69505684009112
 30
0.0
 41
0.9999741086839569
 10
218.5067113693412
 20
26.84177842999368
 30
0.0
 41
1.0
  0
SPLINE
  5
8D
330
1F
100
AcDbEntity
  8
Linee visibili 2D
100
AcDbSpline
210
0.0
220
0.0
230
1.0
 70
    12
 71
     2
 72
     6
 73
     3
 74
     0
 42
0.0000000001
 43
0.0000000001
 40
0.0
 40
0.0
 40
0.0
 40
0.5583532416471506
 40
0.5583532416471506
 40
0.5583532416471506
 10
218.5067113693412
 20
26.84177842999368
 30
0.0
 41
1.0
 10
218.6034520778976
 20
27.10367469448251
 30
0.0
 41
0.9999150962048322
 10
218.6933360793724
 20
27.36800266467014
 30
0.0
 41
0.9999999999997826
  0
SPLINE
  5
8E
330
1F
100
AcDbEntity
  8
Linee visibili 2D
100
AcDbSpline
210
0.0
220
0.0
230
1.0
 70
    12
 71
     2
 72
     6
 73
     3
 74
     0
 42
0.0000000001
 43
0.0000000001
 40
-0.3026284746954206
 40
-0.3026284746954206
 40
-0.3026284746954206
 40
0.0
 40
0.0
 40
0.0
 10
218.6933360793724
 20
27.36800266467014
 30
0.0
 41
0.9999999999998763
 10
218.7420477112619
 20
27.5112645150945
 30
0.0
 41
0.9999743668629926
 10
218.7887018332805
 20
27.65520956777999
 30
0.0
 41
1.0
  0
SPLINE
  5
8F
330
1F
100
AcDbEntity
  8
Linee visibili 2D
100
AcDbSpline
210
0.0
220
0.0
230
1.0
 70
    12
 71
     2
 72
     6
 73
     3
 74
     0
 42
0.0000000001
 43
0.0000000001
 40
0.0
 40
0.0
 40
0.0
 40
0.5603697624700276
 40
0.5603697624700276
 40
0.5603697624700276
 10
218.7887018332805
 20
27.65520956777999
 30
0.0
 41
1.0
 10
218.8751012313086
 20
27.92175817855767
 30
0.0
 41
0.9999098031128226
 10
218.9543111895175
 20
28.19053093056317
 30
0.0
 41
0.9999999999998661
  0
SPLINE
  5
90
330
1F
100
AcDbEntity
  8
Linee visibili 2D
100
AcDbSpline
210
0.0
220
0.0
230
1.0
 70
    12
 71
     2
 72
     6
 73
     3
 74
     0
 42
0.0000000001
 43
0.0000000001
 40
-0.2975038512382651
 40
-0.2975038512382651
 40
-0.2975038512382651
 40
0.0
 40
0.0
 40
0.0
 10
218.9543111895175
 20
28.19053093056317
 30
0.0
 41
0.999999999999925
 10
218.9963588148571
 20
28.33321905615194
 30
0.0
 41
0.999973946823921
 10
219.0363413131482
 20
28.47649957633216
 30
0.0
 41
1.0
  0
SPLINE
  5
91
330
1F
100
AcDbEntity
  8
Linee visibili 2D
100
AcDbSpline
210
0.0
220
0.0
230
1.0
 70
    12
 71
     2
 72
     6
 73
     3
 74
     0
 42
0.0000000001
 43
0.0000000001
 40
0.0
 40
0.0
 40
0.0
 40
0.5583943846600177
 40
0.5583943846600177
 40
0.5583943846600177
 10
219.0363413131482
 20
28.47649957633216
 30
0.0
 41
1.0
 10
219.1113959394477
 20
28.74543756672053
 30
0.0
 41
0.9999061011299033
 10
219.1790527676773
 20
29.01633128428539
 30
0.0
 41
1.0
  0
SPLINE
  5
92
330
1F
100
AcDbEntity
  8
Linee visibili 2D
100
AcDbSpline
210
0.0
220
0.0
230
1.0
 70
    12
 71
     2
 72
     6
 73
     3
 74
     0
 42
0.0000000001
 43
0.0000000001
 40
-0.2969782605407734
 40
-0.2969782605407734
 40
-0.2969782605407734
 40
0.0
 40
0.0
 40
0.0
 10
219.1790527676773
 20
29.01633128428539
 30
0.0
 41
1.0
 10
219.215030513972
 20
29.16039874012614
 30
0.0
 41
0.9999728675464913
 10
219.2488816825818
 20
29.30498062221746
 30
0.0
 41
1.0
  0
SPLINE
  5
93
330
1F
100
AcDbEntity
  8
Linee visibili 2D
100
AcDbSpline
210
0.0
220
0.0
230
1.0
 70
    12
 71
     2
 72
     6
 73
     3
 74
     0
 42
0.0000000001
 43
0.0000000001
 40
0.0
 40
0.0
 40
0.0
 40
0.5529267263812104
 40
0.5529267263812104
 40
0.5529267263812104
 10
219.2488816825818
 20
29.30498062221746
 30
0.0
 41
1.0
 10
219.3119156711316
 20
29.57418029794515
 30
0.0
 41
0.99990409381414
 10
219.3674697134187
 20
29.84502248887961
 30
0.0
 41
0.9999999999722295
  0
SPLINE
  5
94
330
1F
100
AcDbEntity
  8
Linee visibili 2D
100
AcDbSpline
210
0.0
220
0.0
230
1.0
 70
    12
 71
     2
 72
     6
 73
     3
 74
     0
 42
0.0000000001
 43
0.0000000001
 40
-0.3006180637265221
 40
-0.3006180637265221
 40
-0.3006180637265221
 40
0.0
 40
0.0
 40
0.0
 10
219.3674697134187
 20
29.84502248887961
 30
0.0
 41
0.9999999999846301
 10
219.397669296068
 20
29.99226938236237
 30
0.0
 41
0.999971139940528
 10
219.425628152053
 20
30.1399581327216
 30
0.0
 41
1.0
  0
SPLINE
  5
95
330
1F
100
AcDbEntity
  8
Linee visibili 2D
100
AcDbSpline
210
0.0
220
0.0
230
1.0
 70
    12
 71
     2
 72
     6
 73
     3
 74
     0
 42
0.0000000001
 43
0.0000000001
 40
0.0
 40
0.0
 40
0.0
 40
0.5444340367708292
 40
0.5444340367708292
 40
0.5444340367708292
 10
219.425628152053
 20
30.1399581327216
 30
0.0
 41
1.0
 10
219.4762691574844
 20
30.40744102440878
 30
0.0
 41
0.9999038068233537
 10
219.5194720528565
 20
30.67622553784565
 30
0.0
 41
0.9999999999927167
  0
SPLINE
  5
96
330
1F
100
AcDbEntity
  8
Linee visibili 2D
100
AcDbSpline
210
0.0
220
0.0
230
1.0
 70
    12
 71
     2
 72
     6
 73
     3
 74
     0
 42
0.0000000001
 43
0.0000000001
 40
-0.308016060348111
 40
-0.308016060348111
 40
-0.308016060348111
 40
0.0
 40
0.0
 40
0.0
 10
219.5194720528565
 20
30.67622553784565
 30
0.0
 41
0.9999999999958185
 10
219.5439117217616
 20
30.82828526483272
 30
0.0
 41
0.9999687659774372
 10
219.5659428695999
 20
30.98071258623015
 30
0.0
 41
1.0
  0
SPLINE
  5
97
330
1F
100
AcDbEntity
  8
Linee visibili 2D
100
AcDbSpline
210
0.0
220
0.0
230
1.0
 70
    12
 71
     2
 72
     6
 73
     3
 74
     0
 42
0.0000000001
 43
0.0000000001
 40
0.0
 40
0.0
 40
0.0
 40
0.5317285040598229
 40
0.5317285040598229
 40
0.5317285040598229
 10
219.5659428695999
 20
30.98071258623015
 30
0.0
 41
1.0
 10
219.6039794140885
 20
31.24385875685014
 30
0.0
 41
0.9999057654938849
 10
219.6347810291777
 20
31.50794954350167
 30
0.0
 41
1.0
  0
SPLINE
  5
98
330
1F
100
AcDbEntity
  8
Linee visibili 2D
100
AcDbSpline
210
0.0
220
0.0
230
1.0
 70
    12
 71
     2
 72
     6
 73
     3
 74
     0
 42
0.0000000001
 43
0.0000000001
 40
-0.32041461523145
 40
-0.32041461523145
 40
-0.32041461523145
 40
0.0
 40
0.0
 40
0.0
 10
219.6347810291777
 20
31.50794954350167
 30
0.0
 41
1.0
 10
219.6533409571021
 20
31.6670818606049
 30
0.0
 41
0.9999654140642681
 10
219.6692459164211
 20
31.82650142595354
 30
0.0
 41
1.0
  0
SPLINE
  5
99
330
1F
100
AcDbEntity
  8
Linee visibili 2D
100
AcDbSpline
210
0.0
220
0.0
230
1.0
 70
    12
 71
     2
 72
     6
 73
     3
 74
     0
 42
0.0000000001
 43
0.0000000001
 40
0.0
 40
0.0
 40
0.0
 40
0.5148088647824464
 40
0.5148088647824464
 40
0.5148088647824464
 10
219.6692459164211
 20
31.82650142595354
 30
0.0
 41
1.0
 10
219.6948036996064
 20
32.08264942420017
 30
0.0
 41
0.9999099668898853
 10
219.7134856072612
 20
32.33939052287317
 30
0.0
 41
1.0
  0
SPLINE
  5
9A
330
1F
100
AcDbEntity
  8
Linee visibili 2D
100
AcDbSpline
210
0.0
220
0.0
230
1.0
 70
    12
 71
     2
 72
     6
 73
     3
 74
     0
 42
0.0000000001
 43
0.0000000001
 40
-0.3378614545892457
 40
-0.3378614545892457
 40
-0.3378614545892457
 40
0.0
 40
0.0
 40
0.0
 10
219.7134856072612
 20
32.33939052287317
 30
0.0
 41
1.0
 10
219.7257465178212
 20
32.50788014167978
 30
0.0
 41
0.9999609560945237
 10
219.7350196993681
 20
32.6765605609675
 30
0.0
 41
0.9999999999991844
  0
SPLINE
  5
9B
330
1F
100
AcDbEntity
  8
Linee visibili 2D
100
AcDbSpline
210
0.0
220
0.0
230
1.0
 70
    12
 71
     2
 72
     6
 73
     3
 74
     0
 42
0.0000000001
 43
0.0000000001
 40
0.0
 40
0.0
 40
0.0
 40
0.4940593968740904
 40
0.4940593968740904
 40
0.4940593968740904
 10
219.7350196993681
 20
32.6765605609675
 30
0.0
 41
0.9999999999988018
 10
219.748582416556
 20
32.92323149118041
 30
0.0
 41
0.9999161393927204
 10
219.7559479660327
 20
33.17684701220774
 30
0.0
 41
1.0
  0
SPLINE
  5
9C
330
1F
100
AcDbEntity
  8
Linee visibili 2D
100
AcDbSpline
210
0.0
220
0.0
230
1.0
 70
    24
 71
     2
 72
     6
 73
     3
 74
     0
 42
0.0000000001
 43
0.0000000001
 40
-5.729993733207542
 40
-5.729993733207542
 40
-5.729993733207542
 40
0.0
 40
0.0
 40
0.0
 10
219.7559479660327
 20
33.17684701220774
 30
0.0
 10
219.8372215876717
 20
36.04403168623838
 30
0.0
 10
219.9184952093107
 20
38.91121636026902
 30
0.0
  0
SPLINE
  5
9D
330
1F
100
AcDbEntity
  8
Linee visibili 2D
100
AcDbSpline
210
0.0
220
0.0
230
1.0
 70
    24
 71
     2
 72
     6
 73
     3
 74
     0
 42
0.0000000001
 43
0.0000000001
 40
0.0
 40
0.0
 40
0.0
 40
0.0237183152350724
 40
0.0237183152350724
 40
0.0237183152350724
 10
223.3690513814969
 20
517.7708763999657
 30
0.0
 10
223.3809105388319
 20
517.7708763999657
 30
0.0
 10
223.3927696961668
 20
517.7708763999657
 30
0.0
  0
SPLINE
  5
9E
330
1F
100
AcDbEntity
  8
Linee visibili 2D
100
AcDbSpline
210
0.0
220
0.0
230
1.0
 70
    24
 71
     2
 72
     6
 73
     3
 74
     0
 42
0.0000000001
 43
0.0000000001
 40
-0.0393454694357729
 40
-0.0393454694357729
 40
-0.0393454694357729
 40
0.0
 40
0.0
 40
0.0
 10
223.3927696961668
 20
517.7708763999657
 30
0.0
 10
223.4124424306025
 20
517.7708763999657
 30
0.0
 10
223.4321151650383
 20
517.7708763999657
 30
0.0
  0
SPLINE
  5
9F
330
1F
100
AcDbEntity
  8
Linee visibili 2D
100
AcDbSpline
210
0.0
220
0.0
230
1.0
 70
    24
 71
     2
 72
     6
 73
     3
 74
     0
 42
0.0000000001
 43
0.0000000001
 40
-7.921458711631544
 40
-7.921458711631544
 40
-7.921458711631544
 40
0.0
 40
0.0
 40
0.0
 10
223.4321151650383
 20
517.7708763999657
 30
0.0
 10
223.4321151650383
 20
521.7316057557814
 30
0.0
 10
223.4321151650383
 20
525.6923351115972
 30
0.0
  0
SPLINE
  5
A0
330
1F
100
AcDbEntity
  8
Linee visibili 2D
100
AcDbSpline
210
0.0
220
0.0
230
1.0
 70
    24
 71
     2
 72
     6
 73
     3
 74
     0
 42
0.0000000001
 43
0.0000000001
 40
-63.43211516503843
 40
-63.43211516503843
 40
-63.43211516503843
 40
0.0
 40
0.0
 40
0.0
 10
223.4321151650383
 20
525.6923351115972
 30
0.0
 10
191.7160575825191
 20
525.6923351115972
 30
0.0
 10
159.9999999999999
 20
525.6923351115972
 30
0.0
  0
SPLINE
  5
A1
330
1F
100
AcDbEntity
  8
Linee visibili 2D
100
AcDbSpline
210
0.0
220
0.0
230
1.0
 70
    24
 71
     2
 72
     6
 73
     3
 74
     0
 42
0.0000000001
 43
0.0000000001
 40
0.0
 40
0.0
 40
0.0
 40
63.4321151650385
 40
63.4321151650385
 40
63.4321151650385
 10
159.9999999999999
 20
525.6923351115972
 30
0.0
 10
128.2839424174806
 20
525.6923351115972
 30
0.0
 10
96.56788483496136
 20
525.6923351115972
 30
0.0
  0
SPLINE
  5
A2
330
1F
100
AcDbEntity
  8
Linee visibili 2D
100
AcDbSpline
210
0.0
220
0.0
230
1.0
 70
    24
 71
     2
 72
     6
 73
     3
 74
     0
 42
0.0000000001
 43
0.0000000001
 40
0.0
 40
0.0
 40
0.0
 40
7.921458711631544
 40
7.921458711631544
 40
7.921458711631544
 10
96.56788483496136
 20
525.6923351115972
 30
0.0
 10
96.56788483496136
 20
521.7316057557814
 30
0.0
 10
96.56788483496136
 20
517.7708763999657
 30
0.0
  0
SPLINE
  5
A3
330
1F
100
AcDbEntity
  8
Linee visibili 2D
100
AcDbSpline
210
0.0
220
0.0
230
1.0
 70
    24
 71
     2
 72
     6
 73
     3
 74
     0
 42
0.0000000001
 43
0.0000000001
 40
-0.0368265013637057
 40
-0.0368265013637057
 40
-0.0368265013637057
 40
0.0
 40
0.0
 40
0.0
 10
96.56788483496136
 20
517.7708763999657
 30
0.0
 10
96.58629808563578
 20
517.7708763999658
 30
0.0
 10
96.60471133631017
 20
517.7708763999658
 30
0.0
  0
SPLINE
  5
A4
330
1F
100
AcDbEntity
  8
Linee visibili 2D
100
AcDbSpline
210
0.0
220
0.0
230
1.0
 70
    24
 71
     2
 72
     6
 73
     3
 74
     0
 42
0.0000000001
 43
0.0000000001
 40
0.0
 40
0.0
 40
0.0
 40
0.0262372822083421
 40
0.0262372822083421
 40
0.0262372822083421
 10
96.60471133631017
 20
517.7708763999658
 30
0.0
 10
96.6178299774065
 20
517.7708763999658
 30
0.0
 10
96.63094861850281
 20
517.7708763999657
 30
0.0
  0
SPLINE
  5
A5
330
1F
100
AcDbEntity
  8
Linee visibili 2D
100
AcDbSpline
210
0.0
220
0.0
230
1.0
 70
    24
 71
     2
 72
     6
 73
     3
 74
     0
 42
0.0000000001
 43
0.0000000001
 40
-0.0133907429170961
 40
-0.0133907429170961
 40
-0.0133907429170961
 40
0.0
 40
0.0
 40
0.0
 10
96.63094861850281
 20
517.7708763999657
 30
0.0
 10
96.63764398978401
 20
517.7708763999657
 30
0.0
 10
96.6443393610652
 20
517.7708763999657
 30
0.0
  0
SPLINE
  5
A6
330
1F
100
AcDbEntity
  8
Linee visibili 2D
100
AcDbSpline
210
0.0
220
0.0
230
1.0
 70
    24
 71
     2
 72
     6
 73
     3
 74
     0
 42
0.0000000001
 43
0.0000000001
 40
0.0
 40
0.0
 40
0.0
 40
0.0666684389608747
 40
0.0666684389608747
 40
0.0666684389608747
 10
96.6443393610652
 20
517.7708763999657
 30
0.0
 10
96.67767358036836
 20
517.7708763999657
 30
0.0
 10
96.71100779967152
 20
517.7708763999657
 30
0.0
  0
SPLINE
  5
A7
330
1F
100
AcDbEntity
  8
Linee visibili 2D
100
AcDbSpline
210
0.0
220
0.0
230
1.0
 70
    24
 71
     2
 72
     6
 73
     3
 74
     0
 42
0.0000000001
 43
0.0000000001
 40
-0.0288579765434065
 40
-0.0288579765434065
 40
-0.0288579765434065
 40
0.0
 40
0.0
 40
0.0
 10
96.71100779967152
 20
517.7708763999657
 30
0.0
 10
96.72543678793198
 20
517.7708763999657
 30
0.0
 10
96.73986577619245
 20
517.7708763999657
 30
0.0
  0
SPLINE
  5
A8
330
1F
100
AcDbEntity
  8
Linee visibili 2D
100
AcDbSpline
210
0.0
220
0.0
230
1.0
 70
    24
 71
     2
 72
     6
 73
     3
 74
     0
 42
0.0000000001
 43
0.0000000001
 40
0.0
 40
0.0
 40
0.0
 40
0.0846077615116911
 40
0.0846077615116911
 40
0.0846077615116911
 10
96.73986577619245
 20
517.7708763999657
 30
0.0
 10
96.78216965693724
 20
517.7708763999657
 30
0.0
 10
96.82447353768205
 20
517.7708763999657
 30
0.0
  0
SPLINE
  5
A9
330
1F
100
AcDbEntity
  8
Linee visibili 2D
100
AcDbSpline
210
0.0
220
0.0
230
1.0
 70
    24
 71
     2
 72
     6
 73
     3
 74
     0
 42
0.0000000001
 43
0.0000000001
 40
-0.0490749207919521
 40
-0.0490749207919521
 40
-0.0490749207919521
 40
0.0
 40
0.0
 40
0.0
 10
96.82447353768205
 20
517.7708763999657
 30
0.0
 10
96.84901099123279
 20
517.7708763999657
 30
0.0
 10
96.87354844478352
 20
517.7708763999657
 30
0.0
  0
SPLINE
  5
AA
330
1F
100
AcDbEntity
  8
Linee visibili 2D
100
AcDbSpline
210
0.0
220
0.0
230
1.0
 70
    24
 71
     2
 72
     6
 73
     3
 74
     0
 42
0.0000000001
 43
0.0000000001
 40
0.0
 40
0.0
 40
0.0
 40
0.098548707153185
 40
0.098548707153185
 40
0.098548707153185
 10
96.87354844478352
 20
517.7708763999657
 30
0.0
 10
96.92282279151496
 20
517.7708763999657
 30
0.0
 10
96.9720971382464
 20
517.7708763999657
 30
0.0
  0
SPLINE
  5
AB
330
1F
100
AcDbEntity
  8
Linee visibili 2D
100
AcDbSpline
210
0.0
220
0.0
230
1.0
 70
    24
 71
     2
 72
     6
 73
     3
 74
     0
 42
0.0000000001
 43
0.0000000001
 40
-0.0731667707175632
 40
-0.0731667707175632
 40
-0.0731667707175632
 40
0.0
 40
0.0
 40
0.0
 10
96.9720971382464
 20
517.7708763999657
 30
0.0
 10
97.00868052689283
 20
517.7708763999657
 30
0.0
 10
97.04526391553927
 20
517.7708763999657
 30
0.0
  0
SPLINE
  5
AC
330
1F
100
AcDbEntity
  8
Linee visibili 2D
100
AcDbSpline
210
0.0
220
0.0
230
1.0
 70
    24
 71
     2
 72
     6
 73
     3
 74
     0
 42
0.0000000001
 43
0.0000000001
 40
0.0
 40
0.0
 40
0.0
 40
0.1093296227376044
 40
0.1093296227376044
 40
0.1093296227376044
 10
97.04526391553927
 20
517.7708763999657
 30
0.0
 10
97.09992873019576
 20
517.7708763999657
 30
0.0
 10
97.15459354485225
 20
517.7708763999657
 30
0.0
  0
SPLINE
  5
AD
330
1F
100
AcDbEntity
  8
Linee visibili 2D
100
AcDbSpline
210
0.0
220
0.0
230
1.0
 70
    24
 71
     2
 72
     6
 73
     3
 74
     0
 42
0.0000000001
 43
0.0000000001
 40
-0.1003116640111301
 40
-0.1003116640111301
 40
-0.1003116640111301
 40
0.0
 40
0.0
 40
0.0
 10
97.15459354485225
 20
517.7708763999657
 30
0.0
 10
97.20474937803158
 20
517.7708763999657
 30
0.0
 10
97.25490521121091
 20
517.7708763999657
 30
0.0
  0
SPLINE
  5
AE
330
1F
100
AcDbEntity
  8
Linee visibili 2D
100
AcDbSpline
210
0.0
220
0.0
230
1.0
 70
    24
 71
     2
 72
     6
 73
     3
 74
     0
 42
0.0000000001
 43
0.0000000001
 40
0.0
 40
0.0
 40
0.0
 40
0.1177324398800579
 40
0.1177324398800579
 40
0.1177324398800579
 10
97.25490521121091
 20
517.7708763999657
 30
0.0
 10
97.31377143217074
 20
517.7708763999657
 30
0.0
 10
97.37263765313058
 20
517.7708763999657
 30
0.0
  0
SPLINE
  5
AF
330
1F
100
AcDbEntity
  8
Linee visibili 2D
100
AcDbSpline
210
0.0
220
0.0
230
1.0
 70
    24
 71
     2
 72
     6
 73
     3
 74
     0
 42
0.0000000001
 43
0.0000000001
 40
-0.1297605417463785
 40
-0.1297605417463785
 40
-0.1297605417463785
 40
0.0
 40
0.0
 40
0.0
 10
97.37263765313058
 20
517.7708763999657
 30
0.0
 10
97.43751792430571
 20
517.7708763999657
 30
0.0
 10
97.50239819548084
 20
517.7708763999657
 30
0.0
  0
SPLINE
  5
B0
330
1F
100
AcDbEntity
  8
Linee visibili 2D
100
AcDbSpline
210
0.0
220
0.0
230
1.0
 70
    24
 71
     2
 72
     6
 73
     3
 74
     0
 42
0.0000000001
 43
0.0000000001
 40
0.0
 40
0.0
 40
0.0
 40
0.1244624318064211
 40
0.1244624318064211
 40
0.1244624318064211
 10
97.50239819548084
 20
517.7708763999657
 30
0.0
 10
97.56462941235023
 20
517.7708763999657
 30
0.0
 10
97.62686062921962
 20
517.7708763999657
 30
0.0
  0
SPLINE
  5
B1
330
1F
100
AcDbEntity
  8
Linee visibili 2D
100
AcDbSpline
210
0.0
220
0.0
230
1.0
 70
    24
 71
     2
 72
     6
 73
     3
 74
     0
 42
0.0000000001
 43
0.0000000001
 40
-0.1607231992094285
 40
-0.1607231992094285
 40
-0.1607231992094285
 40
0.0
 40
0.0
 40
0.0
 10
97.62686062921962
 20
517.7708763999657
 30
0.0
 10
97.70722222952651
 20
517.7708763999657
 30
0.0
 10
97.78758382983338
 20
517.7708763999657
 30
0.0
  0
SPLINE
  5
B2
330
1F
100
AcDbEntity
  8
Linee visibili 2D
100
AcDbSpline
210
0.0
220
0.0
230
1.0
 70
    24
 71
     2
 72
     6
 73
     3
 74
     0
 42
0.0000000001
 43
0.0000000001
 40
0.0
 40
0.0
 40
0.0
 40
0.1302624121773306
 40
0.1302624121773306
 40
0.1302624121773306
 10
97.78758382983338
 20
517.7708763999657
 30
0.0
 10
97.85271503641222
 20
517.7708763999656
 30
0.0
 10
97.91784624299106
 20
517.7708763999656
 30
0.0
  0
SPLINE
  5
B3
330
1F
100
AcDbEntity
  8
Linee visibili 2D
100
AcDbSpline
210
0.0
220
0.0
230
1.0
 70
    24
 71
     2
 72
     6
 73
     3
 74
     0
 42
0.0000000001
 43
0.0000000001
 40
-0.1923649446612643
 40
-0.1923649446612643
 40
-0.1923649446612643
 40
0.0
 40
0.0
 40
0.0
 10
97.91784624299106
 20
517.7708763999656
 30
0.0
 10
98.01402871570775
 20
517.7708763999656
 30
0.0
 10
98.11021118842444
 20
517.7708763999657
 30
0.0
  0
SPLINE
  5
B4
330
1F
100
AcDbEntity
  8
Linee visibili 2D
100
AcDbSpline
210
0.0
220
0.0
230
1.0
 70
    24
 71
     2
 72
     6
 73
     3
 74
     0
 42
0.0000000001
 43
0.0000000001
 40
0.0
 40
0.0
 40
0.0
 40
0.1359160807738249
 40
0.1359160807738249
 40
0.1359160807738249
 10
98.11021118842444
 20
517.7708763999657
 30
0.0
 10
98.17816922910295
 20
517.7708763999657
 30
0.0
 10
98.24612726978145
 20
517.7708763999657
 30
0.0
  0
SPLINE
  5
B5
330
1F
100
AcDbEntity
  8
Linee visibili 2D
100
AcDbSpline
210
0.0
220
0.0
230
1.0
 70
    24
 71
     2
 72
     6
 73
     3
 74
     0
 42
0.0000000001
 43
0.0000000001
 40
-0.2240305186560221
 40
-0.2240305186560221
 40
-0.2240305186560221
 40
0.0
 40
0.0
 40
0.0
 10
98.24612726978145
 20
517.7708763999657
 30
0.0
 10
98.35814252935705
 20
517.7708763999658
 30
0.0
 10
98.47015778893265
 20
517.7708763999658
 30
0.0
  0
SPLINE
  5
B6
330
1F
100
AcDbEntity
  8
Linee visibili 2D
100
AcDbSpline
210
0.0
220
0.0
230
1.0
 70
    24
 71
     2
 72
     6
 73
     3
 74
     0
 42
0.0000000001
 43
0.0000000001
 40
0.0
 40
0.0
 40
0.0
 40
0.1420241611228761
 40
0.1420241611228761
 40
0.1420241611228761
 10
98.47015778893265
 20
517.7708763999658
 30
0.0
 10
98.54116986965661
 20
517.7708763999658
 30
0.0
 10
98.61218195038057
 20
517.7708763999657
 30
0.0
  0
SPLINE
  5
B7
330
1F
100
AcDbEntity
  8
Linee visibili 2D
100
AcDbSpline
210
0.0
220
0.0
230
1.0
 70
    24
 71
     2
 72
     6
 73
     3
 74
     0
 42
0.0000000001
 43
0.0000000001
 40
-0.2550496067503616
 40
-0.2550496067503616
 40
-0.2550496067503616
 40
0.0
 40
0.0
 40
0.0
 10
98.61218195038057
 20
517.7708763999657
 30
0.0
 10
98.7397067538983
 20
517.7708763999658
 30
0.0
 10
98.86723155741603
 20
517.7708763999658
 30
0.0
  0
SPLINE
  5
B8
330
1F
100
AcDbEntity
  8
Linee visibili 2D
100
AcDbSpline
210
0.0
220
0.0
230
1.0
 70
    24
 71
     2
 72
     6
 73
     3
 74
     0
 42
0.0000000001
 43
0.0000000001
 40
0.0
 40
0.0
 40
0.0
 40
0.1491990072684217
 40
0.1491990072684217
 40
0.1491990072684217
 10
98.86723155741603
 20
517.7708763999658
 30
0.0
 10
98.94183106115872
 20
517.7708763999658
 30
0.0
 10
99.01643056490141
 20
517.7708763999657
 30
0.0
  0
SPLINE
  5
B9
330
1F
100
AcDbEntity
  8
Linee visibili 2D
100
AcDbSpline
210
0.0
220
0.0
230
1.0
 70
    24
 71
     2
 72
     6
 73
     3
 74
     0
 42
0.0000000001
 43
0.0000000001
 40
-0.2847451859574761
 40
-0.2847451859574761
 40
-0.2847451859574761
 40
0.0
 40
0.0
 40
0.0
 10
99.01643056490141
 20
517.7708763999657
 30
0.0
 10
99.15880315797901
 20
517.7708763999657
 30
0.0
 10
99.3011757510566
 20
517.7708763999657
 30
0.0
  0
SPLINE
  5
BA
330
1F
100
AcDbEntity
  8
Linee visibili 2D
100
AcDbSpline
210
0.0
220
0.0
230
1.0
 70
    24
 71
     2
 72
     6
 73
     3
 74
     0
 42
0.0000000001
 43
0.0000000001
 40
0.0
 40
0.0
 40
0.0
 40
0.1580563841919513
 40
0.1580563841919513
 40
0.1580563841919513
 10
99.3011757510566
 20
517.7708763999657
 30
0.0
 10
99.3802039432194
 20
517.7708763999657
 30
0.0
 10
99.4592321353822
 20
517.7708763999657
 30
0.0
  0
SPLINE
  5
BB
330
1F
100
AcDbEntity
  8
Linee visibili 2D
100
AcDbSpline
210
0.0
220
0.0
230
1.0
 70
    24
 71
     2
 72
     6
 73
     3
 74
     0
 42
0.0000000001
 43
0.0000000001
 40
-0.3124148644661489
 40
-0.3124148644661489
 40
-0.3124148644661489
 40
0.0
 40
0.0
 40
0.0
 10
99.4592321353822
 20
517.7708763999657
 30
0.0
 10
99.61543956767721
 20
517.7708763999657
 30
0.0
 10
99.77164699997223
 20
517.7708763999657
 30
0.0
  0
SPLINE
  5
BC
330
1F
100
AcDbEntity
  8
Linee visibili 2D
100
AcDbSpline
210
0.0
220
0.0
230
1.0
 70
    24
 71
     2
 72
     6
 73
     3
 74
     0
 42
0.0000000001
 43
0.0000000001
 40
0.0
 40
0.0
 40
0.0
 40
0.1692342891347351
 40
0.1692342891347351
 40
0.1692342891347351
 10
99.77164699997223
 20
517.7708763999657
 30
0.0
 10
99.85626414458389
 20
517.7708763999657
 30
0.0
 10
99.94088128919554
 20
517.7708763999657
 30
0.0
  0
SPLINE
  5
BD
330
1F
100
AcDbEntity
  8
Linee visibili 2D
100
AcDbSpline
210
0.0
220
0.0
230
1.0
 70
    24
 71
     2
 72
     6
 73
     3
 74
     0
 42
0.0000000001
 43
0.0000000001
 40
-0.3375082945510002
 40
-0.3375082945510002
 40
-0.3375082945510002
 40
0.0
 40
0.0
 40
0.0
 10
99.94088128919554
 20
517.7708763999657
 30
0.0
 10
100.1096354365126
 20
517.7708763999658
 30
0.0
 10
100.2783895838297
 20
517.7708763999658
 30
0.0
  0
SPLINE
  5
BE
330
1F
100
AcDbEntity
  8
Linee visibili 2D
100
AcDbSpline
210
0.0
220
0.0
230
1.0
 70
    24
 71
     2
 72
     6
 73
     3
 74
     0
 42
0.0000000001
 43
0.0000000001
 40
0.0
 40
0.0
 40
0.0
 40
0.1832157265180712
 40
0.1832157265180712
 40
0.1832157265180712
 10
100.2783895838297
 20
517.7708763999658
 30
0.0
 10
100.3699974471174
 20
517.7708763999658
 30
0.0
 10
100.4616053104051
 20
517.7708763999657
 30
0.0
  0
SPLINE
  5
BF
330
1F
100
AcDbEntity
  8
Linee visibili 2D
100
AcDbSpline
210
0.0
220
0.0
230
1.0
 70
    24
 71
     2
 72
     6
 73
     3
 74
     0
 42
0.0000000001
 43
0.0000000001
 40
-0.3595925539589047
 40
-0.3595925539589047
 40
-0.3595925539589047
 40
0.0
 40
0.0
 40
0.0
 10
100.4616053104051
 20
517.7708763999657
 30
0.0
 10
100.6414015874117
 20
517.7708763999657
 30
0.0
 10
100.8211978644182
 20
517.7708763999657
 30
0.0
  0
SPLINE
  5
C0
330
1F
100
AcDbEntity
  8
Linee visibili 2D
100
AcDbSpline
210
0.0
220
0.0
230
1.0
 70
    24
 71
     2
 72
     6
 73
     3
 74
     0
 42
0.0000000001
 43
0.0000000001
 40
0.0
 40
0.0
 40
0.0
 40
0.2003635434739124
 40
0.2003635434739124
 40
0.2003635434739124
 10
100.8211978644182
 20
517.7708763999657
 30
0.0
 10
100.9213796361774
 20
517.7708763999657
 30
0.0
 10
101.0215614079366
 20
517.7708763999657
 30
0.0
  0
SPLINE
  5
C1
330
1F
100
AcDbEntity
  8
Linee visibili 2D
100
AcDbSpline
210
0.0
220
0.0
230
1.0
 70
    24
 71
     2
 72
     6
 73
     3
 74
     0
 42
0.0000000001
 43
0.0000000001
 40
-0.3781335914598571
 40
-0.3781335914598571
 40
-0.3781335914598571
 40
0.0
 40
0.0
 40
0.0
 10
101.0215614079366
 20
517.7708763999657
 30
0.0
 10
101.210628203688
 20
517.7708763999657
 30
0.0
 10
101.3996949994394
 20
517.7708763999657
 30
0.0
  0
SPLINE
  5
C2
330
1F
100
AcDbEntity
  8
Linee visibili 2D
100
AcDbSpline
210
0.0
220
0.0
230
1.0
 70
    24
 71
     2
 72
     6
 73
     3
 74
     0
 42
0.0000000001
 43
0.0000000001
 40
0.0
 40
0.0
 40
0.0
 40
0.2211392283181368
 40
0.2211392283181368
 40
0.2211392283181368
 10
101.3996949994394
 20
517.7708763999657
 30
0.0
 10
101.5102646136127
 20
517.7708763999657
 30
0.0
 10
101.620834227786
 20
517.7708763999657
 30
0.0
  0
SPLINE
  5
C3
330
1F
100
AcDbEntity
  8
Linee visibili 2D
100
AcDbSpline
210
0.0
220
0.0
230
1.0
 70
    24
 71
     2
 72
     6
 73
     3
 74
     0
 42
0.0000000001
 43
0.0000000001
 40
-0.392253633570661
 40
-0.392253633570661
 40
-0.392253633570661
 40
0.0
 40
0.0
 40
0.0
 10
101.620834227786
 20
517.7708763999657
 30
0.0
 10
101.816961044585
 20
517.7708763999657
 30
0.0
 10
102.013087861384
 20
517.7708763999657
 30
0.0
  0
SPLINE
  5
C4
330
1F
100
AcDbEntity
  8
Linee visibili 2D
100
AcDbSpline
210
0.0
220
0.0
230
1.0
 70
    24
 71
     2
 72
     6
 73
     3
 74
     0
 42
0.0000000001
 43
0.0000000001
 40
0.0
 40
0.0
 40
0.0
 40
0.5803751060655884
 40
0.5803751060655884
 40
0.5803751060655884
 10
102.013087861384
 20
517.7708763999657
 30
0.0
 10
102.3032754144205
 20
517.7708763999657
 30
0.0
 10
102.5934629674569
 20
517.7708763999657
 30
0.0
  0
SPLINE
  5
C5
330
1F
100
AcDbEntity
  8
Linee visibili 2D
100
AcDbSpline
210
0.0
220
0.0
230
1.0
 70
    24
 71
     2
 72
     6
 73
     3
 74
     0
 42
0.0000000001
 43
0.0000000001
 40
-0.0679438812304198
 40
-0.0679438812304198
 40
-0.0679438812304198
 40
0.0
 40
0.0
 40
0.0
 10
102.5934629674569
 20
517.7708763999657
 30
0.0
 10
102.6274349334825
 20
517.7708763999657
 30
0.0
 10
102.6614068995081
 20
517.7708763999657
 30
0.0
  0
SPLINE
  5
C6
330
1F
100
AcDbEntity
  8
Linee visibili 2D
100
AcDbSpline
210
0.0
220
0.0
230
1.0
 70
    24
 71
     2
 72
     6
 73
     3
 74
     0
 42
0.0000000001
 43
0.0000000001
 40
0.0
 40
0.0
 40
0.0
 40
0.629495577957286
 40
0.629495577957286
 40
0.629495577957286
 10
102.6614068995081
 20
517.7708763999657
 30
0.0
 10
102.97615471426
 20
517.7708763999657
 30
0.0
 10
103.290902529012
 20
517.7708763999657
 30
0.0
  0
SPLINE
  5
C7
330
1F
100
AcDbEntity
  8
Linee visibili 2D
100
AcDbSpline
210
0.0
220
0.0
230
1.0
 70
    24
 71
     2
 72
     6
 73
     3
 74
     0
 42
0.0000000001
 43
0.0000000001
 40
-0.0530039801762712
 40
-0.0530039801762712
 40
-0.0530039801762712
 40
0.0
 40
0.0
 40
0.0
 10
103.290902529012
 20
517.7708763999657
 30
0.0
 10
103.3174045611809
 20
517.7708763999657
 30
0.0
 10
103.3439065933499
 20
517.7708763999657
 30
0.0
  0
SPLINE
  5
C8
330
1F
100
AcDbEntity
  8
Linee visibili 2D
100
AcDbSpline
210
0.0
220
0.0
230
1.0
 70
    24
 71
     2
 72
     6
 73
     3
 74
     0
 42
0.0000000001
 43
0.0000000001
 40
0.0
 40
0.0
 40
0.0
 40
0.6834476923326349
 40
0.6834476923326349
 40
0.6834476923326349
 10
103.3439065933499
 20
517.7708763999657
 30
0.0
 10
103.6856304807659
 20
517.7708763999657
 30
0.0
 10
104.0273543681819
 20
517.7708763999657
 30
0.0
  0
SPLINE
  5
C9
330
1F
100
AcDbEntity
  8
Linee visibili 2D
100
AcDbSpline
210
0.0
220
0.0
230
1.0
 70
    24
 71
     2
 72
     6
 73
     3
 74
     0
 42
0.0000000001
 43
0.0000000001
 40
-0.0331478249963624
 40
-0.0331478249963624
 40
-0.0331478249963624
 40
0.0
 40
0.0
 40
0.0
 10
104.0273543681819
 20
517.7708763999657
 30
0.0
 10
104.0439282518182
 20
517.7708763999657
 30
0.0
 10
104.0605021354545
 20
517.7708763999657
 30
0.0
  0
SPLINE
  5
CA
330
1F
100
AcDbEntity
  8
Linee visibili 2D
100
AcDbSpline
210
0.0
220
0.0
230
1.0
 70
    24
 71
     2
 72
     6
 73
     3
 74
     0
 42
0.0000000001
 43
0.0000000001
 40
0.0
 40
0.0
 40
0.0
 40
0.3496282035731753
 40
0.3496282035731753
 40
0.3496282035731753
 10
104.0605021354545
 20
517.7708763999657
 30
0.0
 10
104.2353162088474
 20
517.7708763999657
 30
0.0
 10
104.4101302822402
 20
517.7708763999657
 30
0.0
  0
SPLINE
  5
CB
330
1F
100
AcDbEntity
  8
Linee visibili 2D
100
AcDbSpline
210
0.0
220
0.0
230
1.0
 70
    24
 71
     2
 72
     6
 73
     3
 74
     0
 42
0.0000000001
 43
0.0000000001
 40
-0.3924233706691496
 40
-0.3924233706691496
 40
-0.3924233706691496
 40
0.0
 40
0.0
 40
0.0
 10
104.4101302822402
 20
517.7708763999657
 30
0.0
 10
104.6063419676082
 20
517.7708763999657
 30
0.0
 10
104.8025536529761
 20
517.7708763999657
 30
0.0
  0
SPLINE
  5
CC
330
1F
100
AcDbEntity
  8
Linee visibili 2D
100
AcDbSpline
210
0.0
220
0.0
230
1.0
 70
    24
 71
     2
 72
     6
 73
     3
 74
     0
 42
0.0000000001
 43
0.0000000001
 40
0.0
 40
0.0
 40
0.0
 40
0.4020250983583793
 40
0.4020250983583793
 40
0.4020250983583793
 10
104.8025536529761
 20
517.7708763999657
 30
0.0
 10
105.0035662021887
 20
517.7708763999657
 30
0.0
 10
105.2045787514013
 20
517.7708763999657
 30
0.0
  0
SPLINE
  5
CD
330
1F
100
AcDbEntity
  8
Linee visibili 2D
100
AcDbSpline
210
0.0
220
0.0
230
1.0
 70
    24
 71
     2
 72
     6
 73
     3
 74
     0
 42
0.0000000001
 43
0.0000000001
 40
-0.3898640183984554
 40
-0.3898640183984554
 40
-0.3898640183984554
 40
0.0
 40
0.0
 40
0.0
 10
105.2045787514013
 20
517.7708763999657
 30
0.0
 10
105.3995108072315
 20
517.7708763999656
 30
0.0
 10
105.5944428630618
 20
517.7708763999656
 30
0.0
  0
SPLINE
  5
CE
330
1F
100
AcDbEntity
  8
Linee visibili 2D
100
AcDbSpline
210
0.0
220
0.0
230
1.0
 70
    24
 71
     2
 72
     6
 73
     3
 74
     0
 42
0.0000000001
 43
0.0000000001
 40
0.0
 40
0.0
 40
0.0
 40
0.4427828955973467
 40
0.4427828955973467
 40
0.4427828955973467
 10
105.5944428630618
 20
517.7708763999656
 30
0.0
 10
105.8158343574922
 20
517.7708763999656
 30
0.0
 10
106.0372258519226
 20
517.7708763999657
 30
0.0
  0
SPLINE
  5
CF
330
1F
100
AcDbEntity
  8
Linee visibili 2D
100
AcDbSpline
210
0.0
220
0.0
230
1.0
 70
    24
 71
     2
 72
     6
 73
     3
 74
     0
 42
0.0000000001
 43
0.0000000001
 40
-0.3739609630638796
 40
-0.3739609630638796
 40
-0.3739609630638796
 40
0.0
 40
0.0
 40
0.0
 10
106.0372258519226
 20
517.7708763999657
 30
0.0
 10
106.224206332873
 20
517.7708763999657
 30
0.0
 10
106.4111868138234
 20
517.7708763999657
 30
0.0
  0
SPLINE
  5
D0
330
1F
100
AcDbEntity
  8
Linee visibili 2D
100
AcDbSpline
210
0.0
220
0.0
230
1.0
 70
    24
 71
     2
 72
     6
 73
     3
 74
     0
 42
0.0000000001
 43
0.0000000001
 40
0.0
 40
0.0
 40
0.0
 40
0.4964175270992826
 40
0.4964175270992826
 40
0.4964175270992826
 10
106.4111868138234
 20
517.7708763999657
 30
0.0
 10
106.6593955767911
 20
517.7708763999658
 30
0.0
 10
106.9076043397588
 20
517.7708763999658
 30
0.0
  0
SPLINE
  5
D1
330
1F
100
AcDbEntity
  8
Linee visibili 2D
100
AcDbSpline
210
0.0
220
0.0
230
1.0
 70
    24
 71
     2
 72
     6
 73
     3
 74
     0
 42
0.0000000001
 43
0.0000000001
 40
-0.3529916359181442
 40
-0.3529916359181442
 40
-0.3529916359181442
 40
0.0
 40
0.0
 40
0.0
 10
106.9076043397588
 20
517.7708763999658
 30
0.0
 10
107.0841001556986
 20
517.7708763999658
 30
0.0
 10
107.2605959716385
 20
517.7708763999657
 30
0.0
  0
SPLINE
  5
D2
330
1F
100
AcDbEntity
  8
Linee visibili 2D
100
AcDbSpline
210
0.0
220
0.0
230
1.0
 70
    24
 71
     2
 72
     6
 73
     3
 74
     0
 42
0.0000000001
 43
0.0000000001
 40
0.0
 40
0.0
 40
0.0
 40
0.5545701667723932
 40
0.5545701667723932
 40
0.5545701667723932
 10
107.2605959716385
 20
517.7708763999657
 30
0.0
 10
107.5378810530052
 20
517.7708763999657
 30
0.0
 10
107.8151661343719
 20
517.7708763999657
 30
0.0
  0
SPLINE
  5
D3
330
1F
100
AcDbEntity
  8
Linee visibili 2D
100
AcDbSpline
210
0.0
220
0.0
230
1.0
 70
    24
 71
     2
 72
     6
 73
     3
 74
     0
 42
0.0000000001
 43
0.0000000001
 40
-0.3264143686321859
 40
-0.3264143686321859
 40
-0.3264143686321859
 40
0.0
 40
0.0
 40
0.0
 10
107.8151661343719
 20
517.7708763999657
 30
0.0
 10
107.9783733142526
 20
517.7708763999658
 30
0.0
 10
108.1415804941333
 20
517.7708763999658
 30
0.0
  0
SPLINE
  5
D4
330
1F
100
AcDbEntity
  8
Linee visibili 2D
100
AcDbSpline
210
0.0
220
0.0
230
1.0
 70
    24
 71
     2
 72
     6
 73
     3
 74
     0
 42
0.0000000001
 43
0.0000000001
 40
0.0
 40
0.0
 40
0.0
 40
0.6177025147228932
 40
0.6177025147228932
 40
0.6177025147228932
 10
108.1415804941333
 20
517.7708763999658
 30
0.0
 10
108.4504317470592
 20
517.7708763999658
 30
0.0
 10
108.7592829999852
 20
517.7708763999657
 30
0.0
  0
SPLINE
  5
D5
330
1F
100
AcDbEntity
  8
Linee visibili 2D
100
AcDbSpline
210
0.0
220
0.0
230
1.0
 70
    24
 71
     2
 72
     6
 73
     3
 74
     0
 42
0.0000000001
 43
0.0000000001
 40
-0.2941084559136016
 40
-0.2941084559136016
 40
-0.2941084559136016
 40
0.0
 40
0.0
 40
0.0
 10
108.7592829999852
 20
517.7708763999657
 30
0.0
 10
108.9063372203944
 20
517.7708763999657
 30
0.0
 10
109.0533914408037
 20
517.7708763999657
 30
0.0
  0
SPLINE
  5
D6
330
1F
100
AcDbEntity
  8
Linee visibili 2D
100
AcDbSpline
210
0.0
220
0.0
230
1.0
 70
    24
 71
     2
 72
     6
 73
     3
 74
     0
 42
0.0000000001
 43
0.0000000001
 40
0.0
 40
0.0
 40
0.0
 40
0.6858562132757271
 40
0.6858562132757271
 40
0.6858562132757271
 10
109.0533914408037
 20
517.7708763999657
 30
0.0
 10
109.396319539894
 20
517.7708763999657
 30
0.0
 10
109.7392476389842
 20
517.7708763999657
 30
0.0
  0
SPLINE
  5
D7
330
1F
100
AcDbEntity
  8
Linee visibili 2D
100
AcDbSpline
210
0.0
220
0.0
230
1.0
 70
    24
 71
     2
 72
     6
 73
     3
 74
     0
 42
0.0000000001
 43
0.0000000001
 40
-0.2563363736834106
 40
-0.2563363736834106
 40
-0.2563363736834106
 40
0.0
 40
0.0
 40
0.0
 10
109.7392476389842
 20
517.7708763999657
 30
0.0
 10
109.8674158151051
 20
517.7708763999658
 30
0.0
 10
109.9955839912259
 20
517.7708763999658
 30
0.0
  0
SPLINE
  5
D8
330
1F
100
AcDbEntity
  8
Linee visibili 2D
100
AcDbSpline
210
0.0
220
0.0
230
1.0
 70
    24
 71
     2
 72
     6
 73
     3
 74
     0
 42
0.0000000001
 43
0.0000000001
 40
0.0
 40
0.0
 40
0.0
 40
0.7586912272236361
 40
0.7586912272236361
 40
0.7586912272236361
 10
109.9955839912259
 20
517.7708763999658
 30
0.0
 10
110.3749295941168
 20
517.7708763999658
 30
0.0
 10
110.7542751970077
 20
517.7708763999658
 30
0.0
  0
SPLINE
  5
D9
330
1F
100
AcDbEntity
  8
Linee visibili 2D
100
AcDbSpline
210
0.0
220
0.0
230
1.0
 70
    24
 71
     2
 72
     6
 73
     3
 74
     0
 42
0.0000000001
 43
0.0000000001
 40
-0.2134381546090509
 40
-0.2134381546090509
 40
-0.2134381546090509
 40
0.0
 40
0.0
 40
0.0
 10
110.7542751970077
 20
517.7708763999658
 30
0.0
 10
110.8609942612098
 20
517.7708763999658
 30
0.0
 10
110.9677133254119
 20
517.7708763999657
 30
0.0
  0
SPLINE
  5
DA
330
1F
100
AcDbEntity
  8
Linee visibili 2D
100
AcDbSpline
210
0.0
220
0.0
230
1.0
 70
    24
 71
     2
 72
     6
 73
     3
 74
     0
 42
0.0000000001
 43
0.0000000001
 40
0.0
 40
0.0
 40
0.0
 40
0.8357918762176126
 40
0.8357918762176126
 40
0.8357918762176126
 10
110.9677133254119
 20
517.7708763999657
 30
0.0
 10
111.3856092443161
 20
517.7708763999657
 30
0.0
 10
111.8035051632203
 20
517.7708763999657
 30
0.0
  0
SPLINE
  5
DB
330
1F
100
AcDbEntity
  8
Linee visibili 2D
100
AcDbSpline
210
0.0
220
0.0
230
1.0
 70
    24
 71
     2
 72
     6
 73
     3
 74
     0
 42
0.0000000001
 43
0.0000000001
 40
-0.1658295000364802
 40
-0.1658295000364802
 40
-0.1658295000364802
 40
0.0
 40
0.0
 40
0.0
 10
111.8035051632203
 20
517.7708763999657
 30
0.0
 10
111.8864198933379
 20
517.7708763999658
 30
0.0
 10
111.9693346234556
 20
517.7708763999658
 30
0.0
  0
SPLINE
  5
DC
330
1F
100
AcDbEntity
  8
Linee visibili 2D
100
AcDbSpline
210
0.0
220
0.0
230
1.0
 70
    24
 71
     2
 72
     6
 73
     3
 74
     0
 42
0.0000000001
 43
0.0000000001
 40
0.0
 40
0.0
 40
0.0
 40
0.9166691471409649
 40
0.9166691471409649
 40
0.9166691471409649
 10
111.9693346234556
 20
517.7708763999658
 30
0.0
 10
112.4276691814834
 20
517.7708763999658
 30
0.0
 10
112.8860037395113
 20
517.7708763999657
 30
0.0
  0
SPLINE
  5
DD
330
1F
100
AcDbEntity
  8
Linee visibili 2D
100
AcDbSpline
210
0.0
220
0.0
230
1.0
 70
    24
 71
     2
 72
     6
 73
     3
 74
     0
 42
0.0000000001
 43
0.0000000001
 40
-0.1139993532578103
 40
-0.1139993532578103
 40
-0.1139993532578103
 40
0.0
 40
0.0
 40
0.0
 10
112.8860037395113
 20
517.7708763999657
 30
0.0
 10
112.9430034023321
 20
517.7708763999657
 30
0.0
 10
113.0000030651529
 20
517.7708763999657
 30
0.0
  0
SPLINE
  5
DE
330
1F
100
AcDbEntity
  8
Linee visibili 2D
100
AcDbSpline
210
0.0
220
0.0
230
1.0
 70
    24
 71
     2
 72
     6
 73
     3
 74
     0
 42
0.0000000001
 43
0.0000000001
 40
0.0
 40
0.0
 40
0.0
 40
1.000763393669914
 40
1.000763393669914
 40
1.000763393669914
 10
113.0000030651529
 20
517.7708763999657
 30
0.0
 10
113.500384749716
 20
517.7708763999657
 30
0.0
 10
114.0007664342792
 20
517.7708763999657
 30
0.0
  0
SPLINE
  5
DF
330
1F
100
AcDbEntity
  8
Linee visibili 2D
100
AcDbSpline
210
0.0
220
0.0
230
1.0
 70
    24
 71
     2
 72
     6
 73
     3
 74
     0
 42
0.0000000001
 43
0.0000000001
 40
-0.0585074107444967
 40
-0.0585074107444967
 40
-0.0585074107444967
 40
0.0
 40
0.0
 40
0.0
 10
114.0007664342792
 20
517.7708763999657
 30
0.0
 10
114.0300201319765
 20
517.7708763999657
 30
0.0
 10
114.0592738296738
 20
517.7708763999657
 30
0.0
  0
SPLINE
  5
E0
330
1F
100
AcDbEntity
  8
Linee visibili 2D
100
AcDbSpline
210
0.0
220
0.0
230
1.0
 70
    24
 71
     2
 72
     6
 73
     3
 74
     0
 42
0.0000000001
 43
0.0000000001
 40
0.0
 40
0.0
 40
0.0
 40
1.671769188245804
 40
1.671769188245804
 40
1.671769188245804
 10
114.0592738296738
 20
517.7708763999657
 30
0.0
 10
114.8951584163297
 20
517.7708763999657
 30
0.0
 10
115.7310430029856
 20
517.7708763999657
 30
0.0
  0
SPLINE
  5
E1
330
1F
100
AcDbEntity
  8
Linee visibili 2D
100
AcDbSpline
210
0.0
220
0.0
230
1.0
 70
    24
 71
     2
 72
     6
 73
     3
 74
     0
 42
0.0000000001
 43
0.0000000001
 40
-0.5301139646079633
 40
-0.5301139646079633
 40
-0.5301139646079633
 40
0.0
 40
0.0
 40
0.0
 10
115.7310430029856
 20
517.7708763999657
 30
0.0
 10
115.9961000475659
 20
517.7708763999657
 30
0.0
 10
116.2611570921462
 20
517.7708763999657
 30
0.0
  0
SPLINE
  5
E2
330
1F
100
AcDbEntity
  8
Linee visibili 2D
100
AcDbSpline
210
0.0
220
0.0
230
1.0
 70
    24
 71
     2
 72
     6
 73
     3
 74
     0
 42
0.0000000001
 43
0.0000000001
 40
0.0
 40
0.0
 40
0.0
 40
0.6604793699970486
 40
0.6604793699970486
 40
0.6604793699970486
 10
116.2611570921462
 20
517.7708763999657
 30
0.0
 10
116.591396839421
 20
517.7708763999657
 30
0.0
 10
116.9216365866959
 20
517.7708763999657
 30
0.0
  0
SPLINE
  5
E3
330
1F
100
AcDbEntity
  8
Linee visibili 2D
100
AcDbSpline
210
0.0
220
0.0
230
1.0
 70
    24
 71
     2
 72
     6
 73
     3
 74
     0
 42
0.0000000001
 43
0.0000000001
 40
-0.4798062519400474
 40
-0.4798062519400474
 40
-0.4798062519400474
 40
0.0
 40
0.0
 40
0.0
 10
116.9216365866959
 20
517.7708763999657
 30
0.0
 10
117.1615397122208
 20
517.7708763999657
 30
0.0
 10
117.4014428377458
 20
517.7708763999657
 30
0.0
  0
SPLINE
  5
E4
330
1F
100
AcDbEntity
  8
Linee visibili 2D
100
AcDbSpline
210
0.0
220
0.0
230
1.0
 70
    24
 71
     2
 72
     6
 73
     3
 74
     0
 42
0.0000000001
 43
0.0000000001
 40
0.0
 40
0.0
 40
0.0
 40
0.7390270266007661
 40
0.7390270266007661
 40
0.7390270266007661
 10
117.4014428377458
 20
517.7708763999657
 30
0.0
 10
117.7709563506011
 20
517.7708763999657
 30
0.0
 10
118.1404698634564
 20
517.7708763999657
 30
0.0
  0
SPLINE
  5
E5
330
1F
100
AcDbEntity
  8
Linee visibili 2D
100
AcDbSpline
210
0.0
220
0.0
230
1.0
 70
    24
 71
     2
 72
     6
 73
     3
 74
     0
 42
0.0000000001
 43
0.0000000001
 40
-0.4265479039847122
 40
-0.4265479039847122
 40
-0.4265479039847122
 40
0.0
 40
0.0
 40
0.0
 10
118.1404698634564
 20
517.7708763999657
 30
0.0
 10
118.3537438143636
 20
517.7708763999657
 30
0.0
 10
118.5670177652707
 20
517.7708763999657
 30
0.0
  0
SPLINE
  5
E6
330
1F
100
AcDbEntity
  8
Linee visibili 2D
100
AcDbSpline
210
0.0
220
0.0
230
1.0
 70
    24
 71
     2
 72
     6
 73
     3
 74
     0
 42
0.0000000001
 43
0.0000000001
 40
0.0
 40
0.0
 40
0.0
 40
0.819245611926064
 40
0.819245611926064
 40
0.819245611926064
 10
118.5670177652707
 20
517.7708763999657
 30
0.0
 10
118.9766405736123
 20
517.7708763999657
 30
0.0
 10
119.3862633819539
 20
517.7708763999657
 30
0.0
  0
SPLINE
  5
E7
330
1F
100
AcDbEntity
  8
Linee visibili 2D
100
AcDbSpline
210
0.0
220
0.0
230
1.0
 70
    24
 71
     2
 72
     6
 73
     3
 74
     0
 42
0.0000000001
 43
0.0000000001
 40
-0.3710764241011191
 40
-0.3710764241011191
 40
-0.3710764241011191
 40
0.0
 40
0.0
 40
0.0
 10
119.3862633819539
 20
517.7708763999657
 30
0.0
 10
119.5718015956789
 20
517.7708763999656
 30
0.0
 10
119.7573398094039
 20
517.7708763999656
 30
0.0
  0
SPLINE
  5
E8
330
1F
100
AcDbEntity
  8
Linee visibili 2D
100
AcDbSpline
210
0.0
220
0.0
230
1.0
 70
    24
 71
     2
 72
     6
 73
     3
 74
     0
 42
0.0000000001
 43
0.0000000001
 40
0.0
 40
0.0
 40
0.0
 40
0.9003481068684493
 40
0.9003481068684493
 40
0.9003481068684493
 10
119.7573398094039
 20
517.7708763999656
 30
0.0
 10
120.2075138531502
 20
517.7708763999656
 30
0.0
 10
120.6576878968965
 20
517.7708763999657
 30
0.0
  0
SPLINE
  5
E9
330
1F
100
AcDbEntity
  8
Linee visibili 2D
100
AcDbSpline
210
0.0
220
0.0
230
1.0
 70
    24
 71
     2
 72
     6
 73
     3
 74
     0
 42
0.0000000001
 43
0.0000000001
 40
-0.3141791531347167
 40
-0.3141791531347167
 40
-0.3141791531347167
 40
0.0
 40
0.0
 40
0.0
 10
120.6576878968965
 20
517.7708763999657
 30
0.0
 10
120.8147774632404
 20
517.7708763999657
 30
0.0
 10
120.9718670295842
 20
517.7708763999657
 30
0.0
  0
SPLINE
  5
EA
330
1F
100
AcDbEntity
  8
Linee visibili 2D
100
AcDbSpline
210
0.0
220
0.0
230
1.0
 70
    24
 71
     2
 72
     6
 73
     3
 74
     0
 42
0.0000000001
 43
0.0000000001
 40
0.0
 40
0.0
 40
0.0
 40
0.9815021729118882
 40
0.9815021729118882
 40
0.9815021729118882
 10
120.9718670295842
 20
517.7708763999657
 30
0.0
 10
121.462618109824
 20
517.7708763999657
 30
0.0
 10
121.9533691900639
 20
517.7708763999657
 30
0.0
  0
SPLINE
  5
EB
330
1F
100
AcDbEntity
  8
Linee visibili 2D
100
AcDbSpline
210
0.0
220
0.0
230
1.0
 70
    24
 71
     2
 72
     6
 73
     3
 74
     0
 42
0.0000000001
 43
0.0000000001
 40
-0.2566883078877851
 40
-0.2566883078877851
 40
-0.2566883078877851
 40
0.0
 40
0.0
 40
0.0
 10
121.9533691900639
 20
517.7708763999657
 30
0.0
 10
122.0817133375865
 20
517.7708763999657
 30
0.0
 10
122.210057485109
 20
517.7708763999657
 30
0.0
  0
SPLINE
  5
EC
330
1F
100
AcDbEntity
  8
Linee visibili 2D
100
AcDbSpline
210
0.0
220
0.0
230
1.0
 70
    24
 71
     2
 72
     6
 73
     3
 74
     0
 42
0.0000000001
 43
0.0000000001
 40
0.0
 40
0.0
 40
0.0
 40
1.061835274742734
 40
1.061835274742734
 40
1.061835274742734
 10
122.210057485109
 20
517.7708763999657
 30
0.0
 10
122.7409751183076
 20
517.7708763999657
 30
0.0
 10
123.2718927515062
 20
517.7708763999657
 30
0.0
  0
SPLINE
  5
ED
330
1F
100
AcDbEntity
  8
Linee visibili 2D
100
AcDbSpline
210
0.0
220
0.0
230
1.0
 70
    24
 71
     2
 72
     6
 73
     3
 74
     0
 42
0.0000000001
 43
0.0000000001
 40
-0.1994764915409633
 40
-0.1994764915409633
 40
-0.1994764915409633
 40
0.0
 40
0.0
 40
0.0
 10
123.2718927515062
 20
517.7708763999657
 30
0.0
 10
123.3716309932777
 20
517.7708763999657
 30
0.0
 10
123.4713692350492
 20
517.7708763999657
 30
0.0
  0
SPLINE
  5
EE
330
1F
100
AcDbEntity
  8
Linee visibili 2D
100
AcDbSpline
210
0.0
220
0.0
230
1.0
 70
    24
 71
     2
 72
     6
 73
     3
 74
     0
 42
0.0000000001
 43
0.0000000001
 40
0.0
 40
0.0
 40
0.0
 40
1.140439709728597
 40
1.140439709728597
 40
1.140439709728597
 10
123.4713692350492
 20
517.7708763999657
 30
0.0
 10
124.0415890870098
 20
517.7708763999657
 30
0.0
 10
124.6118089389705
 20
517.7708763999657
 30
0.0
  0
SPLINE
  5
EF
330
1F
100
AcDbEntity
  8
Linee visibili 2D
100
AcDbSpline
210
0.0
220
0.0
230
1.0
 70
    24
 71
     2
 72
     6
 73
     3
 74
     0
 42
0.0000000001
 43
0.0000000001
 40
-0.1434514041073101
 40
-0.1434514041073101
 40
-0.1434514041073101
 40
0.0
 40
0.0
 40
0.0
 10
124.6118089389705
 20
517.7708763999657
 30
0.0
 10
124.6835346386129
 20
517.7708763999657
 30
0.0
 10
124.7552603382554
 20
517.7708763999657
 30
0.0
  0
SPLINE
  5
F0
330
1F
100
AcDbEntity
  8
Linee visibili 2D
100
AcDbSpline
210
0.0
220
0.0
230
1.0
 70
    24
 71
     2
 72
     6
 73
     3
 74
     0
 42
0.0000000001
 43
0.0000000001
 40
0.0
 40
0.0
 40
0.0
 40
1.21637775691832
 40
1.21637775691832
 40
1.21637775691832
 10
124.7552603382554
 20
517.7708763999657
 30
0.0
 10
125.3634492147383
 20
517.7708763999657
 30
0.0
 10
125.9716380912213
 20
517.7708763999657
 30
0.0
  0
SPLINE
  5
F1
330
1F
100
AcDbEntity
  8
Linee visibili 2D
100
AcDbSpline
210
0.0
220
0.0
230
1.0
 70
    24
 71
     2
 72
     6
 73
     3
 74
     0
 42
0.0000000001
 43
0.0000000001
 40
-0.0890691730864432
 40
-0.0890691730864432
 40
-0.0890691730864432
 40
0.0
 40
0.0
 40
0.0
 10
125.9716380912213
 20
517.7708763999657
 30
0.0
 10
126.0161726764662
 20
517.7708763999657
 30
0.0
 10
126.0607072617112
 20
517.7708763999657
 30
0.0
  0
SPLINE
  5
F2
330
1F
100
AcDbEntity
  8
Linee visibili 2D
100
AcDbSpline
210
0.0
220
0.0
230
1.0
 70
    24
 71
     2
 72
     6
 73
     3
 74
     0
 42
0.0000000001
 43
0.0000000001
 40
0.0
 40
0.0
 40
0.0
 40
1.289168499985976
 40
1.289168499985976
 40
1.289168499985976
 10
126.0607072617112
 20
517.7708763999657
 30
0.0
 10
126.7052915105117
 20
517.7708763999657
 30
0.0
 10
127.3498757593121
 20
517.7708763999657
 30
0.0
  0
SPLINE
  5
F3
330
1F
100
AcDbEntity
  8
Linee visibili 2D
100
AcDbSpline
210
0.0
220
0.0
230
1.0
 70
    24
 71
     2
 72
     6
 73
     3
 74
     0
 42
0.0000000001
 43
0.0000000001
 40
-0.0361337247983045
 40
-0.0361337247983045
 40
-0.0361337247983045
 40
0.0
 40
0.0
 40
0.0
 10
127.3498757593121
 20
517.7708763999657
 30
0.0
 10
127.3679426781454
 20
517.7708763999657
 30
0.0
 10
127.3860095969787
 20
517.7708763999657
 30
0.0
  0
SPLINE
  5
F4
330
1F
100
AcDbEntity
  8
Linee visibili 2D
100
AcDbSpline
210
0.0
220
0.0
230
1.0
 70
    24
 71
     2
 72
     6
 73
     3
 74
     0
 42
0.0000000001
 43
0.0000000001
 40
0.0
 40
0.0
 40
0.0
 40
0.6594124569195969
 40
0.6594124569195969
 40
0.6594124569195969
 10
127.3860095969787
 20
517.7708763999657
 30
0.0
 10
127.7157158818791
 20
517.7708763999657
 30
0.0
 10
128.0454221667795
 20
517.7708763999657
 30
0.0
  0
SPLINE
  5
F5
330
1F
100
AcDbEntity
  8
Linee visibili 2D
100
AcDbSpline
210
0.0
220
0.0
230
1.0
 70
    24
 71
     2
 72
     6
 73
     3
 74
     0
 42
0.0000000001
 43
0.0000000001
 40
-0.6848219457997402
 40
-0.6848219457997402
 40
-0.6848219457997402
 40
0.0
 40
0.0
 40
0.0
 10
128.0454221667795
 20
517.7708763999657
 30
0.0
 10
128.3878331388122
 20
517.7708763999657
 30
0.0
 10
128.7302441108449
 20
517.7708763999657
 30
0.0
  0
SPLINE
  5
F6
330
1F
100
AcDbEntity
  8
Linee visibili 2D
100
AcDbSpline
210
0.0
220
0.0
230
1.0
 70
    24
 71
     2
 72
     6
 73
     3
 74
     0
 42
0.0000000001
 43
0.0000000001
 40
0.0
 40
0.0
 40
0.0
 40
0.7181664220382231
 40
0.7181664220382231
 40
0.7181664220382231
 10
128.7302441108449
 20
517.7708763999657
 30
0.0
 10
129.0893273209968
 20
517.7708763999657
 30
0.0
 10
129.4484105311487
 20
517.7708763999657
 30
0.0
  0
SPLINE
  5
F7
330
1F
100
AcDbEntity
  8
Linee visibili 2D
100
AcDbSpline
210
0.0
220
0.0
230
1.0
 70
    24
 71
     2
 72
     6
 73
     3
 74
     0
 42
0.0000000001
 43
0.0000000001
 40
-0.6448923720472237
 40
-0.6448923720472237
 40
-0.6448923720472237
 40
0.0
 40
0.0
 40
0.0
 10
129.4484105311487
 20
517.7708763999657
 30
0.0
 10
129.7708567058544
 20
517.7708763999657
 30
0.0
 10
130.0933028805601
 20
517.7708763999657
 30
0.0
  0
SPLINE
  5
F8
330
1F
100
AcDbEntity
  8
Linee visibili 2D
100
AcDbSpline
210
0.0
220
0.0
230
1.0
 70
    24
 71
     2
 72
     6
 73
     3
 74
     0
 42
0.0000000001
 43
0.0000000001
 40
0.0
 40
0.0
 40
0.0
 40
0.7726696206676422
 40
0.7726696206676422
 40
0.7726696206676422
 10
130.0933028805601
 20
517.7708763999657
 30
0.0
 10
130.4796376795761
 20
517.7708763999657
 30
0.0
 10
130.865972478592
 20
517.7708763999657
 30
0.0
  0
SPLINE
  5
F9
330
1F
100
AcDbEntity
  8
Linee visibili 2D
100
AcDbSpline
210
0.0
220
0.0
230
1.0
 70
    24
 71
     2
 72
     6
 73
     3
 74
     0
 42
0.0000000001
 43
0.0000000001
 40
-0.608144481725077
 40
-0.608144481725077
 40
-0.608144481725077
 40
0.0
 40
0.0
 40
0.0
 10
130.865972478592
 20
517.7708763999657
 30
0.0
 10
131.170044695885
 20
517.7708763999657
 30
0.0
 10
131.474116913178
 20
517.7708763999657
 30
0.0
  0
SPLINE
  5
FA
330
1F
100
AcDbEntity
  8
Linee visibili 2D
100
AcDbSpline
210
0.0
220
0.0
230
1.0
 70
    24
 71
     2
 72
     6
 73
     3
 74
     0
 42
0.0000000001
 43
0.0000000001
 40
0.0
 40
0.0
 40
0.0
 40
0.8224414494938799
 40
0.8224414494938799
 40
0.8224414494938799
 10
131.474116913178
 20
517.7708763999657
 30
0.0
 10
131.8853376143554
 20
517.7708763999657
 30
0.0
 10
132.2965583155328
 20
517.7708763999657
 30
0.0
  0
SPLINE
  5
FB
330
1F
100
AcDbEntity
  8
Linee visibili 2D
100
AcDbSpline
210
0.0
220
0.0
230
1.0
 70
    24
 71
     2
 72
     6
 73
     3
 74
     0
 42
0.0000000001
 43
0.0000000001
 40
-0.5755397201666312
 40
-0.5755397201666312
 40
-0.5755397201666312
 40
0.0
 40
0.0
 40
0.0
 10
132.2965583155328
 20
517.7708763999657
 30
0.0
 10
132.5843281446533
 20
517.7708763999657
 30
0.0
 10
132.8720979737739
 20
517.7708763999657
 30
0.0
  0
SPLINE
  5
FC
330
1F
100
AcDbEntity
  8
Linee visibili 2D
100
AcDbSpline
210
0.0
220
0.0
230
1.0
 70
    24
 71
     2
 72
     6
 73
     3
 74
     0
 42
0.0000000001
 43
0.0000000001
 40
0.0
 40
0.0
 40
0.0
 40
0.8665192172547336
 40
0.8665192172547336
 40
0.8665192172547336
 10
132.8720979737739
 20
517.7708763999657
 30
0.0
 10
133.3053575525464
 20
517.7708763999657
 30
0.0
 10
133.7386171313189
 20
517.7708763999657
 30
0.0
  0
SPLINE
  5
FD
330
1F
100
AcDbEntity
  8
Linee visibili 2D
100
AcDbSpline
210
0.0
220
0.0
230
1.0
 70
    24
 71
     2
 72
     6
 73
     3
 74
     0
 42
0.0000000001
 43
0.0000000001
 40
-0.5484356639054511
 40
-0.5484356639054511
 40
-0.5484356639054511
 40
0.0
 40
0.0
 40
0.0
 10
133.7386171313189
 20
517.7708763999657
 30
0.0
 10
134.0128349620659
 20
517.7708763999657
 30
0.0
 10
134.2870527928128
 20
517.7708763999657
 30
0.0
  0
SPLINE
  5
FE
330
1F
100
AcDbEntity
  8
Linee visibili 2D
100
AcDbSpline
210
0.0
220
0.0
230
1.0
 70
    24
 71
     2
 72
     6
 73
     3
 74
     0
 42
0.0000000001
 43
0.0000000001
 40
0.0
 40
0.0
 40
0.0
 40
0.9035490319160147
 40
0.9035490319160147
 40
0.9035490319160147
 10
134.2870527928128
 20
517.7708763999657
 30
0.0
 10
134.7388273071738
 20
517.7708763999657
 30
0.0
 10
135.1906018215347
 20
517.7708763999657
 30
0.0
  0
SPLINE
  5
FF
330
1F
100
AcDbEntity
  8
Linee visibili 2D
100
AcDbSpline
210
0.0
220
0.0
230
1.0
 70
    24
 71
     2
 72
     6
 73
     3
 74
     0
 42
0.0000000001
 43
0.0000000001
 40
-0.5268927482146353
 40
-0.5268927482146353
 40
-0.5268927482146353
 40
0.0
 40
0.0
 40
0.0
 10
135.1906018215347
 20
517.7708763999657
 30
0.0
 10
135.4540481949809
 20
517.7708763999657
 30
0.0
 10
135.7174945684271
 20
517.7708763999657
 30
0.0
  0
SPLINE
  5
100
330
1F
100
AcDbEntity
  8
Linee visibili 2D
100
AcDbSpline
210
0.0
220
0.0
230
1.0
 70
    24
 71
     2
 72
     6
 73
     3
 74
     0
 42
0.0000000001
 43
0.0000000001
 40
0.0
 40
0.0
 40
0.0
 40
0.9334794257581791
 40
0.9334794257581791
 40
0.9334794257581791
 10
135.7174945684271
 20
517.7708763999657
 30
0.0
 10
136.1842342776788
 20
517.7708763999657
 30
0.0
 10
136.6509739869305
 20
517.7708763999657
 30
0.0
  0
SPLINE
  5
101
330
1F
100
AcDbEntity
  8
Linee visibili 2D
100
AcDbSpline
210
0.0
220
0.0
230
1.0
 70
    24
 71
     2
 72
     6
 73
     3
 74
     0
 42
0.0000000001
 43
0.0000000001
 40
-0.5125189598955728
 40
-0.5125189598955728
 40
-0.5125189598955728
 40
0.0
 40
0.0
 40
0.0
 10
136.6509739869305
 20
517.7708763999657
 30
0.0
 10
136.907233463906
 20
517.7708763999658
 30
0.0
 10
137.1634929408815
 20
517.7708763999658
 30
0.0
  0
SPLINE
  5
102
330
1F
100
AcDbEntity
  8
Linee visibili 2D
100
AcDbSpline
210
0.0
220
0.0
230
1.0
 70
    24
 71
     2
 72
     6
 73
     3
 74
     0
 42
0.0000000001
 43
0.0000000001
 40
0.0
 40
0.0
 40
0.0
 40
0.9547157241236732
 40
0.9547157241236732
 40
0.9547157241236732
 10
137.1634929408815
 20
517.7708763999658
 30
0.0
 10
137.6408508049105
 20
517.7708763999658
 30
0.0
 10
138.1182086689396
 20
517.7708763999657
 30
0.0
  0
SPLINE
  5
103
330
1F
100
AcDbEntity
  8
Linee visibili 2D
100
AcDbSpline
210
0.0
220
0.0
230
1.0
 70
    24
 71
     2
 72
     6
 73
     3
 74
     0
 42
0.0000000001
 43
0.0000000001
 40
-0.5050546555218034
 40
-0.5050546555218034
 40
-0.5050546555218034
 40
0.0
 40
0.0
 40
0.0
 10
138.1182086689396
 20
517.7708763999657
 30
0.0
 10
138.3707359990752
 20
517.7708763999657
 30
0.0
 10
138.6232633292109
 20
517.7708763999657
 30
0.0
  0
SPLINE
  5
104
330
1F
100
AcDbEntity
  8
Linee visibili 2D
100
AcDbSpline
210
0.0
220
0.0
230
1.0
 70
    24
 71
     2
 72
     6
 73
     3
 74
     0
 42
0.0000000001
 43
0.0000000001
 40
0.0
 40
0.0
 40
0.0
 40
0.9675354625568104
 40
0.9675354625568104
 40
0.9675354625568104
 10
138.6232633292109
 20
517.7708763999657
 30
0.0
 10
139.1070310612018
 20
517.7708763999657
 30
0.0
 10
139.5907987931927
 20
517.7708763999657
 30
0.0
  0
SPLINE
  5
105
330
1F
100
AcDbEntity
  8
Linee visibili 2D
100
AcDbSpline
210
0.0
220
0.0
230
1.0
 70
    24
 71
     2
 72
     6
 73
     3
 74
     0
 42
0.0000000001
 43
0.0000000001
 40
-0.5049053875540039
 40
-0.5049053875540039
 40
-0.5049053875540039
 40
0.0
 40
0.0
 40
0.0
 10
139.5907987931927
 20
517.7708763999657
 30
0.0
 10
139.8432515688274
 20
517.7708763999657
 30
0.0
 10
140.0957043444621
 20
517.7708763999657
 30
0.0
  0
SPLINE
  5
106
330
1F
100
AcDbEntity
  8
Linee visibili 2D
100
AcDbSpline
210
0.0
220
0.0
230
1.0
 70
    24
 71
     2
 72
     6
 73
     3
 74
     0
 42
0.0000000001
 43
0.0000000001
 40
0.0
 40
0.0
 40
0.0
 40
0.9715550514468987
 40
0.9715550514468987
 40
0.9715550514468987
 10
140.0957043444621
 20
517.7708763999657
 30
0.0
 10
140.5814819523974
 20
517.7708763999657
 30
0.0
 10
141.0672595603328
 20
517.7708763999657
 30
0.0
  0
SPLINE
  5
107
330
1F
100
AcDbEntity
  8
Linee visibili 2D
100
AcDbSpline
210
0.0
220
0.0
230
1.0
 70
    24
 71
     2
 72
     6
 73
     3
 74
     0
 42
0.0000000001
 43
0.0000000001
 40
-0.5129703119865496
 40
-0.5129703119865496
 40
-0.5129703119865496
 40
0.0
 40
0.0
 40
0.0
 10
141.0672595603328
 20
517.7708763999657
 30
0.0
 10
141.3237446895386
 20
517.7708763999657
 30
0.0
 10
141.5802298187445
 20
517.7708763999657
 30
0.0
  0
SPLINE
  5
108
330
1F
100
AcDbEntity
  8
Linee visibili 2D
100
AcDbSpline
210
0.0
220
0.0
230
1.0
 70
    24
 71
     2
 72
     6
 73
     3
 74
     0
 42
0.0000000001
 43
0.0000000001
 40
0.0
 40
0.0
 40
0.0
 40
0.9659026649156317
 40
0.9659026649156317
 40
0.9659026649156317
 10
141.5802298187445
 20
517.7708763999657
 30
0.0
 10
142.0631811222068
 20
517.7708763999657
 30
0.0
 10
142.5461324256691
 20
517.7708763999657
 30
0.0
  0
SPLINE
  5
109
330
1F
100
AcDbEntity
  8
Linee visibili 2D
100
AcDbSpline
210
0.0
220
0.0
230
1.0
 70
    24
 71
     2
 72
     6
 73
     3
 74
     0
 42
0.0000000001
 43
0.0000000001
 40
-0.5298965991179898
 40
-0.5298965991179898
 40
-0.5298965991179898
 40
0.0
 40
0.0
 40
0.0
 10
142.5461324256691
 20
517.7708763999657
 30
0.0
 10
142.8110807235036
 20
517.7708763999657
 30
0.0
 10
143.076029021338
 20
517.7708763999657
 30
0.0
  0
SPLINE
  5
10A
330
1F
100
AcDbEntity
  8
Linee visibili 2D
100
AcDbSpline
210
0.0
220
0.0
230
1.0
 70
    24
 71
     2
 72
     6
 73
     3
 74
     0
 42
0.0000000001
 43
0.0000000001
 40
0.0
 40
0.0
 40
0.0
 40
0.9499599191001948
 40
0.9499599191001948
 40
0.9499599191001948
 10
143.076029021338
 20
517.7708763999657
 30
0.0
 10
143.5510089786638
 20
517.7708763999657
 30
0.0
 10
144.0259889359896
 20
517.7708763999657
 30
0.0
  0
SPLINE
  5
10B
330
1F
100
AcDbEntity
  8
Linee visibili 2D
100
AcDbSpline
210
0.0
220
0.0
230
1.0
 70
    24
 71
     2
 72
     6
 73
     3
 74
     0
 42
0.0000000001
 43
0.0000000001
 40
-0.5560464788776187
 40
-0.5560464788776187
 40
-0.5560464788776187
 40
0.0
 40
0.0
 40
0.0
 10
144.0259889359896
 20
517.7708763999657
 30
0.0
 10
144.3040121788415
 20
517.7708763999657
 30
0.0
 10
144.5820354216934
 20
517.7708763999657
 30
0.0
  0
SPLINE
  5
10C
330
1F
100
AcDbEntity
  8
Linee visibili 2D
100
AcDbSpline
210
0.0
220
0.0
230
1.0
 70
    24
 71
     2
 72
     6
 73
     3
 74
     0
 42
0.0000000001
 43
0.0000000001
 40
0.0
 40
0.0
 40
0.0
 40
0.9233987912562327
 40
0.9233987912562327
 40
0.9233987912562327
 10
144.5820354216934
 20
517.7708763999657
 30
0.0
 10
145.0437348215194
 20
517.7708763999657
 30
0.0
 10
145.5054342213453
 20
517.7708763999657
 30
0.0
  0
SPLINE
  5
10D
330
1F
100
AcDbEntity
  8
Linee visibili 2D
100
AcDbSpline
210
0.0
220
0.0
230
1.0
 70
    24
 71
     2
 72
     6
 73
     3
 74
     0
 42
0.0000000001
 43
0.0000000001
 40
-0.5916856663264696
 40
-0.5916856663264696
 40
-0.5916856663264696
 40
0.0
 40
0.0
 40
0.0
 10
145.5054342213453
 20
517.7708763999657
 30
0.0
 10
145.8012770858368
 20
517.7708763999657
 30
0.0
 10
146.0971199503283
 20
517.7708763999657
 30
0.0
  0
SPLINE
  5
10E
330
1F
100
AcDbEntity
  8
Linee visibili 2D
100
AcDbSpline
210
0.0
220
0.0
230
1.0
 70
    24
 71
     2
 72
     6
 73
     3
 74
     0
 42
0.0000000001
 43
0.0000000001
 40
0.0
 40
0.0
 40
0.0
 40
0.8859902219463152
 40
0.8859902219463152
 40
0.8859902219463152
 10
146.0971199503283
 20
517.7708763999657
 30
0.0
 10
146.5401150921636
 20
517.7708763999657
 30
0.0
 10
146.9831102339988
 20
517.7708763999657
 30
0.0
  0
SPLINE
  5
10F
330
1F
100
AcDbEntity
  8
Linee visibili 2D
100
AcDbSpline
210
0.0
220
0.0
230
1.0
 70
    24
 71
     2
 72
     6
 73
     3
 74
     0
 42
0.0000000001
 43
0.0000000001
 40
-0.6374774661243521
 40
-0.6374774661243521
 40
-0.6374774661243521
 40
0.0
 40
0.0
 40
0.0
 10
146.9831102339988
 20
517.7708763999657
 30
0.0
 10
147.3018490539448
 20
517.7708763999657
 30
0.0
 10
147.6205878738908
 20
517.7708763999657
 30
0.0
  0
SPLINE
  5
110
330
1F
100
AcDbEntity
  8
Linee visibili 2D
100
AcDbSpline
210
0.0
220
0.0
230
1.0
 70
    24
 71
     2
 72
     6
 73
     3
 74
     0
 42
0.0000000001
 43
0.0000000001
 40
0.0
 40
0.0
 40
0.0
 40
0.8371106539370032
 40
0.8371106539370032
 40
0.8371106539370032
 10
147.6205878738908
 20
517.7708763999657
 30
0.0
 10
148.0391432884243
 20
517.7708763999657
 30
0.0
 10
148.4576987029579
 20
517.7708763999657
 30
0.0
  0
SPLINE
  5
111
330
1F
100
AcDbEntity
  8
Linee visibili 2D
100
AcDbSpline
210
0.0
220
0.0
230
1.0
 70
    24
 71
     2
 72
     6
 73
     3
 74
     0
 42
0.0000000001
 43
0.0000000001
 40
-0.6940151341803471
 40
-0.6940151341803471
 40
-0.6940151341803471
 40
0.0
 40
0.0
 40
0.0
 10
148.4576987029579
 20
517.7708763999657
 30
0.0
 10
148.8047062699297
 20
517.7708763999658
 30
0.0
 10
149.1517138369014
 20
517.7708763999658
 30
0.0
  0
SPLINE
  5
112
330
1F
100
AcDbEntity
  8
Linee visibili 2D
100
AcDbSpline
210
0.0
220
0.0
230
1.0
 70
    24
 71
     2
 72
     6
 73
     3
 74
     0
 42
0.0000000001
 43
0.0000000001
 40
0.0
 40
0.0
 40
0.0
 40
0.7762099207538427
 40
0.7762099207538427
 40
0.7762099207538427
 10
149.1517138369014
 20
517.7708763999658
 30
0.0
 10
149.53981879677
 20
517.7708763999658
 30
0.0
 10
149.9279237566386
 20
517.7708763999657
 30
0.0
  0
SPLINE
  5
113
330
1F
100
AcDbEntity
  8
Linee visibili 2D
100
AcDbSpline
210
0.0
220
0.0
230
1.0
 70
    24
 71
     2
 72
     6
 73
     3
 74
     0
 42
0.0000000001
 43
0.0000000001
 40
-0.7614589564746836
 40
-0.7614589564746836
 40
-0.7614589564746836
 40
0.0
 40
0.0
 40
0.0
 10
149.9279237566386
 20
517.7708763999657
 30
0.0
 10
150.3086532346638
 20
517.7708763999657
 30
0.0
 10
150.6893827126891
 20
517.7708763999657
 30
0.0
  0
SPLINE
  5
114
330
1F
100
AcDbEntity
  8
Linee visibili 2D
100
AcDbSpline
210
0.0
220
0.0
230
1.0
 70
    24
 71
     2
 72
     6
 73
     3
 74
     0
 42
0.0000000001
 43
0.0000000001
 40
0.0
 40
0.0
 40
0.0
 40
0.703171567739588
 40
0.703171567739588
 40
0.703171567739588
 10
150.6893827126891
 20
517.7708763999657
 30
0.0
 10
151.0409684967573
 20
517.7708763999657
 30
0.0
 10
151.3925542808256
 20
517.7708763999657
 30
0.0
  0
SPLINE
  5
115
330
1F
100
AcDbEntity
  8
Linee visibili 2D
100
AcDbSpline
210
0.0
220
0.0
230
1.0
 70
    24
 71
     2
 72
     6
 73
     3
 74
     0
 42
0.0000000001
 43
0.0000000001
 40
-0.8398544777185464
 40
-0.8398544777185464
 40
-0.8398544777185464
 40
0.0
 40
0.0
 40
0.0
 10
151.3925542808256
 20
517.7708763999657
 30
0.0
 10
151.8124815204262
 20
517.7708763999657
 30
0.0
 10
152.2324087600268
 20
517.7708763999657
 30
0.0
  0
SPLINE
  5
116
330
1F
100
AcDbEntity
  8
Linee visibili 2D
100
AcDbSpline
210
0.0
220
0.0
230
1.0
 70
    24
 71
     2
 72
     6
 73
     3
 74
     0
 42
0.0000000001
 43
0.0000000001
 40
0.0
 40
0.0
 40
0.0
 40
0.6179971822635082
 40
0.6179971822635082
 40
0.6179971822635082
 10
152.2324087600268
 20
517.7708763999657
 30
0.0
 10
152.5414073520139
 20
517.7708763999657
 30
0.0
 10
152.850405944001
 20
517.7708763999657
 30
0.0
  0
SPLINE
  5
117
330
1F
100
AcDbEntity
  8
Linee visibili 2D
100
AcDbSpline
210
0.0
220
0.0
230
1.0
 70
    24
 71
     2
 72
     6
 73
     3
 74
     0
 42
0.0000000001
 43
0.0000000001
 40
-0.9298721851874348
 40
-0.9298721851874348
 40
-0.9298721851874348
 40
0.0
 40
0.0
 40
0.0
 10
152.850405944001
 20
517.7708763999657
 30
0.0
 10
153.3153420383215
 20
517.7708763999657
 30
0.0
 10
153.7802781326421
 20
517.7708763999657
 30
0.0
  0
SPLINE
  5
118
330
1F
100
AcDbEntity
  8
Linee visibili 2D
100
AcDbSpline
210
0.0
220
0.0
230
1.0
 70
    24
 71
     2
 72
     6
 73
     3
 74
     0
 42
0.0000000001
 43
0.0000000001
 40
0.0
 40
0.0
 40
0.0
 40
0.5200648107034738
 40
0.5200648107034738
 40
0.5200648107034738
 10
153.7802781326421
 20
517.7708763999657
 30
0.0
 10
154.0403105398148
 20
517.7708763999657
 30
0.0
 10
154.3003429469875
 20
517.7708763999657
 30
0.0
  0
SPLINE
  5
119
330
1F
100
AcDbEntity
  8
Linee visibili 2D
100
AcDbSpline
210
0.0
220
0.0
230
1.0
 70
    24
 71
     2
 72
     6
 73
     3
 74
     0
 42
0.0000000001
 43
0.0000000001
 40
-1.03176262672369
 40
-1.03176262672369
 40
-1.03176262672369
 40
0.0
 40
0.0
 40
0.0
 10
154.3003429469875
 20
517.7708763999657
 30
0.0
 10
154.8162242633468
 20
517.7708763999657
 30
0.0
 10
155.3321055797061
 20
517.7708763999657
 30
0.0
  0
SPLINE
  5
11A
330
1F
100
AcDbEntity
  8
Linee visibili 2D
100
AcDbSpline
210
0.0
220
0.0
230
1.0
 70
    24
 71
     2
 72
     6
 73
     3
 74
     0
 42
0.0000000001
 43
0.0000000001
 40
0.0
 40
0.0
 40
0.0
 40
0.4091738811767698
 40
0.4091738811767698
 40
0.4091738811767698
 10
155.3321055797061
 20
517.7708763999657
 30
0.0
 10
155.5366925233553
 20
517.7708763999657
 30
0.0
 10
155.7412794670044
 20
517.7708763999657
 30
0.0
  0
SPLINE
  5
11B
330
1F
100
AcDbEntity
  8
Linee visibili 2D
100
AcDbSpline
210
0.0
220
0.0
230
1.0
 70
    24
 71
     2
 72
     6
 73
     3
 74
     0
 42
0.0000000001
 43
0.0000000001
 40
-1.145175846536659
 40
-1.145175846536659
 40
-1.145175846536659
 40
0.0
 40
0.0
 40
0.0
 10
155.7412794670044
 20
517.7708763999657
 30
0.0
 10
156.3138673944605
 20
517.7708763999658
 30
0.0
 10
156.8864553219165
 20
517.7708763999658
 30
0.0
  0
SPLINE
  5
11C
330
1F
100
AcDbEntity
  8
Linee visibili 2D
100
AcDbSpline
210
0.0
220
0.0
230
1.0
 70
    24
 71
     2
 72
     6
 73
     3
 74
     0
 42
0.0000000001
 43
0.0000000001
 40
0.0
 40
0.0
 40
0.0
 40
0.2857254887158831
 40
0.2857254887158831
 40
0.2857254887158831
 10
156.8864553219165
 20
517.7708763999658
 30
0.0
 10
157.0293180704912
 20
517.7708763999658
 30
0.0
 10
157.1721808190658
 20
517.7708763999658
 30
0.0
  0
SPLINE
  5
11D
330
1F
100
AcDbEntity
  8
Linee visibili 2D
100
AcDbSpline
210
0.0
220
0.0
230
1.0
 70
    24
 71
     2
 72
     6
 73
     3
 74
     0
 42
0.0000000001
 43
0.0000000001
 40
-1.270450065163203
 40
-1.270450065163203
 40
-1.270450065163203
 40
0.0
 40
0.0
 40
0.0
 10
157.1721808190658
 20
517.7708763999658
 30
0.0
 10
157.8074058557881
 20
517.7708763999658
 30
0.0
 10
158.4426308925105
 20
517.7708763999658
 30
0.0
  0
SPLINE
  5
11E
330
1F
100
AcDbEntity
  8
Linee visibili 2D
100
AcDbSpline
210
0.0
220
0.0
230
1.0
 70
    24
 71
     2
 72
     6
 73
     3
 74
     0
 42
0.0000000001
 43
0.0000000001
 40
0.0
 40
0.0
 40
0.0
 40
1.557369099197075
 40
1.557369099197075
 40
1.557369099197075
 10
158.4426308925105
 20
517.7708763999658
 30
0.0
 10
159.2213154462552
 20
517.7708763999658
 30
0.0
 10
159.9999999999999
 20
517.7708763999657
 30
0.0
  0
SPLINE
  5
11F
330
1F
100
AcDbEntity
  8
Linee visibili 2D
100
AcDbSpline
210
0.0
220
0.0
230
1.0
 70
    24
 71
     2
 72
     6
 73
     3
 74
     0
 42
0.0000000001
 43
0.0000000001
 40
0.0
 40
0.0
 40
0.0
 40
1.561364081426092
 40
1.561364081426092
 40
1.561364081426092
 10
159.9999999999999
 20
517.7708763999657
 30
0.0
 10
160.7806820449277
 20
517.7708763999656
 30
0.0
 10
161.5613640898556
 20
517.7708763999656
 30
0.0
  0
SPLINE
  5
120
330
1F
100
AcDbEntity
  8
Linee visibili 2D
100
AcDbSpline
210
0.0
220
0.0
230
1.0
 70
    24
 71
     2
 72
     6
 73
     3
 74
     0
 42
0.0000000001
 43
0.0000000001
 40
-0.6669074130241484
 40
-0.6669074130241484
 40
-0.6669074130241484
 40
0.0
 40
0.0
 40
0.0
 10
161.5613640898556
 20
517.7708763999656
 30
0.0
 10
161.8948177873253
 20
517.7708763999656
 30
0.0
 10
162.2282714847951
 20
517.7708763999657
 30
0.0
  0
SPLINE
  5
121
330
1F
100
AcDbEntity
  8
Linee visibili 2D
100
AcDbSpline
210
0.0
220
0.0
230
1.0
 70
    24
 71
     2
 72
     6
 73
     3
 74
     0
 42
0.0000000001
 43
0.0000000001
 40
0.0
 40
0.0
 40
0.0
 40
0.8918493636028018
 40
0.8918493636028018
 40
0.8918493636028018
 10
162.2282714847951
 20
517.7708763999657
 30
0.0
 10
162.6741961575808
 20
517.7708763999657
 30
0.0
 10
163.1201208303664
 20
517.7708763999657
 30
0.0
  0
SPLINE
  5
122
330
1F
100
AcDbEntity
  8
Linee visibili 2D
100
AcDbSpline
210
0.0
220
0.0
230
1.0
 70
    24
 71
     2
 72
     6
 73
     3
 74
     0
 42
0.0000000001
 43
0.0000000001
 40
-1.138599694690811
 40
-1.138599694690811
 40
-1.138599694690811
 40
0.0
 40
0.0
 40
0.0
 10
163.1201208303664
 20
517.7708763999657
 30
0.0
 10
163.6894206817999
 20
517.7708763999657
 30
0.0
 10
164.2587205332333
 20
517.7708763999657
 30
0.0
  0
SPLINE
  5
123
330
1F
100
AcDbEntity
  8
Linee visibili 2D
100
AcDbSpline
210
0.0
220
0.0
230
1.0
 70
    24
 71
     2
 72
     6
 73
     3
 74
     0
 42
0.0000000001
 43
0.0000000001
 40
0.0
 40
0.0
 40
0.0
 40
0.4168595197145351
 40
0.4168595197145351
 40
0.4168595197145351
 10
164.2587205332333
 20
517.7708763999657
 30
0.0
 10
164.4671502960169
 20
517.7708763999657
 30
0.0
 10
164.6755800588006
 20
517.7708763999657
 30
0.0
  0
SPLINE
  5
124
330
1F
100
AcDbEntity
  8
Linee visibili 2D
100
AcDbSpline
210
0.0
220
0.0
230
1.0
 70
    24
 71
     2
 72
     6
 73
     3
 74
     0
 42
0.0000000001
 43
0.0000000001
 40
-1.024076988794633
 40
-1.024076988794633
 40
-1.024076988794633
 40
0.0
 40
0.0
 40
0.0
 10
164.6755800588006
 20
517.7708763999657
 30
0.0
 10
165.1876185560432
 20
517.7708763999658
 30
0.0
 10
165.6996570532858
 20
517.7708763999658
 30
0.0
  0
SPLINE
  5
125
330
1F
100
AcDbEntity
  8
Linee visibili 2D
100
AcDbSpline
210
0.0
220
0.0
230
1.0
 70
    24
 71
     2
 72
     6
 73
     3
 74
     0
 42
0.0000000001
 43
0.0000000001
 40
0.0
 40
0.0
 40
0.0
 40
0.5273945594790348
 40
0.5273945594790348
 40
0.5273945594790348
 10
165.6996570532858
 20
517.7708763999658
 30
0.0
 10
165.9633543346883
 20
517.7708763999658
 30
0.0
 10
166.2270516160908
 20
517.7708763999657
 30
0.0
  0
SPLINE
  5
126
330
1F
100
AcDbEntity
  8
Linee visibili 2D
100
AcDbSpline
210
0.0
220
0.0
230
1.0
 70
    24
 71
     2
 72
     6
 73
     3
 74
     0
 42
0.0000000001
 43
0.0000000001
 40
-0.922542436992444
 40
-0.922542436992444
 40
-0.922542436992444
 40
0.0
 40
0.0
 40
0.0
 10
166.2270516160908
 20
517.7708763999657
 30
0.0
 10
166.6883228361688
 20
517.7708763999657
 30
0.0
 10
167.1495940562467
 20
517.7708763999657
 30
0.0
  0
SPLINE
  5
127
330
1F
100
AcDbEntity
  8
Linee visibili 2D
100
AcDbSpline
210
0.0
220
0.0
230
1.0
 70
    24
 71
     2
 72
     6
 73
     3
 74
     0
 42
0.0000000001
 43
0.0000000001
 40
0.0
 40
0.0
 40
0.0
 40
0.624251287147132
 40
0.624251287147132
 40
0.624251287147132
 10
167.1495940562467
 20
517.7708763999657
 30
0.0
 10
167.4617197005375
 20
517.7708763999657
 30
0.0
 10
167.7738453448283
 20
517.7708763999657
 30
0.0
  0
SPLINE
  5
128
330
1F
100
AcDbEntity
  8
Linee visibili 2D
100
AcDbSpline
210
0.0
220
0.0
230
1.0
 70
    24
 71
     2
 72
     6
 73
     3
 74
     0
 42
0.0000000001
 43
0.0000000001
 40
-0.8336003732348729
 40
-0.8336003732348729
 40
-0.8336003732348729
 40
0.0
 40
0.0
 40
0.0
 10
167.7738453448283
 20
517.7708763999657
 30
0.0
 10
168.1906455320871
 20
517.7708763999657
 30
0.0
 10
168.6074457193459
 20
517.7708763999657
 30
0.0
  0
SPLINE
  5
129
330
1F
100
AcDbEntity
  8
Linee visibili 2D
100
AcDbSpline
210
0.0
220
0.0
230
1.0
 70
    24
 71
     2
 72
     6
 73
     3
 74
     0
 42
0.0000000001
 43
0.0000000001
 40
0.0
 40
0.0
 40
0.0
 40
0.7078253686999005
 40
0.7078253686999005
 40
0.7078253686999005
 10
168.6074457193459
 20
517.7708763999657
 30
0.0
 10
168.961358403802
 20
517.7708763999657
 30
0.0
 10
169.3152710882581
 20
517.7708763999657
 30
0.0
  0
SPLINE
  5
12A
330
1F
100
AcDbEntity
  8
Linee visibili 2D
100
AcDbSpline
210
0.0
220
0.0
230
1.0
 70
    24
 71
     2
 72
     6
 73
     3
 74
     0
 42
0.0000000001
 43
0.0000000001
 40
-0.7568051545164849
 40
-0.7568051545164849
 40
-0.7568051545164849
 40
0.0
 40
0.0
 40
0.0
 10
169.3152710882581
 20
517.7708763999657
 30
0.0
 10
169.6936736655537
 20
517.7708763999657
 30
0.0
 10
170.0720762428493
 20
517.7708763999657
 30
0.0
  0
SPLINE
  5
12B
330
1F
100
AcDbEntity
  8
Linee visibili 2D
100
AcDbSpline
210
0.0
220
0.0
230
1.0
 70
    24
 71
     2
 72
     6
 73
     3
 74
     0
 42
0.0000000001
 43
0.0000000001
 40
0.0
 40
0.0
 40
0.0
 40
0.7785624474783788
 40
0.7785624474783788
 40
0.7785624474783788
 10
170.0720762428493
 20
517.7708763999657
 30
0.0
 10
170.4613574663344
 20
517.7708763999658
 30
0.0
 10
170.8506386898195
 20
517.7708763999658
 30
0.0
  0
SPLINE
  5
12C
330
1F
100
AcDbEntity
  8
Linee visibili 2D
100
AcDbSpline
210
0.0
220
0.0
230
1.0
 70
    24
 71
     2
 72
     6
 73
     3
 74
     0
 42
0.0000000001
 43
0.0000000001
 40
-0.6916626082531536
 40
-0.6916626082531536
 40
-0.6916626082531536
 40
0.0
 40
0.0
 40
0.0
 10
170.8506386898195
 20
517.7708763999658
 30
0.0
 10
171.1964699936283
 20
517.7708763999658
 30
0.0
 10
171.5423012974372
 20
517.7708763999658
 30
0.0
  0
SPLINE
  5
12D
330
1F
100
AcDbEntity
  8
Linee visibili 2D
100
AcDbSpline
210
0.0
220
0.0
230
1.0
 70
    24
 71
     2
 72
     6
 73
     3
 74
     0
 42
0.0000000001
 43
0.0000000001
 40
0.0
 40
0.0
 40
0.0
 40
0.8369570483070561
 40
0.8369570483070561
 40
0.8369570483070561
 10
171.5423012974372
 20
517.7708763999658
 30
0.0
 10
171.9607798210666
 20
517.7708763999658
 30
0.0
 10
172.379258344696
 20
517.7708763999658
 30
0.0
  0
SPLINE
  5
12E
330
1F
100
AcDbEntity
  8
Linee visibili 2D
100
AcDbSpline
210
0.0
220
0.0
230
1.0
 70
    24
 71
     2
 72
     6
 73
     3
 74
     0
 42
0.0000000001
 43
0.0000000001
 40
-0.6376317732366203
 40
-0.6376317732366203
 40
-0.6376317732366203
 40
0.0
 40
0.0
 40
0.0
 10
172.379257993098
 20
517.7708763999657
 30
0.0
 10
172.698073879129
 20
517.7708763999657
 30
0.0
 10
173.01688976516
 20
517.7708763999657
 30
0.0
  0
SPLINE
  5
12F
330
1F
100
AcDbEntity
  8
Linee visibili 2D
100
AcDbSpline
210
0.0
220
0.0
230
1.0
 70
    24
 71
     2
 72
     6
 73
     3
 74
     0
 42
0.0000000001
 43
0.0000000001
 40
0.0
 40
0.0
 40
0.0
 40
0.8835489488151325
 40
0.8835489488151325
 40
0.8835489488151325
 10
173.01688976516
 20
517.7708763999657
 30
0.0
 10
173.4586642710599
 20
517.7708763999657
 30
0.0
 10
173.9004387769598
 20
517.7708763999657
 30
0.0
  0
SPLINE
  5
130
330
1F
100
AcDbEntity
  8
Linee visibili 2D
100
AcDbSpline
210
0.0
220
0.0
230
1.0
 70
    24
 71
     2
 72
     6
 73
     3
 74
     0
 42
0.0000000001
 43
0.0000000001
 40
-0.5941269390788193
 40
-0.5941269390788193
 40
-0.5941269390788193
 40
0.0
 40
0.0
 40
0.0
 10
173.9004387769598
 20
517.7708763999657
 30
0.0
 10
174.1975022779222
 20
517.7708763999657
 30
0.0
 10
174.4945657788846
 20
517.7708763999657
 30
0.0
  0
SPLINE
  5
131
330
1F
100
AcDbEntity
  8
Linee visibili 2D
100
AcDbSpline
210
0.0
220
0.0
230
1.0
 70
    24
 71
     2
 72
     6
 73
     3
 74
     0
 42
0.0000000001
 43
0.0000000001
 40
0.0
 40
0.0
 40
0.0
 40
0.9189252807214245
 40
0.9189252807214245
 40
0.9189252807214245
 10
174.4945657788846
 20
517.7708763999657
 30
0.0
 10
174.9540284234063
 20
517.7708763999657
 30
0.0
 10
175.413491067928
 20
517.7708763999657
 30
0.0
  0
SPLINE
  5
132
330
1F
100
AcDbEntity
  8
Linee visibili 2D
100
AcDbSpline
210
0.0
220
0.0
230
1.0
 70
    24
 71
     2
 72
     6
 73
     3
 74
     0
 42
0.0000000001
 43
0.0000000001
 40
-0.5605199867567876
 40
-0.5605199867567876
 40
-0.5605199867567876
 40
0.0
 40
0.0
 40
0.0
 10
175.413491067928
 20
517.7708763999657
 30
0.0
 10
175.6937510653835
 20
517.7708763999657
 30
0.0
 10
175.9740110628389
 20
517.7708763999657
 30
0.0
  0
SPLINE
  5
133
330
1F
100
AcDbEntity
  8
Linee visibili 2D
100
AcDbSpline
210
0.0
220
0.0
230
1.0
 70
    24
 71
     2
 72
     6
 73
     3
 74
     0
 42
0.0000000001
 43
0.0000000001
 40
0.0
 40
0.0
 40
0.0
 40
0.9437134878492373
 40
0.9437134878492373
 40
0.9437134878492373
 10
175.9740110628389
 20
517.7708763999657
 30
0.0
 10
176.445867805146
 20
517.7708763999657
 30
0.0
 10
176.917724547453
 20
517.7708763999657
 30
0.0
  0
SPLINE
  5
134
330
1F
100
AcDbEntity
  8
Linee visibili 2D
100
AcDbSpline
210
0.0
220
0.0
230
1.0
 70
    24
 71
     2
 72
     6
 73
     3
 74
     0
 42
0.0000000001
 43
0.0000000001
 40
-0.5361430303777865
 40
-0.5361430303777865
 40
-0.5361430303777865
 40
0.0
 40
0.0
 40
0.0
 10
176.917724547453
 20
517.7708763999657
 30
0.0
 10
177.1857960609152
 20
517.7708763999657
 30
0.0
 10
177.4538675743773
 20
517.7708763999657
 30
0.0
  0
SPLINE
  5
135
330
1F
100
AcDbEntity
  8
Linee visibili 2D
100
AcDbSpline
210
0.0
220
0.0
230
1.0
 70
    24
 71
     2
 72
     6
 73
     3
 74
     0
 42
0.0000000001
 43
0.0000000001
 40
0.0
 40
0.0
 40
0.0
 40
0.9585816281607435
 40
0.9585816281607435
 40
0.9585816281607435
 10
177.4538675743773
 20
517.7708763999657
 30
0.0
 10
177.9331583595969
 20
517.7708763999657
 30
0.0
 10
178.4124491448164
 20
517.7708763999657
 30
0.0
  0
SPLINE
  5
136
330
1F
100
AcDbEntity
  8
Linee visibili 2D
100
AcDbSpline
210
0.0
220
0.0
230
1.0
 70
    24
 71
     2
 72
     6
 73
     3
 74
     0
 42
0.0000000001
 43
0.0000000001
 40
-0.520291357625041
 40
-0.520291357625041
 40
-0.520291357625041
 40
0.0
 40
0.0
 40
0.0
 10
178.4124491448164
 20
517.7708763999657
 30
0.0
 10
178.6725947946206
 20
517.7708763999657
 30
0.0
 10
178.9327404444248
 20
517.7708763999657
 30
0.0
  0
SPLINE
  5
137
330
1F
100
AcDbEntity
  8
Linee visibili 2D
100
AcDbSpline
210
0.0
220
0.0
230
1.0
 70
    24
 71
     2
 72
     6
 73
     3
 74
     0
 42
0.0000000001
 43
0.0000000001
 40
0.0
 40
0.0
 40
0.0
 40
0.9642337831099326
 40
0.9642337831099326
 40
0.9642337831099326
 10
178.9327404444248
 20
517.7708763999657
 30
0.0
 10
179.4148574161268
 20
517.7708763999657
 30
0.0
 10
179.8969743878288
 20
517.7708763999657
 30
0.0
  0
SPLINE
  5
138
330
1F
100
AcDbEntity
  8
Linee visibili 2D
100
AcDbSpline
210
0.0
220
0.0
230
1.0
 70
    24
 71
     2
 72
     6
 73
     3
 74
     0
 42
0.0000000001
 43
0.0000000001
 40
-0.5122266635455333
 40
-0.5122266635455333
 40
-0.5122266635455333
 40
0.0
 40
0.0
 40
0.0
 10
179.8969743878288
 20
517.7708763999657
 30
0.0
 10
180.1530877995456
 20
517.7708763999657
 30
0.0
 10
180.4092012112624
 20
517.7708763999657
 30
0.0
  0
SPLINE
  5
139
330
1F
100
AcDbEntity
  8
Linee visibili 2D
100
AcDbSpline
210
0.0
220
0.0
230
1.0
 70
    24
 71
     2
 72
     6
 73
     3
 74
     0
 42
0.0000000001
 43
0.0000000001
 40
0.0
 40
0.0
 40
0.0
 40
0.9614095653217873
 40
0.9614095653217873
 40
0.9614095653217873
 10
180.4092012112624
 20
517.7708763999657
 30
0.0
 10
180.8899059924111
 20
517.7708763999657
 30
0.0
 10
181.3706107735599
 20
517.7708763999657
 30
0.0
  0
SPLINE
  5
13A
330
1F
100
AcDbEntity
  8
Linee visibili 2D
100
AcDbSpline
210
0.0
220
0.0
230
1.0
 70
    24
 71
     2
 72
     6
 73
     3
 74
     0
 42
0.0000000001
 43
0.0000000001
 40
-0.5111805694270117
 40
-0.5111805694270117
 40
-0.5111805694270117
 40
0.0
 40
0.0
 40
0.0
 10
181.3706107735599
 20
517.7708763999657
 30
0.0
 10
181.6262010564806
 20
517.7708763999657
 30
0.0
 10
181.8817913394014
 20
517.7708763999657
 30
0.0
  0
SPLINE
  5
13B
330
1F
100
AcDbEntity
  8
Linee visibili 2D
100
AcDbSpline
210
0.0
220
0.0
230
1.0
 70
    24
 71
     2
 72
     6
 73
     3
 74
     0
 42
0.0000000001
 43
0.0000000001
 40
0.0
 40
0.0
 40
0.0
 40
0.9508762669523207
 40
0.9508762669523207
 40
0.9508762669523207
 10
181.8817913394014
 20
517.7708763999657
 30
0.0
 10
182.3572294706783
 20
517.7708763999657
 30
0.0
 10
182.8326676019553
 20
517.7708763999657
 30
0.0
  0
SPLINE
  5
13C
330
1F
100
AcDbEntity
  8
Linee visibili 2D
100
AcDbSpline
210
0.0
220
0.0
230
1.0
 70
    24
 71
     2
 72
     6
 73
     3
 74
     0
 42
0.0000000001
 43
0.0000000001
 40
-0.5163584155246781
 40
-0.5163584155246781
 40
-0.5163584155246781
 40
0.0
 40
0.0
 40
0.0
 10
182.8326676019553
 20
517.7708763999657
 30
0.0
 10
183.0908468071309
 20
517.7708763999657
 30
0.0
 10
183.3490260123065
 20
517.7708763999657
 30
0.0
  0
SPLINE
  5
13D
330
1F
100
AcDbEntity
  8
Linee visibili 2D
100
AcDbSpline
210
0.0
220
0.0
230
1.0
 70
    24
 71
     2
 72
     6
 73
     3
 74
     0
 42
0.0000000001
 43
0.0000000001
 40
0.0
 40
0.0
 40
0.0
 40
0.9334288730740923
 40
0.9334288730740923
 40
0.9334288730740923
 10
183.3490260123065
 20
517.7708763999657
 30
0.0
 10
183.8157404455961
 20
517.7708763999657
 30
0.0
 10
184.2824548788858
 20
517.7708763999657
 30
0.0
  0
SPLINE
  5
13E
330
1F
100
AcDbEntity
  8
Linee visibili 2D
100
AcDbSpline
210
0.0
220
0.0
230
1.0
 70
    24
 71
     2
 72
     6
 73
     3
 74
     0
 42
0.0000000001
 43
0.0000000001
 40
-0.5269433232100766
 40
-0.5269433232100766
 40
-0.5269433232100766
 40
0.0
 40
0.0
 40
0.0
 10
184.2824548788858
 20
517.7708763999657
 30
0.0
 10
184.5459265342519
 20
517.7708763999657
 30
0.0
 10
184.8093981896179
 20
517.7708763999657
 30
0.0
  0
SPLINE
  5
13F
330
1F
100
AcDbEntity
  8
Linee visibili 2D
100
AcDbSpline
210
0.0
220
0.0
230
1.0
 70
    24
 71
     2
 72
     6
 73
     3
 74
     0
 42
0.0000000001
 43
0.0000000001
 40
0.0
 40
0.0
 40
0.0
 40
0.9071144538461056
 40
0.9071144538461056
 40
0.9071144538461056
 10
184.8093981896179
 20
517.7708763999657
 30
0.0
 10
185.2629554093532
 20
517.7708763999657
 30
0.0
 10
185.7165126290885
 20
517.7708763999657
 30
0.0
  0
SPLINE
  5
140
330
1F
100
AcDbEntity
  8
Linee visibili 2D
100
AcDbSpline
210
0.0
220
0.0
230
1.0
 70
    24
 71
     2
 72
     6
 73
     3
 74
     0
 42
0.0000000001
 43
0.0000000001
 40
-0.5448702710972384
 40
-0.5448702710972384
 40
-0.5448702710972384
 40
0.0
 40
0.0
 40
0.0
 10
185.7165126290885
 20
517.7708763999657
 30
0.0
 10
185.9889477561509
 20
517.7708763999658
 30
0.0
 10
186.2613828832133
 20
517.7708763999658
 30
0.0
  0
SPLINE
  5
141
330
1F
100
AcDbEntity
  8
Linee visibili 2D
100
AcDbSpline
210
0.0
220
0.0
230
1.0
 70
    24
 71
     2
 72
     6
 73
     3
 74
     0
 42
0.0000000001
 43
0.0000000001
 40
0.0
 40
0.0
 40
0.0
 40
0.872131099318807
 40
0.872131099318807
 40
0.872131099318807
 10
186.2613828832133
 20
517.7708763999658
 30
0.0
 10
186.6974483935979
 20
517.7708763999658
 30
0.0
 10
187.1335139039824
 20
517.7708763999657
 30
0.0
  0
SPLINE
  5
142
330
1F
100
AcDbEntity
  8
Linee visibili 2D
100
AcDbSpline
210
0.0
220
0.0
230
1.0
 70
    24
 71
     2
 72
     6
 73
     3
 74
     0
 42
0.0000000001
 43
0.0000000001
 40
-0.569927878693818
 40
-0.569927878693818
 40
-0.569927878693818
 40
0.0
 40
0.0
 40
0.0
 10
187.1335139039824
 20
517.7708763999657
 30
0.0
 10
187.4184778022187
 20
517.7708763999657
 30
0.0
 10
187.703441700455
 20
517.7708763999657
 30
0.0
  0
SPLINE
  5
143
330
1F
100
AcDbEntity
  8
Linee visibili 2D
100
AcDbSpline
210
0.0
220
0.0
230
1.0
 70
    24
 71
     2
 72
     6
 73
     3
 74
     0
 42
0.0000000001
 43
0.0000000001
 40
0.0
 40
0.0
 40
0.0
 40
0.8294324108922524
 40
0.8294324108922524
 40
0.8294324108922524
 10
187.703441700455
 20
517.7708763999657
 30
0.0
 10
188.1181578714024
 20
517.7708763999657
 30
0.0
 10
188.5328740423499
 20
517.7708763999657
 30
0.0
  0
SPLINE
  5
144
330
1F
100
AcDbEntity
  8
Linee visibili 2D
100
AcDbSpline
210
0.0
220
0.0
230
1.0
 70
    24
 71
     2
 72
     6
 73
     3
 74
     0
 42
0.0000000001
 43
0.0000000001
 40
-0.6011535741846501
 40
-0.6011535741846501
 40
-0.6011535741846501
 40
0.0
 40
0.0
 40
0.0
 10
188.5328740423499
 20
517.7708763999657
 30
0.0
 10
188.8334507924083
 20
517.7708763999657
 30
0.0
 10
189.1340275424666
 20
517.7708763999657
 30
0.0
  0
SPLINE
  5
145
330
1F
100
AcDbEntity
  8
Linee visibili 2D
100
AcDbSpline
210
0.0
220
0.0
230
1.0
 70
    24
 71
     2
 72
     6
 73
     3
 74
     0
 42
0.0000000001
 43
0.0000000001
 40
0.0
 40
0.0
 40
0.0
 40
0.7799810870050123
 40
0.7799810870050123
 40
0.7799810870050123
 10
189.1340275424666
 20
517.7708763999657
 30
0.0
 10
189.524018061453
 20
517.7708763999657
 30
0.0
 10
189.9140085804394
 20
517.7708763999657
 30
0.0
  0
SPLINE
  5
146
330
1F
100
AcDbEntity
  8
Linee visibili 2D
100
AcDbSpline
210
0.0
220
0.0
230
1.0
 70
    24
 71
     2
 72
     6
 73
     3
 74
     0
 42
0.0000000001
 43
0.0000000001
 40
-0.6375809721672567
 40
-0.6375809721672567
 40
-0.6375809721672567
 40
0.0
 40
0.0
 40
0.0
 10
189.9140085804394
 20
517.7708763999657
 30
0.0
 10
190.2327990385908
 20
517.7708763999657
 30
0.0
 10
190.5515894967422
 20
517.7708763999657
 30
0.0
  0
SPLINE
  5
147
330
1F
100
AcDbEntity
  8
Linee visibili 2D
100
AcDbSpline
210
0.0
220
0.0
230
1.0
 70
    24
 71
     2
 72
     6
 73
     3
 74
     0
 42
0.0000000001
 43
0.0000000001
 40
0.0
 40
0.0
 40
0.0
 40
0.7247435387183998
 40
0.7247435387183998
 40
0.7247435387183998
 10
190.5515894967422
 20
517.7708763999657
 30
0.0
 10
190.9139612503594
 20
517.7708763999657
 30
0.0
 10
191.2763330039766
 20
517.7708763999657
 30
0.0
  0
SPLINE
  5
148
330
1F
100
AcDbEntity
  8
Linee visibili 2D
100
AcDbSpline
210
0.0
220
0.0
230
1.0
 70
    24
 71
     2
 72
     6
 73
     3
 74
     0
 42
0.0000000001
 43
0.0000000001
 40
-0.6782449065131573
 40
-0.6782449065131573
 40
-0.6782449065131573
 40
0.0
 40
0.0
 40
0.0
 10
191.2763330039766
 20
517.7708763999657
 30
0.0
 10
191.6154554370176
 20
517.7708763999657
 30
0.0
 10
191.9545778700586
 20
517.7708763999657
 30
0.0
  0
SPLINE
  5
149
330
1F
100
AcDbEntity
  8
Linee visibili 2D
100
AcDbSpline
210
0.0
220
0.0
230
1.0
 70
    24
 71
     2
 72
     6
 73
     3
 74
     0
 42
0.0000000001
 43
0.0000000001
 40
0.0
 40
0.0
 40
0.0
 40
0.6646846899610637
 40
0.6646846899610637
 40
0.6646846899610637
 10
191.9545778700586
 20
517.7708763999657
 30
0.0
 10
192.2869202674128
 20
517.7708763999657
 30
0.0
 10
192.6192626647669
 20
517.7708763999657
 30
0.0
  0
SPLINE
  5
14A
330
1F
100
AcDbEntity
  8
Linee visibili 2D
100
AcDbSpline
210
0.0
220
0.0
230
1.0
 70
    24
 71
     2
 72
     6
 73
     3
 74
     0
 42
0.0000000001
 43
0.0000000001
 40
-0.0308614937476079
 40
-0.0308614937476079
 40
-0.0308614937476079
 40
0.0
 40
0.0
 40
0.0
 10
192.6192626647669
 20
517.7708763999657
 30
0.0
 10
192.6346934675772
 20
517.7708763999657
 30
0.0
 10
192.6501242703874
 20
517.7708763999657
 30
0.0
  0
SPLINE
  5
14B
330
1F
100
AcDbEntity
  8
Linee visibili 2D
100
AcDbSpline
210
0.0
220
0.0
230
1.0
 70
    24
 71
     2
 72
     6
 73
     3
 74
     0
 42
0.0000000001
 43
0.0000000001
 40
0.0
 40
0.0
 40
0.0
 40
1.292089207615163
 40
1.292089207615163
 40
1.292089207615163
 10
192.6501242703874
 20
517.7708763999657
 30
0.0
 10
193.296168858174
 20
517.7708763999657
 30
0.0
 10
193.9422134459605
 20
517.7708763999657
 30
0.0
  0
SPLINE
  5
14C
330
1F
100
AcDbEntity
  8
Linee visibili 2D
100
AcDbSpline
210
0.0
220
0.0
230
1.0
 70
    24
 71
     2
 72
     6
 73
     3
 74
     0
 42
0.0000000001
 43
0.0000000001
 40
-0.0861484653001412
 40
-0.0861484653001412
 40
-0.0861484653001412
 40
0.0
 40
0.0
 40
0.0
 10
193.9422134459605
 20
517.7708763999657
 30
0.0
 10
193.9852876773516
 20
517.7708763999657
 30
0.0
 10
194.0283619087427
 20
517.7708763999657
 30
0.0
  0
SPLINE
  5
14D
330
1F
100
AcDbEntity
  8
Linee visibili 2D
100
AcDbSpline
210
0.0
220
0.0
230
1.0
 70
    24
 71
     2
 72
     6
 73
     3
 74
     0
 42
0.0000000001
 43
0.0000000001
 40
0.0
 40
0.0
 40
0.0
 40
1.216238484383894
 40
1.216238484383894
 40
1.216238484383894
 10
194.0283619087427
 20
517.7708763999657
 30
0.0
 10
194.6364811489754
 20
517.7708763999657
 30
0.0
 10
195.2446003892081
 20
517.7708763999657
 30
0.0
  0
SPLINE
  5
14E
330
1F
100
AcDbEntity
  8
Linee visibili 2D
100
AcDbSpline
210
0.0
220
0.0
230
1.0
 70
    24
 71
     2
 72
     6
 73
     3
 74
     0
 42
0.0000000001
 43
0.0000000001
 40
-0.1435906764226331
 40
-0.1435906764226331
 40
-0.1435906764226331
 40
0.0
 40
0.0
 40
0.0
 10
195.2446003892081
 20
517.7708763999657
 30
0.0
 10
195.316395725063
 20
517.7708763999657
 30
0.0
 10
195.3881910609179
 20
517.7708763999657
 30
0.0
  0
SPLINE
  5
14F
330
1F
100
AcDbEntity
  8
Linee visibili 2D
100
AcDbSpline
210
0.0
220
0.0
230
1.0
 70
    24
 71
     2
 72
     6
 73
     3
 74
     0
 42
0.0000000001
 43
0.0000000001
 40
0.0
 40
0.0
 40
0.0
 40
1.137648054601726
 40
1.137648054601726
 40
1.137648054601726
 10
195.3881910609179
 20
517.7708763999657
 30
0.0
 10
195.9570150853812
 20
517.7708763999657
 30
0.0
 10
196.5258391098445
 20
517.7708763999657
 30
0.0
  0
SPLINE
  5
150
330
1F
100
AcDbEntity
  8
Linee visibili 2D
100
AcDbSpline
210
0.0
220
0.0
230
1.0
 70
    24
 71
     2
 72
     6
 73
     3
 74
     0
 42
0.0000000001
 43
0.0000000001
 40
-0.202268146212532
 40
-0.202268146212532
 40
-0.202268146212532
 40
0.0
 40
0.0
 40
0.0
 10
196.5258391098445
 20
517.7708763999657
 30
0.0
 10
196.6269731790655
 20
517.7708763999657
 30
0.0
 10
196.7281072482866
 20
517.7708763999657
 30
0.0
  0
SPLINE
  5
151
330
1F
100
AcDbEntity
  8
Linee visibili 2D
100
AcDbSpline
210
0.0
220
0.0
230
1.0
 70
    24
 71
     2
 72
     6
 73
     3
 74
     0
 42
0.0000000001
 43
0.0000000001
 40
0.0
 40
0.0
 40
0.0
 40
1.057237840648639
 40
1.057237840648639
 40
1.057237840648639
 10
196.7281072482866
 20
517.7708763999657
 30
0.0
 10
197.2567261645856
 20
517.7708763999657
 30
0.0
 10
197.7853450808845
 20
517.7708763999657
 30
0.0
  0
SPLINE
  5
152
330
1F
100
AcDbEntity
  8
Linee visibili 2D
100
AcDbSpline
210
0.0
220
0.0
230
1.0
 70
    24
 71
     2
 72
     6
 73
     3
 74
     0
 42
0.0000000001
 43
0.0000000001
 40
-0.2612857410479421
 40
-0.2612857410479421
 40
-0.2612857410479421
 40
0.0
 40
0.0
 40
0.0
 10
197.7853450808845
 20
517.7708763999657
 30
0.0
 10
197.9159879452206
 20
517.7708763999657
 30
0.0
 10
198.0466308095568
 20
517.7708763999657
 30
0.0
  0
SPLINE
  5
153
330
1F
100
AcDbEntity
  8
Linee visibili 2D
100
AcDbSpline
210
0.0
220
0.0
230
1.0
 70
    24
 71
     2
 72
     6
 73
     3
 74
     0
 42
0.0000000001
 43
0.0000000001
 40
0.0
 40
0.0
 40
0.0
 40
0.9759029778492163
 40
0.9759029778492163
 40
0.9759029778492163
 10
198.0466308095568
 20
517.7708763999657
 30
0.0
 10
198.5345822925331
 20
517.7708763999657
 30
0.0
 10
199.0225337755095
 20
517.7708763999657
 30
0.0
  0
SPLINE
  5
154
330
1F
100
AcDbEntity
  8
Linee visibili 2D
100
AcDbSpline
210
0.0
220
0.0
230
1.0
 70
    24
 71
     2
 72
     6
 73
     3
 74
     0
 42
0.0000000001
 43
0.0000000001
 40
-0.3197783464497093
 40
-0.3197783464497093
 40
-0.3197783464497093
 40
0.0
 40
0.0
 40
0.0
 10
199.0225337755095
 20
517.7708763999657
 30
0.0
 10
199.1824229389478
 20
517.7708763999657
 30
0.0
 10
199.342312102386
 20
517.7708763999657
 30
0.0
  0
SPLINE
  5
155
330
1F
100
AcDbEntity
  8
Linee visibili 2D
100
AcDbSpline
210
0.0
220
0.0
230
1.0
 70
    24
 71
     2
 72
     6
 73
     3
 74
     0
 42
0.0000000001
 43
0.0000000001
 40
0.0
 40
0.0
 40
0.0
 40
0.8945085832060329
 40
0.8945085832060329
 40
0.8945085832060329
 10
199.342312102386
 20
517.7708763999657
 30
0.0
 10
199.7895663847518
 20
517.7708763999657
 30
0.0
 10
200.2368206671177
 20
517.7708763999657
 30
0.0
  0
SPLINE
  5
156
330
1F
100
AcDbEntity
  8
Linee visibili 2D
100
AcDbSpline
210
0.0
220
0.0
230
1.0
 70
    24
 71
     2
 72
     6
 73
     3
 74
     0
 42
0.0000000001
 43
0.0000000001
 40
-0.3769160159036176
 40
-0.3769160159036176
 40
-0.3769160159036176
 40
0.0
 40
0.0
 40
0.0
 10
200.2368206671177
 20
517.7708763999657
 30
0.0
 10
200.4252786597089
 20
517.7708763999657
 30
0.0
 10
200.6137366523001
 20
517.7708763999657
 30
0.0
  0
SPLINE
  5
157
330
1F
100
AcDbEntity
  8
Linee visibili 2D
100
AcDbSpline
210
0.0
220
0.0
230
1.0
 70
    24
 71
     2
 72
     6
 73
     3
 74
     0
 42
0.0000000001
 43
0.0000000001
 40
0.0
 40
0.0
 40
0.0
 40
0.8138846063552307
 40
0.8138846063552307
 40
0.8138846063552307
 10
200.6137366523001
 20
517.7708763999657
 30
0.0
 10
201.0206789408051
 20
517.7708763999657
 30
0.0
 10
201.4276212293102
 20
517.7708763999657
 30
0.0
  0
SPLINE
  5
158
330
1F
100
AcDbEntity
  8
Linee visibili 2D
100
AcDbSpline
210
0.0
220
0.0
230
1.0
 70
    24
 71
     2
 72
     6
 73
     3
 74
     0
 42
0.0000000001
 43
0.0000000001
 40
-0.4319088604101751
 40
-0.4319088604101751
 40
-0.4319088604101751
 40
0.0
 40
0.0
 40
0.0
 10
201.4276212293102
 20
517.7708763999657
 30
0.0
 10
201.6435756707164
 20
517.7708763999657
 30
0.0
 10
201.8595301121227
 20
517.7708763999657
 30
0.0
  0
SPLINE
  5
159
330
1F
100
AcDbEntity
  8
Linee visibili 2D
100
AcDbSpline
210
0.0
220
0.0
230
1.0
 70
    24
 71
     2
 72
     6
 73
     3
 74
     0
 42
0.0000000001
 43
0.0000000001
 40
0.0
 40
0.0
 40
0.0
 40
0.734820800059083
 40
0.734820800059083
 40
0.734820800059083
 10
201.8595301121227
 20
517.7708763999657
 30
0.0
 10
202.2269405239572
 20
517.7708763999657
 30
0.0
 10
202.5943509357916
 20
517.7708763999657
 30
0.0
  0
SPLINE
  5
15A
330
1F
100
AcDbEntity
  8
Linee visibili 2D
100
AcDbSpline
210
0.0
220
0.0
230
1.0
 70
    24
 71
     2
 72
     6
 73
     3
 74
     0
 42
0.0000000001
 43
0.0000000001
 40
-0.4840124783228248
 40
-0.4840124783228248
 40
-0.4840124783228248
 40
0.0
 40
0.0
 40
0.0
 10
202.5943509357916
 20
517.7708763999657
 30
0.0
 10
202.8363571745477
 20
517.7708763999657
 30
0.0
 10
203.0783634133038
 20
517.7708763999657
 30
0.0
  0
SPLINE
  5
15B
330
1F
100
AcDbEntity
  8
Linee visibili 2D
100
AcDbSpline
210
0.0
220
0.0
230
1.0
 70
    24
 71
     2
 72
     6
 73
     3
 74
     0
 42
0.0000000001
 43
0.0000000001
 40
0.0
 40
0.0
 40
0.0
 40
0.6580615744242948
 40
0.6580615744242948
 40
0.6580615744242948
 10
203.0783634133038
 20
517.7708763999657
 30
0.0
 10
203.4073942685961
 20
517.7708763999657
 30
0.0
 10
203.7364251238885
 20
517.7708763999657
 30
0.0
  0
SPLINE
  5
15C
330
1F
100
AcDbEntity
  8
Linee visibili 2D
100
AcDbSpline
210
0.0
220
0.0
230
1.0
 70
    24
 71
     2
 72
     6
 73
     3
 74
     0
 42
0.0000000001
 43
0.0000000001
 40
-0.5325317369652112
 40
-0.5325317369652112
 40
-0.5325317369652112
 40
0.0
 40
0.0
 40
0.0
 10
203.7364251238885
 20
517.7708763999657
 30
0.0
 10
204.0026910604513
 20
517.7708763999657
 30
0.0
 10
204.2689569970141
 20
517.7708763999657
 30
0.0
  0
SPLINE
  5
15D
330
1F
100
AcDbEntity
  8
Linee visibili 2D
100
AcDbSpline
210
0.0
220
0.0
230
1.0
 70
    24
 71
     2
 72
     6
 73
     3
 74
     0
 42
0.0000000001
 43
0.0000000001
 40
0.0
 40
0.0
 40
0.0
 40
0.2921609483620387
 40
0.2921609483620387
 40
0.2921609483620387
 10
204.2689569970141
 20
517.7708763999657
 30
0.0
 10
204.4150374540905
 20
517.7708763999657
 30
0.0
 10
204.5611179111668
 20
517.7708763999657
 30
0.0
  0
SPLINE
  5
15E
330
1F
100
AcDbEntity
  8
Linee visibili 2D
100
AcDbSpline
210
0.0
220
0.0
230
1.0
 70
    24
 71
     2
 72
     6
 73
     3
 74
     0
 42
0.0000000001
 43
0.0000000001
 40
-0.5805643574099406
 40
-0.5805643574099406
 40
-0.5805643574099406
 40
0.0
 40
0.0
 40
0.0
 10
204.5611179111668
 20
517.7708763999657
 30
0.0
 10
204.8514000810729
 20
517.7708763999657
 30
0.0
 10
205.141682250979
 20
517.7708763999657
 30
0.0
  0
SPLINE
  5
15F
330
1F
100
AcDbEntity
  8
Linee visibili 2D
100
AcDbSpline
210
0.0
220
0.0
230
1.0
 70
    24
 71
     2
 72
     6
 73
     3
 74
     0
 42
0.0000000001
 43
0.0000000001
 40
0.0
 40
0.0
 40
0.0
 40
0.8012719813161198
 40
0.8012719813161198
 40
0.8012719813161198
 10
205.141682250979
 20
517.7708763999657
 30
0.0
 10
205.5423182426637
 20
517.7708763999657
 30
0.0
 10
205.9429542343484
 20
517.7708763999657
 30
0.0
  0
SPLINE
  5
160
330
1F
100
AcDbEntity
  8
Linee visibili 2D
100
AcDbSpline
210
0.0
220
0.0
230
1.0
 70
    24
 71
     2
 72
     6
 73
     3
 74
     0
 42
0.0000000001
 43
0.0000000001
 40
-0.0562793463094806
 40
-0.0562793463094806
 40
-0.0562793463094806
 40
0.0
 40
0.0
 40
0.0
 10
205.9429542343484
 20
517.7708763999657
 30
0.0
 10
205.9710939000252
 20
517.7708763999657
 30
0.0
 10
205.9992335657021
 20
517.7708763999657
 30
0.0
  0
SPLINE
  5
161
330
1F
100
AcDbEntity
  8
Linee visibili 2D
100
AcDbSpline
210
0.0
220
0.0
230
1.0
 70
    24
 71
     2
 72
     6
 73
     3
 74
     0
 42
0.0000000001
 43
0.0000000001
 40
0.0
 40
0.0
 40
0.0
 40
1.004504605176493
 40
1.004504605176493
 40
1.004504605176493
 10
205.9992335657021
 20
517.7708763999657
 30
0.0
 10
206.5014858561172
 20
517.7708763999657
 30
0.0
 10
207.0037381465324
 20
517.7708763999657
 30
0.0
  0
SPLINE
  5
162
330
1F
100
AcDbEntity
  8
Linee visibili 2D
100
AcDbSpline
210
0.0
220
0.0
230
1.0
 70
    24
 71
     2
 72
     6
 73
     3
 74
     0
 42
0.0000000001
 43
0.0000000001
 40
-0.1102581411820154
 40
-0.1102581411820154
 40
-0.1102581411820154
 40
0.0
 40
0.0
 40
0.0
 10
207.0037381465324
 20
517.7708763999657
 30
0.0
 10
207.0588672034576
 20
517.7708763999657
 30
0.0
 10
207.1139962603828
 20
517.7708763999657
 30
0.0
  0
SPLINE
  5
163
330
1F
100
AcDbEntity
  8
Linee visibili 2D
100
AcDbSpline
210
0.0
220
0.0
230
1.0
 70
    24
 71
     2
 72
     6
 73
     3
 74
     0
 42
0.0000000001
 43
0.0000000001
 40
0.0
 40
0.0
 40
0.0
 40
0.9212244488133479
 40
0.9212244488133479
 40
0.9212244488133479
 10
207.1139962603828
 20
517.7708763999657
 30
0.0
 10
207.5746084691703
 20
517.7708763999657
 30
0.0
 10
208.0352206779578
 20
517.7708763999657
 30
0.0
  0
SPLINE
  5
164
330
1F
100
AcDbEntity
  8
Linee visibili 2D
100
AcDbSpline
210
0.0
220
0.0
230
1.0
 70
    24
 71
     2
 72
     6
 73
     3
 74
     0
 42
0.0000000001
 43
0.0000000001
 40
-0.1612741984823174
 40
-0.1612741984823174
 40
-0.1612741984823174
 40
0.0
 40
0.0
 40
0.0
 10
208.0352206779578
 20
517.7708763999657
 30
0.0
 10
208.1158577572688
 20
517.7708763999658
 30
0.0
 10
208.1964948365798
 20
517.7708763999658
 30
0.0
  0
SPLINE
  5
165
330
1F
100
AcDbEntity
  8
Linee visibili 2D
100
AcDbSpline
210
0.0
220
0.0
230
1.0
 70
    24
 71
     2
 72
     6
 73
     3
 74
     0
 42
0.0000000001
 43
0.0000000001
 40
0.0
 40
0.0
 40
0.0
 40
0.8405162974252107
 40
0.8405162974252107
 40
0.8405162974252107
 10
208.1964948365798
 20
517.7708763999658
 30
0.0
 10
208.6167529658682
 20
517.7708763999658
 30
0.0
 10
209.0370110951565
 20
517.7708763999657
 30
0.0
  0
SPLINE
  5
166
330
1F
100
AcDbEntity
  8
Linee visibili 2D
100
AcDbSpline
210
0.0
220
0.0
230
1.0
 70
    24
 71
     2
 72
     6
 73
     3
 74
     0
 42
0.0000000001
 43
0.0000000001
 40
-0.2087136769472977
 40
-0.2087136769472977
 40
-0.2087136769472977
 40
0.0
 40
0.0
 40
0.0
 10
209.0370110951565
 20
517.7708763999657
 30
0.0
 10
209.1413679346413
 20
517.7708763999658
 30
0.0
 10
209.245724774126
 20
517.7708763999658
 30
0.0
  0
SPLINE
  5
167
330
1F
100
AcDbEntity
  8
Linee visibili 2D
100
AcDbSpline
210
0.0
220
0.0
230
1.0
 70
    24
 71
     2
 72
     6
 73
     3
 74
     0
 42
0.0000000001
 43
0.0000000001
 40
0.0
 40
0.0
 40
0.0
 40
0.7629938846248194
 40
0.7629938846248194
 40
0.7629938846248194
 10
209.245724774126
 20
517.7708763999658
 30
0.0
 10
209.6272217197628
 20
517.7708763999658
 30
0.0
 10
210.0087186653996
 20
517.7708763999657
 30
0.0
  0
SPLINE
  5
168
330
1F
100
AcDbEntity
  8
Linee visibili 2D
100
AcDbSpline
210
0.0
220
0.0
230
1.0
 70
    24
 71
     2
 72
     6
 73
     3
 74
     0
 42
0.0000000001
 43
0.0000000001
 40
-0.2520337178331147
 40
-0.2520337178331147
 40
-0.2520337178331147
 40
0.0
 40
0.0
 40
0.0
 10
210.0087186653996
 20
517.7708763999657
 30
0.0
 10
210.1347355132075
 20
517.7708763999657
 30
0.0
 10
210.2607523610154
 20
517.7708763999657
 30
0.0
  0
SPLINE
  5
169
330
1F
100
AcDbEntity
  8
Linee visibili 2D
100
AcDbSpline
210
0.0
220
0.0
230
1.0
 70
    24
 71
     2
 72
     6
 73
     3
 74
     0
 42
0.0000000001
 43
0.0000000001
 40
0.0
 40
0.0
 40
0.0
 40
0.6892003111166787
 40
0.6892003111166787
 40
0.6892003111166787
 10
210.2607523610154
 20
517.7708763999657
 30
0.0
 10
210.6053525087102
 20
517.7708763999657
 30
0.0
 10
210.9499526564049
 20
517.7708763999657
 30
0.0
  0
SPLINE
  5
16A
330
1F
100
AcDbEntity
  8
Linee visibili 2D
100
AcDbSpline
210
0.0
220
0.0
230
1.0
 70
    24
 71
     2
 72
     6
 73
     3
 74
     0
 42
0.0000000001
 43
0.0000000001
 40
-0.2907643593365776
 40
-0.2907643593365776
 40
-0.2907643593365776
 40
0.0
 40
0.0
 40
0.0
 10
210.9499526564049
 20
517.7708763999657
 30
0.0
 10
211.0953348282097
 20
517.7708763999657
 30
0.0
 10
211.2407170000145
 20
517.7708763999657
 30
0.0
  0
SPLINE
  5
16B
330
1F
100
AcDbEntity
  8
Linee visibili 2D
100
AcDbSpline
210
0.0
220
0.0
230
1.0
 70
    24
 71
     2
 72
     6
 73
     3
 74
     0
 42
0.0000000001
 43
0.0000000001
 40
0.0
 40
0.0
 40
0.0
 40
0.6196053451189414
 40
0.6196053451189414
 40
0.6196053451189414
 10
211.2407170000145
 20
517.7708763999657
 30
0.0
 10
211.5505196679821
 20
517.7708763999657
 30
0.0
 10
211.8603223359498
 20
517.7708763999657
 30
0.0
  0
SPLINE
  5
16C
330
1F
100
AcDbEntity
  8
Linee visibili 2D
100
AcDbSpline
210
0.0
220
0.0
230
1.0
 70
    24
 71
     2
 72
     6
 73
     3
 74
     0
 42
0.0000000001
 43
0.0000000001
 40
-0.3245115388612874
 40
-0.3245115388612874
 40
-0.3245115388612874
 40
0.0
 40
0.0
 40
0.0
 10
211.8603223359498
 20
517.7708763999657
 30
0.0
 10
212.0225781007888
 20
517.7708763999657
 30
0.0
 10
212.1848338656278
 20
517.7708763999657
 30
0.0
  0
SPLINE
  5
16D
330
1F
100
AcDbEntity
  8
Linee visibili 2D
100
AcDbSpline
210
0.0
220
0.0
230
1.0
 70
    24
 71
     2
 72
     6
 73
     3
 74
     0
 42
0.0000000001
 43
0.0000000001
 40
0.0
 40
0.0
 40
0.0
 40
0.5546031098725166
 40
0.5546031098725166
 40
0.5546031098725166
 10
212.1848338656278
 20
517.7708763999657
 30
0.0
 10
212.4621354185426
 20
517.7708763999657
 30
0.0
 10
212.7394369714575
 20
517.7708763999657
 30
0.0
  0
SPLINE
  5
16E
330
1F
100
AcDbEntity
  8
Linee visibili 2D
100
AcDbSpline
210
0.0
220
0.0
230
1.0
 70
    24
 71
     2
 72
     6
 73
     3
 74
     0
 42
0.0000000001
 43
0.0000000001
 40
-0.3529586928256947
 40
-0.3529586928256947
 40
-0.3529586928256947
 40
0.0
 40
0.0
 40
0.0
 10
212.7394369714575
 20
517.7708763999657
 30
0.0
 10
212.9159163158492
 20
517.7708763999657
 30
0.0
 10
213.0923956602408
 20
517.7708763999657
 30
0.0
  0
SPLINE
  5
16F
330
1F
100
AcDbEntity
  8
Linee visibili 2D
100
AcDbSpline
210
0.0
220
0.0
230
1.0
 70
    24
 71
     2
 72
     6
 73
     3
 74
     0
 42
0.0000000001
 43
0.0000000001
 40
0.0
 40
0.0
 40
0.0
 40
0.494510170459364
 40
0.494510170459364
 40
0.494510170459364
 10
213.0923956602408
 20
517.7708763999657
 30
0.0
 10
213.3396507449431
 20
517.7708763999657
 30
0.0
 10
213.5869058296453
 20
517.7708763999657
 30
0.0
  0
SPLINE
  5
170
330
1F
100
AcDbEntity
  8
Linee visibili 2D
100
AcDbSpline
210
0.0
220
0.0
230
1.0
 70
    24
 71
     2
 72
     6
 73
     3
 74
     0
 42
0.0000000001
 43
0.0000000001
 40
-0.3758683194861021
 40
-0.3758683194861021
 40
-0.3758683194861021
 40
0.0
 40
0.0
 40
0.0
 10
213.5869058296453
 20
517.7708763999657
 30
0.0
 10
213.7748399888612
 20
517.7708763999657
 30
0.0
 10
213.9627741480771
 20
517.7708763999657
 30
0.0
  0
SPLINE
  5
171
330
1F
100
AcDbEntity
  8
Linee visibili 2D
100
AcDbSpline
210
0.0
220
0.0
230
1.0
 70
    24
 71
     2
 72
     6
 73
     3
 74
     0
 42
0.0000000001
 43
0.0000000001
 40
0.0
 40
0.0
 40
0.0
 40
0.4395641817735907
 40
0.4395641817735907
 40
0.4395641817735907
 10
213.9627741480771
 20
517.7708763999657
 30
0.0
 10
214.1825562005662
 20
517.7708763999657
 30
0.0
 10
214.4023382530554
 20
517.7708763999657
 30
0.0
  0
SPLINE
  5
172
330
1F
100
AcDbEntity
  8
Linee visibili 2D
100
AcDbSpline
210
0.0
220
0.0
230
1.0
 70
    24
 71
     2
 72
     6
 73
     3
 74
     0
 42
0.0000000001
 43
0.0000000001
 40
-0.3930830723350311
 40
-0.3930830723350311
 40
-0.3930830723350311
 40
0.0
 40
0.0
 40
0.0
 10
214.4023382530554
 20
517.7708763999657
 30
0.0
 10
214.5988797508257
 20
517.7708763999657
 30
0.0
 10
214.7954212485961
 20
517.7708763999657
 30
0.0
  0
SPLINE
  5
173
330
1F
100
AcDbEntity
  8
Linee visibili 2D
100
AcDbSpline
210
0.0
220
0.0
230
1.0
 70
    24
 71
     2
 72
     6
 73
     3
 74
     0
 42
0.0000000001
 43
0.0000000001
 40
0.0
 40
0.0
 40
0.0
 40
0.3899220696716839
 40
0.3899220696716839
 40
0.3899220696716839
 10
214.7954212485961
 20
517.7708763999657
 30
0.0
 10
214.9903822729627
 20
517.7708763999657
 30
0.0
 10
215.1853432973294
 20
517.7708763999657
 30
0.0
  0
SPLINE
  5
174
330
1F
100
AcDbEntity
  8
Linee visibili 2D
100
AcDbSpline
210
0.0
220
0.0
230
1.0
 70
    24
 71
     2
 72
     6
 73
     3
 74
     0
 42
0.0000000001
 43
0.0000000001
 40
-0.0121030706324063
 40
-0.0121030706324063
 40
-0.0121030706324063
 40
0.0
 40
0.0
 40
0.0
 10
215.1853432973294
 20
517.7708763999657
 30
0.0
 10
215.1913948221592
 20
517.7708763999656
 30
0.0
 10
215.1974463469889
 20
517.7708763999656
 30
0.0
  0
SPLINE
  5
175
330
1F
100
AcDbEntity
  8
Linee visibili 2D
100
AcDbSpline
210
0.0
220
0.0
230
1.0
 70
    24
 71
     2
 72
     6
 73
     3
 74
     0
 42
0.0000000001
 43
0.0000000001
 40
0.0
 40
0.0
 40
0.0
 40
0.7380841707777961
 40
0.7380841707777961
 40
0.7380841707777961
 10
215.1974463469889
 20
517.7708763999656
 30
0.0
 10
215.5664884016647
 20
517.7708763999656
 30
0.0
 10
215.9355304563405
 20
517.7708763999657
 30
0.0
  0
SPLINE
  5
176
330
1F
100
AcDbEntity
  8
Linee visibili 2D
100
AcDbSpline
210
0.0
220
0.0
230
1.0
 70
    24
 71
     2
 72
     6
 73
     3
 74
     0
 42
0.0000000001
 43
0.0000000001
 40
-0.0371152382557796
 40
-0.0371152382557796
 40
-0.0371152382557796
 40
0.0
 40
0.0
 40
0.0
 10
215.9355304563405
 20
517.7708763999657
 30
0.0
 10
215.9540880441912
 20
517.7708763999657
 30
0.0
 10
215.9726456320419
 20
517.7708763999657
 30
0.0
  0
SPLINE
  5
177
330
1F
100
AcDbEntity
  8
Linee visibili 2D
100
AcDbSpline
210
0.0
220
0.0
230
1.0
 70
    24
 71
     2
 72
     6
 73
     3
 74
     0
 42
0.0000000001
 43
0.0000000001
 40
0.0
 40
0.0
 40
0.0
 40
0.679863005386494
 40
0.679863005386494
 40
0.679863005386494
 10
215.9726456320419
 20
517.7708763999657
 30
0.0
 10
216.3125771745628
 20
517.7708763999657
 30
0.0
 10
216.6525087170837
 20
517.7708763999657
 30
0.0
  0
SPLINE
  5
178
330
1F
100
AcDbEntity
  8
Linee visibili 2D
100
AcDbSpline
210
0.0
220
0.0
230
1.0
 70
    24
 71
     2
 72
     6
 73
     3
 74
     0
 42
0.0000000001
 43
0.0000000001
 40
-0.0565886842570649
 40
-0.0565886842570649
 40
-0.0565886842570649
 40
0.0
 40
0.0
 40
0.0
 10
216.6525087170837
 20
517.7708763999657
 30
0.0
 10
216.6808030970093
 20
517.7708763999658
 30
0.0
 10
216.709097476935
 20
517.7708763999658
 30
0.0
  0
SPLINE
  5
179
330
1F
100
AcDbEntity
  8
Linee visibili 2D
100
AcDbSpline
210
0.0
220
0.0
230
1.0
 70
    24
 71
     2
 72
     6
 73
     3
 74
     0
 42
0.0000000001
 43
0.0000000001
 40
0.0
 40
0.0
 40
0.0
 40
0.6267901797639013
 40
0.6267901797639013
 40
0.6267901797639013
 10
216.709097476935
 20
517.7708763999658
 30
0.0
 10
217.0224925891403
 20
517.7708763999658
 30
0.0
 10
217.3358877013457
 20
517.7708763999657
 30
0.0
  0
SPLINE
  5
17A
330
1F
100
AcDbEntity
  8
Linee visibili 2D
100
AcDbSpline
210
0.0
220
0.0
230
1.0
 70
    24
 71
     2
 72
     6
 73
     3
 74
     0
 42
0.0000000001
 43
0.0000000001
 40
-0.070649307595005
 40
-0.070649307595005
 40
-0.070649307595005
 40
0.0
 40
0.0
 40
0.0
 10
217.3358877013457
 20
517.7708763999657
 30
0.0
 10
217.3712123735107
 20
517.7708763999658
 30
0.0
 10
217.4065370456758
 20
517.7708763999658
 30
0.0
  0
SPLINE
  5
17B
330
1F
100
AcDbEntity
  8
Linee visibili 2D
100
AcDbSpline
210
0.0
220
0.0
230
1.0
 70
    24
 71
     2
 72
     6
 73
     3
 74
     0
 42
0.0000000001
 43
0.0000000001
 40
0.0
 40
0.0
 40
0.0
 40
0.5787394883001298
 40
0.5787394883001298
 40
0.5787394883001298
 10
217.4065370456758
 20
517.7708763999658
 30
0.0
 10
217.6959067832629
 20
517.7708763999658
 30
0.0
 10
217.9852765208501
 20
517.7708763999657
 30
0.0
  0
SPLINE
  5
17C
330
1F
100
AcDbEntity
  8
Linee visibili 2D
100
AcDbSpline
210
0.0
220
0.0
230
1.0
 70
    24
 71
     2
 72
     6
 73
     3
 74
     0
 42
0.0000000001
 43
0.0000000001
 40
-0.3938892513370433
 40
-0.3938892513370433
 40
-0.3938892513370433
 40
0.0
 40
0.0
 40
0.0
 10
217.9852765208501
 20
517.7708763999657
 30
0.0
 10
218.182221146532
 20
517.7708763999656
 30
0.0
 10
218.3791657722139
 20
517.7708763999656
 30
0.0
  0
SPLINE
  5
17D
330
1F
100
AcDbEntity
  8
Linee visibili 2D
100
AcDbSpline
210
0.0
220
0.0
230
1.0
 70
    24
 71
     2
 72
     6
 73
     3
 74
     0
 42
0.0000000001
 43
0.0000000001
 40
0.0
 40
0.0
 40
0.0
 40
0.2211186005459354
 40
0.2211186005459354
 40
0.2211186005459354
 10
218.3791657722139
 20
517.7708763999656
 30
0.0
 10
218.4897250725009
 20
517.7708763999656
 30
0.0
 10
218.6002843727879
 20
517.7708763999657
 30
0.0
  0
SPLINE
  5
17E
330
1F
100
AcDbEntity
  8
Linee visibili 2D
100
AcDbSpline
210
0.0
220
0.0
230
1.0
 70
    24
 71
     2
 72
     6
 73
     3
 74
     0
 42
0.0000000001
 43
0.0000000001
 40
-0.3781542192284064
 40
-0.3781542192284064
 40
-0.3781542192284064
 40
0.0
 40
0.0
 40
0.0
 10
218.6002843727879
 20
517.7708763999657
 30
0.0
 10
218.7893614824245
 20
517.7708763999657
 30
0.0
 10
218.978438592061
 20
517.7708763999657
 30
0.0
  0
SPLINE
  5
17F
330
1F
100
AcDbEntity
  8
Linee visibili 2D
100
AcDbSpline
210
0.0
220
0.0
230
1.0
 70
    24
 71
     2
 72
     6
 73
     3
 74
     0
 42
0.0000000001
 43
0.0000000001
 40
0.0
 40
0.0
 40
0.0
 40
0.2017971051496374
 40
0.2017971051496374
 40
0.2017971051496374
 10
218.978438592061
 20
517.7708763999657
 30
0.0
 10
219.0793371446593
 20
517.7708763999657
 30
0.0
 10
219.1802356972575
 20
517.7708763999657
 30
0.0
  0
SPLINE
  5
180
330
1F
100
AcDbEntity
  8
Linee visibili 2D
100
AcDbSpline
210
0.0
220
0.0
230
1.0
 70
    24
 71
     2
 72
     6
 73
     3
 74
     0
 42
0.0000000001
 43
0.0000000001
 40
-0.3581589922668229
 40
-0.3581589922668229
 40
-0.3581589922668229
 40
0.0
 40
0.0
 40
0.0
 10
219.1802356972575
 20
517.7708763999657
 30
0.0
 10
219.3593151934221
 20
517.7708763999657
 30
0.0
 10
219.5383946895867
 20
517.7708763999657
 30
0.0
  0
SPLINE
  5
181
330
1F
100
AcDbEntity
  8
Linee visibili 2D
100
AcDbSpline
210
0.0
220
0.0
230
1.0
 70
    24
 71
     2
 72
     6
 73
     3
 74
     0
 42
0.0000000001
 43
0.0000000001
 40
0.0
 40
0.0
 40
0.0
 40
0.1853720307224762
 40
0.1853720307224762
 40
0.1853720307224762
 10
219.5383946895867
 20
517.7708763999657
 30
0.0
 10
219.6310807049808
 20
517.7708763999657
 30
0.0
 10
219.723766720375
 20
517.7708763999657
 30
0.0
  0
SPLINE
  5
182
330
1F
100
AcDbEntity
  8
Linee visibili 2D
100
AcDbSpline
210
0.0
220
0.0
230
1.0
 70
    24
 71
     2
 72
     6
 73
     3
 74
     0
 42
0.0000000001
 43
0.0000000001
 40
-0.335351990335198
 40
-0.335351990335198
 40
-0.335351990335198
 40
0.0
 40
0.0
 40
0.0
 10
219.723766720375
 20
517.7708763999657
 30
0.0
 10
219.891442715587
 20
517.7708763999657
 30
0.0
 10
220.0591187107991
 20
517.7708763999657
 30
0.0
  0
SPLINE
  5
183
330
1F
100
AcDbEntity
  8
Linee visibili 2D
100
AcDbSpline
210
0.0
220
0.0
230
1.0
 70
    24
 71
     2
 72
     6
 73
     3
 74
     0
 42
0.0000000001
 43
0.0000000001
 40
0.0
 40
0.0
 40
0.0
 40
0.1716213129645894
 40
0.1716213129645894
 40
0.1716213129645894
 10
220.0591187107991
 20
517.7708763999657
 30
0.0
 10
220.1449293673287
 20
517.7708763999657
 30
0.0
 10
220.2307400238583
 20
517.7708763999657
 30
0.0
  0
SPLINE
  5
184
330
1F
100
AcDbEntity
  8
Linee visibili 2D
100
AcDbSpline
210
0.0
220
0.0
230
1.0
 70
    24
 71
     2
 72
     6
 73
     3
 74
     0
 42
0.0000000001
 43
0.0000000001
 40
-0.3100278406242296
 40
-0.3100278406242296
 40
-0.3100278406242296
 40
0.0
 40
0.0
 40
0.0
 10
220.2307400238583
 20
517.7708763999657
 30
0.0
 10
220.3857539442354
 20
517.7708763999657
 30
0.0
 10
220.5407678646125
 20
517.7708763999657
 30
0.0
  0
SPLINE
  5
185
330
1F
100
AcDbEntity
  8
Linee visibili 2D
100
AcDbSpline
210
0.0
220
0.0
230
1.0
 70
    24
 71
     2
 72
     6
 73
     3
 74
     0
 42
0.0000000001
 43
0.0000000001
 40
0.0
 40
0.0
 40
0.0
 40
0.1602503246720346
 40
0.1602503246720346
 40
0.1602503246720346
 10
220.5407678646125
 20
517.7708763999657
 30
0.0
 10
220.6208930270186
 20
517.7708763999657
 30
0.0
 10
220.7010181894248
 20
517.7708763999657
 30
0.0
  0
SPLINE
  5
186
330
1F
100
AcDbEntity
  8
Linee visibili 2D
100
AcDbSpline
210
0.0
220
0.0
230
1.0
 70
    24
 71
     2
 72
     6
 73
     3
 74
     0
 42
0.0000000001
 43
0.0000000001
 40
-0.2825512454828072
 40
-0.2825512454828072
 40
-0.2825512454828072
 40
0.0
 40
0.0
 40
0.0
 10
220.7010181894248
 20
517.7708763999657
 30
0.0
 10
220.8422938122637
 20
517.7708763999657
 30
0.0
 10
220.9835694351026
 20
517.7708763999657
 30
0.0
  0
SPLINE
  5
187
330
1F
100
AcDbEntity
  8
Linee visibili 2D
100
AcDbSpline
210
0.0
220
0.0
230
1.0
 70
    24
 71
     2
 72
     6
 73
     3
 74
     0
 42
0.0000000001
 43
0.0000000001
 40
0.0
 40
0.0
 40
0.0
 40
0.1508943634713376
 40
0.1508943634713376
 40
0.1508943634713376
 10
220.9835694351026
 20
517.7708763999657
 30
0.0
 10
221.0590166169457
 20
517.7708763999657
 30
0.0
 10
221.1344637987887
 20
517.7708763999657
 30
0.0
  0
SPLINE
  5
188
330
1F
100
AcDbEntity
  8
Linee visibili 2D
100
AcDbSpline
210
0.0
220
0.0
230
1.0
 70
    24
 71
     2
 72
     6
 73
     3
 74
     0
 42
0.0000000001
 43
0.0000000001
 40
-0.2533542505151161
 40
-0.2533542505151161
 40
-0.2533542505151161
 40
0.0
 40
0.0
 40
0.0
 10
221.1344637987887
 20
517.7708763999657
 30
0.0
 10
221.2611409241969
 20
517.7708763999657
 30
0.0
 10
221.3878180496051
 20
517.7708763999657
 30
0.0
  0
SPLINE
  5
189
330
1F
100
AcDbEntity
  8
Linee visibili 2D
100
AcDbSpline
210
0.0
220
0.0
230
1.0
 70
    24
 71
     2
 72
     6
 73
     3
 74
     0
 42
0.0000000001
 43
0.0000000001
 40
0.0
 40
0.0
 40
0.0
 40
0.1431213837116445
 40
0.1431213837116445
 40
0.1431213837116445
 10
221.3878180496051
 20
517.7708763999657
 30
0.0
 10
221.4593787416318
 20
517.7708763999657
 30
0.0
 10
221.5309394336584
 20
517.7708763999657
 30
0.0
  0
SPLINE
  5
18A
330
1F
100
AcDbEntity
  8
Linee visibili 2D
100
AcDbSpline
210
0.0
220
0.0
230
1.0
 70
    24
 71
     2
 72
     6
 73
     3
 74
     0
 42
0.0000000001
 43
0.0000000001
 40
-0.2229332960974659
 40
-0.2229332960974659
 40
-0.2229332960974659
 40
0.0
 40
0.0
 40
0.0
 10
221.5309394336584
 20
517.7708763999657
 30
0.0
 10
221.6424060819471
 20
517.7708763999657
 30
0.0
 10
221.7538727302359
 20
517.7708763999657
 30
0.0
  0
SPLINE
  5
18B
330
1F
100
AcDbEntity
  8
Linee visibili 2D
100
AcDbSpline
210
0.0
220
0.0
230
1.0
 70
    24
 71
     2
 72
     6
 73
     3
 74
     0
 42
0.0000000001
 43
0.0000000001
 40
0.0
 40
0.0
 40
0.0
 40
0.1364349449220015
 40
0.1364349449220015
 40
0.1364349449220015
 10
221.7538727302359
 20
517.7708763999657
 30
0.0
 10
221.8220902029809
 20
517.7708763999657
 30
0.0
 10
221.890307675726
 20
517.7708763999657
 30
0.0
  0
SPLINE
  5
18C
330
1F
100
AcDbEntity
  8
Linee visibili 2D
100
AcDbSpline
210
0.0
220
0.0
230
1.0
 70
    24
 71
     2
 72
     6
 73
     3
 74
     0
 42
0.0000000001
 43
0.0000000001
 40
-0.1918460804740505
 40
-0.1918460804740505
 40
-0.1918460804740505
 40
0.0
 40
0.0
 40
0.0
 10
221.890307675726
 20
517.7708763999657
 30
0.0
 10
221.9862307163588
 20
517.7708763999657
 30
0.0
 10
222.0821537569917
 20
517.7708763999657
 30
0.0
  0
SPLINE
  5
18D
330
1F
100
AcDbEntity
  8
Linee visibili 2D
100
AcDbSpline
210
0.0
220
0.0
230
1.0
 70
    24
 71
     2
 72
     6
 73
     3
 74
     0
 42
0.0000000001
 43
0.0000000001
 40
0.0
 40
0.0
 40
0.0
 40
0.1302773486515889
 40
0.1302773486515889
 40
0.1302773486515889
 10
222.0821537569917
 20
517.7708763999657
 30
0.0
 10
222.1472924318161
 20
517.7708763999657
 30
0.0
 10
222.2124311066406
 20
517.7708763999657
 30
0.0
  0
SPLINE
  5
18E
330
1F
100
AcDbEntity
  8
Linee visibili 2D
100
AcDbSpline
210
0.0
220
0.0
230
1.0
 70
    24
 71
     2
 72
     6
 73
     3
 74
     0
 42
0.0000000001
 43
0.0000000001
 40
-0.1607082628238459
 40
-0.1607082628238459
 40
-0.1607082628238459
 40
0.0
 40
0.0
 40
0.0
 10
222.2124311066406
 20
517.7708763999657
 30
0.0
 10
222.2927852387326
 20
517.7708763999657
 30
0.0
 10
222.3731393708245
 20
517.7708763999657
 30
0.0
  0
SPLINE
  5
18F
330
1F
100
AcDbEntity
  8
Linee visibili 2D
100
AcDbSpline
210
0.0
220
0.0
230
1.0
 70
    24
 71
     2
 72
     6
 73
     3
 74
     0
 42
0.0000000001
 43
0.0000000001
 40
0.0
 40
0.0
 40
0.0
 40
0.1240329352267793
 40
0.1240329352267793
 40
0.1240329352267793
 10
222.3731393708245
 20
517.7708763999657
 30
0.0
 10
222.4351558393764
 20
517.7708763999657
 30
0.0
 10
222.4971723079282
 20
517.7708763999657
 30
0.0
  0
SPLINE
  5
190
330
1F
100
AcDbEntity
  8
Linee visibili 2D
100
AcDbSpline
210
0.0
220
0.0
230
1.0
 70
    24
 71
     2
 72
     6
 73
     3
 74
     0
 42
0.0000000001
 43
0.0000000001
 40
-0.130190034604766
 40
-0.130190034604766
 40
-0.130190034604766
 40
0.0
 40
0.0
 40
0.0
 10
222.4971723079282
 20
517.7708763999657
 30
0.0
 10
222.5622673264629
 20
517.7708763999657
 30
0.0
 10
222.6273623449975
 20
517.7708763999657
 30
0.0
  0
SPLINE
  5
191
330
1F
100
AcDbEntity
  8
Linee visibili 2D
100
AcDbSpline
210
0.0
220
0.0
230
1.0
 70
    24
 71
     2
 72
     6
 73
     3
 74
     0
 42
0.0000000001
 43
0.0000000001
 40
0.0
 40
0.0
 40
0.0
 40
0.1170315118692997
 40
0.1170315118692997
 40
0.1170315118692997
 10
222.6273623449975
 20
517.7708763999657
 30
0.0
 10
222.6858781028656
 20
517.7708763999657
 30
0.0
 10
222.7443938607338
 20
517.7708763999657
 30
0.0
  0
SPLINE
  5
192
330
1F
100
AcDbEntity
  8
Linee visibili 2D
100
AcDbSpline
210
0.0
220
0.0
230
1.0
 70
    24
 71
     2
 72
     6
 73
     3
 74
     0
 42
0.0000000001
 43
0.0000000001
 40
-0.1010125870911338
 40
-0.1010125870911338
 40
-0.1010125870911338
 40
0.0
 40
0.0
 40
0.0
 10
222.7443938607338
 20
517.7708763999657
 30
0.0
 10
222.7949001566858
 20
517.7708763999657
 30
0.0
 10
222.8454064526378
 20
517.7708763999657
 30
0.0
  0
SPLINE
  5
193
330
1F
100
AcDbEntity
  8
Linee visibili 2D
100
AcDbSpline
210
0.0
220
0.0
230
1.0
 70
    24
 71
     2
 72
     6
 73
     3
 74
     0
 42
0.0000000001
 43
0.0000000001
 40
0.0
 40
0.0
 40
0.0
 40
0.1085518833218941
 40
0.1085518833218941
 40
0.1085518833218941
 10
222.8454064526378
 20
517.7708763999657
 30
0.0
 10
222.8996823987782
 20
517.7708763999657
 30
0.0
 10
222.9539583449185
 20
517.7708763999657
 30
0.0
  0
SPLINE
  5
194
330
1F
100
AcDbEntity
  8
Linee visibili 2D
100
AcDbSpline
210
0.0
220
0.0
230
1.0
 70
    24
 71
     2
 72
     6
 73
     3
 74
     0
 42
0.0000000001
 43
0.0000000001
 40
-0.0739445023641281
 40
-0.0739445023641281
 40
-0.0739445023641281
 40
0.0
 40
0.0
 40
0.0
 10
222.9539583449185
 20
517.7708763999657
 30
0.0
 10
222.9909306013305
 20
517.7708763999657
 30
0.0
 10
223.0279028577426
 20
517.7708763999657
 30
0.0
  0
SPLINE
  5
195
330
1F
100
AcDbEntity
  8
Linee visibili 2D
100
AcDbSpline
210
0.0
220
0.0
230
1.0
 70
    24
 71
     2
 72
     6
 73
     3
 74
     0
 42
0.0000000001
 43
0.0000000001
 40
0.0
 40
0.0
 40
0.0
 40
0.0978255218318225
 40
0.0978255218318225
 40
0.0978255218318225
 10
223.0279028577426
 20
517.7708763999657
 30
0.0
 10
223.0768156136527
 20
517.7708763999657
 30
0.0
 10
223.1257283695628
 20
517.7708763999657
 30
0.0
  0
SPLINE
  5
196
330
1F
100
AcDbEntity
  8
Linee visibili 2D
100
AcDbSpline
210
0.0
220
0.0
230
1.0
 70
    24
 71
     2
 72
     6
 73
     3
 74
     0
 42
0.0000000001
 43
0.0000000001
 40
-0.0497981108158569
 40
-0.0497981108158569
 40
-0.0497981108158569
 40
0.0
 40
0.0
 40
0.0
 10
223.1257283695628
 20
517.7708763999657
 30
0.0
 10
223.1506274169499
 20
517.7708763999658
 30
0.0
 10
223.1755264643369
 20
517.7708763999658
 30
0.0
  0
SPLINE
  5
197
330
1F
100
AcDbEntity
  8
Linee visibili 2D
100
AcDbSpline
210
0.0
220
0.0
230
1.0
 70
    24
 71
     2
 72
     6
 73
     3
 74
     0
 42
0.0000000001
 43
0.0000000001
 40
0.0
 40
0.0
 40
0.0
 40
0.0840399950006372
 40
0.0840399950006372
 40
0.0840399950006372
 10
223.1755264643369
 20
517.7708763999658
 30
0.0
 10
223.2175464608167
 20
517.7708763999658
 30
0.0
 10
223.2595664572964
 20
517.7708763999657
 30
0.0
  0
SPLINE
  5
198
330
1F
100
AcDbEntity
  8
Linee visibili 2D
100
AcDbSpline
210
0.0
220
0.0
230
1.0
 70
    24
 71
     2
 72
     6
 73
     3
 74
     0
 42
0.0000000001
 43
0.0000000001
 40
-0.0294257430540767
 40
-0.0294257430540767
 40
-0.0294257430540767
 40
0.0
 40
0.0
 40
0.0
 10
223.2595664572964
 20
517.7708763999657
 30
0.0
 10
223.2742793288123
 20
517.7708763999657
 30
0.0
 10
223.2889922003282
 20
517.7708763999657
 30
0.0
  0
SPLINE
  5
199
330
1F
100
AcDbEntity
  8
Linee visibili 2D
100
AcDbSpline
210
0.0
220
0.0
230
1.0
 70
    24
 71
     2
 72
     6
 73
     3
 74
     0
 42
0.0000000001
 43
0.0000000001
 40
0.0
 40
0.0
 40
0.0
 40
0.066343038679662
 40
0.066343038679662
 40
0.066343038679662
 10
223.2889922003282
 20
517.7708763999657
 30
0.0
 10
223.3221637194883
 20
517.7708763999657
 30
0.0
 10
223.3553352386484
 20
517.7708763999657
 30
0.0
  0
SPLINE
  5
19A
330
1F
100
AcDbEntity
  8
Linee visibili 2D
100
AcDbSpline
210
0.0
220
0.0
230
1.0
 70
    24
 71
     2
 72
     6
 73
     3
 74
     0
 42
0.0000000001
 43
0.0000000001
 40
-0.0137161432082564
 40
-0.0137161432082564
 40
-0.0137161432082564
 40
0.0
 40
0.0
 40
0.0
 10
223.3553352386484
 20
517.7708763999657
 30
0.0
 10
223.3621933100727
 20
517.7708763999657
 30
0.0
 10
223.3690513814969
 20
517.7708763999657
 30
0.0
  0
SPLINE
  5
19B
330
1F
100
AcDbEntity
  8
Linee visibili 2D
100
AcDbSpline
210
0.0
220
0.0
230
1.0
 70
    24
 71
     2
 72
     6
 73
     3
 74
     0
 42
0.0000000001
 43
0.0000000001
 40
0.0
 40
0.0
 40
0.0
 40
62.23807640355304
 40
62.23807640355304
 40
62.23807640355304
 10
159.9999999999924
 20
527.0125782302018
 30
0.0
 10
191.1190382017689
 20
527.0125782302044
 30
0.0
 10
222.2380764035455
 20
527.012578230207
 30
0.0
  0
SPLINE
  5
19C
330
1F
100
AcDbEntity
  8
Linee visibili 2D
100
AcDbSpline
210
0.0
220
0.0
230
1.0
 70
    24
 71
     2
 72
     6
 73
     3
 74
     0
 42
0.0000000001
 43
0.0000000001
 40
0.0
 40
0.0
 40
0.0
 40
1.780104057688175
 40
1.780104057688175
 40
1.780104057688175
 10
222.2380764035455
 20
527.012578230207
 30
0.0
 10
222.8350957842919
 20
526.3524566709021
 30
0.0
 10
223.4321151650383
 20
525.6923351115972
 30
0.0
  0
SPLINE
  5
19D
330
1F
100
AcDbEntity
  8
Linee visibili 2D
100
AcDbSpline
210
0.0
220
0.0
230
1.0
 70
    24
 71
     2
 72
     6
 73
     3
 74
     0
 42
0.0000000001
 43
0.0000000001
 40
0.0
 40
0.0
 40
0.0
 40
1.780104057688261
 40
1.780104057688261
 40
1.780104057688261
 10
96.56788483496136
 20
525.6923351115972
 30
0.0
 10
97.16490421570785
 20
526.3524566709038
 30
0.0
 10
97.76192359645432
 20
527.0125782302105
 30
0.0
  0
SPLINE
  5
19E
330
1F
100
AcDbEntity
  8
Linee visibili 2D
100
AcDbSpline
210
0.0
220
0.0
230
1.0
 70
    24
 71
     2
 72
     6
 73
     3
 74
     0
 42
0.0000000001
 43
0.0000000001
 40
-62.23807640354548
 40
-62.23807640354548
 40
-62.23807640354548
 40
0.0
 40
0.0
 40
0.0
 10
97.76192359645432
 20
527.0125782302105
 30
0.0
 10
128.8809617982271
 20
527.0125782302105
 30
0.0
 10
159.9999999999999
 20
527.0125782302105
 30
0.0
  0
SPLINE
  5
19F
330
1F
100
AcDbEntity
  8
Linee visibili 2D
100
AcDbSpline
210
0.0
220
0.0
230
1.0
 70
    24
 71
     2
 72
     6
 73
     3
 74
     0
 42
0.0000000001
 43
0.0000000001
 40
0.0
 40
0.0
 40
0.0
 40
0.0325255499159312
 40
0.0325255499159312
 40
0.0325255499159312
 10
159.9999999999999
 20
527.0125782302105
 30
0.0
 10
159.9999999999999
 20
527.0288410051695
 30
0.0
 10
159.9999999999999
 20
527.0451037801286
 30
0.0
  0
SPLINE
  5
1A0
330
1F
100
AcDbEntity
  8
Linee visibili 2D
100
AcDbSpline
210
0.0
220
0.0
230
1.0
 70
    12
 71
     2
 72
     6
 73
     3
 74
     0
 42
0.0000000001
 43
0.0000000001
 40
0.0
 40
0.0
 40
0.0
 40
251.327412287183
 40
251.327412287183
 40
251.327412287183
 10
677.7708763999656
 20
319.9999999999995
 30
0.0
 41
1.0
 10
837.770876399965
 20
319.9999999999994
 30
0.0
 41
0.7071067811865482
 10
837.7708763999652
 20
159.9999999999999
 30
0.0
 41
1.0
  0
SPLINE
  5
1A1
330
1F
100
AcDbEntity
  8
Linee visibili 2D
100
AcDbSpline
210
0.0
220
0.0
230
1.0
 70
    12
 71
     2
 72
     6
 73
     3
 74
     0
 42
0.0000000001
 43
0.0000000001
 40
0.0
 40
0.0
 40
0.0
 40
251.3274122871832
 40
251.3274122871832
 40
251.3274122871832
 10
837.7708763999653
 20
159.9999999999998
 30
0.0
 41
1.0
 10
837.7708763999652
 20
0.0000000000000821
 30
0.0
 41
0.7071067811865481
 10
677.7708763999655
 20
-0.0000000000000142
 30
0.0
 41
1.0
  0
SPLINE
  5
1A2
330
1F
100
AcDbEntity
  8
Linee visibili 2D
100
AcDbSpline
210
0.0
220
0.0
230
1.0
 70
    12
 71
     2
 72
     6
 73
     3
 74
     0
 42
0.0000000001
 43
0.0000000001
 40
0.0
 40
0.0
 40
0.0
 40
251.3274122871832
 40
251.3274122871832
 40
251.3274122871832
 10
677.7708763999655
 20
-0.0000000000000142
 30
0.0
 41
1.0
 10
517.7708763999656
 20
0.000000000000002
 30
0.0
 41
0.7071067811865475
 10
517.7708763999657
 20
159.9999999999998
 30
0.0
 41
1.0
  0
SPLINE
  5
1A3
330
1F
100
AcDbEntity
  8
Linee visibili 2D
100
AcDbSpline
210
0.0
220
0.0
230
1.0
 70
    12
 71
     2
 72
     6
 73
     3
 74
     0
 42
0.0000000001
 43
0.0000000001
 40
0.0
 40
0.0
 40
0.0
 40
251.3274122871831
 40
251.3274122871831
 40
251.3274122871831
 10
517.7708763999657
 20
159.9999999999998
 30
0.0
 41
1.0
 10
517.7708763999656
 20
319.9999999999996
 30
0.0
 41
0.7071067811865476
 10
677.7708763999656
 20
319.9999999999995
 30
0.0
 41
1.0
  0
SPLINE
  5
1A4
330
1F
100
AcDbEntity
  8
Linee visibili 2D
100
AcDbSpline
210
0.0
220
0.0
230
1.0
 70
     8
 71
     3
 72
    15
 73
    11
 74
     0
 42
0.0000000001
 43
0.0000000001
 40
0.0
 40
0.0
 40
0.0
 40
0.0
 40
24.92212597122433
 40
48.067553270709
 40
69.76888603027858
 40
90.67331507544905
 40
111.4741113208706
 40
132.1440778950198
 40
152.8710308269073
 40
173.6474395500076
 40
173.6474395500076
 40
173.6474395500076
 40
173.6474395500076
 10
216.3052103675209
 20
260.6921997570715
 30
0.0
 10
224.3854336456246
 20
258.7650000048033
 30
0.0
 10
239.7613857055063
 20
254.1422713953323
 30
0.0
 10
260.9615878422361
 20
244.4296744490881
 30
0.0
 10
279.2645663731336
 20
232.233048410178
 30
0.0
 10
294.5832024352969
 20
217.5415984168216
 30
0.0
 10
306.660183455762
 20
200.4961391668878
 30
0.0
 10
315.1682346048565
 20
181.4800309928752
 30
0.0
 10
319.806051612117
 20
161.1792767144691
 30
0.0
 10
320.2224531463307
 20
147.285942517912
 30
0.0
 10
319.7625529686014
 20
140.3758638866304
 30
0.0
  0
SPLINE
  5
1A5
330
1F
100
AcDbEntity
  8
Linee visibili 2D
100
AcDbSpline
210
0.0
220
0.0
230
1.0
 70
    12
 71
     2
 72
     6
 73
     3
 74
     0
 42
0.0000000001
 43
0.0000000001
 40
302.7437678353173
 40
302.7437678353173
 40
302.7437678353173
 40
407.907392451796
 40
407.907392451796
 40
407.907392451796
 10
319.7625529686014
 20
140.3758638866304
 30
0.0
 41
1181.557222564644
 10
318.806194480737
 20
124.4539372995948
 30
0.0
 41
1205.196072000903
 10
305.2779928409789
 20
109.9883242685915
 30
0.0
 41
1279.972513442758
  0
SPLINE
  5
1A6
330
1F
100
AcDbEntity
  8
Linee visibili 2D
100
AcDbSpline
210
0.0
220
0.0
230
1.0
 70
    12
 71
     2
 72
     6
 73
     3
 74
     0
 42
0.0000000001
 43
0.0000000001
 40
407.907392451796
 40
407.907392451796
 40
407.907392451796
 40
815.814784903591
 40
815.814784903591
 40
815.814784903591
 10
305.2779928409789
 20
109.9883242685915
 30
0.0
 41
1279.972513442758
 10
228.176745668641
 20
27.5444906015229
 30
0.0
 41
820.2239635510515
 10
73.01730509789276
 20
77.10599134687088
 30
0.0
 41
1229.252234480457
  0
SPLINE
  5
1A7
330
1F
100
AcDbEntity
  8
Linee visibili 2D
100
AcDbSpline
210
0.0
220
0.0
230
1.0
 70
    12
 71
     2
 72
     6
 73
     3
 74
     0
 42
0.0000000001
 43
0.0000000001
 40
815.814784903591
 40
815.814784903591
 40
815.814784903591
 40
1054.823022668317
 40
1054.823022668317
 40
1054.823022668317
 10
73.01730509789276
 20
77.10599134687088
 30
0.0
 41
1229.252234480457
 10
1.794936893369271
 20
99.85605696884991
 30
0.0
 41
1046.995997915418
 10
0.1793340454865825
 20
141.5245882491545
 30
0.0
 41
1143.305365193796
  0
SPLINE
  5
1A8
330
1F
100
AcDbEntity
  8
Linee visibili 2D
100
AcDbSpline
210
0.0
220
0.0
230
1.0
 70
     8
 71
     3
 72
    13
 73
     9
 74
     0
 42
0.0000000001
 43
0.0000000001
 40
0.0
 40
0.0
 40
0.0
 40
0.0
 40
14.10804534842923
 40
28.13021997350651
 40
56.09522956663837
 40
84.19614168483209
 40
98.52601020605381
 40
113.1785149920533
 40
113.1785149920533
 40
113.1785149920533
 40
113.1785149920533
 10
0.1793340454865825
 20
141.5245882491545
 30
0.0
 10
-0.0939441914353468
 20
146.2190950625678
 30
0.0
 10
-0.0117512420549857
 20
155.6164422691982
 30
0.0
 10
2.598038333271244
 20
174.1710851286415
 30
0.0
 10
10.40866380032861
 20
196.4105144109953
 30
0.0
 10
23.85023430306449
 20
215.8925296339235
 30
0.0
 10
37.48073989539201
 20
229.2195172122702
 30
0.0
 10
45.17274662151409
 20
235.0945427884775
 30
0.0
 10
49.21895285597661
 20
237.8294487999941
 30
0.0
  0
SPLINE
  5
1A9
330
1F
100
AcDbEntity
  8
Linee visibili 2D
100
AcDbSpline
210
0.0
220
0.0
230
1.0
 70
    24
 71
     2
 72
     6
 73
     3
 74
     0
 42
0.0000000001
 43
0.0000000001
 40
-5.604355676364694
 40
-5.604355676364694
 40
-5.604355676364694
 40
0.0
 40
0.0
 40
0.0
 10
0.3056982526408577
 20
139.4851839032717
 30
0.0
 10
0.4935182295426703
 20
136.6893076831772
 30
0.0
 10
0.6813382064444828
 20
133.8934314630827
 30
0.0
  0
SPLINE
  5
1AA
330
1F
100
AcDbEntity
  8
Linee visibili 2D
100
AcDbSpline
210
0.0
220
0.0
230
1.0
 70
    12
 71
     2
 72
     6
 73
     3
 74
     0
 42
0.0000000001
 43
0.0000000001
 40
-1051.38809213442
 40
-1051.38809213442
 40
-1051.38809213442
 40
-815.814784903591
 40
-815.814784903591
 40
-815.814784903591
 10
0.681338206444483
 20
133.8934314630827
 30
0.0
 41
1143.802410241917
 10
3.447758156386324
 20
92.71259398828037
 30
0.0
 41
1052.72448619181
 10
73.27146857116279
 20
70.2265913248427
 30
0.0
 41
1232.994657607445
  0
SPLINE
  5
1AB
330
1F
100
AcDbEntity
  8
Linee visibili 2D
100
AcDbSpline
210
0.0
220
0.0
230
1.0
 70
    12
 71
     2
 72
     6
 73
     3
 74
     0
 42
0.0000000001
 43
0.0000000001
 40
-815.814784903591
 40
-815.814784903591
 40
-815.814784903591
 40
-407.907392451796
 40
-407.907392451796
 40
-407.907392451796
 10
73.27146857116279
 20
70.2265913248427
 30
0.0
 41
1232.994657607445
 10
227.9470586402659
 20
20.41491976511119
 30
0.0
 41
822.8702563222143
 10
304.8450029701248
 20
103.2848710074676
 30
0.0
 41
1283.714936569746
  0
SPLINE
  5
1AC
330
1F
100
AcDbEntity
  8
Linee visibili 2D
100
AcDbSpline
210
0.0
220
0.0
230
1.0
 70
    12
 71
     2
 72
     6
 73
     3
 74
     0
 42
0.0000000001
 43
0.0000000001
 40
-407.907392451796
 40
-407.907392451796
 40
-407.907392451796
 40
-303.9817282335922
 40
-303.9817282335922
 40
-303.9817282335922
 10
304.8450029701248
 20
103.2848710074676
 30
0.0
 41
1283.714936569746
 10
318.1736873385067
 20
117.6486805131488
 30
0.0
 41
1209.5394668556
 10
319.2797998905521
 20
133.4577070582125
 30
0.0
 41
1185.447032137807
  0
SPLINE
  5
1AD
330
1F
100
AcDbEntity
  8
Linee visibili 2D
100
AcDbSpline
210
0.0
220
0.0
230
1.0
 70
    24
 71
     2
 72
     6
 73
     3
 74
     0
 42
0.0000000001
 43
0.0000000001
 40
-5.948934082969184
 40
-5.948934082969184
 40
-5.948934082969184
 40
0.0
 40
0.0
 40
0.0
 10
319.2797998905521
 20
133.4577070582125
 30
0.0
 10
319.4874076511267
 20
136.4249200936997
 30
0.0
 10
319.6950154117013
 20
139.3921331291869
 30
0.0
  0
SPLINE
  5
1AE
330
1F
100
AcDbEntity
  8
Linee visibili 2D
100
AcDbSpline
210
0.0
220
0.0
230
1.0
 70
    24
 71
     2
 72
     6
 73
     3
 74
     0
 42
0.0000000001
 43
0.0000000001
 40
0.0
 40
0.0
 40
0.0
 40
1.780104057682822
 40
1.780104057682822
 40
1.780104057682822
 10
741.2029915650039
 20
525.6923351115972
 30
0.0
 10
740.6059721842593
 20
526.3524566709011
 30
0.0
 10
740.0089528035146
 20
527.0125782302051
 30
0.0
  0
SPLINE
  5
1AF
330
1F
100
AcDbEntity
  8
Linee visibili 2D
100
AcDbSpline
210
0.0
220
0.0
230
1.0
 70
    24
 71
     2
 72
     6
 73
     3
 74
     0
 42
0.0000000001
 43
0.0000000001
 40
-62.23807640354892
 40
-62.23807640354892
 40
-62.23807640354892
 40
0.0
 40
0.0
 40
0.0
 10
740.0089528035146
 20
527.0125782302051
 30
0.0
 10
708.88991460174
 20
527.0125782302034
 30
0.0
 10
677.7708763999655
 20
527.0125782302018
 30
0.0
  0
SPLINE
  5
1B0
330
1F
100
AcDbEntity
  8
Linee visibili 2D
100
AcDbSpline
210
0.0
220
0.0
230
1.0
 70
    24
 71
     2
 72
     6
 73
     3
 74
     0
 42
0.0000000001
 43
0.0000000001
 40
-52.0323786159712
 40
-52.0323786159712
 40
-52.0323786159712
 40
0.0
 40
0.0
 40
0.0
 10
677.7708763999655
 20
527.0125782302018
 30
0.0
 10
651.7546870919798
 20
527.0125782302044
 30
0.0
 10
625.7384977839943
 20
527.012578230207
 30
0.0
  0
SPLINE
  5
1B1
330
1F
100
AcDbEntity
  8
Linee visibili 2D
100
AcDbSpline
210
0.0
220
0.0
230
1.0
 70
    24
 71
     2
 72
     6
 73
     3
 74
     0
 42
0.0000000001
 43
0.0000000001
 40
0.0
 40
0.0
 40
0.0
 40
10.20569778757442
 40
10.20569778757442
 40
10.20569778757442
 10
625.7384977839943
 20
527.012578230207
 30
0.0
 10
620.635648890207
 20
527.0125782302098
 30
0.0
 10
615.5327999964198
 20
527.0125782302124
 30
0.0
  0
SPLINE
  5
1B2
330
1F
100
AcDbEntity
  8
Linee visibili 2D
100
AcDbSpline
210
0.0
220
0.0
230
1.0
 70
    24
 71
     2
 72
     6
 73
     3
 74
     0
 42
0.0000000001
 43
0.0000000001
 40
0.0
 40
0.0
 40
0.0
 40
1.780104057688137
 40
1.780104057688137
 40
1.780104057688137
 10
615.5327999964198
 20
527.0125782302124
 30
0.0
 10
614.9357806156735
 20
526.3524566709048
 30
0.0
 10
614.3387612349271
 20
525.6923351115972
 30
0.0
  0
SPLINE
  5
1B3
330
1F
100
AcDbEntity
  8
Linee visibili 2D
100
AcDbSpline
210
0.0
220
0.0
230
1.0
 70
    24
 71
     2
 72
     6
 73
     3
 74
     0
 42
0.0000000001
 43
0.0000000001
 40
0.0
 40
0.0
 40
0.0
 40
63.43211516503834
 40
63.43211516503834
 40
63.43211516503834
 10
614.3387612349271
 20
525.6923351115972
 30
0.0
 10
646.0548188174463
 20
525.6923351115972
 30
0.0
 10
677.7708763999655
 20
525.6923351115972
 30
0.0
  0
SPLINE
  5
1B4
330
1F
100
AcDbEntity
  8
Linee visibili 2D
100
AcDbSpline
210
0.0
220
0.0
230
1.0
 70
    24
 71
     2
 72
     6
 73
     3
 74
     0
 42
0.0000000001
 43
0.0000000001
 40
-63.43211516503857
 40
-63.43211516503857
 40
-63.43211516503857
 40
0.0
 40
0.0
 40
0.0
 10
677.7708763999655
 20
525.6923351115972
 30
0.0
 10
709.4869339824847
 20
525.6923351115972
 30
0.0
 10
741.202991565004
 20
525.6923351115972
 30
0.0
  0
SPLINE
  5
1B5
330
1F
100
AcDbEntity
  8
Linee visibili 2D
100
AcDbSpline
210
0.0
220
0.0
230
1.0
 70
    24
 71
     2
 72
     6
 73
     3
 74
     0
 42
0.0000000001
 43
0.0000000001
 40
-7.921458711631544
 40
-7.921458711631544
 40
-7.921458711631544
 40
0.0
 40
0.0
 40
0.0
 10
741.202991565004
 20
525.6923351115972
 30
0.0
 10
741.2029915650039
 20
521.7316057557814
 30
0.0
 10
741.2029915650039
 20
517.7708763999657
 30
0.0
  0
SPLINE
  5
1B6
330
1F
100
AcDbEntity
  8
Linee visibili 2D
100
AcDbSpline
210
0.0
220
0.0
230
1.0
 70
    24
 71
     2
 72
     6
 73
     3
 74
     0
 42
0.0000000001
 43
0.0000000001
 40
0.0
 40
0.0
 40
0.0
 40
0.0367728031404795
 40
0.0367728031404795
 40
0.0367728031404795
 10
741.2029915650039
 20
517.7708763999657
 30
0.0
 10
741.1846051634412
 20
517.7708763999657
 30
0.0
 10
741.1662187618786
 20
517.7708763999657
 30
0.0
  0
SPLINE
  5
1B7
330
1F
100
AcDbEntity
  8
Linee visibili 2D
100
AcDbSpline
210
0.0
220
0.0
230
1.0
 70
    24
 71
     2
 72
     6
 73
     3
 74
     0
 42
0.0000000001
 43
0.0000000001
 40
-0.0262909804320088
 40
-0.0262909804320088
 40
-0.0262909804320088
 40
0.0
 40
0.0
 40
0.0
 10
741.1662187618786
 20
517.7708763999657
 30
0.0
 10
741.1530732716707
 20
517.7708763999657
 30
0.0
 10
741.1399277814628
 20
517.7708763999657
 30
0.0
  0
SPLINE
  5
1B8
330
1F
100
AcDbEntity
  8
Linee visibili 2D
100
AcDbSpline
210
0.0
220
0.0
230
1.0
 70
    24
 71
     2
 72
     6
 73
     3
 74
     0
 42
0.0000000001
 43
0.0000000001
 40
0.0
 40
0.0
 40
0.0
 40
0.0137157657414946
 40
0.0137157657414946
 40
0.0137157657414946
 10
741.1399277814628
 20
517.7708763999657
 30
0.0
 10
741.1330698987463
 20
517.7708763999657
 30
0.0
 10
741.1262120160299
 20
517.7708763999657
 30
0.0
  0
SPLINE
  5
1B9
330
1F
100
AcDbEntity
  8
Linee visibili 2D
100
AcDbSpline
210
0.0
220
0.0
230
1.0
 70
    24
 71
     2
 72
     6
 73
     3
 74
     0
 42
0.0000000001
 43
0.0000000001
 40
-0.066343416044333
 40
-0.066343416044333
 40
-0.066343416044333
 40
0.0
 40
0.0
 40
0.0
 10
741.1262120160299
 20
517.7708763999657
 30
0.0
 10
741.093040308162
 20
517.7708763999657
 30
0.0
 10
741.0598686002941
 20
517.7708763999657
 30
0.0
  0
SPLINE
  5
1BA
330
1F
100
AcDbEntity
  8
Linee visibili 2D
100
AcDbSpline
210
0.0
220
0.0
230
1.0
 70
    24
 71
     2
 72
     6
 73
     3
 74
     0
 42
0.0000000001
 43
0.0000000001
 40
0.0
 40
0.0
 40
0.0
 40
0.0294249018317032
 40
0.0294249018317032
 40
0.0294249018317032
 10
741.0598686002941
 20
517.7708763999657
 30
0.0
 10
741.045156149381
 20
517.7708763999656
 30
0.0
 10
741.0304436984679
 20
517.7708763999656
 30
0.0
  0
SPLINE
  5
1BB
330
1F
100
AcDbEntity
  8
Linee visibili 2D
100
AcDbSpline
210
0.0
220
0.0
230
1.0
 70
    24
 71
     2
 72
     6
 73
     3
 74
     0
 42
0.0000000001
 43
0.0000000001
 40
-0.0840408361895015
 40
-0.0840408361895015
 40
-0.0840408361895015
 40
0.0
 40
0.0
 40
0.0
 10
741.0304436984679
 20
517.7708763999656
 30
0.0
 10
740.9884232803756
 20
517.7708763999656
 30
0.0
 10
740.9464028622833
 20
517.7708763999657
 30
0.0
  0
SPLINE
  5
1BC
330
1F
100
AcDbEntity
  8
Linee visibili 2D
100
AcDbSpline
210
0.0
220
0.0
230
1.0
 70
    24
 71
     2
 72
     6
 73
     3
 74
     0
 42
0.0000000001
 43
0.0000000001
 40
0.0
 40
0.0
 40
0.0
 40
0.0497966253308277
 40
0.0497966253308277
 40
0.0497966253308277
 10
740.9464028622833
 20
517.7708763999657
 30
0.0
 10
740.9215045566244
 20
517.7708763999657
 30
0.0
 10
740.8966062509655
 20
517.7708763999657
 30
0.0
  0
SPLINE
  5
1BD
330
1F
100
AcDbEntity
  8
Linee visibili 2D
100
AcDbSpline
210
0.0
220
0.0
230
1.0
 70
    24
 71
     2
 72
     6
 73
     3
 74
     0
 42
0.0000000001
 43
0.0000000001
 40
-0.0978270032592263
 40
-0.0978270032592263
 40
-0.0978270032592263
 40
0.0
 40
0.0
 40
0.0
 10
740.8966062509655
 20
517.7708763999657
 30
0.0
 10
740.8476927563423
 20
517.7708763999657
 30
0.0
 10
740.7987792617191
 20
517.7708763999657
 30
0.0
  0
SPLINE
  5
1BE
330
1F
100
AcDbEntity
  8
Linee visibili 2D
100
AcDbSpline
210
0.0
220
0.0
230
1.0
 70
    24
 71
     2
 72
     6
 73
     3
 74
     0
 42
0.0000000001
 43
0.0000000001
 40
0.0
 40
0.0
 40
0.0
 40
0.0739422175485061
 40
0.0739422175485061
 40
0.0739422175485061
 10
740.7987792617191
 20
517.7708763999657
 30
0.0
 10
740.7618081497171
 20
517.7708763999657
 30
0.0
 10
740.7248370377151
 20
517.7708763999657
 30
0.0
  0
SPLINE
  5
1BF
330
1F
100
AcDbEntity
  8
Linee visibili 2D
100
AcDbSpline
210
0.0
220
0.0
230
1.0
 70
    24
 71
     2
 72
     6
 73
     3
 74
     0
 42
0.0000000001
 43
0.0000000001
 40
-0.1085541761465265
 40
-0.1085541761465265
 40
-0.1085541761465265
 40
0.0
 40
0.0
 40
0.0
 10
740.7248370377151
 20
517.7708763999657
 30
0.0
 10
740.6705599464141
 20
517.7708763999657
 30
0.0
 10
740.616282855113
 20
517.7708763999657
 30
0.0
  0
SPLINE
  5
1C0
330
1F
100
AcDbEntity
  8
Linee visibili 2D
100
AcDbSpline
210
0.0
220
0.0
230
1.0
 70
    24
 71
     2
 72
     6
 73
     3
 74
     0
 42
0.0000000001
 43
0.0000000001
 40
0.0
 40
0.0
 40
0.0
 40
0.1010093219836108
 40
0.1010093219836108
 40
0.1010093219836108
 10
740.616282855113
 20
517.7708763999657
 30
0.0
 10
740.5657781929676
 20
517.7708763999657
 30
0.0
 10
740.5152735308222
 20
517.7708763999657
 30
0.0
  0
SPLINE
  5
1C1
330
1F
100
AcDbEntity
  8
Linee visibili 2D
100
AcDbSpline
210
0.0
220
0.0
230
1.0
 70
    24
 71
     2
 72
     6
 73
     3
 74
     0
 42
0.0000000001
 43
0.0000000001
 40
-0.1170347819877406
 40
-0.1170347819877406
 40
-0.1170347819877406
 40
0.0
 40
0.0
 40
0.0
 10
740.5152735308222
 20
517.7708763999657
 30
0.0
 10
740.4567561386746
 20
517.7708763999657
 30
0.0
 10
740.3982387465269
 20
517.7708763999657
 30
0.0
  0
SPLINE
  5
1C2
330
1F
100
AcDbEntity
  8
Linee visibili 2D
100
AcDbSpline
210
0.0
220
0.0
230
1.0
 70
    24
 71
     2
 72
     6
 73
     3
 74
     0
 42
0.0000000001
 43
0.0000000001
 40
0.0
 40
0.0
 40
0.0
 40
0.1301856298103985
 40
0.1301856298103985
 40
0.1301856298103985
 10
740.3982387465269
 20
517.7708763999657
 30
0.0
 10
740.3331459312035
 20
517.7708763999657
 30
0.0
 10
740.2680531158801
 20
517.7708763999657
 30
0.0
  0
SPLINE
  5
1C3
330
1F
100
AcDbEntity
  8
Linee visibili 2D
100
AcDbSpline
210
0.0
220
0.0
230
1.0
 70
    24
 71
     2
 72
     6
 73
     3
 74
     0
 42
0.0000000001
 43
0.0000000001
 40
-0.1240373432774504
 40
-0.1240373432774504
 40
-0.1240373432774504
 40
0.0
 40
0.0
 40
0.0
 10
740.2680531158801
 20
517.7708763999657
 30
0.0
 10
740.2060344443214
 20
517.7708763999658
 30
0.0
 10
740.1440157727628
 20
517.7708763999658
 30
0.0
  0
SPLINE
  5
1C4
330
1F
100
AcDbEntity
  8
Linee visibili 2D
100
AcDbSpline
210
0.0
220
0.0
230
1.0
 70
    24
 71
     2
 72
     6
 73
     3
 74
     0
 42
0.0000000001
 43
0.0000000001
 40
0.0
 40
0.0
 40
0.0
 40
0.1607025652173206
 40
0.1607025652173206
 40
0.1607025652173206
 10
740.1440157727628
 20
517.7708763999658
 30
0.0
 10
740.063664490413
 20
517.7708763999658
 30
0.0
 10
739.983313208063
 20
517.7708763999657
 30
0.0
  0
SPLINE
  5
1C5
330
1F
100
AcDbEntity
  8
Linee visibili 2D
100
AcDbSpline
210
0.0
220
0.0
230
1.0
 70
    24
 71
     2
 72
     6
 73
     3
 74
     0
 42
0.0000000001
 43
0.0000000001
 40
-0.1302830500130767
 40
-0.1302830500130767
 40
-0.1302830500130767
 40
0.0
 40
0.0
 40
0.0
 10
739.983313208063
 20
517.7708763999657
 30
0.0
 10
739.9181716825481
 20
517.7708763999656
 30
0.0
 10
739.8530301570331
 20
517.7708763999656
 30
0.0
  0
SPLINE
  5
1C6
330
1F
100
AcDbEntity
  8
Linee visibili 2D
100
AcDbSpline
210
0.0
220
0.0
230
1.0
 70
    24
 71
     2
 72
     6
 73
     3
 74
     0
 42
0.0000000001
 43
0.0000000001
 40
0.0
 40
0.0
 40
0.0
 40
0.1918389358302193
 40
0.1918389358302193
 40
0.1918389358302193
 10
739.8530301570331
 20
517.7708763999656
 30
0.0
 10
739.7571106887592
 20
517.7708763999656
 30
0.0
 10
739.6611912204853
 20
517.7708763999657
 30
0.0
  0
SPLINE
  5
1C7
330
1F
100
AcDbEntity
  8
Linee visibili 2D
100
AcDbSpline
210
0.0
220
0.0
230
1.0
 70
    24
 71
     2
 72
     6
 73
     3
 74
     0
 42
0.0000000001
 43
0.0000000001
 40
-0.1364420897140235
 40
-0.1364420897140235
 40
-0.1364420897140235
 40
0.0
 40
0.0
 40
0.0
 10
739.6611912204853
 20
517.7708763999657
 30
0.0
 10
739.5929701753967
 20
517.7708763999657
 30
0.0
 10
739.5247491303081
 20
517.7708763999657
 30
0.0
  0
SPLINE
  5
1C8
330
1F
100
AcDbEntity
  8
Linee visibili 2D
100
AcDbSpline
210
0.0
220
0.0
230
1.0
 70
    24
 71
     2
 72
     6
 73
     3
 74
     0
 42
0.0000000001
 43
0.0000000001
 40
0.0
 40
0.0
 40
0.0
 40
0.2229245632136099
 40
0.2229245632136099
 40
0.2229245632136099
 10
739.5247491303081
 20
517.7708763999657
 30
0.0
 10
739.413286848511
 20
517.7708763999657
 30
0.0
 10
739.301824566714
 20
517.7708763999657
 30
0.0
  0
SPLINE
  5
1C9
330
1F
100
AcDbEntity
  8
Linee visibili 2D
100
AcDbSpline
210
0.0
220
0.0
230
1.0
 70
    24
 71
     2
 72
     6
 73
     3
 74
     0
 42
0.0000000001
 43
0.0000000001
 40
-0.1431301167947368
 40
-0.1431301167947368
 40
-0.1431301167947368
 40
0.0
 40
0.0
 40
0.0
 10
739.301824566714
 20
517.7708763999657
 30
0.0
 10
739.2302595082112
 20
517.7708763999657
 30
0.0
 10
739.1586944497086
 20
517.7708763999657
 30
0.0
  0
SPLINE
  5
1CA
330
1F
100
AcDbEntity
  8
Linee visibili 2D
100
AcDbSpline
210
0.0
220
0.0
230
1.0
 70
    24
 71
     2
 72
     6
 73
     3
 74
     0
 42
0.0000000001
 43
0.0000000001
 40
0.0
 40
0.0
 40
0.0
 40
0.2533437897787962
 40
0.2533437897787962
 40
0.2533437897787962
 10
739.1586944497086
 20
517.7708763999657
 30
0.0
 10
739.0320225547284
 20
517.7708763999657
 30
0.0
 10
738.9053506597481
 20
517.7708763999657
 30
0.0
  0
SPLINE
  5
1CB
330
1F
100
AcDbEntity
  8
Linee visibili 2D
100
AcDbSpline
210
0.0
220
0.0
230
1.0
 70
    24
 71
     2
 72
     6
 73
     3
 74
     0
 42
0.0000000001
 43
0.0000000001
 40
-0.1509048244467976
 40
-0.1509048244467976
 40
-0.1509048244467976
 40
0.0
 40
0.0
 40
0.0
 10
738.9053506597481
 20
517.7708763999657
 30
0.0
 10
738.8298982474644
 20
517.7708763999657
 30
0.0
 10
738.7544458351806
 20
517.7708763999657
 30
0.0
  0
SPLINE
  5
1CC
330
1F
100
AcDbEntity
  8
Linee visibili 2D
100
AcDbSpline
210
0.0
220
0.0
230
1.0
 70
    24
 71
     2
 72
     6
 73
     3
 74
     0
 42
0.0000000001
 43
0.0000000001
 40
0.0
 40
0.0
 40
0.0
 40
0.2825389224951778
 40
0.2825389224951778
 40
0.2825389224951778
 10
738.7544458351806
 20
517.7708763999657
 30
0.0
 10
738.6131763738912
 20
517.7708763999657
 30
0.0
 10
738.4719069126018
 20
517.7708763999657
 30
0.0
  0
SPLINE
  5
1CD
330
1F
100
AcDbEntity
  8
Linee visibili 2D
100
AcDbSpline
210
0.0
220
0.0
230
1.0
 70
    24
 71
     2
 72
     6
 73
     3
 74
     0
 42
0.0000000001
 43
0.0000000001
 40
-0.1602626478820639
 40
-0.1602626478820639
 40
-0.1602626478820639
 40
0.0
 40
0.0
 40
0.0
 10
738.4719069126018
 20
517.7708763999657
 30
0.0
 10
738.3917755886346
 20
517.7708763999657
 30
0.0
 10
738.3116442646674
 20
517.7708763999657
 30
0.0
  0
SPLINE
  5
1CE
330
1F
100
AcDbEntity
  8
Linee visibili 2D
100
AcDbSpline
210
0.0
220
0.0
230
1.0
 70
    24
 71
     2
 72
     6
 73
     3
 74
     0
 42
0.0000000001
 43
0.0000000001
 40
0.0
 40
0.0
 40
0.0
 40
0.3100135262733374
 40
0.3100135262733374
 40
0.3100135262733374
 10
738.3116442646674
 20
517.7708763999657
 30
0.0
 10
738.1566375015099
 20
517.7708763999657
 30
0.0
 10
738.0016307383523
 20
517.7708763999657
 30
0.0
  0
SPLINE
  5
1CF
330
1F
100
AcDbEntity
  8
Linee visibili 2D
100
AcDbSpline
210
0.0
220
0.0
230
1.0
 70
    24
 71
     2
 72
     6
 73
     3
 74
     0
 42
0.0000000001
 43
0.0000000001
 40
-0.1716356274920372
 40
-0.1716356274920372
 40
-0.1716356274920372
 40
0.0
 40
0.0
 40
0.0
 10
738.0016307383523
 20
517.7708763999657
 30
0.0
 10
737.9158129245897
 20
517.7708763999657
 30
0.0
 10
737.829995110827
 20
517.7708763999657
 30
0.0
  0
SPLINE
  5
1D0
330
1F
100
AcDbEntity
  8
Linee visibili 2D
100
AcDbSpline
210
0.0
220
0.0
230
1.0
 70
    24
 71
     2
 72
     6
 73
     3
 74
     0
 42
0.0000000001
 43
0.0000000001
 40
0.0
 40
0.0
 40
0.0
 40
0.3353355607886215
 40
0.3353355607886215
 40
0.3353355607886215
 10
737.829995110827
 20
517.7708763999657
 30
0.0
 10
737.6623273304187
 20
517.7708763999657
 30
0.0
 10
737.4946595500105
 20
517.7708763999657
 30
0.0
  0
SPLINE
  5
1D1
330
1F
100
AcDbEntity
  8
Linee visibili 2D
100
AcDbSpline
210
0.0
220
0.0
230
1.0
 70
    24
 71
     2
 72
     6
 73
     3
 74
     0
 42
0.0000000001
 43
0.0000000001
 40
-0.1853884603912093
 40
-0.1853884603912093
 40
-0.1853884603912093
 40
0.0
 40
0.0
 40
0.0
 10
737.4946595500105
 20
517.7708763999657
 30
0.0
 10
737.4019653198015
 20
517.7708763999657
 30
0.0
 10
737.3092710895925
 20
517.7708763999657
 30
0.0
  0
SPLINE
  5
1D2
330
1F
100
AcDbEntity
  8
Linee visibili 2D
100
AcDbSpline
210
0.0
220
0.0
230
1.0
 70
    24
 71
     2
 72
     6
 73
     3
 74
     0
 42
0.0000000001
 43
0.0000000001
 40
0.0
 40
0.0
 40
0.0
 40
0.3581403289675791
 40
0.3581403289675791
 40
0.3581403289675791
 10
737.3092710895925
 20
517.7708763999657
 30
0.0
 10
737.1302009250965
 20
517.7708763999657
 30
0.0
 10
736.9511307606003
 20
517.7708763999657
 30
0.0
  0
SPLINE
  5
1D3
330
1F
100
AcDbEntity
  8
Linee visibili 2D
100
AcDbSpline
210
0.0
220
0.0
230
1.0
 70
    24
 71
     2
 72
     6
 73
     3
 74
     0
 42
0.0000000001
 43
0.0000000001
 40
-0.2018157685243978
 40
-0.2018157685243978
 40
-0.2018157685243978
 40
0.0
 40
0.0
 40
0.0
 10
736.9511307606003
 20
517.7708763999657
 30
0.0
 10
736.8502228763216
 20
517.7708763999657
 30
0.0
 10
736.7493149920429
 20
517.7708763999657
 30
0.0
  0
SPLINE
  5
1D4
330
1F
100
AcDbEntity
  8
Linee visibili 2D
100
AcDbSpline
210
0.0
220
0.0
230
1.0
 70
    24
 71
     2
 72
     6
 73
     3
 74
     0
 42
0.0000000001
 43
0.0000000001
 40
0.0
 40
0.0
 40
0.0
 40
0.3781332088631189
 40
0.3781332088631189
 40
0.3781332088631189
 10
736.7493149920429
 20
517.7708763999657
 30
0.0
 10
736.5602483875941
 20
517.7708763999657
 30
0.0
 10
736.3711817831454
 20
517.7708763999657
 30
0.0
  0
SPLINE
  5
1D5
330
1F
100
AcDbEntity
  8
Linee visibili 2D
100
AcDbSpline
210
0.0
220
0.0
230
1.0
 70
    24
 71
     2
 72
     6
 73
     3
 74
     0
 42
0.0000000001
 43
0.0000000001
 40
-0.2211396109320276
 40
-0.2211396109320276
 40
-0.2211396109320276
 40
0.0
 40
0.0
 40
0.0
 10
736.3711817831454
 20
517.7708763999657
 30
0.0
 10
736.2606119776594
 20
517.7708763999658
 30
0.0
 10
736.1500421721735
 20
517.7708763999658
 30
0.0
  0
SPLINE
  5
1D6
330
1F
100
AcDbEntity
  8
Linee visibili 2D
100
AcDbSpline
210
0.0
220
0.0
230
1.0
 70
    24
 71
     2
 72
     6
 73
     3
 74
     0
 42
0.0000000001
 43
0.0000000001
 40
0.0
 40
0.0
 40
0.0
 40
0.3938670363448864
 40
0.3938670363448864
 40
0.3938670363448864
 10
736.1500421721735
 20
517.7708763999658
 30
0.0
 10
735.95310865399
 20
517.7708763999658
 30
0.0
 10
735.7561751358064
 20
517.7708763999657
 30
0.0
  0
SPLINE
  5
1D7
330
1F
100
AcDbEntity
  8
Linee visibili 2D
100
AcDbSpline
210
0.0
220
0.0
230
1.0
 70
    24
 71
     2
 72
     6
 73
     3
 74
     0
 42
0.0000000001
 43
0.0000000001
 40
-4.892903075602817
 40
-4.892903075602817
 40
-4.892903075602817
 40
0.0
 40
0.0
 40
0.0
 10
735.7561751358064
 20
517.7708763999657
 30
0.0
 10
733.3097235980064
 20
517.7708763999657
 30
0.0
 10
730.8632720602063
 20
517.7708763999657
 30
0.0
  0
SPLINE
  5
1D8
330
1F
100
AcDbEntity
  8
Linee visibili 2D
100
AcDbSpline
210
0.0
220
0.0
230
1.0
 70
    24
 71
     2
 72
     6
 73
     3
 74
     0
 42
0.0000000001
 43
0.0000000001
 40
0.0
 40
0.0
 40
0.0
 40
0.3529284880247587
 40
0.3529284880247587
 40
0.3529284880247587
 10
730.8632720602063
 20
517.7708763999657
 30
0.0
 10
730.6868078182046
 20
517.7708763999657
 30
0.0
 10
730.5103435762028
 20
517.7708763999657
 30
0.0
  0
SPLINE
  5
1D9
330
1F
100
AcDbEntity
  8
Linee visibili 2D
100
AcDbSpline
210
0.0
220
0.0
230
1.0
 70
    24
 71
     2
 72
     6
 73
     3
 74
     0
 42
0.0000000001
 43
0.0000000001
 40
-0.5546333146312463
 40
-0.5546333146312463
 40
-0.5546333146312463
 40
0.0
 40
0.0
 40
0.0
 10
730.5103435762028
 20
517.7708763999657
 30
0.0
 10
730.2330269208983
 20
517.7708763999657
 30
0.0
 10
729.9557102655938
 20
517.7708763999657
 30
0.0
  0
SPLINE
  5
1DA
330
1F
100
AcDbEntity
  8
Linee visibili 2D
100
AcDbSpline
210
0.0
220
0.0
230
1.0
 70
    24
 71
     2
 72
     6
 73
     3
 74
     0
 42
0.0000000001
 43
0.0000000001
 40
0.0
 40
0.0
 40
0.0
 40
0.3244802560470816
 40
0.3244802560470816
 40
0.3244802560470816
 10
729.9557102655938
 20
517.7708763999657
 30
0.0
 10
729.7934701407041
 20
517.7708763999657
 30
0.0
 10
729.6312300158146
 20
517.7708763999657
 30
0.0
  0
SPLINE
  5
1DB
330
1F
100
AcDbEntity
  8
Linee visibili 2D
100
AcDbSpline
210
0.0
220
0.0
230
1.0
 70
    24
 71
     2
 72
     6
 73
     3
 74
     0
 42
0.0000000001
 43
0.0000000001
 40
-0.6196366221022345
 40
-0.6196366221022345
 40
-0.6196366221022345
 40
0.0
 40
0.0
 40
0.0
 10
729.6312300158146
 20
517.7708763999657
 30
0.0
 10
729.3214117137436
 20
517.7708763999657
 30
0.0
 10
729.0115934116725
 20
517.7708763999657
 30
0.0
  0
SPLINE
  5
1DC
330
1F
100
AcDbEntity
  8
Linee visibili 2D
100
AcDbSpline
210
0.0
220
0.0
230
1.0
 70
    24
 71
     2
 72
     6
 73
     3
 74
     0
 42
0.0000000001
 43
0.0000000001
 40
0.0
 40
0.0
 40
0.0
 40
0.2907320369344006
 40
0.2907320369344006
 40
0.2907320369344006
 10
729.0115934116725
 20
517.7708763999657
 30
0.0
 10
728.8662274030747
 20
517.7708763999657
 30
0.0
 10
728.720861394477
 20
517.7708763999657
 30
0.0
  0
SPLINE
  5
1DD
330
1F
100
AcDbEntity
  8
Linee visibili 2D
100
AcDbSpline
210
0.0
220
0.0
230
1.0
 70
    24
 71
     2
 72
     6
 73
     3
 74
     0
 42
0.0000000001
 43
0.0000000001
 40
-0.6892326415425032
 40
-0.6892326415425032
 40
-0.6892326415425032
 40
0.0
 40
0.0
 40
0.0
 10
728.720861394477
 20
517.7708763999657
 30
0.0
 10
728.3762450780251
 20
517.7708763999657
 30
0.0
 10
728.0316287615733
 20
517.7708763999657
 30
0.0
  0
SPLINE
  5
1DE
330
1F
100
AcDbEntity
  8
Linee visibili 2D
100
AcDbSpline
210
0.0
220
0.0
230
1.0
 70
    24
 71
     2
 72
     6
 73
     3
 74
     0
 42
0.0000000001
 43
0.0000000001
 40
0.0
 40
0.0
 40
0.0
 40
0.2520003322194952
 40
0.2520003322194952
 40
0.2520003322194952
 10
728.0316287615733
 20
517.7708763999657
 30
0.0
 10
727.9056286013164
 20
517.7708763999658
 30
0.0
 10
727.7796284410595
 20
517.7708763999658
 30
0.0
  0
SPLINE
  5
1DF
330
1F
100
AcDbEntity
  8
Linee visibili 2D
100
AcDbSpline
210
0.0
220
0.0
230
1.0
 70
    24
 71
     2
 72
     6
 73
     3
 74
     0
 42
0.0000000001
 43
0.0000000001
 40
-0.2511826387432166
 40
-0.2511826387432166
 40
-0.2511826387432166
 40
0.0
 40
0.0
 40
0.0
 10
727.7796284410595
 20
517.7708763999658
 30
0.0
 10
727.6540371274338
 20
517.7708763999658
 30
0.0
 10
727.528445813808
 20
517.7708763999658
 30
0.0
  0
SPLINE
  5
1E0
330
1F
100
AcDbEntity
  8
Linee visibili 2D
100
AcDbSpline
210
0.0
220
0.0
230
1.0
 70
    24
 71
     2
 72
     6
 73
     3
 74
     0
 42
0.0000000001
 43
0.0000000001
 40
0.0
 40
0.0
 40
0.0
 40
0.7205239432933013
 40
0.7205239432933013
 40
0.7205239432933013
 10
727.528445813808
 20
517.7708763999658
 30
0.0
 10
727.1681838498639
 20
517.7708763999658
 30
0.0
 10
726.8079218859198
 20
517.7708763999657
 30
0.0
  0
SPLINE
  5
1E1
330
1F
100
AcDbEntity
  8
Linee visibili 2D
100
AcDbSpline
210
0.0
220
0.0
230
1.0
 70
    24
 71
     2
 72
     6
 73
     3
 74
     0
 42
0.0000000001
 43
0.0000000001
 40
-0.3117170601381076
 40
-0.3117170601381076
 40
-0.3117170601381076
 40
0.0
 40
0.0
 40
0.0
 10
726.8079218859198
 20
517.7708763999657
 30
0.0
 10
726.6520633635588
 20
517.7708763999657
 30
0.0
 10
726.4962048411978
 20
517.7708763999657
 30
0.0
  0
SPLINE
  5
1E2
330
1F
100
AcDbEntity
  8
Linee visibili 2D
100
AcDbSpline
210
0.0
220
0.0
230
1.0
 70
    24
 71
     2
 72
     6
 73
     3
 74
     0
 42
0.0000000001
 43
0.0000000001
 40
0.0
 40
0.0
 40
0.0
 40
0.6900723988543405
 40
0.6900723988543405
 40
0.6900723988543405
 10
726.4962048411978
 20
517.7708763999657
 30
0.0
 10
726.1511686510021
 20
517.7708763999657
 30
0.0
 10
725.8061324608062
 20
517.7708763999657
 30
0.0
  0
SPLINE
  5
1E3
330
1F
100
AcDbEntity
  8
Linee visibili 2D
100
AcDbSpline
210
0.0
220
0.0
230
1.0
 70
    24
 71
     2
 72
     6
 73
     3
 74
     0
 42
0.0000000001
 43
0.0000000001
 40
-0.3759131222747101
 40
-0.3759131222747101
 40
-0.3759131222747101
 40
0.0
 40
0.0
 40
0.0
 10
725.8061324608062
 20
517.7708763999657
 30
0.0
 10
725.6181759087829
 20
517.7708763999657
 30
0.0
 10
725.4302193567594
 20
517.7708763999657
 30
0.0
  0
SPLINE
  5
1E4
330
1F
100
AcDbEntity
  8
Linee visibili 2D
100
AcDbSpline
210
0.0
220
0.0
230
1.0
 70
    24
 71
     2
 72
     6
 73
     3
 74
     0
 42
0.0000000001
 43
0.0000000001
 40
0.0
 40
0.0
 40
0.0
 40
0.6555684760339773
 40
0.6555684760339773
 40
0.6555684760339773
 10
725.4302193567594
 20
517.7708763999657
 30
0.0
 10
725.102435127825
 20
517.7708763999657
 30
0.0
 10
724.7746508988905
 20
517.7708763999657
 30
0.0
  0
SPLINE
  5
1E5
330
1F
100
AcDbEntity
  8
Linee visibili 2D
100
AcDbSpline
210
0.0
220
0.0
230
1.0
 70
    24
 71
     2
 72
     6
 73
     3
 74
     0
 42
0.0000000001
 43
0.0000000001
 40
-0.4431920469747865
 40
-0.4431920469747865
 40
-0.4431920469747865
 40
0.0
 40
0.0
 40
0.0
 10
724.7746508988905
 20
517.7708763999657
 30
0.0
 10
724.5530548777598
 20
517.7708763999656
 30
0.0
 10
724.3314588566291
 20
517.7708763999656
 30
0.0
  0
SPLINE
  5
1E6
330
1F
100
AcDbEntity
  8
Linee visibili 2D
100
AcDbSpline
210
0.0
220
0.0
230
1.0
 70
    24
 71
     2
 72
     6
 73
     3
 74
     0
 42
0.0000000001
 43
0.0000000001
 40
0.0
 40
0.0
 40
0.0
 40
0.617590921135843
 40
0.617590921135843
 40
0.617590921135843
 10
724.3314588566291
 20
517.7708763999656
 30
0.0
 10
724.0226633957186
 20
517.7708763999656
 30
0.0
 10
723.7138679348081
 20
517.7708763999657
 30
0.0
  0
SPLINE
  5
1E7
330
1F
100
AcDbEntity
  8
Linee visibili 2D
100
AcDbSpline
210
0.0
220
0.0
230
1.0
 70
    24
 71
     2
 72
     6
 73
     3
 74
     0
 42
0.0000000001
 43
0.0000000001
 40
-0.512905913513805
 40
-0.512905913513805
 40
-0.512905913513805
 40
0.0
 40
0.0
 40
0.0
 10
723.7138679348081
 20
517.7708763999657
 30
0.0
 10
723.4574149843572
 20
517.7708763999657
 30
0.0
 10
723.2009620339063
 20
517.7708763999657
 30
0.0
  0
SPLINE
  5
1E8
330
1F
100
AcDbEntity
  8
Linee visibili 2D
100
AcDbSpline
210
0.0
220
0.0
230
1.0
 70
    24
 71
     2
 72
     6
 73
     3
 74
     0
 42
0.0000000001
 43
0.0000000001
 40
0.0
 40
0.0
 40
0.0
 40
0.576806880770846
 40
0.576806880770846
 40
0.576806880770846
 10
723.2009620339063
 20
517.7708763999657
 30
0.0
 10
722.9125585997796
 20
517.7708763999657
 30
0.0
 10
722.6241551656528
 20
517.7708763999657
 30
0.0
  0
SPLINE
  5
1E9
330
1F
100
AcDbEntity
  8
Linee visibili 2D
100
AcDbSpline
210
0.0
220
0.0
230
1.0
 70
    24
 71
     2
 72
     6
 73
     3
 74
     0
 42
0.0000000001
 43
0.0000000001
 40
-9.465087718269615
 40
-9.465087718269615
 40
-9.465087718269615
 40
0.0
 40
0.0
 40
0.0
 10
722.6241551656528
 20
517.7708763999657
 30
0.0
 10
717.8916113134942
 20
517.7708763999657
 30
0.0
 10
713.1590674613356
 20
517.7708763999657
 30
0.0
  0
SPLINE
  5
1EA
330
1F
100
AcDbEntity
  8
Linee visibili 2D
100
AcDbSpline
210
0.0
220
0.0
230
1.0
 70
    24
 71
     2
 72
     6
 73
     3
 74
     0
 42
0.0000000001
 43
0.0000000001
 40
0.0
 40
0.0
 40
0.0
 40
0.1435459180202088
 40
0.1435459180202088
 40
0.1435459180202088
 10
713.1590674613356
 20
517.7708763999657
 30
0.0
 10
713.0872945049077
 20
517.7708763999657
 30
0.0
 10
713.0155215484799
 20
517.7708763999657
 30
0.0
  0
SPLINE
  5
1EB
330
1F
100
AcDbEntity
  8
Linee visibili 2D
100
AcDbSpline
210
0.0
220
0.0
230
1.0
 70
    24
 71
     2
 72
     6
 73
     3
 74
     0
 42
0.0000000001
 43
0.0000000001
 40
-0.533973056085415
 40
-0.533973056085415
 40
-0.533973056085415
 40
0.0
 40
0.0
 40
0.0
 10
713.0155215484799
 20
517.7708763999657
 30
0.0
 10
712.748535022302
 20
517.7708763999656
 30
0.0
 10
712.4815484961241
 20
517.7708763999656
 30
0.0
  0
SPLINE
  5
1EC
330
1F
100
AcDbEntity
  8
Linee visibili 2D
100
AcDbSpline
210
0.0
220
0.0
230
1.0
 70
    24
 71
     2
 72
     6
 73
     3
 74
     0
 42
0.0000000001
 43
0.0000000001
 40
0.0
 40
0.0
 40
0.0
 40
0.7684131921049584
 40
0.7684131921049584
 40
0.7684131921049584
 10
712.4815484961241
 20
517.7708763999656
 30
0.0
 10
712.097341901236
 20
517.7708763999656
 30
0.0
 10
711.7131353063478
 20
517.7708763999657
 30
0.0
  0
SPLINE
  5
1ED
330
1F
100
AcDbEntity
  8
Linee visibili 2D
100
AcDbSpline
210
0.0
220
0.0
230
1.0
 70
    24
 71
     2
 72
     6
 73
     3
 74
     0
 42
0.0000000001
 43
0.0000000001
 40
-0.600809621762096
 40
-0.600809621762096
 40
-0.600809621762096
 40
0.0
 40
0.0
 40
0.0
 10
711.7131353063478
 20
517.7708763999657
 30
0.0
 10
711.4127304966867
 20
517.7708763999658
 30
0.0
 10
711.1123256870255
 20
517.7708763999658
 30
0.0
  0
SPLINE
  5
1EE
330
1F
100
AcDbEntity
  8
Linee visibili 2D
100
AcDbSpline
210
0.0
220
0.0
230
1.0
 70
    24
 71
     2
 72
     6
 73
     3
 74
     0
 42
0.0000000001
 43
0.0000000001
 40
0.0
 40
0.0
 40
0.0
 40
0.7221403453723951
 40
0.7221403453723951
 40
0.7221403453723951
 10
711.1123256870255
 20
517.7708763999658
 30
0.0
 10
710.7512554434743
 20
517.7708763999658
 30
0.0
 10
710.390185199923
 20
517.7708763999657
 30
0.0
  0
SPLINE
  5
1EF
330
1F
100
AcDbEntity
  8
Linee visibili 2D
100
AcDbSpline
210
0.0
220
0.0
230
1.0
 70
    24
 71
     2
 72
     6
 73
     3
 74
     0
 42
0.0000000001
 43
0.0000000001
 40
-0.6647308248958552
 40
-0.6647308248958552
 40
-0.6647308248958552
 40
0.0
 40
0.0
 40
0.0
 10
710.390185199923
 20
517.7708763999657
 30
0.0
 10
710.0578197168156
 20
517.7708763999656
 30
0.0
 10
709.7254542337081
 20
517.7708763999656
 30
0.0
  0
SPLINE
  5
1F0
330
1F
100
AcDbEntity
  8
Linee visibili 2D
100
AcDbSpline
210
0.0
220
0.0
230
1.0
 70
    24
 71
     2
 72
     6
 73
     3
 74
     0
 42
0.0000000001
 43
0.0000000001
 40
0.0
 40
0.0
 40
0.0
 40
0.6995758171780153
 40
0.6995758171780153
 40
0.6995758171780153
 10
709.7254542337081
 20
517.7708763999656
 30
0.0
 10
709.3756663253698
 20
517.7708763999656
 30
0.0
 10
709.0258784170317
 20
517.7708763999657
 30
0.0
  0
SPLINE
  5
1F1
330
1F
100
AcDbEntity
  8
Linee visibili 2D
100
AcDbSpline
210
0.0
220
0.0
230
1.0
 70
    24
 71
     2
 72
     6
 73
     3
 74
     0
 42
0.0000000001
 43
0.0000000001
 40
-0.7034125481943647
 40
-0.7034125481943647
 40
-0.7034125481943647
 40
0.0
 40
0.0
 40
0.0
 10
709.0258784170317
 20
517.7708763999657
 30
0.0
 10
708.6741721433984
 20
517.7708763999657
 30
0.0
 10
708.3224658697652
 20
517.7708763999657
 30
0.0
  0
SPLINE
  5
1F2
330
1F
100
AcDbEntity
  8
Linee visibili 2D
100
AcDbSpline
210
0.0
220
0.0
230
1.0
 70
    24
 71
     2
 72
     6
 73
     3
 74
     0
 42
0.0000000001
 43
0.0000000001
 40
0.0
 40
0.0
 40
0.0
 40
0.7070560449524237
 40
0.7070560449524237
 40
0.7070560449524237
 10
708.3224658697652
 20
517.7708763999657
 30
0.0
 10
707.9689378477088
 20
517.7708763999657
 30
0.0
 10
707.6154098256525
 20
517.7708763999657
 30
0.0
  0
SPLINE
  5
1F3
330
1F
100
AcDbEntity
  8
Linee visibili 2D
100
AcDbSpline
210
0.0
220
0.0
230
1.0
 70
    24
 71
     2
 72
     6
 73
     3
 74
     0
 42
0.0000000001
 43
0.0000000001
 40
-0.7105059041701907
 40
-0.7105059041701907
 40
-0.7105059041701907
 40
0.0
 40
0.0
 40
0.0
 10
707.6154098256525
 20
517.7708763999657
 30
0.0
 10
707.2601568739524
 20
517.7708763999657
 30
0.0
 10
706.9049039222523
 20
517.7708763999657
 30
0.0
  0
SPLINE
  5
1F4
330
1F
100
AcDbEntity
  8
Linee visibili 2D
100
AcDbSpline
210
0.0
220
0.0
230
1.0
 70
    24
 71
     2
 72
     6
 73
     3
 74
     0
 42
0.0000000001
 43
0.0000000001
 40
0.0
 40
0.0
 40
0.0
 40
0.7137618967750541
 40
0.7137618967750541
 40
0.7137618967750541
 10
706.9049039222523
 20
517.7708763999657
 30
0.0
 10
706.5480229742152
 20
517.7708763999657
 30
0.0
 10
706.1911420261782
 20
517.7708763999657
 30
0.0
  0
SPLINE
  5
1F5
330
1F
100
AcDbEntity
  8
Linee visibili 2D
100
AcDbSpline
210
0.0
220
0.0
230
1.0
 70
    24
 71
     2
 72
     6
 73
     3
 74
     0
 42
0.0000000001
 43
0.0000000001
 40
-0.7168239415675544
 40
-0.7168239415675544
 40
-0.7168239415675544
 40
0.0
 40
0.0
 40
0.0
 10
706.1911420261782
 20
517.7708763999657
 30
0.0
 10
705.8327300556311
 20
517.7708763999657
 30
0.0
 10
705.4743180850842
 20
517.7708763999657
 30
0.0
  0
SPLINE
  5
1F6
330
1F
100
AcDbEntity
  8
Linee visibili 2D
100
AcDbSpline
210
0.0
220
0.0
230
1.0
 70
    24
 71
     2
 72
     6
 73
     3
 74
     0
 42
0.0000000001
 43
0.0000000001
 40
0.0
 40
0.0
 40
0.0
 40
0.719692126968539
 40
0.719692126968539
 40
0.719692126968539
 10
705.4743180850842
 20
517.7708763999657
 30
0.0
 10
705.1144720218787
 20
517.7708763999657
 30
0.0
 10
704.7546259586732
 20
517.7708763999657
 30
0.0
  0
SPLINE
  5
1F7
330
1F
100
AcDbEntity
  8
Linee visibili 2D
100
AcDbSpline
210
0.0
220
0.0
230
1.0
 70
    24
 71
     2
 72
     6
 73
     3
 74
     0
 42
0.0000000001
 43
0.0000000001
 40
-0.7223666877168853
 40
-0.7223666877168853
 40
-0.7223666877168853
 40
0.0
 40
0.0
 40
0.0
 10
704.7546259586732
 20
517.7708763999657
 30
0.0
 10
704.3934426148652
 20
517.7708763999657
 30
0.0
 10
704.0322592710572
 20
517.7708763999657
 30
0.0
  0
SPLINE
  5
1F8
330
1F
100
AcDbEntity
  8
Linee visibili 2D
100
AcDbSpline
210
0.0
220
0.0
230
1.0
 70
    24
 71
     2
 72
     6
 73
     3
 74
     0
 42
0.0000000001
 43
0.0000000001
 40
0.0
 40
0.0
 40
0.0
 40
0.5448211316353309
 40
0.5448211316353309
 40
0.5448211316353309
 10
704.0322592710572
 20
517.7708763999657
 30
0.0
 10
703.759848707356
 20
517.7708763999657
 30
0.0
 10
703.4874381436549
 20
517.7708763999657
 30
0.0
  0
SPLINE
  5
1F9
330
1F
100
AcDbEntity
  8
Linee visibili 2D
100
AcDbSpline
210
0.0
220
0.0
230
1.0
 70
    24
 71
     2
 72
     6
 73
     3
 74
     0
 42
0.0000000001
 43
0.0000000001
 40
-0.9071635678290022
 40
-0.9071635678290022
 40
-0.9071635678290022
 40
0.0
 40
0.0
 40
0.0
 10
703.4874381436549
 20
517.7708763999657
 30
0.0
 10
703.0338563630028
 20
517.7708763999657
 30
0.0
 10
702.5802745823507
 20
517.7708763999657
 30
0.0
  0
SPLINE
  5
1FA
330
1F
100
AcDbEntity
  8
Linee visibili 2D
100
AcDbSpline
210
0.0
220
0.0
230
1.0
 70
    24
 71
     2
 72
     6
 73
     3
 74
     0
 42
0.0000000001
 43
0.0000000001
 40
0.0
 40
0.0
 40
0.0
 40
0.5268936794062711
 40
0.5268936794062711
 40
0.5268936794062711
 10
702.5802745823507
 20
517.7708763999657
 30
0.0
 10
702.3168277452687
 20
517.7708763999657
 30
0.0
 10
702.0533809081867
 20
517.7708763999657
 30
0.0
  0
SPLINE
  5
1FB
330
1F
100
AcDbEntity
  8
Linee visibili 2D
100
AcDbSpline
210
0.0
220
0.0
230
1.0
 70
    24
 71
     2
 72
     6
 73
     3
 74
     0
 42
0.0000000001
 43
0.0000000001
 40
-0.9334785024063876
 40
-0.9334785024063876
 40
-0.9334785024063876
 40
0.0
 40
0.0
 40
0.0
 10
702.0533809081867
 20
517.7708763999657
 30
0.0
 10
701.5866416583611
 20
517.7708763999657
 30
0.0
 10
701.1199024085356
 20
517.7708763999657
 30
0.0
  0
SPLINE
  5
1FC
330
1F
100
AcDbEntity
  8
Linee visibili 2D
100
AcDbSpline
210
0.0
220
0.0
230
1.0
 70
    24
 71
     2
 72
     6
 73
     3
 74
     0
 42
0.0000000001
 43
0.0000000001
 40
0.0
 40
0.0
 40
0.0
 40
0.5163112334471407
 40
0.5163112334471407
 40
0.5163112334471407
 10
701.1199024085356
 20
517.7708763999657
 30
0.0
 10
700.8617467925305
 20
517.7708763999657
 30
0.0
 10
700.6035911765254
 20
517.7708763999657
 30
0.0
  0
SPLINE
  5
1FD
330
1F
100
AcDbEntity
  8
Linee visibili 2D
100
AcDbSpline
210
0.0
220
0.0
230
1.0
 70
    24
 71
     2
 72
     6
 73
     3
 74
     0
 42
0.0000000001
 43
0.0000000001
 40
-0.9509234415569381
 40
-0.9509234415569381
 40
-0.9509234415569381
 40
0.0
 40
0.0
 40
0.0
 10
700.6035911765254
 20
517.7708763999657
 30
0.0
 10
700.1281294564653
 20
517.7708763999657
 30
0.0
 10
699.6526677364053
 20
517.7708763999657
 30
0.0
  0
SPLINE
  5
1FE
330
1F
100
AcDbEntity
  8
Linee visibili 2D
100
AcDbSpline
210
0.0
220
0.0
230
1.0
 70
    24
 71
     2
 72
     6
 73
     3
 74
     0
 42
0.0000000001
 43
0.0000000001
 40
0.0
 40
0.0
 40
0.0
 40
0.5111360056446301
 40
0.5111360056446301
 40
0.5111360056446301
 10
699.6526677364053
 20
517.7708763999657
 30
0.0
 10
699.3970997336214
 20
517.7708763999657
 30
0.0
 10
699.1415317308374
 20
517.7708763999657
 30
0.0
  0
SPLINE
  5
1FF
330
1F
100
AcDbEntity
  8
Linee visibili 2D
100
AcDbSpline
210
0.0
220
0.0
230
1.0
 70
    24
 71
     2
 72
     6
 73
     3
 74
     0
 42
0.0000000001
 43
0.0000000001
 40
-0.9614541220863657
 40
-0.9614541220863657
 40
-0.9614541220863657
 40
0.0
 40
0.0
 40
0.0
 10
699.1415317308374
 20
517.7708763999657
 30
0.0
 10
698.6608046698325
 20
517.7708763999658
 30
0.0
 10
698.1800776088277
 20
517.7708763999658
 30
0.0
  0
SPLINE
  5
200
330
1F
100
AcDbEntity
  8
Linee visibili 2D
100
AcDbSpline
210
0.0
220
0.0
230
1.0
 70
    24
 71
     2
 72
     6
 73
     3
 74
     0
 42
0.0000000001
 43
0.0000000001
 40
0.0
 40
0.0
 40
0.0
 40
0.5121848655944632
 40
0.5121848655944632
 40
0.5121848655944632
 10
698.1800776088277
 20
517.7708763999658
 30
0.0
 10
697.9239850946695
 20
517.7708763999658
 30
0.0
 10
697.6678925805114
 20
517.7708763999657
 30
0.0
  0
SPLINE
  5
201
330
1F
100
AcDbEntity
  8
Linee visibili 2D
100
AcDbSpline
210
0.0
220
0.0
230
1.0
 70
    24
 71
     2
 72
     6
 73
     3
 74
     0
 42
0.0000000001
 43
0.0000000001
 40
-0.9642755753939127
 40
-0.9642755753939127
 40
-0.9642755753939127
 40
0.0
 40
0.0
 40
0.0
 10
697.6678925805114
 20
517.7708763999657
 30
0.0
 10
697.1857547114537
 20
517.7708763999657
 30
0.0
 10
696.7036168423958
 20
517.7708763999657
 30
0.0
  0
SPLINE
  5
202
330
1F
100
AcDbEntity
  8
Linee visibili 2D
100
AcDbSpline
210
0.0
220
0.0
230
1.0
 70
    24
 71
     2
 72
     6
 73
     3
 74
     0
 42
0.0000000001
 43
0.0000000001
 40
0.0
 40
0.0
 40
0.0
 40
0.52025245544894
 40
0.52025245544894
 40
0.52025245544894
 10
696.7036168423958
 20
517.7708763999657
 30
0.0
 10
696.4434906425374
 20
517.7708763999657
 30
0.0
 10
696.183364442679
 20
517.7708763999657
 30
0.0
  0
SPLINE
  5
203
330
1F
100
AcDbEntity
  8
Linee visibili 2D
100
AcDbSpline
210
0.0
220
0.0
230
1.0
 70
    24
 71
     2
 72
     6
 73
     3
 74
     0
 42
0.0000000001
 43
0.0000000001
 40
-0.9586205257680831
 40
-0.9586205257680831
 40
-0.9586205257680831
 40
0.0
 40
0.0
 40
0.0
 10
696.183364442679
 20
517.7708763999657
 30
0.0
 10
695.7040542076611
 20
517.7708763999657
 30
0.0
 10
695.2247439726433
 20
517.7708763999657
 30
0.0
  0
SPLINE
  5
204
330
1F
100
AcDbEntity
  8
Linee visibili 2D
100
AcDbSpline
210
0.0
220
0.0
230
1.0
 70
    24
 71
     2
 72
     6
 73
     3
 74
     0
 42
0.0000000001
 43
0.0000000001
 40
0.0
 40
0.0
 40
0.0
 40
0.5361071377682265
 40
0.5361071377682265
 40
0.5361071377682265
 10
695.2247439726433
 20
517.7708763999657
 30
0.0
 10
694.9566904046362
 20
517.7708763999657
 30
0.0
 10
694.6886368366293
 20
517.7708763999657
 30
0.0
  0
SPLINE
  5
205
330
1F
100
AcDbEntity
  8
Linee visibili 2D
100
AcDbSpline
210
0.0
220
0.0
230
1.0
 70
    24
 71
     2
 72
     6
 73
     3
 74
     0
 42
0.0000000001
 43
0.0000000001
 40
-0.9437493770601577
 40
-0.9437493770601577
 40
-0.9437493770601577
 40
0.0
 40
0.0
 40
0.0
 10
694.6886368366293
 20
517.7708763999657
 30
0.0
 10
694.2167621489763
 20
517.7708763999657
 30
0.0
 10
693.7448874613233
 20
517.7708763999657
 30
0.0
  0
SPLINE
  5
206
330
1F
100
AcDbEntity
  8
Linee visibili 2D
100
AcDbSpline
210
0.0
220
0.0
230
1.0
 70
    24
 71
     2
 72
     6
 73
     3
 74
     0
 42
0.0000000001
 43
0.0000000001
 40
0.0
 40
0.0
 40
0.0
 40
0.5604871998694989
 40
0.5604871998694989
 40
0.5604871998694989
 10
693.7448874613233
 20
517.7708763999657
 30
0.0
 10
693.4646438564804
 20
517.7708763999657
 30
0.0
 10
693.1844002516375
 20
517.7708763999657
 30
0.0
  0
SPLINE
  5
207
330
1F
100
AcDbEntity
  8
Linee visibili 2D
100
AcDbSpline
210
0.0
220
0.0
230
1.0
 70
    24
 71
     2
 72
     6
 73
     3
 74
     0
 42
0.0000000001
 43
0.0000000001
 40
-0.9189580642841975
 40
-0.9189580642841975
 40
-0.9189580642841975
 40
0.0
 40
0.0
 40
0.0
 10
693.1844002516375
 20
517.7708763999657
 30
0.0
 10
692.7249212169581
 20
517.7708763999657
 30
0.0
 10
692.2654421822789
 20
517.7708763999657
 30
0.0
  0
SPLINE
  5
208
330
1F
100
AcDbEntity
  8
Linee visibili 2D
100
AcDbSpline
210
0.0
220
0.0
230
1.0
 70
    24
 71
     2
 72
     6
 73
     3
 74
     0
 42
0.0000000001
 43
0.0000000001
 40
0.0
 40
0.0
 40
0.0
 40
0.594097348818309
 40
0.594097348818309
 40
0.594097348818309
 10
692.2654421822789
 20
517.7708763999657
 30
0.0
 10
691.9683934781635
 20
517.7708763999657
 30
0.0
 10
691.6713447740483
 20
517.7708763999657
 30
0.0
  0
SPLINE
  5
209
330
1F
100
AcDbEntity
  8
Linee visibili 2D
100
AcDbSpline
210
0.0
220
0.0
230
1.0
 70
    24
 71
     2
 72
     6
 73
     3
 74
     0
 42
0.0000000001
 43
0.0000000001
 40
-0.8835785459431236
 40
-0.8835785459431236
 40
-0.8835785459431236
 40
0.0
 40
0.0
 40
0.0
 10
691.6713447740483
 20
517.7708763999657
 30
0.0
 10
691.2295554709424
 20
517.7708763999657
 30
0.0
 10
690.7877661678365
 20
517.7708763999657
 30
0.0
  0
SPLINE
  5
20A
330
1F
100
AcDbEntity
  8
Linee visibili 2D
100
AcDbSpline
210
0.0
220
0.0
230
1.0
 70
    24
 71
     2
 72
     6
 73
     3
 74
     0
 42
0.0000000001
 43
0.0000000001
 40
0.0
 40
0.0
 40
0.0
 40
0.6376054277061485
 40
0.6376054277061485
 40
0.6376054277061485
 10
690.7877661678365
 20
517.7708763999657
 30
0.0
 10
690.4689635426793
 20
517.7708763999657
 30
0.0
 10
690.150160917522
 20
517.7708763999657
 30
0.0
  0
SPLINE
  5
20B
330
1F
100
AcDbEntity
  8
Linee visibili 2D
100
AcDbSpline
210
0.0
220
0.0
230
1.0
 70
    24
 71
     2
 72
     6
 73
     3
 74
     0
 42
0.0000000001
 43
0.0000000001
 40
-0.8369833946737799
 40
-0.8369833946737799
 40
-0.8369833946737799
 40
0.0
 40
0.0
 40
0.0
 10
690.150160917522
 20
517.7708763999657
 30
0.0
 10
689.7316693069388
 20
517.7708763999657
 30
0.0
 10
689.3131776963555
 20
517.7708763999657
 30
0.0
  0
SPLINE
  5
20C
330
1F
100
AcDbEntity
  8
Linee visibili 2D
100
AcDbSpline
210
0.0
220
0.0
230
1.0
 70
    24
 71
     2
 72
     6
 73
     3
 74
     0
 42
0.0000000001
 43
0.0000000001
 40
0.0
 40
0.0
 40
0.0
 40
0.6916395583743906
 40
0.6916395583743906
 40
0.6916395583743906
 10
689.3131776963555
 20
517.7708763999657
 30
0.0
 10
688.9673579169438
 20
517.7708763999657
 30
0.0
 10
688.6215381375321
 20
517.7708763999657
 30
0.0
  0
SPLINE
  5
20D
330
1F
100
AcDbEntity
  8
Linee visibili 2D
100
AcDbSpline
210
0.0
220
0.0
230
1.0
 70
    24
 71
     2
 72
     6
 73
     3
 74
     0
 42
0.0000000001
 43
0.0000000001
 40
-0.7785854951879401
 40
-0.7785854951879401
 40
-0.7785854951879401
 40
0.0
 40
0.0
 40
0.0
 10
688.6215381375321
 20
517.7708763999657
 30
0.0
 10
688.2322453897275
 20
517.7708763999657
 30
0.0
 10
687.8429526419229
 20
517.7708763999657
 30
0.0
  0
SPLINE
  5
20E
330
1F
100
AcDbEntity
  8
Linee visibili 2D
100
AcDbSpline
210
0.0
220
0.0
230
1.0
 70
    24
 71
     2
 72
     6
 73
     3
 74
     0
 42
0.0000000001
 43
0.0000000001
 40
0.0
 40
0.0
 40
0.0
 40
0.7567854333548212
 40
0.7567854333548212
 40
0.7567854333548212
 10
687.8429526419229
 20
517.7708763999657
 30
0.0
 10
687.4645599243357
 20
517.7708763999657
 30
0.0
 10
687.0861672067485
 20
517.7708763999657
 30
0.0
  0
SPLINE
  5
20F
330
1F
100
AcDbEntity
  8
Linee visibili 2D
100
AcDbSpline
210
0.0
220
0.0
230
1.0
 70
    24
 71
     2
 72
     6
 73
     3
 74
     0
 42
0.0000000001
 43
0.0000000001
 40
-0.7078450863716625
 40
-0.7078450863716625
 40
-0.7078450863716625
 40
0.0
 40
0.0
 40
0.0
 10
687.0861672067485
 20
517.7708763999657
 30
0.0
 10
686.7322446626587
 20
517.7708763999657
 30
0.0
 10
686.3783221185688
 20
517.7708763999657
 30
0.0
  0
SPLINE
  5
210
330
1F
100
AcDbEntity
  8
Linee visibili 2D
100
AcDbSpline
210
0.0
220
0.0
230
1.0
 70
    24
 71
     2
 72
     6
 73
     3
 74
     0
 42
0.0000000001
 43
0.0000000001
 40
0.0
 40
0.0
 40
0.0
 40
0.8335839984047198
 40
0.8335839984047198
 40
0.8335839984047198
 10
686.3783221185688
 20
517.7708763999657
 30
0.0
 10
685.9615301181917
 20
517.7708763999657
 30
0.0
 10
685.5447381178146
 20
517.7708763999657
 30
0.0
  0
SPLINE
  5
211
330
1F
100
AcDbEntity
  8
Linee visibili 2D
100
AcDbSpline
210
0.0
220
0.0
230
1.0
 70
    24
 71
     2
 72
     6
 73
     3
 74
     0
 42
0.0000000001
 43
0.0000000001
 40
-0.6242676598440084
 40
-0.6242676598440084
 40
-0.6242676598440084
 40
0.0
 40
0.0
 40
0.0
 10
685.5447381178146
 20
517.7708763999657
 30
0.0
 10
685.2326042867167
 20
517.7708763999657
 30
0.0
 10
684.9204704556186
 20
517.7708763999657
 30
0.0
  0
SPLINE
  5
212
330
1F
100
AcDbEntity
  8
Linee visibili 2D
100
AcDbSpline
210
0.0
220
0.0
230
1.0
 70
    24
 71
     2
 72
     6
 73
     3
 74
     0
 42
0.0000000001
 43
0.0000000001
 40
0.0
 40
0.0
 40
0.0
 40
0.9225294062121066
 40
0.9225294062121066
 40
0.9225294062121066
 10
684.9204704556186
 20
517.7708763999657
 30
0.0
 10
684.4592057505479
 20
517.7708763999657
 30
0.0
 10
683.9979410454771
 20
517.7708763999657
 30
0.0
  0
SPLINE
  5
213
330
1F
100
AcDbEntity
  8
Linee visibili 2D
100
AcDbSpline
210
0.0
220
0.0
230
1.0
 70
    24
 71
     2
 72
     6
 73
     3
 74
     0
 42
0.0000000001
 43
0.0000000001
 40
-0.5274075887275558
 40
-0.5274075887275558
 40
-0.5274075887275558
 40
0.0
 40
0.0
 40
0.0
 10
683.9979410454771
 20
517.7708763999657
 30
0.0
 10
683.7342372491412
 20
517.7708763999657
 30
0.0
 10
683.4705334528054
 20
517.7708763999657
 30
0.0
  0
SPLINE
  5
214
330
1F
100
AcDbEntity
  8
Linee visibili 2D
100
AcDbSpline
210
0.0
220
0.0
230
1.0
 70
    24
 71
     2
 72
     6
 73
     3
 74
     0
 42
0.0000000001
 43
0.0000000001
 40
0.0
 40
0.0
 40
0.0
 40
1.024067283911677
 40
1.024067283911677
 40
1.024067283911677
 10
683.4705334528054
 20
517.7708763999657
 30
0.0
 10
682.9584998077312
 20
517.7708763999657
 30
0.0
 10
682.4464661626571
 20
517.7708763999657
 30
0.0
  0
SPLINE
  5
215
330
1F
100
AcDbEntity
  8
Linee visibili 2D
100
AcDbSpline
210
0.0
220
0.0
230
1.0
 70
    24
 71
     2
 72
     6
 73
     3
 74
     0
 42
0.0000000001
 43
0.0000000001
 40
-0.4168692235052731
 40
-0.4168692235052731
 40
-0.4168692235052731
 40
0.0
 40
0.0
 40
0.0
 10
682.4464661626571
 20
517.7708763999657
 30
0.0
 10
682.2380315477785
 20
517.7708763999657
 30
0.0
 10
682.0295969329
 20
517.7708763999657
 30
0.0
  0
SPLINE
  5
216
330
1F
100
AcDbEntity
  8
Linee visibili 2D
100
AcDbSpline
210
0.0
220
0.0
230
1.0
 70
    24
 71
     2
 72
     6
 73
     3
 74
     0
 42
0.0000000001
 43
0.0000000001
 40
0.0
 40
0.0
 40
0.0
 40
1.138593281154272
 40
1.138593281154272
 40
1.138593281154272
 10
682.0295969329
 20
517.7708763999657
 30
0.0
 10
681.4603002880475
 20
517.7708763999657
 30
0.0
 10
680.8910036431951
 20
517.7708763999657
 30
0.0
  0
SPLINE
  5
217
330
1F
100
AcDbEntity
  8
Linee visibili 2D
100
AcDbSpline
210
0.0
220
0.0
230
1.0
 70
    24
 71
     2
 72
     6
 73
     3
 74
     0
 42
0.0000000001
 43
0.0000000001
 40
-0.2923080537478882
 40
-0.2923080537478882
 40
-0.2923080537478882
 40
0.0
 40
0.0
 40
0.0
 10
680.8910036431951
 20
517.7708763999657
 30
0.0
 10
680.7448496120423
 20
517.7708763999657
 30
0.0
 10
680.5986955808895
 20
517.7708763999657
 30
0.0
  0
SPLINE
  5
218
330
1F
100
AcDbEntity
  8
Linee visibili 2D
100
AcDbSpline
210
0.0
220
0.0
230
1.0
 70
    24
 71
     2
 72
     6
 73
     3
 74
     0
 42
0.0000000001
 43
0.0000000001
 40
0.0
 40
0.0
 40
0.0
 40
1.419883520042049
 40
1.419883520042049
 40
1.419883520042049
 10
680.5986955808895
 20
517.7708763999657
 30
0.0
 10
679.8887538208689
 20
517.7708763999657
 30
0.0
 10
679.1788120608483
 20
517.7708763999657
 30
0.0
  0
SPLINE
  5
219
330
1F
100
AcDbEntity
  8
Linee visibili 2D
100
AcDbSpline
210
0.0
220
0.0
230
1.0
 70
    24
 71
     2
 72
     6
 73
     3
 74
     0
 42
0.0000000001
 43
0.0000000001
 40
-1.407935660882913
 40
-1.407935660882913
 40
-1.407935660882913
 40
0.0
 40
0.0
 40
0.0
 10
679.1788120608483
 20
517.7708763999657
 30
0.0
 10
678.4748442304069
 20
517.7708763999657
 30
0.0
 10
677.7708763999655
 20
517.7708763999657
 30
0.0
  0
SPLINE
  5
21A
330
1F
100
AcDbEntity
  8
Linee visibili 2D
100
AcDbSpline
210
0.0
220
0.0
230
1.0
 70
    24
 71
     2
 72
     6
 73
     3
 74
     0
 42
0.0000000001
 43
0.0000000001
 40
-1.561367254128641
 40
-1.561367254128641
 40
-1.561367254128641
 40
0.0
 40
0.0
 40
0.0
 10
677.7708763999655
 20
517.7708763999657
 30
0.0
 10
676.9901927686863
 20
517.7708763999657
 30
0.0
 10
676.209509137407
 20
517.7708763999657
 30
0.0
  0
SPLINE
  5
21B
330
1F
100
AcDbEntity
  8
Linee visibili 2D
100
AcDbSpline
210
0.0
220
0.0
230
1.0
 70
    24
 71
     2
 72
     6
 73
     3
 74
     0
 42
0.0000000001
 43
0.0000000001
 40
0.0
 40
0.0
 40
0.0
 40
0.6669064000698199
 40
0.6669064000698199
 40
0.6669064000698199
 10
676.209509137407
 20
517.7708763999657
 30
0.0
 10
675.8760559464151
 20
517.7708763999657
 30
0.0
 10
675.5426027554233
 20
517.7708763999657
 30
0.0
  0
SPLINE
  5
21C
330
1F
100
AcDbEntity
  8
Linee visibili 2D
100
AcDbSpline
210
0.0
220
0.0
230
1.0
 70
    24
 71
     2
 72
     6
 73
     3
 74
     0
 42
0.0000000001
 43
0.0000000001
 40
-0.8918536166451076
 40
-0.8918536166451076
 40
-0.8918536166451076
 40
0.0
 40
0.0
 40
0.0
 10
675.5426027554233
 20
517.7708763999657
 30
0.0
 10
675.0966759561172
 20
517.7708763999657
 30
0.0
 10
674.6507491568111
 20
517.7708763999657
 30
0.0
  0
SPLINE
  5
21D
330
1F
100
AcDbEntity
  8
Linee visibili 2D
100
AcDbSpline
210
0.0
220
0.0
230
1.0
 70
    24
 71
     2
 72
     6
 73
     3
 74
     0
 42
0.0000000001
 43
0.0000000001
 40
0.0
 40
0.0
 40
0.0
 40
1.138593281903013
 40
1.138593281903013
 40
1.138593281903013
 10
674.6507491568111
 20
517.7708763999657
 30
0.0
 10
674.0814525117715
 20
517.7708763999657
 30
0.0
 10
673.512155866732
 20
517.7708763999657
 30
0.0
  0
SPLINE
  5
21E
330
1F
100
AcDbEntity
  8
Linee visibili 2D
100
AcDbSpline
210
0.0
220
0.0
230
1.0
 70
    24
 71
     2
 72
     6
 73
     3
 74
     0
 42
0.0000000001
 43
0.0000000001
 40
-0.4168692235057279
 40
-0.4168692235057279
 40
-0.4168692235057279
 40
0.0
 40
0.0
 40
0.0
 10
673.512155866732
 20
517.7708763999657
 30
0.0
 10
673.3037212520528
 20
517.7708763999657
 30
0.0
 10
673.0952866373735
 20
517.7708763999657
 30
0.0
  0
SPLINE
  5
21F
330
1F
100
AcDbEntity
  8
Linee visibili 2D
100
AcDbSpline
210
0.0
220
0.0
230
1.0
 70
    24
 71
     2
 72
     6
 73
     3
 74
     0
 42
0.0000000001
 43
0.0000000001
 40
0.0
 40
0.0
 40
0.0
 40
1.024067285003412
 40
1.024067285003412
 40
1.024067285003412
 10
673.0952866373735
 20
517.7708763999657
 30
0.0
 10
672.5832529920265
 20
517.7708763999657
 30
0.0
 10
672.0712193466795
 20
517.7708763999657
 30
0.0
  0
SPLINE
  5
220
330
1F
100
AcDbEntity
  8
Linee visibili 2D
100
AcDbSpline
210
0.0
220
0.0
230
1.0
 70
    24
 71
     2
 72
     6
 73
     3
 74
     0
 42
0.0000000001
 43
0.0000000001
 40
-0.5274075887282379
 40
-0.5274075887282379
 40
-0.5274075887282379
 40
0.0
 40
0.0
 40
0.0
 10
672.0712193466795
 20
517.7708763999657
 30
0.0
 10
671.8075155506525
 20
517.7708763999657
 30
0.0
 10
671.5438117546255
 20
517.7708763999657
 30
0.0
  0
SPLINE
  5
221
330
1F
100
AcDbEntity
  8
Linee visibili 2D
100
AcDbSpline
210
0.0
220
0.0
230
1.0
 70
    24
 71
     2
 72
     6
 73
     3
 74
     0
 42
0.0000000001
 43
0.0000000001
 40
0.0
 40
0.0
 40
0.0
 40
0.9225294077434683
 40
0.9225294077434683
 40
0.9225294077434683
 10
671.5438117546255
 20
517.7708763999657
 30
0.0
 10
671.082547049172
 20
517.7708763999657
 30
0.0
 10
670.6212823437186
 20
517.7708763999657
 30
0.0
  0
SPLINE
  5
222
330
1F
100
AcDbEntity
  8
Linee visibili 2D
100
AcDbSpline
210
0.0
220
0.0
230
1.0
 70
    24
 71
     2
 72
     6
 73
     3
 74
     0
 42
0.0000000001
 43
0.0000000001
 40
-0.6242676598446906
 40
-0.6242676598446906
 40
-0.6242676598446906
 40
0.0
 40
0.0
 40
0.0
 10
670.6212823437186
 20
517.7708763999657
 30
0.0
 10
670.3091485130791
 20
517.7708763999656
 30
0.0
 10
669.9970146824396
 20
517.7708763999656
 30
0.0
  0
SPLINE
  5
223
330
1F
100
AcDbEntity
  8
Linee visibili 2D
100
AcDbSpline
210
0.0
220
0.0
230
1.0
 70
    24
 71
     2
 72
     6
 73
     3
 74
     0
 42
0.0000000001
 43
0.0000000001
 40
0.0
 40
0.0
 40
0.0
 40
0.8335840005374848
 40
0.8335840005374848
 40
0.8335840005374848
 10
669.9970146824396
 20
517.7708763999656
 30
0.0
 10
669.5802226815294
 20
517.7708763999656
 30
0.0
 10
669.1634306806194
 20
517.7708763999657
 30
0.0
  0
SPLINE
  5
224
330
1F
100
AcDbEntity
  8
Linee visibili 2D
100
AcDbSpline
210
0.0
220
0.0
230
1.0
 70
    24
 71
     2
 72
     6
 73
     3
 74
     0
 42
0.0000000001
 43
0.0000000001
 40
-0.707845086372572
 40
-0.707845086372572
 40
-0.707845086372572
 40
0.0
 40
0.0
 40
0.0
 10
669.1634306806194
 20
517.7708763999657
 30
0.0
 10
668.8095081373269
 20
517.7708763999656
 30
0.0
 10
668.4555855940346
 20
517.7708763999656
 30
0.0
  0
SPLINE
  5
225
330
1F
100
AcDbEntity
  8
Linee visibili 2D
100
AcDbSpline
210
0.0
220
0.0
230
1.0
 70
    24
 71
     2
 72
     6
 73
     3
 74
     0
 42
0.0000000001
 43
0.0000000001
 40
0.0
 40
0.0
 40
0.0
 40
0.7567854368438702
 40
0.7567854368438702
 40
0.7567854368438702
 10
668.4555855940346
 20
517.7708763999656
 30
0.0
 10
668.0771928755753
 20
517.7708763999656
 30
0.0
 10
667.6988001571161
 20
517.7708763999657
 30
0.0
  0
SPLINE
  5
226
330
1F
100
AcDbEntity
  8
Linee visibili 2D
100
AcDbSpline
210
0.0
220
0.0
230
1.0
 70
    24
 71
     2
 72
     6
 73
     3
 74
     0
 42
0.0000000001
 43
0.0000000001
 40
-0.7785854951888496
 40
-0.7785854951888496
 40
-0.7785854951888496
 40
0.0
 40
0.0
 40
0.0
 10
667.6988001571161
 20
517.7708763999657
 30
0.0
 10
667.3095074097757
 20
517.7708763999657
 30
0.0
 10
666.9202146624353
 20
517.7708763999657
 30
0.0
  0
SPLINE
  5
227
330
1F
100
AcDbEntity
  8
Linee visibili 2D
100
AcDbSpline
210
0.0
220
0.0
230
1.0
 70
    24
 71
     2
 72
     6
 73
     3
 74
     0
 42
0.0000000001
 43
0.0000000001
 40
0.0
 40
0.0
 40
0.0
 40
0.6916395605425123
 40
0.6916395605425123
 40
0.6916395605425123
 10
666.9202146624353
 20
517.7708763999657
 30
0.0
 10
666.5743948824818
 20
517.7708763999657
 30
0.0
 10
666.2285751025281
 20
517.7708763999657
 30
0.0
  0
SPLINE
  5
228
330
1F
100
AcDbEntity
  8
Linee visibili 2D
100
AcDbSpline
210
0.0
220
0.0
230
1.0
 70
    24
 71
     2
 72
     6
 73
     3
 74
     0
 42
0.0000000001
 43
0.0000000001
 40
-0.8369833946749168
 40
-0.8369833946749168
 40
-0.8369833946749168
 40
0.0
 40
0.0
 40
0.0
 10
666.2285751025281
 20
517.7708763999657
 30
0.0
 10
665.8100834936195
 20
517.7708763999656
 30
0.0
 10
665.3915918847108
 20
517.7708763999656
 30
0.0
  0
SPLINE
  5
229
330
1F
100
AcDbEntity
  8
Linee visibili 2D
100
AcDbSpline
210
0.0
220
0.0
230
1.0
 70
    24
 71
     2
 72
     6
 73
     3
 74
     0
 42
0.0000000001
 43
0.0000000001
 40
0.0
 40
0.0
 40
0.0
 40
0.6376054268891949
 40
0.6376054268891949
 40
0.6376054268891949
 10
665.3915918847108
 20
517.7708763999656
 30
0.0
 10
665.0727892597581
 20
517.7708763999656
 30
0.0
 10
664.7539866348054
 20
517.7708763999657
 30
0.0
  0
SPLINE
  5
22A
330
1F
100
AcDbEntity
  8
Linee visibili 2D
100
AcDbSpline
210
0.0
220
0.0
230
1.0
 70
    24
 71
     2
 72
     6
 73
     3
 74
     0
 42
0.0000000001
 43
0.0000000001
 40
-0.8835785459444878
 40
-0.8835785459444878
 40
-0.8835785459444878
 40
0.0
 40
0.0
 40
0.0
 10
664.7539866348054
 20
517.7708763999657
 30
0.0
 10
664.3121973303433
 20
517.7708763999657
 30
0.0
 10
663.8704080258813
 20
517.7708763999657
 30
0.0
  0
SPLINE
  5
22B
330
1F
100
AcDbEntity
  8
Linee visibili 2D
100
AcDbSpline
210
0.0
220
0.0
230
1.0
 70
    24
 71
     2
 72
     6
 73
     3
 74
     0
 42
0.0000000001
 43
0.0000000001
 40
0.0
 40
0.0
 40
0.0
 40
0.5940973419593547
 40
0.5940973419593547
 40
0.5940973419593547
 10
663.8704080258813
 20
517.7708763999657
 30
0.0
 10
663.5733593234811
 20
517.7708763999657
 30
0.0
 10
663.2763106210809
 20
517.7708763999657
 30
0.0
  0
SPLINE
  5
22C
330
1F
100
AcDbEntity
  8
Linee visibili 2D
100
AcDbSpline
210
0.0
220
0.0
230
1.0
 70
    24
 71
     2
 72
     6
 73
     3
 74
     0
 42
0.0000000001
 43
0.0000000001
 40
-0.9189580642857891
 40
-0.9189580642857891
 40
-0.9189580642857891
 40
0.0
 40
0.0
 40
0.0
 10
663.2763106210809
 20
517.7708763999657
 30
0.0
 10
662.8168315847774
 20
517.7708763999657
 30
0.0
 10
662.3573525484741
 20
517.7708763999657
 30
0.0
  0
SPLINE
  5
22D
330
1F
100
AcDbEntity
  8
Linee visibili 2D
100
AcDbSpline
210
0.0
220
0.0
230
1.0
 70
    24
 71
     2
 72
     6
 73
     3
 74
     0
 42
0.0000000001
 43
0.0000000001
 40
0.0
 40
0.0
 40
0.0
 40
0.5604872031943842
 40
0.5604872031943842
 40
0.5604872031943842
 10
662.3573525484741
 20
517.7708763999657
 30
0.0
 10
662.0771089428004
 20
517.7708763999657
 30
0.0
 10
661.7968653371266
 20
517.7708763999657
 30
0.0
  0
SPLINE
  5
22E
330
1F
100
AcDbEntity
  8
Linee visibili 2D
100
AcDbSpline
210
0.0
220
0.0
230
1.0
 70
    24
 71
     2
 72
     6
 73
     3
 74
     0
 42
0.0000000001
 43
0.0000000001
 40
-0.9437493770619767
 40
-0.9437493770619767
 40
-0.9437493770619767
 40
0.0
 40
0.0
 40
0.0
 10
661.7968653371266
 20
517.7708763999657
 30
0.0
 10
661.3249906502133
 20
517.7708763999656
 30
0.0
 10
660.8531159632998
 20
517.7708763999656
 30
0.0
  0
SPLINE
  5
22F
330
1F
100
AcDbEntity
  8
Linee visibili 2D
100
AcDbSpline
210
0.0
220
0.0
230
1.0
 70
    24
 71
     2
 72
     6
 73
     3
 74
     0
 42
0.0000000001
 43
0.0000000001
 40
0.0
 40
0.0
 40
0.0
 40
0.5361071411650755
 40
0.5361071411650755
 40
0.5361071411650755
 10
660.8531159632998
 20
517.7708763999656
 30
0.0
 10
660.5850623944441
 20
517.7708763999656
 30
0.0
 10
660.3170088255883
 20
517.7708763999657
 30
0.0
  0
SPLINE
  5
230
330
1F
100
AcDbEntity
  8
Linee visibili 2D
100
AcDbSpline
210
0.0
220
0.0
230
1.0
 70
    24
 71
     2
 72
     6
 73
     3
 74
     0
 42
0.0000000001
 43
0.0000000001
 40
-0.958620525769561
 40
-0.958620525769561
 40
-0.958620525769561
 40
0.0
 40
0.0
 40
0.0
 10
660.3170088255883
 20
517.7708763999657
 30
0.0
 10
659.8376985915651
 20
517.7708763999658
 30
0.0
 10
659.3583883575418
 20
517.7708763999658
 30
0.0
  0
SPLINE
  5
231
330
1F
100
AcDbEntity
  8
Linee visibili 2D
100
AcDbSpline
210
0.0
220
0.0
230
1.0
 70
    24
 71
     2
 72
     6
 73
     3
 74
     0
 42
0.0000000001
 43
0.0000000001
 40
0.0
 40
0.0
 40
0.0
 40
0.5202524600189236
 40
0.5202524600189236
 40
0.5202524600189236
 10
659.3583883575418
 20
517.7708763999658
 30
0.0
 10
659.0982621565413
 20
517.7708763999658
 30
0.0
 10
658.8381359555408
 20
517.7708763999657
 30
0.0
  0
SPLINE
  5
232
330
1F
100
AcDbEntity
  8
Linee visibili 2D
100
AcDbSpline
210
0.0
220
0.0
230
1.0
 70
    24
 71
     2
 72
     6
 73
     3
 74
     0
 42
0.0000000001
 43
0.0000000001
 40
-0.9642755753958454
 40
-0.9642755753958454
 40
-0.9642755753958454
 40
0.0
 40
0.0
 40
0.0
 10
658.8381359555408
 20
517.7708763999657
 30
0.0
 10
658.3559980876976
 20
517.7708763999656
 30
0.0
 10
657.8738602198545
 20
517.7708763999656
 30
0.0
  0
SPLINE
  5
233
330
1F
100
AcDbEntity
  8
Linee visibili 2D
100
AcDbSpline
210
0.0
220
0.0
230
1.0
 70
    24
 71
     2
 72
     6
 73
     3
 74
     0
 42
0.0000000001
 43
0.0000000001
 40
0.0
 40
0.0
 40
0.0
 40
0.5121848712662995
 40
0.5121848712662995
 40
0.5121848712662995
 10
657.8738602198545
 20
517.7708763999656
 30
0.0
 10
657.617767704279
 20
517.7708763999656
 30
0.0
 10
657.3616751887034
 20
517.7708763999657
 30
0.0
  0
SPLINE
  5
234
330
1F
100
AcDbEntity
  8
Linee visibili 2D
100
AcDbSpline
210
0.0
220
0.0
230
1.0
 70
    24
 71
     2
 72
     6
 73
     3
 74
     0
 42
0.0000000001
 43
0.0000000001
 40
-0.9614541220884121
 40
-0.9614541220884121
 40
-0.9614541220884121
 40
0.0
 40
0.0
 40
0.0
 10
657.3616751887034
 20
517.7708763999657
 30
0.0
 10
656.8809481291711
 20
517.7708763999657
 30
0.0
 10
656.4002210696387
 20
517.7708763999657
 30
0.0
  0
SPLINE
  5
235
330
1F
100
AcDbEntity
  8
Linee visibili 2D
100
AcDbSpline
210
0.0
220
0.0
230
1.0
 70
    24
 71
     2
 72
     6
 73
     3
 74
     0
 42
0.0000000001
 43
0.0000000001
 40
0.0
 40
0.0
 40
0.0
 40
0.5111360126593354
 40
0.5111360126593354
 40
0.5111360126593354
 10
656.4002210696387
 20
517.7708763999657
 30
0.0
 10
656.1446530651016
 20
517.7708763999657
 30
0.0
 10
655.8890850605644
 20
517.7708763999657
 30
0.0
  0
SPLINE
  5
236
330
1F
100
AcDbEntity
  8
Linee visibili 2D
100
AcDbSpline
210
0.0
220
0.0
230
1.0
 70
    24
 71
     2
 72
     6
 73
     3
 74
     0
 42
0.0000000001
 43
0.0000000001
 40
-0.9509234415589845
 40
-0.9509234415589845
 40
-0.9509234415589845
 40
0.0
 40
0.0
 40
0.0
 10
655.8890850605644
 20
517.7708763999657
 30
0.0
 10
655.4136233419839
 20
517.7708763999657
 30
0.0
 10
654.9381616234034
 20
517.7708763999657
 30
0.0
  0
SPLINE
  5
237
330
1F
100
AcDbEntity
  8
Linee visibili 2D
100
AcDbSpline
210
0.0
220
0.0
230
1.0
 70
    24
 71
     2
 72
     6
 73
     3
 74
     0
 42
0.0000000001
 43
0.0000000001
 40
0.0
 40
0.0
 40
0.0
 40
0.516311240916707
 40
0.516311240916707
 40
0.516311240916707
 10
654.9381616234034
 20
517.7708763999657
 30
0.0
 10
654.6800060055314
 20
517.7708763999657
 30
0.0
 10
654.4218503876593
 20
517.7708763999657
 30
0.0
  0
SPLINE
  5
238
330
1F
100
AcDbEntity
  8
Linee visibili 2D
100
AcDbSpline
210
0.0
220
0.0
230
1.0
 70
    24
 71
     2
 72
     6
 73
     3
 74
     0
 42
0.0000000001
 43
0.0000000001
 40
-0.9334785024086614
 40
-0.9334785024086614
 40
-0.9334785024086614
 40
0.0
 40
0.0
 40
0.0
 10
654.4218503876593
 20
517.7708763999657
 30
0.0
 10
653.9551111396996
 20
517.7708763999656
 30
0.0
 10
653.4883718917399
 20
517.7708763999656
 30
0.0
  0
SPLINE
  5
239
330
1F
100
AcDbEntity
  8
Linee visibili 2D
100
AcDbSpline
210
0.0
220
0.0
230
1.0
 70
    24
 71
     2
 72
     6
 73
     3
 74
     0
 42
0.0000000001
 43
0.0000000001
 40
0.0
 40
0.0
 40
0.0
 40
0.5268936938612114
 40
0.5268936938612114
 40
0.5268936938612114
 10
653.4883718917399
 20
517.7708763999656
 30
0.0
 10
653.2249250510447
 20
517.7708763999656
 30
0.0
 10
652.9614782103495
 20
517.7708763999657
 30
0.0
  0
SPLINE
  5
23A
330
1F
100
AcDbEntity
  8
Linee visibili 2D
100
AcDbSpline
210
0.0
220
0.0
230
1.0
 70
    24
 71
     2
 72
     6
 73
     3
 74
     0
 42
0.0000000001
 43
0.0000000001
 40
-0.9071635678312759
 40
-0.9071635678312759
 40
-0.9071635678312759
 40
0.0
 40
0.0
 40
0.0
 10
652.9614782103495
 20
517.7708763999657
 30
0.0
 10
652.5078964336208
 20
517.7708763999657
 30
0.0
 10
652.054314656892
 20
517.7708763999657
 30
0.0
  0
SPLINE
  5
23B
330
1F
100
AcDbEntity
  8
Linee visibili 2D
100
AcDbSpline
210
0.0
220
0.0
230
1.0
 70
    24
 71
     2
 72
     6
 73
     3
 74
     0
 42
0.0000000001
 43
0.0000000001
 40
0.0
 40
0.0
 40
0.0
 40
0.5448211571076627
 40
0.5448211571076627
 40
0.5448211571076627
 10
652.054314656892
 20
517.7708763999657
 30
0.0
 10
651.7819040868233
 20
517.7708763999657
 30
0.0
 10
651.5094935167546
 20
517.7708763999657
 30
0.0
  0
SPLINE
  5
23C
330
1F
100
AcDbEntity
  8
Linee visibili 2D
100
AcDbSpline
210
0.0
220
0.0
230
1.0
 70
    24
 71
     2
 72
     6
 73
     3
 74
     0
 42
0.0000000001
 43
0.0000000001
 40
-0.8721796710447052
 40
-0.8721796710447052
 40
-0.8721796710447052
 40
0.0
 40
0.0
 40
0.0
 10
651.5094935167546
 20
517.7708763999657
 30
0.0
 10
651.0734037205247
 20
517.7708763999657
 30
0.0
 10
650.6373139242947
 20
517.7708763999657
 30
0.0
  0
SPLINE
  5
23D
330
1F
100
AcDbEntity
  8
Linee visibili 2D
100
AcDbSpline
210
0.0
220
0.0
230
1.0
 70
    24
 71
     2
 72
     6
 73
     3
 74
     0
 42
0.0000000001
 43
0.0000000001
 40
0.0
 40
0.0
 40
0.0
 40
0.5698793070371266
 40
0.5698793070371266
 40
0.5698793070371266
 10
650.6373139242947
 20
517.7708763999657
 30
0.0
 10
650.3523743119042
 20
517.7708763999657
 30
0.0
 10
650.0674346995136
 20
517.7708763999657
 30
0.0
  0
SPLINE
  5
23E
330
1F
100
AcDbEntity
  8
Linee visibili 2D
100
AcDbSpline
210
0.0
220
0.0
230
1.0
 70
    24
 71
     2
 72
     6
 73
     3
 74
     0
 42
0.0000000001
 43
0.0000000001
 40
-0.8294804134561673
 40
-0.8294804134561673
 40
-0.8294804134561673
 40
0.0
 40
0.0
 40
0.0
 10
650.0674346995136
 20
517.7708763999657
 30
0.0
 10
649.6526945273031
 20
517.7708763999657
 30
0.0
 10
649.2379543550927
 20
517.7708763999657
 30
0.0
  0
SPLINE
  5
23F
330
1F
100
AcDbEntity
  8
Linee visibili 2D
100
AcDbSpline
210
0.0
220
0.0
230
1.0
 70
    24
 71
     2
 72
     6
 73
     3
 74
     0
 42
0.0000000001
 43
0.0000000001
 40
0.0
 40
0.0
 40
0.0
 40
0.6011055716958253
 40
0.6011055716958253
 40
0.6011055716958253
 10
649.2379543550927
 20
517.7708763999657
 30
0.0
 10
648.9374016062975
 20
517.7708763999657
 30
0.0
 10
648.6368488575024
 20
517.7708763999657
 30
0.0
  0
SPLINE
  5
240
330
1F
100
AcDbEntity
  8
Linee visibili 2D
100
AcDbSpline
210
0.0
220
0.0
230
1.0
 70
    24
 71
     2
 72
     6
 73
     3
 74
     0
 42
0.0000000001
 43
0.0000000001
 40
-0.7800284937028437
 40
-0.7800284937028437
 40
-0.7800284937028437
 40
0.0
 40
0.0
 40
0.0
 10
648.6368488575024
 20
517.7708763999657
 30
0.0
 10
648.2468346351834
 20
517.7708763999657
 30
0.0
 10
647.8568204128643
 20
517.7708763999657
 30
0.0
  0
SPLINE
  5
241
330
1F
100
AcDbEntity
  8
Linee visibili 2D
100
AcDbSpline
210
0.0
220
0.0
230
1.0
 70
    24
 71
     2
 72
     6
 73
     3
 74
     0
 42
0.0000000001
 43
0.0000000001
 40
0.0
 40
0.0
 40
0.0
 40
0.6375335655332037
 40
0.6375335655332037
 40
0.6375335655332037
 10
647.8568204128643
 20
517.7708763999657
 30
0.0
 10
647.5380536580459
 20
517.7708763999657
 30
0.0
 10
647.2192869032275
 20
517.7708763999657
 30
0.0
  0
SPLINE
  5
242
330
1F
100
AcDbEntity
  8
Linee visibili 2D
100
AcDbSpline
210
0.0
220
0.0
230
1.0
 70
    24
 71
     2
 72
     6
 73
     3
 74
     0
 42
0.0000000001
 43
0.0000000001
 40
-0.7247903229807662
 40
-0.7247903229807662
 40
-0.7247903229807662
 40
0.0
 40
0.0
 40
0.0
 10
647.2192869032275
 20
517.7708763999657
 30
0.0
 10
646.8568917574846
 20
517.7708763999656
 30
0.0
 10
646.4944966117419
 20
517.7708763999656
 30
0.0
  0
SPLINE
  5
243
330
1F
100
AcDbEntity
  8
Linee visibili 2D
100
AcDbSpline
210
0.0
220
0.0
230
1.0
 70
    24
 71
     2
 72
     6
 73
     3
 74
     0
 42
0.0000000001
 43
0.0000000001
 40
0.0
 40
0.0
 40
0.0
 40
0.6781981222718514
 40
0.6781981222718514
 40
0.6781981222718514
 10
646.4944966117419
 20
517.7708763999656
 30
0.0
 10
646.1553975708268
 20
517.7708763999656
 30
0.0
 10
645.8162985299117
 20
517.7708763999657
 30
0.0
  0
SPLINE
  5
244
330
1F
100
AcDbEntity
  8
Linee visibili 2D
100
AcDbSpline
210
0.0
220
0.0
230
1.0
 70
    24
 71
     2
 72
     6
 73
     3
 74
     0
 42
0.0000000001
 43
0.0000000001
 40
-0.6647308248976742
 40
-0.6647308248976742
 40
-0.6647308248976742
 40
0.0
 40
0.0
 40
0.0
 10
645.8162985299117
 20
517.7708763999657
 30
0.0
 10
645.4839330649588
 20
517.7708763999657
 30
0.0
 10
645.151567600006
 20
517.7708763999657
 30
0.0
  0
SPLINE
  5
245
330
1F
100
AcDbEntity
  8
Linee visibili 2D
100
AcDbSpline
210
0.0
220
0.0
230
1.0
 70
    24
 71
     2
 72
     6
 73
     3
 74
     0
 42
0.0000000001
 43
0.0000000001
 40
0.0
 40
0.0
 40
0.0
 40
0.0308153581243005
 40
0.0308153581243005
 40
0.0308153581243005
 10
645.151567600006
 20
517.7708763999657
 30
0.0
 10
645.1361598648358
 20
517.7708763999657
 30
0.0
 10
645.1207521296656
 20
517.7708763999657
 30
0.0
  0
SPLINE
  5
246
330
1F
100
AcDbEntity
  8
Linee visibili 2D
100
AcDbSpline
210
0.0
220
0.0
230
1.0
 70
    24
 71
     2
 72
     6
 73
     3
 74
     0
 42
0.0000000001
 43
0.0000000001
 40
-1.292134668037761
 40
-1.292134668037761
 40
-1.292134668037761
 40
0.0
 40
0.0
 40
0.0
 10
645.1207521296656
 20
517.7708763999657
 30
0.0
 10
644.4746848116235
 20
517.7708763999657
 30
0.0
 10
643.8286174935815
 20
517.7708763999657
 30
0.0
  0
SPLINE
  5
247
330
1F
100
AcDbEntity
  8
Linee visibili 2D
100
AcDbSpline
210
0.0
220
0.0
230
1.0
 70
    24
 71
     2
 72
     6
 73
     3
 74
     0
 42
0.0000000001
 43
0.0000000001
 40
0.0
 40
0.0
 40
0.0
 40
0.0861030048756675
 40
0.0861030048756675
 40
0.0861030048756675
 10
643.8286174935815
 20
517.7708763999657
 30
0.0
 10
643.7855659924022
 20
517.7708763999657
 30
0.0
 10
643.7425144912229
 20
517.7708763999657
 30
0.0
  0
SPLINE
  5
248
330
1F
100
AcDbEntity
  8
Linee visibili 2D
100
AcDbSpline
210
0.0
220
0.0
230
1.0
 70
    24
 71
     2
 72
     6
 73
     3
 74
     0
 42
0.0000000001
 43
0.0000000001
 40
-1.216283243691464
 40
-1.216283243691464
 40
-1.216283243691464
 40
0.0
 40
0.0
 40
0.0
 10
643.7425144912229
 20
517.7708763999657
 30
0.0
 10
643.1343728713362
 20
517.7708763999657
 30
0.0
 10
642.5262312514494
 20
517.7708763999657
 30
0.0
  0
SPLINE
  5
249
330
1F
100
AcDbEntity
  8
Linee visibili 2D
100
AcDbSpline
210
0.0
220
0.0
230
1.0
 70
    24
 71
     2
 72
     6
 73
     3
 74
     0
 42
0.0000000001
 43
0.0000000001
 40
0.0
 40
0.0
 40
0.0
 40
0.1435459171129878
 40
0.1435459171129878
 40
0.1435459171129878
 10
642.5262312514494
 20
517.7708763999657
 30
0.0
 10
642.4544582952489
 20
517.7708763999657
 30
0.0
 10
642.3826853390483
 20
517.7708763999657
 30
0.0
  0
SPLINE
  5
24A
330
1F
100
AcDbEntity
  8
Linee visibili 2D
100
AcDbSpline
210
0.0
220
0.0
230
1.0
 70
    24
 71
     2
 72
     6
 73
     3
 74
     0
 42
0.0000000001
 43
0.0000000001
 40
-1.137692086850961
 40
-1.137692086850961
 40
-1.137692086850961
 40
0.0
 40
0.0
 40
0.0
 10
642.3826853390483
 20
517.7708763999657
 30
0.0
 10
641.8138392984602
 20
517.7708763999658
 30
0.0
 10
641.244993257872
 20
517.7708763999658
 30
0.0
  0
SPLINE
  5
24B
330
1F
100
AcDbEntity
  8
Linee visibili 2D
100
AcDbSpline
210
0.0
220
0.0
230
1.0
 70
    24
 71
     2
 72
     6
 73
     3
 74
     0
 42
0.0000000001
 43
0.0000000001
 40
0.0
 40
0.0
 40
0.0
 40
0.2022241139601419
 40
0.2022241139601419
 40
0.2022241139601419
 10
641.244993257872
 20
517.7708763999658
 30
0.0
 10
641.1438812047763
 20
517.7708763999658
 30
0.0
 10
641.0427691516807
 20
517.7708763999657
 30
0.0
  0
SPLINE
  5
24C
330
1F
100
AcDbEntity
  8
Linee visibili 2D
100
AcDbSpline
210
0.0
220
0.0
230
1.0
 70
    24
 71
     2
 72
     6
 73
     3
 74
     0
 42
0.0000000001
 43
0.0000000001
 40
-1.057281120044763
 40
-1.057281120044763
 40
-1.057281120044763
 40
0.0
 40
0.0
 40
0.0
 10
641.0427691516807
 20
517.7708763999657
 30
0.0
 10
640.5141285956831
 20
517.7708763999656
 30
0.0
 10
639.9854880396855
 20
517.7708763999656
 30
0.0
  0
SPLINE
  5
24D
330
1F
100
AcDbEntity
  8
Linee visibili 2D
100
AcDbSpline
210
0.0
220
0.0
230
1.0
 70
    24
 71
     2
 72
     6
 73
     3
 74
     0
 42
0.0000000001
 43
0.0000000001
 40
0.0
 40
0.0
 40
0.0
 40
0.2612424616468161
 40
0.2612424616468161
 40
0.2612424616468161
 10
639.9854880396855
 20
517.7708763999656
 30
0.0
 10
639.8548668150486
 20
517.7708763999656
 30
0.0
 10
639.7242455904118
 20
517.7708763999657
 30
0.0
  0
SPLINE
  5
24E
330
1F
100
AcDbEntity
  8
Linee visibili 2D
100
AcDbSpline
210
0.0
220
0.0
230
1.0
 70
    24
 71
     2
 72
     6
 73
     3
 74
     0
 42
0.0000000001
 43
0.0000000001
 40
-0.9759454787460982
 40
-0.9759454787460982
 40
-0.9759454787460982
 40
0.0
 40
0.0
 40
0.0
 10
639.7242455904118
 20
517.7708763999657
 30
0.0
 10
639.2362728569859
 20
517.7708763999657
 30
0.0
 10
638.74830012356
 20
517.7708763999657
 30
0.0
  0
SPLINE
  5
24F
330
1F
100
AcDbEntity
  8
Linee visibili 2D
100
AcDbSpline
210
0.0
220
0.0
230
1.0
 70
    24
 71
     2
 72
     6
 73
     3
 74
     0
 42
0.0000000001
 43
0.0000000001
 40
0.0
 40
0.0
 40
0.0
 40
0.319735845544642
 40
0.319735845544642
 40
0.319735845544642
 10
638.74830012356
 20
517.7708763999657
 30
0.0
 10
638.5884322105724
 20
517.7708763999657
 30
0.0
 10
638.4285642975846
 20
517.7708763999657
 30
0.0
  0
SPLINE
  5
250
330
1F
100
AcDbEntity
  8
Linee visibili 2D
100
AcDbSpline
210
0.0
220
0.0
230
1.0
 70
    24
 71
     2
 72
     6
 73
     3
 74
     0
 42
0.0000000001
 43
0.0000000001
 40
-0.8945502801060456
 40
-0.8945502801060456
 40
-0.8945502801060456
 40
0.0
 40
0.0
 40
0.0
 10
638.4285642975846
 20
517.7708763999657
 30
0.0
 10
637.9812891667668
 20
517.7708763999657
 30
0.0
 10
637.534014035949
 20
517.7708763999657
 30
0.0
  0
SPLINE
  5
251
330
1F
100
AcDbEntity
  8
Linee visibili 2D
100
AcDbSpline
210
0.0
220
0.0
230
1.0
 70
    24
 71
     2
 72
     6
 73
     3
 74
     0
 42
0.0000000001
 43
0.0000000001
 40
0.0
 40
0.0
 40
0.0
 40
0.3768743189912129
 40
0.3768743189912129
 40
0.3768743189912129
 10
637.534014035949
 20
517.7708763999657
 30
0.0
 10
637.3455768918109
 20
517.7708763999657
 30
0.0
 10
637.1571397476728
 20
517.7708763999657
 30
0.0
  0
SPLINE
  5
252
330
1F
100
AcDbEntity
  8
Linee visibili 2D
100
AcDbSpline
210
0.0
220
0.0
230
1.0
 70
    24
 71
     2
 72
     6
 73
     3
 74
     0
 42
0.0000000001
 43
0.0000000001
 40
-0.8139254739088528
 40
-0.8139254739088528
 40
-0.8139254739088528
 40
0.0
 40
0.0
 40
0.0
 10
637.1571397476728
 20
517.7708763999657
 30
0.0
 10
636.7501770253876
 20
517.7708763999657
 30
0.0
 10
636.3432143031025
 20
517.7708763999657
 30
0.0
  0
SPLINE
  5
253
330
1F
100
AcDbEntity
  8
Linee visibili 2D
100
AcDbSpline
210
0.0
220
0.0
230
1.0
 70
    24
 71
     2
 72
     6
 73
     3
 74
     0
 42
0.0000000001
 43
0.0000000001
 40
0.0
 40
0.0
 40
0.0
 40
0.4318679928383062
 40
0.4318679928383062
 40
0.4318679928383062
 10
636.3432143031025
 20
517.7708763999657
 30
0.0
 10
636.1272802954777
 20
517.7708763999657
 30
0.0
 10
635.9113462878529
 20
517.7708763999657
 30
0.0
  0
SPLINE
  5
254
330
1F
100
AcDbEntity
  8
Linee visibili 2D
100
AcDbSpline
210
0.0
220
0.0
230
1.0
 70
    24
 71
     2
 72
     6
 73
     3
 74
     0
 42
0.0000000001
 43
0.0000000001
 40
-0.7348608130662342
 40
-0.7348608130662342
 40
-0.7348608130662342
 40
0.0
 40
0.0
 40
0.0
 10
635.9113462878529
 20
517.7708763999657
 30
0.0
 10
635.5439158695101
 20
517.7708763999657
 30
0.0
 10
635.1764854511673
 20
517.7708763999657
 30
0.0
  0
SPLINE
  5
255
330
1F
100
AcDbEntity
  8
Linee visibili 2D
100
AcDbSpline
210
0.0
220
0.0
230
1.0
 70
    24
 71
     2
 72
     6
 73
     3
 74
     0
 42
0.0000000001
 43
0.0000000001
 40
0.0
 40
0.0
 40
0.0
 40
0.4839724653171515
 40
0.4839724653171515
 40
0.4839724653171515
 10
635.1764854511673
 20
517.7708763999657
 30
0.0
 10
634.9344992189144
 20
517.7708763999657
 30
0.0
 10
634.6925129866615
 20
517.7708763999657
 30
0.0
  0
SPLINE
  5
256
330
1F
100
AcDbEntity
  8
Linee visibili 2D
100
AcDbSpline
210
0.0
220
0.0
230
1.0
 70
    24
 71
     2
 72
     6
 73
     3
 74
     0
 42
0.0000000001
 43
0.0000000001
 40
-0.6581007082024826
 40
-0.6581007082024826
 40
-0.6581007082024826
 40
0.0
 40
0.0
 40
0.0
 10
634.6925129866615
 20
517.7708763999657
 30
0.0
 10
634.3634625645725
 20
517.7708763999656
 30
0.0
 10
634.0344121424833
 20
517.7708763999656
 30
0.0
  0
SPLINE
  5
257
330
1F
100
AcDbEntity
  8
Linee visibili 2D
100
AcDbSpline
210
0.0
220
0.0
230
1.0
 70
    24
 71
     2
 72
     6
 73
     3
 74
     0
 42
0.0000000001
 43
0.0000000001
 40
0.0
 40
0.0
 40
0.0
 40
0.532492603556534
 40
0.532492603556534
 40
0.532492603556534
 10
634.0344121424833
 20
517.7708763999656
 30
0.0
 10
633.7681657727173
 20
517.7708763999656
 30
0.0
 10
633.5019194029512
 20
517.7708763999657
 30
0.0
  0
SPLINE
  5
258
330
1F
100
AcDbEntity
  8
Linee visibili 2D
100
AcDbSpline
210
0.0
220
0.0
230
1.0
 70
    24
 71
     2
 72
     6
 73
     3
 74
     0
 42
0.0000000001
 43
0.0000000001
 40
-1.674034550441093
 40
-1.674034550441093
 40
-1.674034550441093
 40
0.0
 40
0.0
 40
0.0
 10
633.5019194029512
 20
517.7708763999657
 30
0.0
 10
632.6649021350066
 20
517.7708763999657
 30
0.0
 10
631.827884867062
 20
517.7708763999657
 30
0.0
  0
SPLINE
  5
259
330
1F
100
AcDbEntity
  8
Linee visibili 2D
100
AcDbSpline
210
0.0
220
0.0
230
1.0
 70
    24
 71
     2
 72
     6
 73
     3
 74
     0
 42
0.0000000001
 43
0.0000000001
 40
0.0
 40
0.0
 40
0.0
 40
0.0562420477465366
 40
0.0562420477465366
 40
0.0562420477465366
 10
631.827884867062
 20
517.7708763999657
 30
0.0
 10
631.799763850663
 20
517.7708763999657
 30
0.0
 10
631.771642834264
 20
517.7708763999657
 30
0.0
  0
SPLINE
  5
25A
330
1F
100
AcDbEntity
  8
Linee visibili 2D
100
AcDbSpline
210
0.0
220
0.0
230
1.0
 70
    24
 71
     2
 72
     6
 73
     3
 74
     0
 42
0.0000000001
 43
0.0000000001
 40
-1.00454095163127
 40
-1.00454095163127
 40
-1.00454095163127
 40
0.0
 40
0.0
 40
0.0
 10
631.771642834264
 20
517.7708763999657
 30
0.0
 10
631.2693723706201
 20
517.7708763999657
 30
0.0
 10
630.7671019069762
 20
517.7708763999657
 30
0.0
  0
SPLINE
  5
25B
330
1F
100
AcDbEntity
  8
Linee visibili 2D
100
AcDbSpline
210
0.0
220
0.0
230
1.0
 70
    24
 71
     2
 72
     6
 73
     3
 74
     0
 42
0.0000000001
 43
0.0000000001
 40
0.0
 40
0.0
 40
0.0
 40
0.1102217947170629
 40
0.1102217947170629
 40
0.1102217947170629
 10
630.7671019069762
 20
517.7708763999657
 30
0.0
 10
630.7119910232809
 20
517.7708763999657
 30
0.0
 10
630.6568801395856
 20
517.7708763999657
 30
0.0
  0
SPLINE
  5
25C
330
1F
100
AcDbEntity
  8
Linee visibili 2D
100
AcDbSpline
210
0.0
220
0.0
230
1.0
 70
    24
 71
     2
 72
     6
 73
     3
 74
     0
 42
0.0000000001
 43
0.0000000001
 40
-0.9212598219138499
 40
-0.9212598219138499
 40
-0.9212598219138499
 40
0.0
 40
0.0
 40
0.0
 10
630.6568801395856
 20
517.7708763999657
 30
0.0
 10
630.1962502442473
 20
517.7708763999656
 30
0.0
 10
629.7356203489089
 20
517.7708763999656
 30
0.0
  0
SPLINE
  5
25D
330
1F
100
AcDbEntity
  8
Linee visibili 2D
100
AcDbSpline
210
0.0
220
0.0
230
1.0
 70
    24
 71
     2
 72
     6
 73
     3
 74
     0
 42
0.0000000001
 43
0.0000000001
 40
0.0
 40
0.0
 40
0.0
 40
0.1612388253709014
 40
0.1612388253709014
 40
0.1612388253709014
 10
629.7356203489089
 20
517.7708763999656
 30
0.0
 10
629.6550009561508
 20
517.7708763999656
 30
0.0
 10
629.5743815633929
 20
517.7708763999657
 30
0.0
  0
SPLINE
  5
25E
330
1F
100
AcDbEntity
  8
Linee visibili 2D
100
AcDbSpline
210
0.0
220
0.0
230
1.0
 70
    24
 71
     2
 72
     6
 73
     3
 74
     0
 42
0.0000000001
 43
0.0000000001
 40
-0.8405506764057691
 40
-0.8405506764057691
 40
-0.8405506764057691
 40
0.0
 40
0.0
 40
0.0
 10
629.5743815633929
 20
517.7708763999657
 30
0.0
 10
629.1541062446129
 20
517.7708763999657
 30
0.0
 10
628.7338309258328
 20
517.7708763999657
 30
0.0
  0
SPLINE
  5
25F
330
1F
100
AcDbEntity
  8
Linee visibili 2D
100
AcDbSpline
210
0.0
220
0.0
230
1.0
 70
    24
 71
     2
 72
     6
 73
     3
 74
     0
 42
0.0000000001
 43
0.0000000001
 40
0.0
 40
0.0
 40
0.0
 40
0.2086792979495158
 40
0.2086792979495158
 40
0.2086792979495158
 10
628.7338309258328
 20
517.7708763999657
 30
0.0
 10
628.6294912758426
 20
517.7708763999657
 30
0.0
 10
628.5251516258525
 20
517.7708763999657
 30
0.0
  0
SPLINE
  5
260
330
1F
100
AcDbEntity
  8
Linee visibili 2D
100
AcDbSpline
210
0.0
220
0.0
230
1.0
 70
    24
 71
     2
 72
     6
 73
     3
 74
     0
 42
0.0000000001
 43
0.0000000001
 40
-0.7630272492152699
 40
-0.7630272492152699
 40
-0.7630272492152699
 40
0.0
 40
0.0
 40
0.0
 10
628.5251516258525
 20
517.7708763999657
 30
0.0
 10
628.1436379979168
 20
517.7708763999657
 30
0.0
 10
627.7621243699813
 20
517.7708763999657
 30
0.0
  0
SPLINE
  5
261
330
1F
100
AcDbEntity
  8
Linee visibili 2D
100
AcDbSpline
210
0.0
220
0.0
230
1.0
 70
    24
 71
     2
 72
     6
 73
     3
 74
     0
 42
0.0000000001
 43
0.0000000001
 40
0.0
 40
0.0
 40
0.0
 40
0.2520003532546298
 40
0.2520003532546298
 40
0.2520003532546298
 10
627.7621243699813
 20
517.7708763999657
 30
0.0
 10
627.6361242044657
 20
517.7708763999657
 30
0.0
 10
627.5101240389499
 20
517.7708763999657
 30
0.0
  0
SPLINE
  5
262
330
1F
100
AcDbEntity
  8
Linee visibili 2D
100
AcDbSpline
210
0.0
220
0.0
230
1.0
 70
    24
 71
     2
 72
     6
 73
     3
 74
     0
 42
0.0000000001
 43
0.0000000001
 40
-0.6892326415427306
 40
-0.6892326415427306
 40
-0.6892326415427306
 40
0.0
 40
0.0
 40
0.0
 10
627.5101240389499
 20
517.7708763999657
 30
0.0
 10
627.1655077260452
 20
517.7708763999657
 30
0.0
 10
626.8208914131404
 20
517.7708763999657
 30
0.0
  0
SPLINE
  5
263
330
1F
100
AcDbEntity
  8
Linee visibili 2D
100
AcDbSpline
210
0.0
220
0.0
230
1.0
 70
    24
 71
     2
 72
     6
 73
     3
 74
     0
 42
0.0000000001
 43
0.0000000001
 40
0.0
 40
0.0
 40
0.0
 40
0.2907320289227755
 40
0.2907320289227755
 40
0.2907320289227755
 10
626.8208914131404
 20
517.7708763999657
 30
0.0
 10
626.6755254065456
 20
517.7708763999657
 30
0.0
 10
626.5301593999509
 20
517.7708763999657
 30
0.0
  0
SPLINE
  5
264
330
1F
100
AcDbEntity
  8
Linee visibili 2D
100
AcDbSpline
210
0.0
220
0.0
230
1.0
 70
    24
 71
     2
 72
     6
 73
     3
 74
     0
 42
0.0000000001
 43
0.0000000001
 40
-0.6196366221021208
 40
-0.6196366221021208
 40
-0.6196366221021208
 40
0.0
 40
0.0
 40
0.0
 10
626.5301593999509
 20
517.7708763999657
 30
0.0
 10
626.2203410934942
 20
517.7708763999657
 30
0.0
 10
625.9105227870374
 20
517.7708763999657
 30
0.0
  0
SPLINE
  5
265
330
1F
100
AcDbEntity
  8
Linee visibili 2D
100
AcDbSpline
210
0.0
220
0.0
230
1.0
 70
    24
 71
     2
 72
     6
 73
     3
 74
     0
 42
0.0000000001
 43
0.0000000001
 40
0.0
 40
0.0
 40
0.0
 40
0.324480261888425
 40
0.324480261888425
 40
0.324480261888425
 10
625.9105227870374
 20
517.7708763999657
 30
0.0
 10
625.7482826606874
 20
517.7708763999657
 30
0.0
 10
625.5860425343375
 20
517.7708763999657
 30
0.0
  0
SPLINE
  5
266
330
1F
100
AcDbEntity
  8
Linee visibili 2D
100
AcDbSpline
210
0.0
220
0.0
230
1.0
 70
    24
 71
     2
 72
     6
 73
     3
 74
     0
 42
0.0000000001
 43
0.0000000001
 40
-0.554633314631019
 40
-0.554633314631019
 40
-0.554633314631019
 40
0.0
 40
0.0
 40
0.0
 10
625.5860425343375
 20
517.7708763999657
 30
0.0
 10
625.3087258790451
 20
517.7708763999658
 30
0.0
 10
625.0314092237527
 20
517.7708763999658
 30
0.0
  0
SPLINE
  5
267
330
1F
100
AcDbEntity
  8
Linee visibili 2D
100
AcDbSpline
210
0.0
220
0.0
230
1.0
 70
    24
 71
     2
 72
     6
 73
     3
 74
     0
 42
0.0000000001
 43
0.0000000001
 40
0.0
 40
0.0
 40
0.0
 40
0.3529284880739851
 40
0.3529284880739851
 40
0.3529284880739851
 10
625.0314092237527
 20
517.7708763999658
 30
0.0
 10
624.8549449817385
 20
517.7708763999658
 30
0.0
 10
624.6784807397245
 20
517.7708763999657
 30
0.0
  0
SPLINE
  5
268
330
1F
100
AcDbEntity
  8
Linee visibili 2D
100
AcDbSpline
210
0.0
220
0.0
230
1.0
 70
    24
 71
     2
 72
     6
 73
     3
 74
     0
 42
0.0000000001
 43
0.0000000001
 40
-0.4945392847087078
 40
-0.4945392847087078
 40
-0.4945392847087078
 40
0.0
 40
0.0
 40
0.0
 10
624.6784807397245
 20
517.7708763999657
 30
0.0
 10
624.4312110978983
 20
517.7708763999657
 30
0.0
 10
624.1839414560723
 20
517.7708763999657
 30
0.0
  0
SPLINE
  5
269
330
1F
100
AcDbEntity
  8
Linee visibili 2D
100
AcDbSpline
210
0.0
220
0.0
230
1.0
 70
    24
 71
     2
 72
     6
 73
     3
 74
     0
 42
0.0000000001
 43
0.0000000001
 40
0.0
 40
0.0
 40
0.0
 40
0.3758392052400268
 40
0.3758392052400268
 40
0.3758392052400268
 10
624.1839414560723
 20
517.7708763999657
 30
0.0
 10
623.9960218539802
 20
517.7708763999656
 30
0.0
 10
623.8081022518882
 20
517.7708763999656
 30
0.0
  0
SPLINE
  5
26A
330
1F
100
AcDbEntity
  8
Linee visibili 2D
100
AcDbSpline
210
0.0
220
0.0
230
1.0
 70
    24
 71
     2
 72
     6
 73
     3
 74
     0
 42
0.0000000001
 43
0.0000000001
 40
-0.4395921881801996
 40
-0.4395921881801996
 40
-0.4395921881801996
 40
0.0
 40
0.0
 40
0.0
 10
623.8081022518882
 20
517.7708763999656
 30
0.0
 10
623.5883061963095
 20
517.7708763999656
 30
0.0
 10
623.3685101407308
 20
517.7708763999656
 30
0.0
  0
SPLINE
  5
26B
330
1F
100
AcDbEntity
  8
Linee visibili 2D
100
AcDbSpline
210
0.0
220
0.0
230
1.0
 70
    24
 71
     2
 72
     6
 73
     3
 74
     0
 42
0.0000000001
 43
0.0000000001
 40
0.0
 40
0.0
 40
0.0
 40
0.3930550663833401
 40
0.3930550663833401
 40
0.3930550663833401
 10
623.3685101407308
 20
517.7708763999656
 30
0.0
 10
623.1719826460501
 20
517.7708763999656
 30
0.0
 10
622.9754551513693
 20
517.7708763999657
 30
0.0
  0
SPLINE
  5
26C
330
1F
100
AcDbEntity
  8
Linee visibili 2D
100
AcDbSpline
210
0.0
220
0.0
230
1.0
 70
    24
 71
     2
 72
     6
 73
     3
 74
     0
 42
0.0000000001
 43
0.0000000001
 40
-0.3899489499518722
 40
-0.3899489499518722
 40
-0.3899489499518722
 40
0.0
 40
0.0
 40
0.0
 10
622.9754551513693
 20
517.7708763999657
 30
0.0
 10
622.7804806868414
 20
517.7708763999657
 30
0.0
 10
622.5855062223136
 20
517.7708763999657
 30
0.0
  0
SPLINE
  5
26D
330
1F
100
AcDbEntity
  8
Linee visibili 2D
100
AcDbSpline
210
0.0
220
0.0
230
1.0
 70
    24
 71
     2
 72
     6
 73
     3
 74
     0
 42
0.0000000001
 43
0.0000000001
 40
0.0
 40
0.0
 40
0.0
 40
0.012076190267635
 40
0.012076190267635
 40
0.012076190267635
 10
622.5855062223136
 20
517.7708763999657
 30
0.0
 10
622.5794681376451
 20
517.7708763999657
 30
0.0
 10
622.5734300529766
 20
517.7708763999657
 30
0.0
  0
SPLINE
  5
26E
330
1F
100
AcDbEntity
  8
Linee visibili 2D
100
AcDbSpline
210
0.0
220
0.0
230
1.0
 70
    24
 71
     2
 72
     6
 73
     3
 74
     0
 42
0.0000000001
 43
0.0000000001
 40
-0.7381099087004941
 40
-0.7381099087004941
 40
-0.7381099087004941
 40
0.0
 40
0.0
 40
0.0
 10
622.5734300529766
 20
517.7708763999657
 30
0.0
 10
622.2043751293251
 20
517.7708763999657
 30
0.0
 10
621.8353202056735
 20
517.7708763999657
 30
0.0
  0
SPLINE
  5
26F
330
1F
100
AcDbEntity
  8
Linee visibili 2D
100
AcDbSpline
210
0.0
220
0.0
230
1.0
 70
    24
 71
     2
 72
     6
 73
     3
 74
     0
 42
0.0000000001
 43
0.0000000001
 40
0.0
 40
0.0
 40
0.0
 40
0.0370895002713496
 40
0.0370895002713496
 40
0.0370895002713496
 10
621.8353202056735
 20
517.7708763999657
 30
0.0
 10
621.8167754867995
 20
517.7708763999657
 30
0.0
 10
621.7982307679257
 20
517.7708763999657
 30
0.0
  0
SPLINE
  5
270
330
1F
100
AcDbEntity
  8
Linee visibili 2D
100
AcDbSpline
210
0.0
220
0.0
230
1.0
 70
    24
 71
     2
 72
     6
 73
     3
 74
     0
 42
0.0000000001
 43
0.0000000001
 40
-0.6798875846467354
 40
-0.6798875846467354
 40
-0.6798875846467354
 40
0.0
 40
0.0
 40
0.0
 10
621.7982307679257
 20
517.7708763999657
 30
0.0
 10
621.4582869357653
 20
517.7708763999656
 30
0.0
 10
621.1183431036047
 20
517.7708763999656
 30
0.0
  0
SPLINE
  5
271
330
1F
100
AcDbEntity
  8
Linee visibili 2D
100
AcDbSpline
210
0.0
220
0.0
230
1.0
 70
    24
 71
     2
 72
     6
 73
     3
 74
     0
 42
0.0000000001
 43
0.0000000001
 40
0.0
 40
0.0
 40
0.0
 40
0.0565641049502119
 40
0.0565641049502119
 40
0.0565641049502119
 10
621.1183431036047
 20
517.7708763999656
 30
0.0
 10
621.0900610133208
 20
517.7708763999656
 30
0.0
 10
621.0617789230369
 20
517.7708763999657
 30
0.0
  0
SPLINE
  5
272
330
1F
100
AcDbEntity
  8
Linee visibili 2D
100
AcDbSpline
210
0.0
220
0.0
230
1.0
 70
    24
 71
     2
 72
     6
 73
     3
 74
     0
 42
0.0000000001
 43
0.0000000001
 40
-0.6268135845513143
 40
-0.6268135845513143
 40
-0.6268135845513143
 40
0.0
 40
0.0
 40
0.0
 10
621.0617789230369
 20
517.7708763999657
 30
0.0
 10
620.7483721084308
 20
517.7708763999657
 30
0.0
 10
620.4349652938247
 20
517.7708763999657
 30
0.0
  0
SPLINE
  5
273
330
1F
100
AcDbEntity
  8
Linee visibili 2D
100
AcDbSpline
210
0.0
220
0.0
230
1.0
 70
    24
 71
     2
 72
     6
 73
     3
 74
     0
 42
0.0000000001
 43
0.0000000001
 40
0.0
 40
0.0
 40
0.0
 40
0.0706259027678016
 40
0.0706259027678016
 40
0.0706259027678016
 10
620.4349652938247
 20
517.7708763999657
 30
0.0
 10
620.3996523240634
 20
517.7708763999657
 30
0.0
 10
620.364339354302
 20
517.7708763999657
 30
0.0
  0
SPLINE
  5
274
330
1F
100
AcDbEntity
  8
Linee visibili 2D
100
AcDbSpline
210
0.0
220
0.0
230
1.0
 70
    24
 71
     2
 72
     6
 73
     3
 74
     0
 42
0.0000000001
 43
0.0000000001
 40
-0.5787617033009838
 40
-0.5787617033009838
 40
-0.5787617033009838
 40
0.0
 40
0.0
 40
0.0
 10
620.364339354302
 20
517.7708763999657
 30
0.0
 10
620.0749585092083
 20
517.7708763999658
 30
0.0
 10
619.7855776641145
 20
517.7708763999658
 30
0.0
  0
SPLINE
  5
275
330
1F
100
AcDbEntity
  8
Linee visibili 2D
100
AcDbSpline
210
0.0
220
0.0
230
1.0
 70
    24
 71
     2
 72
     6
 73
     3
 74
     0
 42
0.0000000001
 43
0.0000000001
 40
0.0
 40
0.0
 40
0.0
 40
0.3938670363363599
 40
0.3938670363363599
 40
0.3938670363363599
 10
619.7855776641145
 20
517.7708763999658
 30
0.0
 10
619.5886441459329
 20
517.7708763999658
 30
0.0
 10
619.3917106277513
 20
517.7708763999657
 30
0.0
  0
SPLINE
  5
276
330
1F
100
AcDbEntity
  8
Linee visibili 2D
100
AcDbSpline
210
0.0
220
0.0
230
1.0
 70
    24
 71
     2
 72
     6
 73
     3
 74
     0
 42
0.0000000001
 43
0.0000000001
 40
-0.2211396109311181
 40
-0.2211396109311181
 40
-0.2211396109311181
 40
0.0
 40
0.0
 40
0.0
 10
619.3917106277513
 20
517.7708763999657
 30
0.0
 10
619.2811408222713
 20
517.7708763999657
 30
0.0
 10
619.1705710167911
 20
517.7708763999657
 30
0.0
  0
SPLINE
  5
277
330
1F
100
AcDbEntity
  8
Linee visibili 2D
100
AcDbSpline
210
0.0
220
0.0
230
1.0
 70
    24
 71
     2
 72
     6
 73
     3
 74
     0
 42
0.0000000001
 43
0.0000000001
 40
0.0
 40
0.0
 40
0.0
 40
0.3781332088410636
 40
0.3781332088410636
 40
0.3781332088410636
 10
619.1705710167911
 20
517.7708763999657
 30
0.0
 10
618.9815044123477
 20
517.7708763999657
 30
0.0
 10
618.7924378079042
 20
517.7708763999657
 30
0.0
  0
SPLINE
  5
278
330
1F
100
AcDbEntity
  8
Linee visibili 2D
100
AcDbSpline
210
0.0
220
0.0
230
1.0
 70
    24
 71
     2
 72
     6
 73
     3
 74
     0
 42
0.0000000001
 43
0.0000000001
 40
-0.2018157685237156
 40
-0.2018157685237156
 40
-0.2018157685237156
 40
0.0
 40
0.0
 40
0.0
 10
618.7924378079042
 20
517.7708763999657
 30
0.0
 10
618.691529923619
 20
517.7708763999657
 30
0.0
 10
618.5906220393338
 20
517.7708763999657
 30
0.0
  0
SPLINE
  5
279
330
1F
100
AcDbEntity
  8
Linee visibili 2D
100
AcDbSpline
210
0.0
220
0.0
230
1.0
 70
    24
 71
     2
 72
     6
 73
     3
 74
     0
 42
0.0000000001
 43
0.0000000001
 40
0.0
 40
0.0
 40
0.0
 40
0.3581403288928868
 40
0.3581403288928868
 40
0.3581403288928868
 10
618.5906220393338
 20
517.7708763999657
 30
0.0
 10
618.4115518748562
 20
517.7708763999657
 30
0.0
 10
618.2324817103786
 20
517.7708763999657
 30
0.0
  0
SPLINE
  5
27A
330
1F
100
AcDbEntity
  8
Linee visibili 2D
100
AcDbSpline
210
0.0
220
0.0
230
1.0
 70
    24
 71
     2
 72
     6
 73
     3
 74
     0
 42
0.0000000001
 43
0.0000000001
 40
-0.1853884603905271
 40
-0.1853884603905271
 40
-0.1853884603905271
 40
0.0
 40
0.0
 40
0.0
 10
618.2324817103786
 20
517.7708763999657
 30
0.0
 10
618.1397874801504
 20
517.7708763999657
 30
0.0
 10
618.0470932499222
 20
517.7708763999657
 30
0.0
  0
SPLINE
  5
27B
330
1F
100
AcDbEntity
  8
Linee visibili 2D
100
AcDbSpline
210
0.0
220
0.0
230
1.0
 70
    24
 71
     2
 72
     6
 73
     3
 74
     0
 42
0.0000000001
 43
0.0000000001
 40
0.0
 40
0.0
 40
0.0
 40
0.3353355606670902
 40
0.3353355606670902
 40
0.3353355606670902
 10
618.0470932499222
 20
517.7708763999657
 30
0.0
 10
617.8794254695442
 20
517.7708763999657
 30
0.0
 10
617.7117576891662
 20
517.7708763999657
 30
0.0
  0
SPLINE
  5
27C
330
1F
100
AcDbEntity
  8
Linee visibili 2D
100
AcDbSpline
210
0.0
220
0.0
230
1.0
 70
    24
 71
     2
 72
     6
 73
     3
 74
     0
 42
0.0000000001
 43
0.0000000001
 40
-0.1716356274915825
 40
-0.1716356274915825
 40
-0.1716356274915825
 40
0.0
 40
0.0
 40
0.0
 10
617.7117576891662
 20
517.7708763999657
 30
0.0
 10
617.6259398753732
 20
517.7708763999657
 30
0.0
 10
617.5401220615801
 20
517.7708763999657
 30
0.0
  0
SPLINE
  5
27D
330
1F
100
AcDbEntity
  8
Linee visibili 2D
100
AcDbSpline
210
0.0
220
0.0
230
1.0
 70
    24
 71
     2
 72
     6
 73
     3
 74
     0
 42
0.0000000001
 43
0.0000000001
 40
0.0
 40
0.0
 40
0.0
 40
0.3100135260972365
 40
0.3100135260972365
 40
0.3100135260972365
 10
617.5401220615801
 20
517.7708763999657
 30
0.0
 10
617.3851152984664
 20
517.7708763999657
 30
0.0
 10
617.2301085353529
 20
517.7708763999657
 30
0.0
  0
SPLINE
  5
27E
330
1F
100
AcDbEntity
  8
Linee visibili 2D
100
AcDbSpline
210
0.0
220
0.0
230
1.0
 70
    24
 71
     2
 72
     6
 73
     3
 74
     0
 42
0.0000000001
 43
0.0000000001
 40
-0.1602626478816092
 40
-0.1602626478816092
 40
-0.1602626478816092
 40
0.0
 40
0.0
 40
0.0
 10
617.2301085353529
 20
517.7708763999657
 30
0.0
 10
617.1499772113419
 20
517.7708763999657
 30
0.0
 10
617.069845887331
 20
517.7708763999657
 30
0.0
  0
SPLINE
  5
27F
330
1F
100
AcDbEntity
  8
Linee visibili 2D
100
AcDbSpline
210
0.0
220
0.0
230
1.0
 70
    24
 71
     2
 72
     6
 73
     3
 74
     0
 42
0.0000000001
 43
0.0000000001
 40
0.0
 40
0.0
 40
0.0
 40
0.2825389222733747
 40
0.2825389222733747
 40
0.2825389222733747
 10
617.069845887331
 20
517.7708763999657
 30
0.0
 10
616.9285764260968
 20
517.7708763999657
 30
0.0
 10
616.7873069648626
 20
517.7708763999657
 30
0.0
  0
SPLINE
  5
280
330
1F
100
AcDbEntity
  8
Linee visibili 2D
100
AcDbSpline
210
0.0
220
0.0
230
1.0
 70
    24
 71
     2
 72
     6
 73
     3
 74
     0
 42
0.0000000001
 43
0.0000000001
 40
-0.1509048244462292
 40
-0.1509048244462292
 40
-0.1509048244462292
 40
0.0
 40
0.0
 40
0.0
 10
616.7873069648626
 20
517.7708763999657
 30
0.0
 10
616.711854552532
 20
517.7708763999658
 30
0.0
 10
616.6364021402015
 20
517.7708763999658
 30
0.0
  0
SPLINE
  5
281
330
1F
100
AcDbEntity
  8
Linee visibili 2D
100
AcDbSpline
210
0.0
220
0.0
230
1.0
 70
    24
 71
     2
 72
     6
 73
     3
 74
     0
 42
0.0000000001
 43
0.0000000001
 40
0.0
 40
0.0
 40
0.0
 40
0.2533437895400539
 40
0.2533437895400539
 40
0.2533437895400539
 10
616.6364021402015
 20
517.7708763999658
 30
0.0
 10
616.5097302452808
 20
517.7708763999658
 30
0.0
 10
616.3830583503601
 20
517.7708763999657
 30
0.0
  0
SPLINE
  5
282
330
1F
100
AcDbEntity
  8
Linee visibili 2D
100
AcDbSpline
210
0.0
220
0.0
230
1.0
 70
    24
 71
     2
 72
     6
 73
     3
 74
     0
 42
0.0000000001
 43
0.0000000001
 40
-0.1431301167943957
 40
-0.1431301167943957
 40
-0.1431301167943957
 40
0.0
 40
0.0
 40
0.0
 10
616.3830583503601
 20
517.7708763999657
 30
0.0
 10
616.3114932917922
 20
517.7708763999657
 30
0.0
 10
616.2399282332242
 20
517.7708763999657
 30
0.0
  0
SPLINE
  5
283
330
1F
100
AcDbEntity
  8
Linee visibili 2D
100
AcDbSpline
210
0.0
220
0.0
230
1.0
 70
    24
 71
     2
 72
     6
 73
     3
 74
     0
 42
0.0000000001
 43
0.0000000001
 40
0.0
 40
0.0
 40
0.0
 40
0.2229245630147716
 40
0.2229245630147716
 40
0.2229245630147716
 10
616.2399282332242
 20
517.7708763999657
 30
0.0
 10
616.1284659514768
 20
517.7708763999657
 30
0.0
 10
616.0170036697293
 20
517.7708763999657
 30
0.0
  0
SPLINE
  5
284
330
1F
100
AcDbEntity
  8
Linee visibili 2D
100
AcDbSpline
210
0.0
220
0.0
230
1.0
 70
    24
 71
     2
 72
     6
 73
     3
 74
     0
 42
0.0000000001
 43
0.0000000001
 40
-0.1364420897136824
 40
-0.1364420897136824
 40
-0.1364420897136824
 40
0.0
 40
0.0
 40
0.0
 10
616.0170036697293
 20
517.7708763999657
 30
0.0
 10
615.9487826245884
 20
517.7708763999657
 30
0.0
 10
615.8805615794475
 20
517.7708763999657
 30
0.0
  0
SPLINE
  5
285
330
1F
100
AcDbEntity
  8
Linee visibili 2D
100
AcDbSpline
210
0.0
220
0.0
230
1.0
 70
    24
 71
     2
 72
     6
 73
     3
 74
     0
 42
0.0000000001
 43
0.0000000001
 40
0.0
 40
0.0
 40
0.0
 40
0.1918389356823127
 40
0.1918389356823127
 40
0.1918389356823127
 10
615.8805615794475
 20
517.7708763999657
 30
0.0
 10
615.7846421112106
 20
517.7708763999657
 30
0.0
 10
615.6887226429735
 20
517.7708763999657
 30
0.0
  0
SPLINE
  5
286
330
1F
100
AcDbEntity
  8
Linee visibili 2D
100
AcDbSpline
210
0.0
220
0.0
230
1.0
 70
    24
 71
     2
 72
     6
 73
     3
 74
     0
 42
0.0000000001
 43
0.0000000001
 40
-0.130283050012963
 40
-0.130283050012963
 40
-0.130283050012963
 40
0.0
 40
0.0
 40
0.0
 10
615.6887226429735
 20
517.7708763999657
 30
0.0
 10
615.6235811174683
 20
517.7708763999657
 30
0.0
 10
615.5584395919632
 20
517.7708763999657
 30
0.0
  0
SPLINE
  5
287
330
1F
100
AcDbEntity
  8
Linee visibili 2D
100
AcDbSpline
210
0.0
220
0.0
230
1.0
 70
    24
 71
     2
 72
     6
 73
     3
 74
     0
 42
0.0000000001
 43
0.0000000001
 40
0.0
 40
0.0
 40
0.0
 40
0.1607025614626991
 40
0.1607025614626991
 40
0.1607025614626991
 10
615.5584395919632
 20
517.7708763999657
 30
0.0
 10
615.4780883105519
 20
517.7708763999657
 30
0.0
 10
615.3977370291407
 20
517.7708763999657
 30
0.0
  0
SPLINE
  5
288
330
1F
100
AcDbEntity
  8
Linee visibili 2D
100
AcDbSpline
210
0.0
220
0.0
230
1.0
 70
    24
 71
     2
 72
     6
 73
     3
 74
     0
 42
0.0000000001
 43
0.0000000001
 40
-0.124037343277223
 40
-0.124037343277223
 40
-0.124037343277223
 40
0.0
 40
0.0
 40
0.0
 10
615.3977370291407
 20
517.7708763999657
 30
0.0
 10
615.3357183565636
 20
517.7708763999656
 30
0.0
 10
615.2736996839865
 20
517.7708763999656
 30
0.0
  0
SPLINE
  5
289
330
1F
100
AcDbEntity
  8
Linee visibili 2D
100
AcDbSpline
210
0.0
220
0.0
230
1.0
 70
    24
 71
     2
 72
     6
 73
     3
 74
     0
 42
0.0000000001
 43
0.0000000001
 40
0.0
 40
0.0
 40
0.0
 40
0.1301856265544075
 40
0.1301856265544075
 40
0.1301856265544075
 10
615.2736996839865
 20
517.7708763999656
 30
0.0
 10
615.2086068694771
 20
517.7708763999656
 30
0.0
 10
615.1435140549677
 20
517.7708763999657
 30
0.0
  0
SPLINE
  5
28A
330
1F
100
AcDbEntity
  8
Linee visibili 2D
100
AcDbSpline
210
0.0
220
0.0
230
1.0
 70
    24
 71
     2
 72
     6
 73
     3
 74
     0
 42
0.0000000001
 43
0.0000000001
 40
-0.1170347819878543
 40
-0.1170347819878543
 40
-0.1170347819878543
 40
0.0
 40
0.0
 40
0.0
 10
615.1435140549677
 20
517.7708763999657
 30
0.0
 10
615.0849966620402
 20
517.7708763999656
 30
0.0
 10
615.0264792691128
 20
517.7708763999656
 30
0.0
  0
SPLINE
  5
28B
330
1F
100
AcDbEntity
  8
Linee visibili 2D
100
AcDbSpline
210
0.0
220
0.0
230
1.0
 70
    24
 71
     2
 72
     6
 73
     3
 74
     0
 42
0.0000000001
 43
0.0000000001
 40
0.0
 40
0.0
 40
0.0
 40
0.1010093169727497
 40
0.1010093169727497
 40
0.1010093169727497
 10
615.0264792691128
 20
517.7708763999656
 30
0.0
 10
614.97597460822
 20
517.7708763999656
 30
0.0
 10
614.9254699473272
 20
517.7708763999657
 30
0.0
  0
SPLINE
  5
28C
330
1F
100
AcDbEntity
  8
Linee visibili 2D
100
AcDbSpline
210
0.0
220
0.0
230
1.0
 70
    24
 71
     2
 72
     6
 73
     3
 74
     0
 42
0.0000000001
 43
0.0000000001
 40
-0.1085541761462991
 40
-0.1085541761462991
 40
-0.1085541761462991
 40
0.0
 40
0.0
 40
0.0
 10
614.9254699473272
 20
517.7708763999657
 30
0.0
 10
614.8711928547746
 20
517.7708763999657
 30
0.0
 10
614.8169157622219
 20
517.7708763999657
 30
0.0
  0
SPLINE
  5
28D
330
1F
100
AcDbEntity
  8
Linee visibili 2D
100
AcDbSpline
210
0.0
220
0.0
230
1.0
 70
    24
 71
     2
 72
     6
 73
     3
 74
     0
 42
0.0000000001
 43
0.0000000001
 40
0.0
 40
0.0
 40
0.0
 40
0.0739422095398368
 40
0.0739422095398368
 40
0.0739422095398368
 10
614.8169157622219
 20
517.7708763999657
 30
0.0
 10
614.7799446522222
 20
517.7708763999657
 30
0.0
 10
614.7429735422223
 20
517.7708763999657
 30
0.0
  0
SPLINE
  5
28E
330
1F
100
AcDbEntity
  8
Linee visibili 2D
100
AcDbSpline
210
0.0
220
0.0
230
1.0
 70
    24
 71
     2
 72
     6
 73
     3
 74
     0
 42
0.0000000001
 43
0.0000000001
 40
-0.0978270032592263
 40
-0.0978270032592263
 40
-0.0978270032592263
 40
0.0
 40
0.0
 40
0.0
 10
614.7429735422223
 20
517.7708763999657
 30
0.0
 10
614.6940600455982
 20
517.7708763999657
 30
0.0
 10
614.6451465489743
 20
517.7708763999657
 30
0.0
  0
SPLINE
  5
28F
330
1F
100
AcDbEntity
  8
Linee visibili 2D
100
AcDbSpline
210
0.0
220
0.0
230
1.0
 70
    24
 71
     2
 72
     6
 73
     3
 74
     0
 42
0.0000000001
 43
0.0000000001
 40
0.0
 40
0.0
 40
0.0
 40
0.049796629388311
 40
0.049796629388311
 40
0.049796629388311
 10
614.6451465489743
 20
517.7708763999657
 30
0.0
 10
614.6202482423009
 20
517.7708763999657
 30
0.0
 10
614.5953499356276
 20
517.7708763999657
 30
0.0
  0
SPLINE
  5
290
330
1F
100
AcDbEntity
  8
Linee visibili 2D
100
AcDbSpline
210
0.0
220
0.0
230
1.0
 70
    24
 71
     2
 72
     6
 73
     3
 74
     0
 42
0.0000000001
 43
0.0000000001
 40
-0.0840408361896152
 40
-0.0840408361896152
 40
-0.0840408361896152
 40
0.0
 40
0.0
 40
0.0
 10
614.5953499356276
 20
517.7708763999657
 30
0.0
 10
614.5533295185538
 20
517.7708763999658
 30
0.0
 10
614.51130910148
 20
517.7708763999658
 30
0.0
  0
SPLINE
  5
291
330
1F
100
AcDbEntity
  8
Linee visibili 2D
100
AcDbSpline
210
0.0
220
0.0
230
1.0
 70
    24
 71
     2
 72
     6
 73
     3
 74
     0
 42
0.0000000001
 43
0.0000000001
 40
0.0
 40
0.0
 40
0.0
 40
0.0294249018651271
 40
0.0294249018651271
 40
0.0294249018651271
 10
614.51130910148
 20
517.7708763999658
 30
0.0
 10
614.4965966505586
 20
517.7708763999658
 30
0.0
 10
614.4818841996371
 20
517.7708763999657
 30
0.0
  0
SPLINE
  5
292
330
1F
100
AcDbEntity
  8
Linee visibili 2D
100
AcDbSpline
210
0.0
220
0.0
230
1.0
 70
    24
 71
     2
 72
     6
 73
     3
 74
     0
 42
0.0000000001
 43
0.0000000001
 40
-0.066343416044333
 40
-0.066343416044333
 40
-0.066343416044333
 40
0.0
 40
0.0
 40
0.0
 10
614.4818841996371
 20
517.7708763999657
 30
0.0
 10
614.4487124917946
 20
517.7708763999658
 30
0.0
 10
614.4155407839522
 20
517.7708763999658
 30
0.0
  0
SPLINE
  5
293
330
1F
100
AcDbEntity
  8
Linee visibili 2D
100
AcDbSpline
210
0.0
220
0.0
230
1.0
 70
    24
 71
     2
 72
     6
 73
     3
 74
     0
 42
0.0000000001
 43
0.0000000001
 40
0.0
 40
0.0
 40
0.0
 40
0.0137157658435854
 40
0.0137157658435854
 40
0.0137157658435854
 10
614.4155407839522
 20
517.7708763999658
 30
0.0
 10
614.4086829012103
 20
517.7708763999658
 30
0.0
 10
614.4018250184683
 20
517.7708763999657
 30
0.0
  0
SPLINE
  5
294
330
1F
100
AcDbEntity
  8
Linee visibili 2D
100
AcDbSpline
210
0.0
220
0.0
230
1.0
 70
    24
 71
     2
 72
     6
 73
     3
 74
     0
 42
0.0000000001
 43
0.0000000001
 40
-0.0237183152351008
 40
-0.0237183152351008
 40
-0.0237183152351008
 40
0.0
 40
0.0
 40
0.0
 10
614.4018250184683
 20
517.7708763999657
 30
0.0
 10
614.3899658611334
 20
517.7708763999657
 30
0.0
 10
614.3781067037985
 20
517.7708763999657
 30
0.0
  0
SPLINE
  5
295
330
1F
100
AcDbEntity
  8
Linee visibili 2D
100
AcDbSpline
210
0.0
220
0.0
230
1.0
 70
    24
 71
     2
 72
     6
 73
     3
 74
     0
 42
0.0000000001
 43
0.0000000001
 40
0.0
 40
0.0
 40
0.0
 40
0.0393454694358297
 40
0.0393454694358297
 40
0.0393454694358297
 10
614.3781067037985
 20
517.7708763999657
 30
0.0
 10
614.3584339693627
 20
517.7708763999657
 30
0.0
 10
614.338761234927
 20
517.7708763999657
 30
0.0
  0
SPLINE
  5
296
330
1F
100
AcDbEntity
  8
Linee visibili 2D
100
AcDbSpline
210
0.0
220
0.0
230
1.0
 70
    24
 71
     2
 72
     6
 73
     3
 74
     0
 42
0.0000000001
 43
0.0000000001
 40
0.0
 40
0.0
 40
0.0
 40
7.921458711631544
 40
7.921458711631544
 40
7.921458711631544
 10
614.338761234927
 20
517.7708763999657
 30
0.0
 10
614.338761234927
 20
521.7316057557814
 30
0.0
 10
614.338761234927
 20
525.6923351115972
 30
0.0
  0
SPLINE
  5
297
330
1F
100
AcDbEntity
  8
Linee visibili 2D
100
AcDbSpline
210
0.0
220
0.0
230
1.0
 70
    24
 71
     2
 72
     6
 73
     3
 74
     0
 42
0.0000000001
 43
0.0000000001
 40
-0.039417649029474
 40
-0.039417649029474
 40
-0.039417649029474
 40
0.0
 40
0.0
 40
0.0
 10
837.7708763999653
 20
658.2584398014875
 30
0.0
 10
837.7511675754506
 20
658.2584398014874
 30
0.0
 10
837.7314587509359
 20
658.2584398014874
 30
0.0
  0
SPLINE
  5
298
330
1F
100
AcDbEntity
  8
Linee visibili 2D
100
AcDbSpline
210
0.0
220
0.0
230
1.0
 70
    24
 71
     2
 72
     6
 73
     3
 74
     0
 42
0.0000000001
 43
0.0000000001
 40
0.0
 40
0.0
 40
0.0
 40
159.9605823509704
 40
159.9605823509704
 40
159.9605823509704
 10
837.7314587509359
 20
658.2584398014874
 30
0.0
 10
757.7511675754506
 20
658.2584398014869
 30
0.0
 10
677.7708763999655
 20
658.2584398014865
 30
0.0
  0
SPLINE
  5
299
330
1F
100
AcDbEntity
  8
Linee visibili 2D
100
AcDbSpline
210
0.0
220
0.0
230
1.0
 70
    24
 71
     2
 72
     6
 73
     3
 74
     0
 42
0.0000000001
 43
0.0000000001
 40
0.0
 40
0.0
 40
0.0
 40
159.9999999999998
 40
159.9999999999998
 40
159.9999999999998
 10
677.7708763999655
 20
658.2584398014865
 30
0.0
 10
597.7708763999656
 20
658.2584398014869
 30
0.0
 10
517.7708763999657
 20
658.2584398014875
 30
0.0
  0
SPLINE
  5
29A
330
1F
100
AcDbEntity
  8
Linee visibili 2D
100
AcDbSpline
210
0.0
220
0.0
230
1.0
 70
    24
 71
     2
 72
     6
 73
     3
 74
     0
 42
0.0000000001
 43
0.0000000001
 40
0.0
 40
0.0
 40
0.0
 40
85.3725772534923
 40
85.3725772534923
 40
85.3725772534923
 10
592.3982990695723
 20
740.7736347142784
 30
0.0
 10
635.0845877347689
 20
740.7736347142784
 30
0.0
 10
677.7708763999655
 20
740.7736347142784
 30
0.0
  0
SPLINE
  5
29B
330
1F
100
AcDbEntity
  8
Linee visibili 2D
100
AcDbSpline
210
0.0
220
0.0
230
1.0
 70
    24
 71
     2
 72
     6
 73
     3
 74
     0
 42
0.0000000001
 43
0.0000000001
 40
0.0
 40
0.0
 40
0.0
 40
85.37257725349411
 40
85.37257725349411
 40
85.37257725349411
 10
677.7708763999655
 20
740.7736347142784
 30
0.0
 10
720.4571650651625
 20
740.7736347142784
 30
0.0
 10
763.1434537303595
 20
740.7736347142784
 30
0.0
  0
SPLINE
  5
29C
330
1F
100
AcDbEntity
  8
Linee visibili 2D
100
AcDbSpline
210
0.0
220
0.0
230
1.0
 70
    12
 71
     2
 72
     6
 73
     3
 74
     0
 42
0.0000000001
 43
0.0000000001
 40
570.770200409791
 40
570.770200409791
 40
570.770200409791
 40
761.026933879722
 40
761.026933879722
 40
761.026933879722
 10
763.1434537303595
 20
740.7736347142784
 30
0.0
 41
1.0
 10
837.7708763999652
 20
740.7736347142784
 30
0.0
 41
0.707106781186547
 10
837.7708763999653
 20
658.2584398014875
 30
0.0
 41
1.0
  0
SPLINE
  5
29D
330
1F
100
AcDbEntity
  8
Linee visibili 2D
100
AcDbSpline
210
0.0
220
0.0
230
1.0
 70
    24
 71
     2
 72
     6
 73
     3
 74
     0
 42
0.0000000001
 43
0.0000000001
 40
-7.484805087208997
 40
-7.484805087208997
 40
-7.484805087208997
 40
0.0
 40
0.0
 40
0.0
 10
837.7708763999653
 20
658.2584398014875
 30
0.0
 10
837.7684238574482
 20
654.516037257883
 30
0.0
 10
837.765971314931
 20
650.7736347142784
 30
0.0
  0
SPLINE
  5
29E
330
1F
100
AcDbEntity
  8
Linee visibili 2D
100
AcDbSpline
210
0.0
220
0.0
230
1.0
 70
    24
 71
     2
 72
     6
 73
     3
 74
     0
 42
0.0000000001
 43
0.0000000001
 40
-159.9901898299313
 40
-159.9901898299313
 40
-159.9901898299313
 40
0.0
 40
0.0
 40
0.0
 10
837.765971314931
 20
650.7736347142784
 30
0.0
 10
757.7684238574482
 20
650.7736347142784
 30
0.0
 10
677.7708763999655
 20
650.7736347142785
 30
0.0
  0
SPLINE
  5
29F
330
1F
100
AcDbEntity
  8
Linee visibili 2D
100
AcDbSpline
210
0.0
220
0.0
230
1.0
 70
    24
 71
     2
 72
     6
 73
     3
 74
     0
 42
0.0000000001
 43
0.0000000001
 40
-159.9901898299313
 40
-159.9901898299313
 40
-159.9901898299313
 40
0.0
 40
0.0
 40
0.0
 10
677.7708763999655
 20
650.7736347142785
 30
0.0
 10
597.7733289424827
 20
650.7736347142785
 30
0.0
 10
517.7757814849999
 20
650.7736347142785
 30
0.0
  0
SPLINE
  5
2A0
330
1F
100
AcDbEntity
  8
Linee visibili 2D
100
AcDbSpline
210
0.0
220
0.0
230
1.0
 70
    24
 71
     2
 72
     6
 73
     3
 74
     0
 42
0.0000000001
 43
0.0000000001
 40
0.0
 40
0.0
 40
0.0
 40
7.484805087208997
 40
7.484805087208997
 40
7.484805087208997
 10
517.7757814849999
 20
650.7736347142785
 30
0.0
 10
517.7733289424827
 20
654.516037257883
 30
0.0
 10
517.7708763999657
 20
658.2584398014875
 30
0.0
  0
SPLINE
  5
2A1
330
1F
100
AcDbEntity
  8
Linee visibili 2D
100
AcDbSpline
210
0.0
220
0.0
230
1.0
 70
    12
 71
     2
 72
     6
 73
     3
 74
     0
 42
0.0000000001
 43
0.0000000001
 40
-761.026933879722
 40
-761.026933879722
 40
-761.026933879722
 40
-570.770200409791
 40
-570.770200409791
 40
-570.770200409791
 10
517.7708763999657
 20
658.2584398014875
 30
0.0
 41
1.0
 10
517.7708763999657
 20
740.7736347142784
 30
0.0
 41
0.707106781186547
 10
592.3982990695723
 20
740.7736347142784
 30
0.0
 41
1.0
  0
SPLINE
  5
2A2
330
1F
100
AcDbEntity
  8
Linee visibili 2D
100
AcDbSpline
210
0.0
220
0.0
230
1.0
 70
    12
 71
     2
 72
     6
 73
     3
 74
     0
 42
0.0000000001
 43
0.0000000001
 40
-761.026933879722
 40
-761.026933879722
 40
-761.026933879722
 40
-570.770200409791
 40
-570.770200409791
 40
-570.770200409791
 10
0.0
 20
658.2584398014865
 30
0.0
 41
1.0
 10
0.0000000000000037
 20
740.7736347142774
 30
0.0
 41
0.707106781186547
 10
74.62742266958574
 20
740.7736347142784
 30
0.0
 41
1.0
  0
SPLINE
  5
2A3
330
1F
100
AcDbEntity
  8
Linee visibili 2D
100
AcDbSpline
210
0.0
220
0.0
230
1.0
 70
    24
 71
     2
 72
     6
 73
     3
 74
     0
 42
0.0000000001
 43
0.0000000001
 40
0.0
 40
0.0
 40
0.0
 40
85.3725772535341
 40
85.3725772535341
 40
85.3725772535341
 10
74.62742266958574
 20
740.7736347142784
 30
0.0
 10
117.3137113347928
 20
740.7736347142784
 30
0.0
 10
159.9999999999998
 20
740.7736347142784
 30
0.0
  0
SPLINE
  5
2A4
330
1F
100
AcDbEntity
  8
Linee visibili 2D
100
AcDbSpline
210
0.0
220
0.0
230
1.0
 70
    24
 71
     2
 72
     6
 73
     3
 74
     0
 42
0.0000000001
 43
0.0000000001
 40
0.0
 40
0.0
 40
0.0
 40
85.37257725338526
 40
85.37257725338526
 40
85.37257725338526
 10
159.9999999999998
 20
740.7736347142784
 30
0.0
 10
202.6862886651697
 20
740.7736347142784
 30
0.0
 10
245.3725773303395
 20
740.7736347142784
 30
0.0
  0
SPLINE
  5
2A5
330
1F
100
AcDbEntity
  8
Linee visibili 2D
100
AcDbSpline
210
0.0
220
0.0
230
1.0
 70
    12
 71
     2
 72
     6
 73
     3
 74
     0
 42
0.0000000001
 43
0.0000000001
 40
570.770200409791
 40
570.770200409791
 40
570.770200409791
 40
761.026933879722
 40
761.026933879722
 40
761.026933879722
 10
245.3725773303395
 20
740.7736347142784
 30
0.0
 41
1.0
 10
319.9999999999995
 20
740.7736347142784
 30
0.0
 41
0.707106781186547
 10
319.9999999999995
 20
658.2584398014875
 30
0.0
 41
1.0
  0
SPLINE
  5
2A6
330
1F
100
AcDbEntity
  8
Linee visibili 2D
100
AcDbSpline
210
0.0
220
0.0
230
1.0
 70
    24
 71
     2
 72
     6
 73
     3
 74
     0
 42
0.0000000001
 43
0.0000000001
 40
0.0
 40
0.0
 40
0.0
 40
7.484805087208997
 40
7.484805087208997
 40
7.484805087208997
 10
319.9999999999995
 20
658.2584398014875
 30
0.0
 10
319.9999999999995
 20
654.516037257883
 30
0.0
 10
319.9999999999995
 20
650.7736347142785
 30
0.0
  0
SPLINE
  5
2A7
330
1F
100
AcDbEntity
  8
Linee visibili 2D
100
AcDbSpline
210
0.0
220
0.0
230
1.0
 70
    24
 71
     2
 72
     6
 73
     3
 74
     0
 42
0.0000000001
 43
0.0000000001
 40
-159.9999999999997
 40
-159.9999999999997
 40
-159.9999999999997
 40
0.0
 40
0.0
 40
0.0
 10
319.9999999999995
 20
650.7736347142785
 30
0.0
 10
239.9999999999997
 20
650.7736347142785
 30
0.0
 10
159.9999999999998
 20
650.7736347142785
 30
0.0
  0
SPLINE
  5
2A8
330
1F
100
AcDbEntity
  8
Linee visibili 2D
100
AcDbSpline
210
0.0
220
0.0
230
1.0
 70
    24
 71
     2
 72
     6
 73
     3
 74
     0
 42
0.0000000001
 43
0.0000000001
 40
-159.9901898299314
 40
-159.9901898299314
 40
-159.9901898299314
 40
0.0
 40
0.0
 40
0.0
 10
159.9999999999998
 20
650.7736347142785
 30
0.0
 10
80.00245254251702
 20
650.7736347142785
 30
0.0
 10
0.0049050850342182
 20
650.7736347142785
 30
0.0
  0
SPLINE
  5
2A9
330
1F
100
AcDbEntity
  8
Linee visibili 2D
100
AcDbSpline
210
0.0
220
0.0
230
1.0
 70
    24
 71
     2
 72
     6
 73
     3
 74
     0
 42
0.0000000001
 43
0.0000000001
 40
0.0
 40
0.0
 40
0.0
 40
7.484805087207974
 40
7.484805087207974
 40
7.484805087207974
 10
0.0049050850342182
 20
650.7736347142785
 30
0.0
 10
0.0024525425171091
 20
654.5160372578825
 30
0.0
 10
0.0
 20
658.2584398014865
 30
0.0
  0
SPLINE
  5
2AA
330
1F
100
AcDbEntity
  8
Linee visibili 2D
100
AcDbSpline
210
0.0
220
0.0
230
1.0
 70
    24
 71
     2
 72
     6
 73
     3
 74
     0
 42
0.0000000001
 43
0.0000000001
 40
-159.9999999999998
 40
-159.9999999999998
 40
-159.9999999999998
 40
0.0
 40
0.0
 40
0.0
 10
0.0
 20
658.2584398014865
 30
0.0
 10
79.99999999999991
 20
658.2584398014869
 30
0.0
 10
159.9999999999998
 20
658.2584398014875
 30
0.0
  0
SPLINE
  5
2AB
330
1F
100
AcDbEntity
  8
Linee visibili 2D
100
AcDbSpline
210
0.0
220
0.0
230
1.0
 70
    24
 71
     2
 72
     6
 73
     3
 74
     0
 42
0.0000000001
 43
0.0000000001
 40
-159.9605823509702
 40
-159.9605823509702
 40
-159.9605823509702
 40
0.0
 40
0.0
 40
0.0
 10
159.9999999999998
 20
658.2584398014875
 30
0.0
 10
239.9802911754849
 20
658.2584398014874
 30
0.0
 10
319.96058235097
 20
658.2584398014874
 30
0.0
  0
SPLINE
  5
2AC
330
1F
100
AcDbEntity
  8
Linee visibili 2D
100
AcDbSpline
210
0.0
220
0.0
230
1.0
 70
    24
 71
     2
 72
     6
 73
     3
 74
     0
 42
0.0000000001
 43
0.0000000001
 40
0.0
 40
0.0
 40
0.0
 40
0.0296074789611112
 40
0.0296074789611112
 40
0.0296074789611112
 10
319.96058235097
 20
658.2584398014874
 30
0.0
 10
319.9753860904506
 20
658.2584398014874
 30
0.0
 10
319.9901898299311
 20
658.2584398014874
 30
0.0
  0
SPLINE
  5
2AD
330
1F
100
AcDbEntity
  8
Linee visibili 2D
100
AcDbSpline
210
0.0
220
0.0
230
1.0
 70
    12
 71
     2
 72
     6
 73
     3
 74
     0
 42
0.0000000001
 43
0.0000000001
 40
46.84429974043638
 40
46.84429974043638
 40
46.84429974043638
 40
163.752375475696
 40
163.752375475696
 40
163.752375475696
 10
206.9629573854944
 20
60.89482690162659
 30
0.0
 41
1272.889942022004
 10
229.562995829596
 20
44.09783951402918
 30
0.0
 41
1121.267970497162
 10
211.9382651376453
 20
25.57537018719083
 30
0.0
 41
1387.926950896639
  0
SPLINE
  5
2AE
330
1F
100
AcDbEntity
  8
Linee visibili 2D
100
AcDbSpline
210
0.0
220
0.0
230
1.0
 70
    12
 71
     2
 72
     6
 73
     3
 74
     0
 42
0.0000000001
 43
0.0000000001
 40
88.943348637938
 40
88.943348637938
 40
88.943348637938
 40
177.886697275876
 40
177.886697275876
 40
177.886697275876
 10
211.9382651376453
 20
25.57537018719083
 30
0.0
 41
1387.926950896632
 10
182.7518423768005
 20
-5.097701066855861
 30
0.0
 41
948.4056528274573
 10
129.4206880722539
 20
12.86624545502823
 30
0.0
 41
1368.197372163793
  0
SPLINE
  5
2AF
330
1F
100
AcDbEntity
  8
Linee visibili 2D
100
AcDbSpline
210
0.0
220
0.0
230
1.0
 70
    12
 71
     2
 72
     6
 73
     3
 74
     0
 42
0.0000000001
 43
0.0000000001
 40
177.886697275876
 40
177.886697275876
 40
177.886697275876
 40
266.830045913814
 40
266.830045913814
 40
266.830045913814
 10
129.4206880722539
 20
12.86624545502823
 30
0.0
 41
1368.197372163794
 10
78.14986752573523
 20
30.13619377025269
 30
0.0
 41
986.5176268898381
 10
109.631708673068
 20
58.52195062053006
 30
0.0
 41
1441.825421504573
  0
SPLINE
  5
2B0
330
1F
100
AcDbEntity
  8
Linee visibili 2D
100
AcDbSpline
210
0.0
220
0.0
230
1.0
 70
    24
 71
     2
 72
     6
 73
     3
 74
     0
 42
0.0000000001
 43
0.0000000001
 40
0.0
 40
0.0
 40
0.0
 40
1.172805608275016
 40
1.172805608275016
 40
1.172805608275016
 10
109.631708673068
 20
58.52195062053006
 30
0.0
 10
109.1705272972017
 20
58.15976284153356
 30
0.0
 10
108.7093459213355
 20
57.79757506253705
 30
0.0
  0
SPLINE
  5
2B1
330
1F
100
AcDbEntity
  8
Linee visibili 2D
100
AcDbSpline
210
0.0
220
0.0
230
1.0
 70
    12
 71
     2
 72
     6
 73
     3
 74
     0
 42
0.0000000001
 43
0.0000000001
 40
-266.830045913814
 40
-266.830045913814
 40
-266.830045913814
 40
-177.886697275876
 40
-177.886697275876
 40
-177.886697275876
 10
108.7093459213355
 20
57.79757506253705
 30
0.0
 41
1443.002568321932
 10
76.59855416190103
 20
28.84837920844878
 30
0.0
 41
986.7167572250871
 10
128.8308511392455
 20
11.21822059021328
 30
0.0
 41
1367.961963357229
  0
SPLINE
  5
2B2
330
1F
100
AcDbEntity
  8
Linee visibili 2D
100
AcDbSpline
210
0.0
220
0.0
230
1.0
 70
    12
 71
     2
 72
     6
 73
     3
 74
     0
 42
0.0000000001
 43
0.0000000001
 40
-323.430358683411
 40
-323.430358683411
 40
-323.430358683411
 40
-161.715179341705
 40
-161.715179341705
 40
-161.715179341705
 10
128.8308511392455
 20
11.21822059021328
 30
0.0
 41
1367.961963357229
 10
183.203588674533
 20
-7.13440877377188
 30
0.0
 41
947.8736041652325
 10
212.9314038039855
 20
24.19370864168536
 30
0.0
 41
1388.070054459352
  0
SPLINE
  5
2B3
330
1F
100
AcDbEntity
  8
Linee visibili 2D
100
AcDbSpline
210
0.0
220
0.0
230
1.0
 70
    12
 71
     2
 72
     6
 73
     3
 74
     0
 42
0.0000000001
 43
0.0000000001
 40
-88.943348637938
 40
-88.943348637938
 40
-88.943348637938
 40
-26.40498554145957
 40
-26.40498554145957
 40
-26.40498554145957
 10
212.9314038039855
 20
24.19370864168536
 30
0.0
 41
1388.070054459352
 10
230.5293050702795
 20
42.7389368979618
 30
0.0
 41
1125.863079951312
 10
208.4328069131998
 20
59.75574668882236
 30
0.0
 41
1269.484098704457
  0
ENDSEC
  0
SECTION
  2
OBJECTS
  0
DICTIONARY
  5
C
330
0
100
AcDbDictionary
281
     1
  3
ACAD_GROUP
350
D
  3
ACAD_LAYOUT
350
1A
  3
ACAD_MLEADERSTYLE
350
2B5
  3
ACAD_MLINESTYLE
350
17
  3
ACAD_PLOTSETTINGS
350
19
  3
ACAD_PLOTSTYLENAME
350
E
  3
ACAD_TABLESTYLE
350
2B4
  3
ACAD_VISUALSTYLE
350
2A
  0
DICTIONARY
  5
D
102
{ACAD_REACTORS
330
C
102
}
330
C
100
AcDbDictionary
281
     1
  0
DICTIONARY
  5
1A
102
{ACAD_REACTORS
330
C
102
}
330
C
100
AcDbDictionary
281
     1
  3
Layout1
350
1E
  3
Layout2
350
26
  3
Model
350
22
  0
DICTIONARY
  5
2B5
102
{ACAD_REACTORS
330
C
102
}
330
C
100
AcDbDictionary
281
     1
  0
DICTIONARY
  5
17
102
{ACAD_REACTORS
330
C
102
}
330
C
100
AcDbDictionary
281
     1
  3
Standard
350
18
  0
DICTIONARY
  5
19
102
{ACAD_REACTORS
330
C
102
}
330
C
100
AcDbDictionary
281
     1
  0
ACDBDICTIONARYWDFLT
  5
E
102
{ACAD_REACTORS
330
C
102
}
330
C
100
AcDbDictionary
281
     1
  3
Normal
350
F
100
AcDbDictionaryWithDefault
340
F
  0
DICTIONARY
  5
2B4
102
{ACAD_REACTORS
330
C
102
}
330
C
100
AcDbDictionary
281
     1
  0
DICTIONARY
  5
2A
102
{ACAD_REACTORS
330
C
102
}
330
C
100
AcDbDictionary
281
     1
  3
2dWireframe
350
2F
  3
3D Hidden
350
31
  3
3dWireframe
350
30
  3
Basic
350
32
  3
Brighten
350
36
  3
ColorChange
350
3A
  3
Conceptual
350
34
  3
Dim
350
35
  3
Facepattern
350
39
  3
Flat
350
2B
  3
FlatWithEdges
350
2C
  3
Gouraud
350
2D
  3
GouraudWithEdges
350
2E
  3
Linepattern
350
38
  3
Realistic
350
33
  3
Thicken
350
37
  0
LAYOUT
  5
1E
102
{ACAD_REACTORS
330
1A
102
}
330
1A
100
AcDbPlotSettings
  1

  2
none_device
  4

  6

 40
0.0
 41
0.0
 42
0.0
 43
0.0
 44
0.0
 45
0.0
 46
0.0
 47
0.0
 48
0.0
 49
0.0
140
0.0
141
0.0
142
1.0
143
1.0
 70
   688
 72
     0
 73
     0
 74
     5
  7

 75
    16
 76
     0
 77
     2
 78
   300
147
1.0
148
0.0
149
0.0
100
AcDbLayout
  1
Layout1
 70
     1
 71
     1
 10
0.0
 20
0.0
 11
12.0
 21
9.0
 12
0.0
 22
0.0
 32
0.0
 14
1.000000000000000E+20
 24
1.000000000000000E+20
 34
1.000000000000000E+20
 15
-1.000000000000000E+20
 25
-1.000000000000000E+20
 35
-1.000000000000000E+20
146
0.0
 13
0.0
 23
0.0
 33
0.0
 16
1.0
 26
0.0
 36
0.0
 17
0.0
 27
1.0
 37
0.0
 76
     0
330
1B
  0
LAYOUT
  5
26
102
{ACAD_REACTORS
330
1A
102
}
330
1A
100
AcDbPlotSettings
  1

  2
none_device
  4

  6

 40
0.0
 41
0.0
 42
0.0
 43
0.0
 44
0.0
 45
0.0
 46
0.0
 47
0.0
 48
0.0
 49
0.0
140
0.0
141
0.0
142
1.0
143
1.0
 70
   688
 72
     0
 73
     0
 74
     5
  7

 75
    16
 76
     0
 77
     2
 78
   300
147
1.0
148
0.0
149
0.0
100
AcDbLayout
  1
Layout2
 70
     1
 71
     2
 10
0.0
 20
0.0
 11
0.0
 21
0.0
 12
0.0
 22
0.0
 32
0.0
 14
0.0
 24
0.0
 34
0.0
 15
0.0
 25
0.0
 35
0.0
146
0.0
 13
0.0
 23
0.0
 33
0.0
 16
1.0
 26
0.0
 36
0.0
 17
0.0
 27
1.0
 37
0.0
 76
     0
330
23
  0
LAYOUT
  5
22
102
{ACAD_REACTORS
330
1A
102
}
330
1A
100
AcDbPlotSettings
  1

  2
none_device
  4

  6

 40
0.0
 41
0.0
 42
0.0
 43
0.0
 44
0.0
 45
0.0
 46
0.0
 47
0.0
 48
0.0
 49
0.0
140
0.0
141
0.0
142
1.0
143
1.0
 70
  1712
 72
     0
 73
     0
 74
     0
  7

 75
     0
 76
     0
 77
     2
 78
   300
147
1.0
148
0.0
149
0.0
100
AcDbLayout
  1
Model
 70
     1
 71
     0
 10
0.0
 20
0.0
 11
12.0
 21
9.0
 12
0.0
 22
0.0
 32
0.0
 14
0.0
 24
-0.0000000000000142
 34
0.0
 15
837.7708763999653
 25
740.7736347142784
 35
0.0
146
0.0
 13
0.0
 23
0.0
 33
0.0
 16
1.0
 26
0.0
 36
0.0
 17
0.0
 27
1.0
 37
0.0
 76
     0
330
1F
331
29
  0
MLINESTYLE
  5
18
102
{ACAD_REACTORS
330
17
102
}
330
17
100
AcDbMlineStyle
  2
Standard
 70
     0
  3

 62
   256
 51
90.0
 52
90.0
 71
     2
 49
0.5
 62
   256
  6
BYLAYER
 49
-0.5
 62
   256
  6
BYLAYER
  0
ACDBPLACEHOLDER
  5
F
102
{ACAD_REACTORS
330
E
102
}
330
E
  0
VISUALSTYLE
  5
2F
102
{ACAD_REACTORS
330
2A
102
}
330
2A
100
AcDbVisualStyle
  2
2dWireframe
 70
     4
 71
     0
 72
     2
 73
     0
 90
        0
 40
-0.6
 41
-30.0
 62
     5
 63
     7
421
 16777215
 74
     1
 91
        4
 64
     7
 65
   257
 75
     1
175
     1
 42
1.0
 92
        0
 66
   257
 43
1.0
 76
     1
 77
     6
 78
     2
 67
     7
 79
     5
170
     0
171
     0
290
     0
174
     0
 93
        1
 44
0.0
173
     0
291
     0
 45
0.0
1001
ACAD
1000
AcDbSavedByObjectVersion
1070
     0
  0
VISUALSTYLE
  5
31
102
{ACAD_REACTORS
330
2A
102
}
330
2A
100
AcDbVisualStyle
  2
3D Hidden
 70
     6
 71
     1
 72
     2
 73
     2
 90
        0
 40
-0.6
 41
-30.0
 62
     5
 63
     7
421
 16777215
 74
     2
 91
        2
 64
     7
 65
   257
 75
     2
175
     1
 42
40.0
 92
        0
 66
   257
 43
1.0
 76
     1
 77
     6
 78
     2
 67
     7
 79
     3
170
     0
171
     0
290
     0
174
     0
 93
        1
 44
0.0
173
     0
291
     0
 45
0.0
1001
ACAD
1000
AcDbSavedByObjectVersion
1070
     0
  0
VISUALSTYLE
  5
30
102
{ACAD_REACTORS
330
2A
102
}
330
2A
100
AcDbVisualStyle
  2
3dWireframe
 70
     5
 71
     0
 72
     2
 73
     0
 90
        0
 40
-0.6
 41
-30.0
 62
     5
 63
     7
421
 16777215
 74
     1
 91
        4
 64
     7
 65
   257
 75
     1
175
     1
 42
1.0
 92
        0
 66
   257
 43
1.0
 76
     1
 77
     6
 78
     2
 67
     7
 79
     5
170
     0
171
     0
290
     0
174
     0
 93
        1
 44
0.0
173
     0
291
     0
 45
0.0
1001
ACAD
1000
AcDbSavedByObjectVersion
1070
     0
  0
VISUALSTYLE
  5
32
102
{ACAD_REACTORS
330
2A
102
}
330
2A
100
AcDbVisualStyle
  2
Basic
 70
     7
 71
     1
 72
     0
 73
     1
 90
        0
 40
-0.6
 41
-30.0
 62
     5
 63
     7
421
 16777215
 74
     0
 91
        4
 64
     7
 65
   257
 75
     1
175
     1
 42
1.0
 92
        8
 66
     7
 43
1.0
 76
     1
 77
     6
 78
     2
 67
     7
 79
     5
170
     0
171
     0
290
     0
174
     0
 93
        1
 44
0.0
173
     0
291
     1
 45
0.0
1001
ACAD
1000
AcDbSavedByObjectVersion
1070
     0
  0
VISUALSTYLE
  5
36
102
{ACAD_REACTORS
330
2A
102
}
330
2A
100
AcDbVisualStyle
  2
Brighten
 70
    12
 71
     2
 72
     2
 73
     0
 90
        0
 40
-0.6
 41
-30.0
 62
     5
 63
     7
421
 16777215
 74
     1
 91
        4
 64
     7
 65
   257
 75
     1
175
     1
 42
1.0
 92
        8
 66
     7
 43
1.0
 76
     1
 77
     6
 78
     2
 67
     7
 79
     5
170
     0
171
     0
290
     0
174
     0
 93
        1
 44
50.0
173
     0
291
     1
 45
0.0
1001
ACAD
1000
AcDbSavedByObjectVersion
1070
     0
  0
VISUALSTYLE
  5
3A
102
{ACAD_REACTORS
330
2A
102
}
330
2A
100
AcDbVisualStyle
  2
ColorChange
 70
    16
 71
     2
 72
     2
 73
     3
 90
        0
 40
-0.6
 41
-30.0
 62
     5
 63
     8
421
  8421504
 74
     1
 91
        4
 64
     7
 65
   257
 75
     1
175
     1
 42
1.0
 92
        8
 66
     8
424
  8421504
 43
1.0
 76
     1
 77
     6
 78
     2
 67
     7
 79
     5
170
     0
171
     0
290
     0
174
     0
 93
        1
 44
0.0
173
     0
291
     1
 45
0.0
1001
ACAD
1000
AcDbSavedByObjectVersion
1070
     0
  0
VISUALSTYLE
  5
34
102
{ACAD_REACTORS
330
2A
102
}
330
2A
100
AcDbVisualStyle
  2
Conceptual
 70
     9
 71
     3
 72
     2
 73
     0
 90
        0
 40
-0.6
 41
-30.0
 62
     5
 63
     7
421
 16777215
 74
     2
 91
        2
 64
     7
 65
   257
 75
     1
175
     1
 42
40.0
 92
        8
 66
     7
 43
1.0
 76
     1
 77
     6
 78
     2
 67
     7
 79
     3
170
     0
171
     0
290
     0
174
     0
 93
        1
 44
0.0
173
     0
291
     0
 45
0.0
1001
ACAD
1000
AcDbSavedByObjectVersion
1070
     0
  0
VISUALSTYLE
  5
35
102
{ACAD_REACTORS
330
2A
102
}
330
2A
100
AcDbVisualStyle
  2
Dim
 70
    11
 71
     2
 72
     2
 73
     0
 90
        0
 40
-0.6
 41
-30.0
 62
     5
 63
     7
421
 16777215
 74
     1
 91
        4
 64
     7
 65
   257
 75
     1
175
     1
 42
1.0
 92
        8
 66
     7
 43
1.0
 76
     1
 77
     6
 78
     2
 67
     7
 79
     5
170
     0
171
     0
290
     0
174
     0
 93
        1
 44
-50.0
173
     0
291
     1
 45
0.0
1001
ACAD
1000
AcDbSavedByObjectVersion
1070
     0
  0
VISUALSTYLE
  5
39
102
{ACAD_REACTORS
330
2A
102
}
330
2A
100
AcDbVisualStyle
  2
Facepattern
 70
    15
 71
     2
 72
     2
 73
     0
 90
        0
 40
-0.6
 41
-30.0
 62
     5
 63
     7
421
 16777215
 74
     1
 91
        4
 64
     7
 65
   257
 75
     1
175
     1
 42
1.0
 92
        8
 66
     7
 43
1.0
 76
     1
 77
     6
 78
     2
 67
     7
 79
     5
170
     0
171
     0
290
     0
174
     0
 93
        1
 44
0.0
173
     0
291
     1
 45
0.0
1001
ACAD
1000
AcDbSavedByObjectVersion
1070
     0
  0
VISUALSTYLE
  5
2B
102
{ACAD_REACTORS
330
2A
102
}
330
2A
100
AcDbVisualStyle
  2
Flat
 70
     0
 71
     2
 72
     1
 73
     1
 90
        2
 40
-0.6
 41
30.0
 62
     5
 63
     7
421
 16777215
 74
     0
 91
        4
 64
     7
 65
   257
 75
     1
175
     1
 42
1.0
 92
        8
 66
     7
 43
1.0
 76
     1
 77
     6
 78
     2
 67
     7
 79
     5
170
     0
171
     0
290
     0
174
     0
 93
       13
 44
0.0
173
     0
291
     1
 45
0.0
1001
ACAD
1000
AcDbSavedByObjectVersion
1070
     0
  0
VISUALSTYLE
  5
2C
102
{ACAD_REACTORS
330
2A
102
}
330
2A
100
AcDbVisualStyle
  2
FlatWithEdges
 70
     1
 71
     2
 72
     1
 73
     1
 90
        2
 40
-0.6
 41
30.0
 62
     5
 63
     7
421
 16777215
 74
     1
 91
        4
 64
     7
 65
   257
 75
     1
175
     1
 42
1.0
 92
        0
 66
   257
 43
1.0
 76
     1
 77
     6
 78
     2
 67
     7
 79
     5
170
     0
171
     0
290
     0
174
     0
 93
       13
 44
0.0
173
     0
291
     1
 45
0.0
1001
ACAD
1000
AcDbSavedByObjectVersion
1070
     0
  0
VISUALSTYLE
  5
2D
102
{ACAD_REACTORS
330
2A
102
}
330
2A
100
AcDbVisualStyle
  2
Gouraud
 70
     2
 71
     2
 72
     2
 73
     1
 90
        2
 40
-0.6
 41
30.0
 62
     5
 63
     7
421
 16777215
 74
     0
 91
        4
 64
     7
 65
   257
 75
     1
175
     1
 42
1.0
 92
        0
 66
     7
 43
1.0
 76
     1
 77
     6
 78
     2
 67
     7
 79
     5
170
     0
171
     0
290
     0
174
     0
 93
       13
 44
0.0
173
     0
291
     1
 45
0.0
1001
ACAD
1000
AcDbSavedByObjectVersion
1070
     0
  0
VISUALSTYLE
  5
2E
102
{ACAD_REACTORS
330
2A
102
}
330
2A
100
AcDbVisualStyle
  2
GouraudWithEdges
 70
     3
 71
     2
 72
     2
 73
     1
 90
        2
 40
-0.6
 41
30.0
 62
     5
 63
     7
421
 16777215
 74
     1
 91
        4
 64
     7
 65
   257
 75
     1
175
     1
 42
1.0
 92
        0
 66
   257
 43
1.0
 76
     1
 77
     6
 78
     2
 67
     7
 79
     5
170
     0
171
     0
290
     0
174
     0
 93
       13
 44
0.0
173
     0
291
     1
 45
0.0
1001
ACAD
1000
AcDbSavedByObjectVersion
1070
     0
  0
VISUALSTYLE
  5
38
102
{ACAD_REACTORS
330
2A
102
}
330
2A
100
AcDbVisualStyle
  2
Linepattern
 70
    14
 71
     2
 72
     2
 73
     0
 90
        0
 40
-0.6
 41
-30.0
 62
     5
 63
     7
421
 16777215
 74
     1
 91
        4
 64
     7
 65
   257
 75
     7
175
     7
 42
1.0
 92
        8
 66
     7
 43
1.0
 76
     1
 77
     6
 78
     2
 67
     7
 79
     5
170
     0
171
     0
290
     0
174
     0
 93
        1
 44
0.0
173
     0
291
     1
 45
0.0
1001
ACAD
1000
AcDbSavedByObjectVersion
1070
     0
  0
VISUALSTYLE
  5
33
102
{ACAD_REACTORS
330
2A
102
}
330
2A
100
AcDbVisualStyle
  2
Realistic
 70
     8
 71
     2
 72
     2
 73
     0
 90
        0
 40
-0.6
 41
-30.0
 62
     5
 63
     7
421
 16777215
 74
     1
 91
        0
 64
     7
 65
   257
 75
     1
175
     1
 42
1.0
 92
        8
 66
     8
424
  7895160
 43
1.0
 76
     1
 77
     6
 78
     2
 67
     7
 79
     5
170
     0
171
     0
290
     0
174
     0
 93
       13
 44
0.0
173
     0
291
     0
 45
0.0
1001
ACAD
1000
AcDbSavedByObjectVersion
1070
     0
  0
VISUALSTYLE
  5
37
102
{ACAD_REACTORS
330
2A
102
}
330
2A
100
AcDbVisualStyle
  2
Thicken
 70
    13
 71
     2
 72
     2
 73
     0
 90
        0
 40
-0.6
 41
-30.0
 62
     5
 63
     7
421
 16777215
 74
     1
 91
        4
 64
     7
 65
   257
 75
     1
175
     1
 42
1.0
 92
       12
 66
     7
 43
1.0
 76
     1
 77
     6
 78
     2
 67
     7
 79
     5
170
     0
171
     0
290
     0
174
     0
 93
        1
 44
0.0
173
     0
291
     1
 45
0.0
1001
ACAD
1000
AcDbSavedByObjectVersion
1070
     0
  0
ENDSEC
  0
EOF
