  0
SECTION
  2
HEADER
  9
$ACADVER
  1
AC1015
  9
$ACADMAINTVER
 70
    20
  9
$DWGCODEPAGE
  3
ANSI_1252
  9
$INSBASE
 10
0.0
 20
0.0
 30
0.0
  9
$EXTMIN
 10
-21.16721460253219
 20
-252.0259969244144
 30
0.0
  9
$EXTMAX
 10
551.0654425811188
 20
504.496198461538
 30
0.0
  9
$LIMMIN
 10
0.0
 20
0.0
  9
$LIMMAX
 10
0.0
 20
0.0
  9
$ORTHOMODE
 70
     0
  9
$REGENMODE
 70
     1
  9
$FILLMODE
 70
     1
  9
$QTEXTMODE
 70
     0
  9
$MIRRTEXT
 70
     1
  9
$LTSCALE
 40
1.0
  9
$ATTMODE
 70
     1
  9
$TEXTSIZE
 40
0.0
  9
$TRACEWID
 40
0.05
  9
$TEXTSTYLE
  7
STANDARD
  9
$CLAYER
  8
0
  9
$CELTYPE
  6
CONTINUOUS
  9
$CECOLOR
 62
   256
  9
$CELTSCALE
 40
1.0
  9
$DISPSILH
 70
     0
  9
$DIMSCALE
 40
1.0
  9
$DIMASZ
 40
6.0
  9
$DIMEXO
 40
1.0
  9
$DIMDLI
 40
0.38
  9
$DIMRND
 40
0.0
  9
$DIMDLE
 40
1.0
  9
$DIMEXE
 40
0.18
  9
$DIMTP
 40
0.0
  9
$DIMTM
 40
0.0
  9
$DIMTXT
 40
3.5
  9
$DIMCEN
 40
0.09
  9
$DIMTSZ
 40
0.0
  9
$DIMTOL
 70
     0
  9
$DIMLIM
 70
     0
  9
$DIMTIH
 70
     1
  9
$DIMTOH
 70
     1
  9
$DIMSE1
 70
     0
  9
$DIMSE2
 70
     0
  9
$DIMTAD
 70
     1
  9
$DIMZIN
 70
     0
  9
$DIMBLK
  1

  9
$DIMASO
 70
     1
  9
$DIMSHO
 70
     1
  9
$DIMPOST
  1

  9
$DIMAPOST
  1

  9
$DIMALT
 70
     0
  9
$DIMALTD
 70
     2
  9
$DIMALTF
 40
0.0394
  9
$DIMLFAC
 40
1.0
  9
$DIMTOFL
 70
     0
  9
$DIMTVP
 40
0.0
  9
$DIMTIX
 70
     0
  9
$DIMSOXD
 70
     0
  9
$DIMSAH
 70
     0
  9
$DIMBLK1
  1

  9
$DIMBLK2
  1

  9
$DIMSTYLE
  2
STANDARD
  9
$DIMCLRD
 70
     0
  9
$DIMCLRE
 70
     0
  9
$DIMCLRT
 70
     0
  9
$DIMTFAC
 40
1.0
  9
$DIMGAP
 40
1.0
  9
$DIMJUST
 70
     0
  9
$DIMSD1
 70
     0
  9
$DIMSD2
 70
     0
  9
$DIMTOLJ
 70
     1
  9
$DIMTZIN
 70
     0
  9
$DIMALTZ
 70
     0
  9
$DIMALTTZ
 70
     0
  9
$DIMUPT
 70
     0
  9
$DIMDEC
 70
     4
  9
$DIMTDEC
 70
     4
  9
$DIMALTU
 70
     2
  9
$DIMALTTD
 70
     2
  9
$DIMTXSTY
  7
STANDARD
  9
$DIMAUNIT
 70
     0
  9
$DIMADEC
 70
     0
  9
$DIMALTRND
 40
0.0
  9
$DIMAZIN
 70
     0
  9
$DIMDSEP
 70
    46
  9
$DIMATFIT
 70
     3
  9
$DIMFRAC
 70
     0
  9
$DIMLDRBLK
  1

  9
$DIMLUNIT
 70
     2
  9
$DIMLWD
 70
    -2
  9
$DIMLWE
 70
    -2
  9
$DIMTMOVE
 70
     0
  9
$LUNITS
 70
     2
  9
$LUPREC
 70
     2
  9
$SKETCHINC
 40
0.1
  9
$FILLETRAD
 40
0.0
  9
$AUNITS
 70
     0
  9
$AUPREC
 70
     2
  9
$MENU
  1
acad
  9
$ELEVATION
 40
0.0
  9
$PELEVATION
 40
0.0
  9
$THICKNESS
 40
0.0
  9
$LIMCHECK
 70
     0
  9
$CHAMFERA
 40
0.0
  9
$CHAMFERB
 40
0.0
  9
$CHAMFERC
 40
0.0
  9
$CHAMFERD
 40
0.0
  9
$SKPOLY
 70
     0
  9
$TDCREATE
 40
2444972.041666667
  9
$TDUCREATE
 40
2444972.000000000
  9
$TDUPDATE
 40
2453768.890560428
  9
$TDUUPDATE
 40
2453768.848893762
  9
$TDINDWG
 40
0.0005696644
  9
$TDUSRTIMER
 40
0.0005696644
  9
$USRTIMER
 70
     1
  9
$ANGBASE
 50
0.0
  9
$ANGDIR
 70
     0
  9
$PDMODE
 70
     0
  9
$PDSIZE
 40
-1.0
  9
$PLINEWID
 40
0.0
  9
$SPLFRAME
 70
     0
  9
$SPLINETYPE
 70
     6
  9
$SPLINESEGS
 70
     8
  9
$HANDSEED
  5
13E
  9
$SURFTAB1
 70
     6
  9
$SURFTAB2
 70
     6
  9
$SURFTYPE
 70
     6
  9
$SURFU
 70
     6
  9
$SURFV
 70
     6
  9
$UCSBASE
  2

  9
$UCSNAME
  2

  9
$UCSORG
 10
0.0
 20
0.0
 30
0.0
  9
$UCSXDIR
 10
1.0
 20
0.0
 30
0.0
  9
$UCSYDIR
 10
0.0
 20
1.0
 30
0.0
  9
$UCSORTHOREF
  2

  9
$UCSORTHOVIEW
 70
     1
  9
$UCSORGTOP
 10
0.0
 20
0.0
 30
0.0
  9
$UCSORGBOTTOM
 10
0.0
 20
0.0
 30
0.0
  9
$UCSORGLEFT
 10
0.0
 20
0.0
 30
0.0
  9
$UCSORGRIGHT
 10
0.0
 20
0.0
 30
0.0
  9
$UCSORGFRONT
 10
0.0
 20
0.0
 30
0.0
  9
$UCSORGBACK
 10
0.0
 20
0.0
 30
0.0
  9
$PUCSBASE
  2

  9
$PUCSNAME
  2

  9
$PUCSORG
 10
0.0
 20
0.0
 30
0.0
  9
$PUCSXDIR
 10
1.0
 20
0.0
 30
0.0
  9
$PUCSYDIR
 10
0.0
 20
1.0
 30
0.0
  9
$PUCSORTHOREF
  2

  9
$PUCSORTHOVIEW
 70
     0
  9
$PUCSORGTOP
 10
0.0
 20
0.0
 30
0.0
  9
$PUCSORGBOTTOM
 10
0.0
 20
0.0
 30
0.0
  9
$PUCSORGLEFT
 10
0.0
 20
0.0
 30
0.0
  9
$PUCSORGRIGHT
 10
0.0
 20
0.0
 30
0.0
  9
$PUCSORGFRONT
 10
0.0
 20
0.0
 30
0.0
  9
$PUCSORGBACK
 10
0.0
 20
0.0
 30
0.0
  9
$USERI1
 70
     0
  9
$USERI2
 70
     0
  9
$USERI3
 70
     0
  9
$USERI4
 70
     0
  9
$USERI5
 70
     0
  9
$USERR1
 40
0.0
  9
$USERR2
 40
0.0
  9
$USERR3
 40
0.0
  9
$USERR4
 40
0.0
  9
$USERR5
 40
0.0
  9
$WORLDVIEW
 70
     1
  9
$SHADEDGE
 70
     3
  9
$SHADEDIF
 70
    70
  9
$TILEMODE
 70
     1
  9
$MAXACTVP
 70
    16
  9
$PINSBASE
 10
0.0
 20
0.0
 30
0.0
  9
$PLIMCHECK
 70
     0
  9
$PEXTMIN
 10
1.000000000000000E+20
 20
1.000000000000000E+20
 30
1.000000000000000E+20
  9
$PEXTMAX
 10
-1.000000000000000E+20
 20
-1.000000000000000E+20
 30
-1.000000000000000E+20
  9
$PLIMMIN
 10
0.0
 20
0.0
  9
$PLIMMAX
 10
12.0
 20
9.0
  9
$UNITMODE
 70
     0
  9
$VISRETAIN
 70
     0
  9
$PLINEGEN
 70
     1
  9
$PSLTSCALE
 70
     1
  9
$TREEDEPTH
 70
  3020
  9
$CMLSTYLE
  2
STANDARD
  9
$CMLJUST
 70
     0
  9
$CMLSCALE
 40
1.0
  9
$PROXYGRAPHICS
 70
     0
  9
$MEASUREMENT
 70
     0
  9
$CELWEIGHT
370
    -1
  9
$ENDCAPS
280
     0
  9
$JOINSTYLE
280
     0
  9
$LWDISPLAY
290
     0
  9
$INSUNITS
 70
     0
  9
$HYPERLINKBASE
  1

  9
$STYLESHEET
  1

  9
$XEDIT
290
     1
  9
$CEPSNTYPE
380
     0
  9
$PSTYLEMODE
290
     1
  9
$FINGERPRINTGUID
  2
{4CCEC482-D53E-4B1B-BE9C-6148587FC573}
  9
$VERSIONGUID
  2
{A0EC8FDD-F57F-4304-ABDD-42B7F010CC12}
  9
$EXTNAMES
290
     1
  9
$PSVPSCALE
 40
0.0
  9
$OLESTARTUP
290
     0
  0
ENDSEC
  0
SECTION
  2
CLASSES
  0
CLASS
  1
IMAGE
  2
AcDbRasterImage
  3
ISM
 90
    32895
280
     0
281
     1
  0
CLASS
  1
DICTIONARYVAR
  2
AcDbDictionaryVar
  3
ObjectDBX Classes
 90
        0
280
     0
281
     0
  0
CLASS
  1
RASTERVARIABLES
  2
AcDbRasterVariables
  3
ISM
 90
    32768
280
     0
281
     0
  0
CLASS
  1
IMAGEDEF
  2
AcDbRasterImageDef
  3
ISM
 90
    32768
280
     0
281
     0
  0
CLASS
  1
IMAGEDEF_REACTOR
  2
AcDbRasterImageDefReactor
  3
ISM
 90
    32769
280
     0
281
     0
  0
CLASS
  1
IDBUFFER
  2
AcDbIdBuffer
  3
ObjectDBX Classes
 90
    32768
280
     0
281
     0
  0
CLASS
  1
SPATIAL_FILTER
  2
AcDbSpatialFilter
  3
ObjectDBX Classes
 90
    32768
280
     0
281
     0
  0
CLASS
  1
SORTENTSTABLE
  2
AcDbSortentsTable
  3
ObjectDBX Classes
 90
    32768
280
     0
281
     0
  0
CLASS
  1
LAYER_INDEX
  2
AcDbLayerIndex
  3
ObjectDBX Classes
 90
    32768
280
     0
281
     0
  0
CLASS
  1
SPATIAL_INDEX
  2
AcDbSpatialIndex
  3
ObjectDBX Classes
 90
    32768
280
     0
281
     0
  0
CLASS
  1
OBJECT_PTR
  2
CAseDLPNTableRecord
  3
ASE-LPNTableRecord
 90
    32769
280
     0
281
     0
  0
CLASS
  1
LAYOUT
  2
AcDbLayout
  3
ObjectDBX Classes
 90
        0
280
     0
281
     0
  0
CLASS
  1
PLOTSETTINGS
  2
AcDbPlotSettings
  3
ObjectDBX Classes
 90
    32768
280
     0
281
     0
  0
CLASS
  1
ACDBDICTIONARYWDFLT
  2
AcDbDictionaryWithDefault
  3
ObjectDBX Classes
 90
        0
280
     0
281
     0
  0
CLASS
  1
ACDBPLACEHOLDER
  2
AcDbPlaceHolder
  3
ObjectDBX Classes
 90
        0
280
     0
281
     0
  0
CLASS
  1
VBA_PROJECT
  2
AcDbVbaProject
  3
acad
 90
    32768
280
     0
281
     0
  0
CLASS
  1
WIPEOUT
  2
AcDbWipeout
  3
"WipeOut|Product Desc: Object Enabler for WipeOut entity^I^I^I^I^I^I|Company: Autodesk, Inc.^I^I^I^I^I^I|WEB Address: www.autodesk.com"
 90
    32895
280
     0
281
     1
  0
CLASS
  1
WIPEOUTVARIABLES
  2
AcDbWipeoutVariables
  3
"WipeOut|Product Desc:     WipeOut Dbx Application|Company:          Autodesk, Inc.|WEB Address:      www.autodesk.com"
 90
    32768
280
     0
281
     0
  0
CLASS
  1
RTEXT
  2
RText
  3
RText|AutoCAD Express Tool|expresstools@autodesk.com
 90
    32768
280
     0
281
     1
  0
CLASS
  1
ARCALIGNEDTEXT
  2
AcDbArcAlignedText
  3
ATEXT|AutoCAD Express Tool|expresstools@autodesk.com
 90
    32768
280
     0
281
     1
  0
ENDSEC
  0
SECTION
  2
TABLES
  0
TABLE
  2
VPORT
  5
7
330
0
100
AcDbSymbolTable
 70
     2
  0
VPORT
  5
136
330
7
100
AcDbSymbolTableRecord
100
AcDbViewportTableRecord
  2
*Active
 70
     0
 10
0.0
 20
0.0
 11
1.0
 21
1.0
 12
304.587124984184
 22
137.3248275286945
 13
0.0
 23
0.0
 14
1.0
 24
1.0
 15
0.0
 25
0.0
 16
0.0
 26
0.0
 36
1.0
 17
0.0
 27
0.0
 37
0.0
 40
739.6345178457155
 41
1.569570871261378
 42
50.0
 43
0.0
 44
0.0
 50
0.0
 51
0.0
 71
     0
 72
  2000
 73
     1
 74
     1
 75
     0
 76
     0
 77
     0
 78
     0
281
     0
 65
     1
110
0.0
120
0.0
130
0.0
111
1.0
121
0.0
131
0.0
112
0.0
122
1.0
132
0.0
 79
     1
146
0.0
  0
ENDTAB
  0
TABLE
  2
LTYPE
  5
4
330
0
100
AcDbSymbolTable
 70
     6
  0
LTYPE
  5
11
330
4
100
AcDbSymbolTableRecord
100
AcDbLinetypeTableRecord
  2
BYBLOCK
 70
     0
  3

 72
    65
 73
     0
 40
0.0
  0
LTYPE
  5
12
330
4
100
AcDbSymbolTableRecord
100
AcDbLinetypeTableRecord
  2
BYLAYER
 70
     0
  3

 72
    65
 73
     0
 40
0.0
  0
LTYPE
  5
13
330
4
100
AcDbSymbolTableRecord
100
AcDbLinetypeTableRecord
  2
CONTINUOUS
 70
     0
  3
Solid line
 72
    65
 73
     0
 40
0.0
  0
LTYPE
  5
1E
330
4
100
AcDbSymbolTableRecord
100
AcDbLinetypeTableRecord
  2
HIDDEN
 70
     0
  3
Hidden __ __ __ __ __ __ __ __ __ __ __ __ __ __
 72
    65
 73
     2
 40
1.905
 49
1.27
 74
     0
 49
-0.635
 74
     0
  0
LTYPE
  5
1F
330
4
100
AcDbSymbolTableRecord
100
AcDbLinetypeTableRecord
  2
PHANTOM
 70
     0
  3
Phantom ______  __  __  ______  __  __  ______
 72
    65
 73
     6
 40
12.7
 49
6.349999999999999
 74
     0
 49
-1.27
 74
     0
 49
1.27
 74
     0
 49
-1.27
 74
     0
 49
1.27
 74
     0
 49
-1.27
 74
     0
  0
LTYPE
  5
20
330
4
100
AcDbSymbolTableRecord
100
AcDbLinetypeTableRecord
  2
CENTER
 70
     0
  3
Center ____ _ ____ _ ____ _ ____ _ ____ _ ____
 72
    65
 73
     4
 40
10.16
 49
6.349999999999999
 74
     0
 49
-1.27
 74
     0
 49
1.27
 74
     0
 49
-1.27
 74
     0
  0
LTYPE
  5
21
330
4
100
AcDbSymbolTableRecord
100
AcDbLinetypeTableRecord
  2
CENTERX2
 70
     0
  3
Center (2x) ________  __  ________  __  _____
 72
    65
 73
     4
 40
20.32
 49
12.7
 74
     0
 49
-2.54
 74
     0
 49
2.54
 74
     0
 49
-2.54
 74
     0
  0
LTYPE
  5
22
330
4
100
AcDbSymbolTableRecord
100
AcDbLinetypeTableRecord
  2
DOT2
 70
     0
  3
Dot (.5x) ........................................
 72
    65
 73
     2
 40
0.635
 49
0.0
 74
     0
 49
-0.635
 74
     0
  0
ENDTAB
  0
TABLE
  2
LAYER
  5
2
330
0
100
AcDbSymbolTable
 70
     2
  0
LAYER
  5
14
330
2
100
AcDbSymbolTableRecord
100
AcDbLayerTableRecord
  2
0
 70
     0
 62
     7
  6
CONTINUOUS
370
    -3
390
11B
  0
LAYER
  5
26
330
2
100
AcDbSymbolTableRecord
100
AcDbLayerTableRecord
  2
DEFPOINTS
 70
     0
 62
     7
  6
CONTINUOUS
290
     0
370
    -3
390
11B
  0
ENDTAB
  0
TABLE
  2
STYLE
  5
3
330
0
100
AcDbSymbolTable
 70
     1
  0
STYLE
  5
17
330
3
100
AcDbSymbolTableRecord
100
AcDbTextStyleTableRecord
  2
STANDARD
 70
     0
 40
0.0
 41
1.0
 50
0.0
 71
     0
 42
0.0
  3
Century Gothic
  4

  0
ENDTAB
  0
TABLE
  2
VIEW
  5
5
330
0
100
AcDbSymbolTable
 70
     0
  0
ENDTAB
  0
TABLE
  2
UCS
  5
6
330
0
100
AcDbSymbolTable
 70
     0
  0
ENDTAB
  0
TABLE
  2
APPID
  5
8
330
0
100
AcDbSymbolTable
 70
     2
  0
APPID
  5
16
330
8
100
AcDbSymbolTableRecord
100
AcDbRegAppTableRecord
  2
ACAD
 70
     0
  0
APPID
  5
126
330
8
100
AcDbSymbolTableRecord
100
AcDbRegAppTableRecord
  2
DCO15
 70
     0
  0
ENDTAB
  0
TABLE
  2
DIMSTYLE
  5
9
330
0
100
AcDbSymbolTable
 70
     1
100
AcDbDimStyleTable
 71
     0
  0
DIMSTYLE
105
18
330
9
100
AcDbSymbolTableRecord
100
AcDbDimStyleTableRecord
  2
STANDARD
 70
     0
289
     0
340
17
  0
ENDTAB
  0
TABLE
  2
BLOCK_RECORD
  5
1
330
0
100
AcDbSymbolTable
 70
     0
  0
BLOCK_RECORD
  5
A
330
1
100
AcDbSymbolTableRecord
100
AcDbBlockTableRecord
  2
*MODEL_SPACE
340
120
  0
BLOCK_RECORD
  5
B
330
1
100
AcDbSymbolTableRecord
100
AcDbBlockTableRecord
  2
*PAPER_SPACE
340
121
  0
ENDTAB
  0
ENDSEC
  0
SECTION
  2
BLOCKS
  0
BLOCK
  5
D
330
A
100
AcDbEntity
  8
0
100
AcDbBlockBegin
  2
*MODEL_SPACE
 70
     0
 10
0.0
 20
0.0
 30
0.0
  3
*MODEL_SPACE
  1

  0
ENDBLK
  5
E
330
A
100
AcDbEntity
  8
0
100
AcDbBlockEnd
  0
BLOCK
  5
F
330
B
100
AcDbEntity
 67
     1
  8
0
100
AcDbBlockBegin
  2
*PAPER_SPACE
 70
     0
 10
0.0
 20
0.0
 30
0.0
  3
*PAPER_SPACE
  1

  0
ENDBLK
  5
10
330
B
100
AcDbEntity
 67
     1
  8
0
100
AcDbBlockEnd
  0
ENDSEC
  0
SECTION
  2
ENTITIES
  0
LINE
  5
27
330
A
100
AcDbEntity
  8
0
  6
Continuous
 62
     7
100
AcDbLine
 10
182.5746505193327
 20
110.9192002734149
 30
0.0
 11
181.5723928467692
 21
116.7253309914943
 31
0.0
  0
LINE
  5
28
330
A
100
AcDbEntity
  8
0
  6
Continuous
 62
     7
100
AcDbLine
 10
13.57690819189631
 20
116.7253309914943
 30
0.0
 11
12.57465051933273
 21
110.9192002734149
 31
0.0
  0
ARC
  5
29
330
A
100
AcDbEntity
  8
0
  6
Continuous
 62
     7
100
AcDbCircle
 10
176.6452629656323
 20
115.8748069563206
 30
0.0
 40
5.000000000000018
100
AcDbArc
 50
9.79391281290349
 51
90.0
  0
ARC
  5
2A
330
A
100
AcDbEntity
  8
0
  6
Continuous
 62
     7
100
AcDbCircle
 10
18.50403807303319
 20
115.8748069563206
 30
0.0
 40
5.000000000000014
100
AcDbArc
 50
90.0
 51
170.2060871870955
  0
LINE
  5
2B
330
A
100
AcDbEntity
  8
0
  6
Continuous
 62
     7
100
AcDbLine
 10
85.94346091308565
 20
107.9192002734149
 30
0.0
 11
85.94346091308565
 21
110.9192002734149
 31
0.0
  0
LINE
  5
2C
330
A
100
AcDbEntity
  8
0
  6
Continuous
 62
     7
100
AcDbLine
 10
65.94346091308567
 20
110.9192002734149
 30
0.0
 11
65.94346091308567
 21
107.9192002734149
 31
0.0
  0
LINE
  5
2D
330
A
100
AcDbEntity
  8
0
  6
Continuous
 62
     7
100
AcDbLine
 10
164.2058401255787
 20
107.9192002734149
 30
0.0
 11
164.2058401255787
 21
110.9192002734149
 31
0.0
  0
LINE
  5
2E
330
A
100
AcDbEntity
  8
0
  6
Continuous
 62
     7
100
AcDbLine
 10
144.2058401255787
 20
110.9192002734149
 30
0.0
 11
144.2058401255787
 21
107.9192002734149
 31
0.0
  0
ARC
  5
2F
330
A
100
AcDbEntity
  8
0
  6
Continuous
 62
     7
100
AcDbCircle
 10
127.2696505193327
 20
140.5698069563207
 30
0.0
 40
19.69500000000002
100
AcDbArc
 50
180.0000000000004
 51
270.0000000000008
  0
ARC
  5
30
330
A
100
AcDbEntity
  8
0
  6
Continuous
 62
     7
100
AcDbCircle
 10
67.87965051933271
 20
140.5698069563207
 30
0.0
 40
19.69500000000003
100
AcDbArc
 50
270.0000000000008
 51
0.0
  0
LINE
  5
31
330
A
100
AcDbEntity
  8
0
  6
Continuous
 62
     7
100
AcDbLine
 10
107.5746505193327
 20
140.5698069563207
 30
0.0
 11
107.5746505193327
 21
143.1168069563207
 31
0.0
  0
LINE
  5
32
330
A
100
AcDbEntity
  8
0
  6
Continuous
 62
     7
100
AcDbLine
 10
87.57465051933275
 20
143.1168069563207
 30
0.0
 11
87.57465051933275
 21
140.5698069563207
 31
0.0
  0
LINE
  5
33
330
A
100
AcDbEntity
  8
0
  6
Continuous
 62
     7
100
AcDbLine
 10
37.57465051933273
 20
107.9192002734149
 30
0.0
 11
37.57465051933273
 21
110.9192002734149
 31
0.0
  0
LINE
  5
34
330
A
100
AcDbEntity
  8
0
  6
Continuous
 62
     7
100
AcDbLine
 10
17.57465051933274
 20
110.9192002734149
 30
0.0
 11
17.57465051933274
 21
107.9192002734149
 31
0.0
  0
ARC
  5
35
330
A
100
AcDbEntity
  8
0
  6
Continuous
 62
     7
100
AcDbCircle
 10
-18.72563766308714
 20
324.3413008713308
 30
0.0
 40
2.000000000000024
100
AcDbArc
 50
165.6577739696033
 51
255.6577739696074
  0
LINE
  5
36
330
A
100
AcDbEntity
  8
0
  6
Continuous
 62
     7
100
AcDbLine
 10
24.33643978683881
 20
500.8357270592371
 30
0.0
 11
-20.66330453134304
 21
324.8367270592371
 31
0.0
  0
ARC
  5
37
330
A
100
AcDbEntity
  8
0
  6
Continuous
 62
     7
100
AcDbCircle
 10
26.27410665509469
 20
500.3403008713308
 30
0.0
 40
2.0
100
AcDbArc
 50
90.0
 51
165.6577739696061
  0
ARC
  5
38
330
A
100
AcDbEntity
  8
0
  6
Continuous
 62
     7
100
AcDbCircle
 10
135.5746505193327
 20
502.1168069563207
 30
0.0
 40
2.000000000000006
100
AcDbArc
 50
6.416029825546821
 51
90.0
  0
ARC
  5
39
330
A
100
AcDbEntity
  8
0
  6
Continuous
 62
     7
100
AcDbCircle
 10
59.57465051933274
 20
502.1168069563207
 30
0.0
 40
2.0
100
AcDbArc
 50
90.0
 51
173.5839701744529
  0
LINE
  5
3A
330
A
100
AcDbEntity
  8
0
  6
Continuous
 62
     7
100
AcDbLine
 10
107.5746505193327
 20
143.1168069563207
 30
0.0
 11
107.5746505193327
 21
322.3413008713308
 31
0.0
  0
LINE
  5
3B
330
A
100
AcDbEntity
  8
0
  6
Continuous
 62
     7
100
AcDbLine
 10
87.57465051933275
 20
322.3413008713308
 30
0.0
 11
87.57465051933275
 21
143.1168069563207
 31
0.0
  0
LINE
  5
3C
330
A
100
AcDbEntity
  8
0
  6
Continuous
 62
     7
100
AcDbLine
 10
182.5746505193327
 20
110.9192002734149
 30
0.0
 11
12.57465051933273
 21
110.9192002734149
 31
0.0
  0
LINE
  5
3D
330
A
100
AcDbEntity
  8
0
  6
Continuous
 62
     7
100
AcDbLine
 10
176.6452629656323
 20
120.8748069563206
 30
0.0
 11
18.50403807303319
 21
120.8748069563206
 31
0.0
  0
LINE
  5
3E
330
A
100
AcDbEntity
  8
0
  6
Continuous
 62
     7
100
AcDbLine
 10
75.94346091308567
 20
107.9192002734149
 30
0.0
 11
85.94346091308565
 21
107.9192002734149
 31
0.0
  0
LINE
  5
3F
330
A
100
AcDbEntity
  8
0
  6
Continuous
 62
     7
100
AcDbLine
 10
65.94346091308567
 20
107.9192002734149
 30
0.0
 11
75.94346091308567
 21
107.9192002734149
 31
0.0
  0
LINE
  5
40
330
A
100
AcDbEntity
  8
0
  6
Continuous
 62
     7
100
AcDbLine
 10
154.2058401255787
 20
107.9192002734149
 30
0.0
 11
164.2058401255787
 21
107.9192002734149
 31
0.0
  0
LINE
  5
41
330
A
100
AcDbEntity
  8
0
  6
Continuous
 62
     7
100
AcDbLine
 10
144.2058401255787
 20
107.9192002734149
 30
0.0
 11
154.2058401255787
 21
107.9192002734149
 31
0.0
  0
LINE
  5
42
330
A
100
AcDbEntity
  8
0
  6
Continuous
 62
     7
100
AcDbLine
 10
107.5746505193327
 20
143.1168069563207
 30
0.0
 11
87.57465051933275
 21
143.1168069563207
 31
0.0
  0
LINE
  5
43
330
A
100
AcDbEntity
  8
0
  6
Continuous
 62
     7
100
AcDbLine
 10
27.57465051933273
 20
107.9192002734149
 30
0.0
 11
37.57465051933273
 21
107.9192002734149
 31
0.0
  0
LINE
  5
44
330
A
100
AcDbEntity
  8
0
  6
Continuous
 62
     7
100
AcDbLine
 10
17.57465051933274
 20
107.9192002734149
 30
0.0
 11
27.57465051933273
 21
107.9192002734149
 31
0.0
  0
LINE
  5
45
330
A
100
AcDbEntity
  8
0
  6
Continuous
 62
     7
100
AcDbLine
 10
213.4667938909816
 20
322.4036340030749
 30
0.0
 11
-19.2210638509938
 21
322.4036340030749
 31
0.0
  0
LWPOLYLINE
  5
46
330
A
100
AcDbEntity
  8
0
  6
Continuous
 62
     7
100
AcDbPolyline
 90
        7
 70
   128
 43
0.0
 10
215.1500051416583
 20
324.8367270592372
 10
215.2053842913392
 20
324.1709954106312
 10
215.0372955975982
 20
323.5244637917428
 10
214.6648417229083
 20
322.9693330905194
 10
214.1281611761889
 20
322.5662923670717
 10
213.4851703322429
 20
322.3613236566321
 10
213.2012349682125
 20
322.3413008713308
  0
LINE
  5
4F
330
A
100
AcDbEntity
  8
0
  6
Continuous
 62
     7
100
AcDbLine
 10
212.967488387694
 20
322.3413008713308
 30
0.0
 11
213.4667938909816
 21
322.4036340030749
 31
0.0
  0
LWPOLYLINE
  5
50
330
A
100
AcDbEntity
  8
0
  6
Continuous
 62
     7
100
AcDbPolyline
 90
        3
 70
   128
 43
0.0
 10
215.1500051416583
 20
324.8367270592372
 10
208.5556119602375
 20
350.4750872872372
 10
169.7382529189995
 20
500.8357270592371
  0
LINE
  5
55
330
A
100
AcDbEntity
  8
0
  6
Continuous
 62
     7
100
AcDbLine
 10
57.58717713084337
 20
502.3403008713308
 30
0.0
 11
26.78547029145832
 21
502.3403008713308
 31
0.0
  0
LINE
  5
56
330
A
100
AcDbEntity
  8
0
  6
Continuous
 62
     7
100
AcDbLine
 10
26.27410665509481
 20
502.3403008713308
 30
0.0
 11
167.7709293048647
 21
502.3403008713308
 31
0.0
  0
LWPOLYLINE
  5
57
330
A
100
AcDbEntity
  8
0
  6
Continuous
 62
     7
100
AcDbPolyline
 90
        5
 70
   128
 43
0.0
 10
167.7709293048647
 20
502.3403008713308
 10
168.4510138942034
 20
502.2248613318893
 10
169.0544437861295
 20
501.8902498983632
 10
169.5075821935206
 20
501.3769114383532
 10
169.7382529189995
 20
500.8357270592371
  0
LINE
  5
5E
330
A
100
AcDbEntity
  8
0
  6
Continuous
 62
     7
100
AcDbLine
 10
59.57465051933274
 20
504.1168069563206
 30
0.0
 11
135.5746505193327
 21
504.1168069563206
 31
0.0
  0
LINE
  5
5F
330
A
100
AcDbEntity
  8
0
  6
Continuous
 62
     7
100
AcDbLine
 10
212.967488387694
 20
322.3413008713308
 30
0.0
 11
97.57465051933275
 21
322.3413008713308
 31
0.0
  0
LINE
  5
60
330
A
100
AcDbEntity
  8
0
  6
Continuous
 62
     7
100
AcDbLine
 10
166.8628748964553
 20
502.3403008713308
 30
0.0
 11
134.8405602492071
 21
502.3403008713308
 31
0.0
  0
LINE
  5
61
330
A
100
AcDbEntity
  8
0
  6
Continuous
 62
     7
100
AcDbLine
 10
97.57465051933275
 20
322.3413008713308
 30
0.0
 11
83.07465051933276
 21
322.3413008713308
 31
0.0
  0
LINE
  5
62
330
A
100
AcDbEntity
  8
0
  6
Continuous
 62
     7
100
AcDbLine
 10
97.57465051933275
 20
143.1168069563207
 30
0.0
 11
107.5746505193327
 21
143.1168069563207
 31
0.0
  0
LINE
  5
63
330
A
100
AcDbEntity
  8
0
  6
Continuous
 62
     7
100
AcDbLine
 10
87.57465051933275
 20
143.1168069563207
 30
0.0
 11
97.57465051933275
 21
143.1168069563207
 31
0.0
  0
LINE
  5
64
330
A
100
AcDbEntity
  8
0
  6
PHANTOM
 62
     7
100
AcDbLine
 10
181.5723928467692
 20
116.7253309914943
 30
0.0
 11
13.57690819189631
 21
116.7253309914943
 31
0.0
  0
LINE
  5
65
330
A
100
AcDbEntity
  8
0
  6
PHANTOM
 62
     7
100
AcDbLine
 10
107.5746505193327
 20
140.5698069563207
 30
0.0
 11
87.57465051933275
 21
140.5698069563207
 31
0.0
  0
LINE
  5
66
330
A
100
AcDbEntity
  8
0
  6
PHANTOM
 62
     7
100
AcDbLine
 10
-20.66330453134304
 20
324.8367270592371
 30
0.0
 11
215.1500051416583
 21
324.8367270592372
 31
0.0
  0
LINE
  5
67
330
A
100
AcDbEntity
  8
0
  6
PHANTOM
 62
     7
100
AcDbLine
 10
169.7382529189995
 20
500.8357270592371
 30
0.0
 11
24.33643978683881
 21
500.8357270592371
 31
0.0
  0
ARC
  5
68
330
A
100
AcDbEntity
  8
0
  6
Continuous
 62
     7
100
AcDbCircle
 10
97.57465051933275
 20
-111.1668637165118
 30
0.0
 40
118.3002881824199
100
AcDbArc
 50
6.066595777033645
 51
270.0000000000008
  0
ARC
  5
69
330
A
100
AcDbEntity
  8
0
  6
Continuous
 62
     7
100
AcDbCircle
 10
97.57465051933275
 20
-111.1668637165118
 30
0.0
 40
118.3002881824199
100
AcDbArc
 50
270.0000000000008
 51
353.9333966166438
  0
LINE
  5
6A
330
A
100
AcDbEntity
  8
0
  6
Continuous
 62
     7
100
AcDbLine
 10
59.4726185845572
 20
-123.6668637165122
 30
0.0
 11
59.57794013540604
 21
-123.6668637165122
 31
0.0
  0
LINE
  5
6B
330
A
100
AcDbEntity
  8
0
  6
Continuous
 62
     7
100
AcDbLine
 10
59.57794013540612
 20
-98.66686371651226
 30
0.0
 11
59.47261858455775
 21
-98.66686371651226
 31
0.0
  0
ARC
  5
6C
330
A
100
AcDbEntity
  8
0
  6
Continuous
 62
     7
100
AcDbCircle
 10
50.73056320162663
 20
-111.1668637165114
 30
0.0
 40
22.50000000000002
100
AcDbArc
 50
58.52550077476465
 51
301.4744992252337
  0
LINE
  5
6D
330
A
100
AcDbEntity
  8
0
  6
Continuous
 62
     7
100
AcDbLine
 10
55.13141414288435
 20
-125.5129638638855
 30
0.0
 11
59.47261858455761
 21
-125.5129638638857
 31
0.0
  0
LINE
  5
6E
330
A
100
AcDbEntity
  8
0
  6
Continuous
 62
     7
100
AcDbLine
 10
59.47261858455849
 20
-96.8207635691381
 30
0.0
 11
55.1314141428843
 21
-96.82076356913784
 31
0.0
  0
ARC
  5
6F
330
A
100
AcDbEntity
  8
0
  6
Continuous
 62
     7
100
AcDbCircle
 10
97.57465051933275
 20
-111.166863716511
 30
0.0
 40
85.0
100
AcDbArc
 50
351.5257025814354
 51
8.46076738622299
  0
ARC
  5
70
330
A
100
AcDbEntity
  8
0
  6
Continuous
 62
     7
100
AcDbCircle
 10
97.57465051933275
 20
-111.1668637165124
 30
0.0
 40
39.98747338848938
100
AcDbArc
 50
18.21586164337334
 51
21.26079058068072
  0
ARC
  5
71
330
A
100
AcDbEntity
  8
0
  6
Continuous
 62
     7
100
AcDbCircle
 10
97.57465051933275
 20
-111.1668637165124
 30
0.0
 40
40.0
100
AcDbArc
 50
341.7900431357178
 51
18.209956864283
  0
ARC
  5
72
330
A
100
AcDbEntity
  8
0
  6
Continuous
 62
     7
100
AcDbCircle
 10
97.57465051933275
 20
-111.1668637165124
 30
0.0
 40
39.98747338848938
100
AcDbArc
 50
338.7392094193201
 51
341.7841383566275
  0
ARC
  5
73
330
A
100
AcDbEntity
  8
0
  6
Continuous
 62
     7
100
AcDbCircle
 10
97.57465051933275
 20
-111.1668637165124
 30
0.0
 40
39.99999999999998
100
AcDbArc
 50
21.2538091853597
 51
338.7461908146411
  0
LINE
  5
74
330
A
100
AcDbEntity
  8
0
  6
Continuous
 62
     7
100
AcDbLine
 10
167.7709293048647
 20
-123.6668637165124
 30
0.0
 11
169.7382529189995
 21
-123.6668637165124
 31
0.0
  0
LINE
  5
75
330
A
100
AcDbEntity
  8
0
  6
Continuous
 62
     7
100
AcDbLine
 10
169.7382529189995
 20
-98.6668637165124
 30
0.0
 11
167.7709293048647
 21
-98.6668637165124
 31
0.0
  0
LINE
  5
76
330
A
100
AcDbEntity
  8
0
  6
Continuous
 62
     7
100
AcDbLine
 10
134.8405602492071
 20
-96.66686371651241
 30
0.0
 11
166.8628748964553
 21
-96.66686371651241
 31
0.0
  0
LINE
  5
77
330
A
100
AcDbEntity
  8
0
  6
Continuous
 62
     7
100
AcDbLine
 10
166.8628748964553
 20
-125.6668637165124
 30
0.0
 11
134.8405602492071
 21
-125.6668637165124
 31
0.0
  0
ARC
  5
78
330
A
100
AcDbEntity
  8
0
  6
Continuous
 62
     7
100
AcDbCircle
 10
97.57465051933275
 20
-111.1668637165124
 30
0.0
 40
70.78918022787441
100
AcDbArc
 50
11.81975615453205
 51
348.1802438454688
  0
LINE
  5
79
330
A
100
AcDbEntity
  8
0
  6
Continuous
 62
     7
100
AcDbLine
 10
135.558173631271
 20
-98.6668637165124
 30
0.0
 11
167.7709293048647
 21
-98.6668637165124
 31
0.0
  0
LINE
  5
7A
330
A
100
AcDbEntity
  8
0
  6
Continuous
 62
     7
100
AcDbLine
 10
167.7709293048647
 20
-123.6668637165124
 30
0.0
 11
135.558173631271
 21
-123.6668637165124
 31
0.0
  0
LINE
  5
7B
330
A
100
AcDbEntity
  8
0
  6
Continuous
 62
     7
100
AcDbLine
 10
169.7382529189995
 20
-98.6668637165124
 30
0.0
 11
215.1500051416583
 21
-98.66686371651178
 31
0.0
  0
LINE
  5
7C
330
A
100
AcDbEntity
  8
0
  6
Continuous
 62
     7
100
AcDbLine
 10
215.1500051416583
 20
-123.6668637165118
 30
0.0
 11
169.7382529189995
 21
-123.6668637165124
 31
0.0
  0
LINE
  5
7D
330
A
100
AcDbEntity
  8
0
  6
Continuous
 62
     7
100
AcDbLine
 10
215.1500051416583
 20
-98.66686371651178
 30
0.0
 11
215.1980969882213
 21
-98.66686371651178
 31
0.0
  0
LINE
  5
7E
330
A
100
AcDbEntity
  8
0
  6
Continuous
 62
     7
100
AcDbLine
 10
215.1500051416583
 20
-123.6668637165118
 30
0.0
 11
215.1901729231231
 21
-123.6668637165118
 31
0.0
  0
LWPOLYLINE
  5
7F
330
A
100
AcDbEntity
  8
0
  6
Continuous
 62
     7
100
AcDbPolyline
 90
       16
 70
   128
 43
0.0
 10
59.37521213942623
 20
-123.0329038082921
 10
57.70372958115068
 20
-122.3284369433819
 10
55.92578928251115
 20
-121.216827846099
 10
54.35843182703504
 20
-119.8160995787316
 10
53.04674723503587
 20
-118.1665485432322
 10
52.0284702840473
 20
-116.3156293195622
 10
51.33289494797712
 20
-114.3165894838263
 10
50.98003166281324
 20
-112.2269377724561
 10
50.98003166281326
 20
-110.1067896605684
 10
51.33289494797717
 20
-108.0171379491982
 10
52.02847028404738
 20
-106.0180981134623
 10
53.04674723503596
 20
-104.1671788897923
 10
54.35843182703518
 20
-102.5176278542929
 10
55.92578928251131
 20
-101.1168995869255
 10
57.70372958115085
 20
-100.0052904896427
 10
59.37521213942627
 20
-99.3008236247325
  0
LINE
  5
91
330
A
100
AcDbEntity
  8
0
  6
Continuous
 62
     7
100
AcDbLine
 10
59.47261858455761
 20
-125.5129638638857
 30
0.0
 11
60.22792856089063
 21
-125.4924477869375
 31
0.0
  0
LWPOLYLINE
  5
92
330
A
100
AcDbEntity
  8
0
  6
Continuous
 62
     7
100
AcDbPolyline
 90
       23
 70
   128
 43
0.0
 10
60.22792856089099
 20
-96.84127964608636
 10
59.47261858455754
 20
-96.8207635691381
 10
57.26248889551948
 20
-96.99738786794064
 10
55.10677993442545
 20
-97.52291168792922
 10
53.05857241028545
 20
-98.3843948885422
 10
51.16829998995484
 20
-99.56062489428163
 10
49.48250745387665
 20
-101.0226390187226
 10
48.0427046091138
 20
-102.7344376219748
 10
46.88434418013605
 20
-104.6538705412922
 10
46.03594884508265
 20
-106.7336749679686
 10
45.51840891276532
 20
-108.9226392145441
 10
45.34446793393429
 20
-111.1668637165121
 10
45.51840891276537
 20
-113.4110882184801
 10
46.03594884508273
 20
-115.6000524650555
 10
46.88434418013616
 20
-117.6798568917319
 10
48.04270460911396
 20
-119.5992898110493
 10
49.48250745387685
 20
-121.3110884143014
 10
51.16829998995505
 20
-122.7731025387424
 10
53.05857241028569
 20
-123.9493325444818
 10
55.10677993442571
 20
-124.8108157450947
 10
57.26248889551976
 20
-125.3363395650833
 10
59.47261858455761
 20
-125.5129638638857
 10
59.47261858455761
 20
-125.5129638638857
  0
LWPOLYLINE
  5
AB
330
A
100
AcDbEntity
  8
0
  6
Continuous
 62
     7
100
AcDbPolyline
 90
       21
 70
   128
 43
0.0
 10
55.1314141428843
 20
-96.82076356913784
 10
52.92128445384624
 20
-96.99738786794036
 10
50.76557549275221
 20
-97.52291168792895
 10
48.7173679686122
 20
-98.38439488854193
 10
46.82709554828158
 20
-99.56062489428138
 10
45.14130301220339
 20
-101.0226390187224
 10
43.70150016744055
 20
-102.7344376219745
 10
42.54313973846278
 20
-104.6538705412919
 10
41.69474440340939
 20
-106.7336749679683
 10
41.17720447109206
 20
-108.9226392145438
 10
41.00326349226103
 20
-111.1668637165118
 10
41.17720447109212
 20
-113.4110882184798
 10
41.69474440340947
 20
-115.6000524650553
 10
42.54313973846291
 20
-117.6798568917316
 10
43.7015001674407
 20
-119.599289811049
 10
45.14130301220358
 20
-121.3110884143011
 10
46.82709554828179
 20
-122.7731025387421
 10
48.71736796861242
 20
-123.9493325444815
 10
50.76557549275245
 20
-124.8108157450945
 10
52.92128445384649
 20
-125.336339565083
 10
55.13141414288435
 20
-125.5129638638855
  0
ARC
  5
C2
330
A
100
AcDbEntity
  8
0
  6
PHANTOM
 62
     7
100
AcDbCircle
 10
97.57465051933275
 20
-111.166863716511
 30
0.0
 40
83.99774232743641
100
AcDbArc
 50
351.4244693990727
 51
8.558595147081433
  0
ARC
  5
C3
330
A
100
AcDbEntity
  8
0
  6
PHANTOM
 62
     7
100
AcDbCircle
 10
97.57465051933275
 20
-111.166863716511
 30
0.0
 40
79.07061244629956
100
AcDbArc
 50
350.9038941668915
 51
9.116412000931491
  0
CIRCLE
  5
C4
330
A
100
AcDbEntity
  8
0
  6
PHANTOM
 62
     7
100
AcDbCircle
 10
97.57465051933275
 20
-111.1668637165124
 30
0.0
 40
38.0
  0
ARC
  5
C5
330
A
100
AcDbEntity
  8
0
  6
PHANTOM
 62
     7
100
AcDbCircle
 10
97.57465051933275
 20
-111.1668637165124
 30
0.0
 40
71.30054386423802
100
AcDbArc
 50
10.09694490885369
 51
349.9030550911471
  0
ARC
  5
C6
330
A
100
AcDbEntity
  8
0
  6
PHANTOM
 62
     7
100
AcDbCircle
 10
97.57465051933275
 20
-111.1668637165124
 30
0.0
 40
73.23821073249397
100
AcDbArc
 50
9.827121585298714
 51
350.1728784147022
  0
ARC
  5
C7
330
A
100
AcDbEntity
  8
0
  6
PHANTOM
 62
     7
100
AcDbCircle
 10
97.57465051933275
 20
-111.1668637165118
 30
0.0
 40
118.2379550506757
100
AcDbArc
 50
6.068593591041509
 51
353.9314064089593
  0
LWPOLYLINE
  5
C8
330
A
100
AcDbEntity
  8
0
  6
PHANTOM
 62
     7
100
AcDbPolyline
 90
        4
 70
   128
 43
0.0
 10
53.41115511947041
 20
-94.79763349395396
 10
55.81379765352686
 20
-94.98046427087055
 10
58.16276912361975
 20
-95.52487246418287
 10
60.39486003281627
 20
-96.41345125095929
  0
LWPOLYLINE
  5
CE
330
A
100
AcDbEntity
  8
0
  6
PHANTOM
 62
     7
100
AcDbPolyline
 90
       26
 70
   128
 43
0.0
 10
60.39486003281569
 20
-125.9202761820641
 10
58.16276912361961
 20
-126.8088549688403
 10
55.81379765352671
 20
-127.3532631621526
 10
53.41115511947025
 20
-127.5360939390692
 10
51.0085125854138
 20
-127.3532631621525
 10
48.65954111532091
 20
-126.8088549688402
 10
46.41671285027493
 20
-125.9150305385633
 10
44.33012886755485
 20
-124.6917564320938
 10
42.44640000535841
 20
-123.1663585715707
 10
40.80760565369881
 20
-121.3729118245539
 10
39.45035377036601
 20
-119.3514788277902
 10
38.40496311964241
 20
-117.14721505411
 10
37.69478600120914
 20
-114.8093601137808
 10
37.33568659835964
 20
-112.3901378229809
 10
37.33568659835967
 20
-109.9435896100419
 10
37.69478600120923
 20
-107.5243673192419
 10
38.40496311964254
 20
-105.1865123789128
 10
39.45035377036619
 20
-102.9822486052326
 10
40.80760565369904
 20
-100.9608156084689
 10
42.44640000535868
 20
-99.16736886145219
 10
44.33012886755515
 20
-97.64197100092911
 10
46.41671285027527
 20
-96.41869689445966
 10
48.65954111532127
 20
-95.52487246418282
 10
51.00851258541418
 20
-94.98046427087052
 10
53.41115511947041
 20
-94.79763349395396
 10
53.41115511947041
 20
-94.79763349395396
  0
LINE
  5
EA
330
A
100
AcDbEntity
  8
0
  6
Continuous
 62
     7
100
AcDbLine
 10
517.3235774592539
 20
110.9192002734149
 30
0.0
 11
516.3213197866904
 21
116.7253309914943
 31
0.0
  0
LINE
  5
EB
330
A
100
AcDbEntity
  8
0
  6
Continuous
 62
     7
100
AcDbLine
 10
348.3258351318175
 20
116.7253309914943
 30
0.0
 11
347.3235774592539
 21
110.9192002734149
 31
0.0
  0
ARC
  5
EC
330
A
100
AcDbEntity
  8
0
  6
Continuous
 62
     7
100
AcDbCircle
 10
511.3941899055535
 20
115.8748069563206
 30
0.0
 40
5.000000000000046
100
AcDbArc
 50
9.793912812903379
 51
90.0
  0
ARC
  5
ED
330
A
100
AcDbEntity
  8
0
  6
Continuous
 62
     7
100
AcDbCircle
 10
353.2529650129544
 20
115.8748069563206
 30
0.0
 40
5.000000000000046
100
AcDbArc
 50
90.0
 51
170.2060871870966
  0
LINE
  5
EE
330
A
100
AcDbEntity
  8
0
  6
Continuous
 62
     7
100
AcDbLine
 10
442.3235774592542
 20
107.9192002734149
 30
0.0
 11
442.3235774592542
 21
110.9192002734149
 31
0.0
  0
LINE
  5
EF
330
A
100
AcDbEntity
  8
0
  6
Continuous
 62
     7
100
AcDbLine
 10
422.3235774592541
 20
110.9192002734149
 30
0.0
 11
422.3235774592541
 21
107.9192002734149
 31
0.0
  0
LINE
  5
F0
330
A
100
AcDbEntity
  8
0
  6
Continuous
 62
     7
100
AcDbLine
 10
508.8975335999145
 20
107.9192002734149
 30
0.0
 11
508.8975335999145
 21
110.9192002734149
 31
0.0
  0
LINE
  5
F1
330
A
100
AcDbEntity
  8
0
  6
Continuous
 62
     7
100
AcDbLine
 10
488.8975335999145
 20
110.9192002734149
 30
0.0
 11
488.8975335999145
 21
107.9192002734149
 31
0.0
  0
LINE
  5
F2
330
A
100
AcDbEntity
  8
0
  6
Continuous
 62
     7
100
AcDbLine
 10
375.7496213185932
 20
107.9192002734149
 30
0.0
 11
375.7496213185932
 21
110.9192002734149
 31
0.0
  0
LINE
  5
F3
330
A
100
AcDbEntity
  8
0
  6
Continuous
 62
     7
100
AcDbLine
 10
355.7496213185932
 20
110.9192002734149
 30
0.0
 11
355.7496213185932
 21
107.9192002734149
 31
0.0
  0
ARC
  5
F4
330
A
100
AcDbEntity
  8
0
  6
Continuous
 62
     7
100
AcDbCircle
 10
462.0185774592539
 20
140.5698069563207
 30
0.0
 40
19.69500000000002
100
AcDbArc
 50
180.0000000000004
 51
270.0000000000008
  0
ARC
  5
F5
330
A
100
AcDbEntity
  8
0
  6
Continuous
 62
     7
100
AcDbCircle
 10
402.6285774592539
 20
140.5698069563207
 30
0.0
 40
19.69500000000002
100
AcDbArc
 50
270.0000000000008
 51
0.0
  0
LINE
  5
F6
330
A
100
AcDbEntity
  8
0
  6
Continuous
 62
     7
100
AcDbLine
 10
442.3235774592539
 20
140.5698069563207
 30
0.0
 11
442.3235774592539
 21
143.1168069563207
 31
0.0
  0
LINE
  5
F7
330
A
100
AcDbEntity
  8
0
  6
Continuous
 62
     7
100
AcDbLine
 10
422.3235774592539
 20
143.1168069563207
 30
0.0
 11
422.3235774592539
 21
140.5698069563207
 31
0.0
  0
LINE
  5
F8
330
A
100
AcDbEntity
  8
0
  6
Continuous
 62
     7
100
AcDbLine
 10
483.4685451197273
 20
107.9192002734149
 30
0.0
 11
483.4685451197273
 21
110.9192002734149
 31
0.0
  0
LINE
  5
F9
330
A
100
AcDbEntity
  8
0
  6
Continuous
 62
     7
100
AcDbLine
 10
463.4685451197273
 20
110.9192002734149
 30
0.0
 11
463.4685451197273
 21
107.9192002734149
 31
0.0
  0
LINE
  5
FA
330
A
100
AcDbEntity
  8
0
  6
Continuous
 62
     7
100
AcDbLine
 10
401.1786097987808
 20
107.9192002734149
 30
0.0
 11
401.1786097987808
 21
110.9192002734149
 31
0.0
  0
LINE
  5
FB
330
A
100
AcDbEntity
  8
0
  6
Continuous
 62
     7
100
AcDbLine
 10
381.1786097987809
 20
110.9192002734149
 30
0.0
 11
381.1786097987809
 21
107.9192002734149
 31
0.0
  0
ARC
  5
FC
330
A
100
AcDbEntity
  8
0
  6
Continuous
 62
     7
100
AcDbCircle
 10
316.023289276834
 20
324.3413008713308
 30
0.0
 40
2.000000000000009
100
AcDbArc
 50
165.6577739696017
 51
255.6577739696091
  0
ARC
  5
FD
330
A
100
AcDbEntity
  8
0
  6
Continuous
 62
     7
100
AcDbCircle
 10
548.6238656416738
 20
324.3413008713308
 30
0.0
 40
2.000000000000051
100
AcDbArc
 50
284.3422260303973
 51
14.34222603040302
  0
LINE
  5
FE
330
A
100
AcDbEntity
  8
0
  6
Continuous
 62
     7
100
AcDbLine
 10
550.5615325099296
 20
324.8367270592371
 30
0.0
 11
505.5617881917479
 21
500.8357270592371
 31
0.0
  0
LINE
  5
FF
330
A
100
AcDbEntity
  8
0
  6
Continuous
 62
     7
100
AcDbLine
 10
359.08536672676
 20
500.8357270592371
 30
0.0
 11
314.0856224085782
 21
324.8367270592371
 31
0.0
  0
ARC
  5
100
330
A
100
AcDbEntity
  8
0
  6
Continuous
 62
     7
100
AcDbCircle
 10
503.6241213234919
 20
500.3403008713308
 30
0.0
 40
2.000000000000023
100
AcDbArc
 50
14.34222603039331
 51
90.0
  0
ARC
  5
101
330
A
100
AcDbEntity
  8
0
  6
Continuous
 62
     7
100
AcDbCircle
 10
361.0230335950159
 20
500.3403008713308
 30
0.0
 40
2.0
100
AcDbArc
 50
90.0
 51
165.6577739696027
  0
ARC
  5
102
330
A
100
AcDbEntity
  8
0
  6
Continuous
 62
     7
100
AcDbCircle
 10
470.3235774592538
 20
502.1168069563207
 30
0.0
 40
2.000000000000006
100
AcDbArc
 50
6.416029825546821
 51
90.0
  0
ARC
  5
103
330
A
100
AcDbEntity
  8
0
  6
Continuous
 62
     7
100
AcDbCircle
 10
394.3235774592539
 20
502.1168069563207
 30
0.0
 40
2.000000000000006
100
AcDbArc
 50
90.0
 51
173.5839701744532
  0
LINE
  5
104
330
A
100
AcDbEntity
  8
0
  6
Continuous
 62
     7
100
AcDbLine
 10
442.3235774592539
 20
143.1168069563207
 30
0.0
 11
442.3235774592539
 21
322.3413008713308
 31
0.0
  0
LINE
  5
105
330
A
100
AcDbEntity
  8
0
  6
Continuous
 62
     7
100
AcDbLine
 10
422.3235774592539
 20
322.3413008713308
 30
0.0
 11
422.3235774592539
 21
143.1168069563207
 31
0.0
  0
LINE
  5
106
330
A
100
AcDbEntity
  8
0
  6
Continuous
 62
     7
100
AcDbLine
 10
517.3235774592539
 20
110.9192002734149
 30
0.0
 11
347.3235774592539
 21
110.9192002734149
 31
0.0
  0
LINE
  5
107
330
A
100
AcDbEntity
  8
0
  6
Continuous
 62
     7
100
AcDbLine
 10
511.3941899016737
 20
120.8748069563206
 30
0.0
 11
353.2529650129544
 21
120.8748069563206
 31
0.0
  0
LINE
  5
108
330
A
100
AcDbEntity
  8
0
  6
Continuous
 62
     7
100
AcDbLine
 10
422.3235774592541
 20
107.9192002734149
 30
0.0
 11
442.3235774592542
 21
107.9192002734149
 31
0.0
  0
LINE
  5
109
330
A
100
AcDbEntity
  8
0
  6
Continuous
 62
     7
100
AcDbLine
 10
488.8975335999145
 20
107.9192002734149
 30
0.0
 11
508.8975335999145
 21
107.9192002734149
 31
0.0
  0
LINE
  5
10A
330
A
100
AcDbEntity
  8
0
  6
Continuous
 62
     7
100
AcDbLine
 10
355.7496213185932
 20
107.9192002734149
 30
0.0
 11
375.7496213185932
 21
107.9192002734149
 31
0.0
  0
LINE
  5
10B
330
A
100
AcDbEntity
  8
0
  6
Continuous
 62
     7
100
AcDbLine
 10
442.3235774592539
 20
143.1168069563207
 30
0.0
 11
422.3235774592539
 21
143.1168069563207
 31
0.0
  0
LINE
  5
10C
330
A
100
AcDbEntity
  8
0
  6
Continuous
 62
     7
100
AcDbLine
 10
463.4685451197273
 20
107.9192002734149
 30
0.0
 11
483.4685451197273
 21
107.9192002734149
 31
0.0
  0
LINE
  5
10D
330
A
100
AcDbEntity
  8
0
  6
Continuous
 62
     7
100
AcDbLine
 10
381.1786097987809
 20
107.9192002734149
 30
0.0
 11
401.1786097987808
 21
107.9192002734149
 31
0.0
  0
LINE
  5
10E
330
A
100
AcDbEntity
  8
0
  6
Continuous
 62
     7
100
AcDbLine
 10
549.1192918295801
 20
322.4036340030749
 30
0.0
 11
315.5278630889278
 21
322.4036340030749
 31
0.0
  0
LINE
  5
10F
330
A
100
AcDbEntity
  8
0
  6
Continuous
 62
     7
100
AcDbLine
 10
392.3361040707646
 20
502.3403008713308
 30
0.0
 11
361.5343972313795
 21
502.3403008713308
 31
0.0
  0
LINE
  5
110
330
A
100
AcDbEntity
  8
0
  6
Continuous
 62
     7
100
AcDbLine
 10
503.1127576871283
 20
502.3403008713308
 30
0.0
 11
472.3110508477432
 21
502.3403008713308
 31
0.0
  0
LINE
  5
111
330
A
100
AcDbEntity
  8
0
  6
Continuous
 62
     7
100
AcDbLine
 10
361.0230335950159
 20
502.3403008713308
 30
0.0
 11
503.6241213234919
 21
502.3403008713308
 31
0.0
  0
LINE
  5
112
330
A
100
AcDbEntity
  8
0
  6
Continuous
 62
     7
100
AcDbLine
 10
394.3235774592539
 20
504.1168069563206
 30
0.0
 11
470.3235774320119
 21
504.1168069563206
 31
0.0
  0
LINE
  5
113
330
A
100
AcDbEntity
  8
0
  6
Continuous
 62
     7
100
AcDbLine
 10
446.8235774592539
 20
322.3413008713308
 30
0.0
 11
417.8235774592539
 21
322.3413008713308
 31
0.0
  0
LINE
  5
114
330
A
100
AcDbEntity
  8
0
  6
Continuous
 62
     7
100
AcDbLine
 10
422.3235774592539
 20
143.1168069563207
 30
0.0
 11
442.3235774592539
 21
143.1168069563207
 31
0.0
  0
LINE
  5
115
330
A
100
AcDbEntity
  8
0
  6
PHANTOM
 62
     7
100
AcDbLine
 10
516.3213197866904
 20
116.7253309914943
 30
0.0
 11
348.3258351318175
 21
116.7253309914943
 31
0.0
  0
LINE
  5
116
330
A
100
AcDbEntity
  8
0
  6
PHANTOM
 62
     7
100
AcDbLine
 10
442.3235774592539
 20
140.5698069563207
 30
0.0
 11
422.3235774592539
 21
140.5698069563207
 31
0.0
  0
LINE
  5
117
330
A
100
AcDbEntity
  8
0
  6
PHANTOM
 62
     7
100
AcDbLine
 10
314.0856224085782
 20
324.8367270592371
 30
0.0
 11
550.5615325099296
 21
324.8367270592371
 31
0.0
  0
LINE
  5
118
330
A
100
AcDbEntity
  8
0
  6
PHANTOM
 62
     7
100
AcDbLine
 10
505.5617881917479
 20
500.8357270592371
 30
0.0
 11
359.08536672676
 21
500.8357270592371
 31
0.0
  0
ENDSEC
  0
SECTION
  2
OBJECTS
  0
DICTIONARY
  5
19
330
0
100
AcDbDictionary
281
     1
  3
ACAD_COLOR
350
11D
  3
ACAD_GROUP
350
1A
  3
ACAD_LAYOUT
350
11E
  3
ACAD_MATERIAL
350
11C
  3
ACAD_MLINESTYLE
350
1B
  3
ACAD_PLOTSETTINGS
350
11F
  3
ACAD_PLOTSTYLENAME
350
11A
  3
ACDBHEADERROUNDTRIPXREC
350
137
  3
AcDbVariableDictionary
350
130
  3
ASE_INDEX_DICTIONARY
350
125
  0
DICTIONARY
  5
11D
102
{ACAD_REACTORS
330
19
102
}
330
19
100
AcDbDictionary
281
     1
  0
DICTIONARY
  5
1A
102
{ACAD_REACTORS
330
19
102
}
330
19
100
AcDbDictionary
281
     1
  0
DICTIONARY
  5
11E
102
{ACAD_REACTORS
330
19
102
}
330
19
100
AcDbDictionary
281
     1
  3
Layout1
350
121
  3
Model
350
120
  0
DICTIONARY
  5
11C
102
{ACAD_REACTORS
330
19
102
}
330
19
100
AcDbDictionary
281
     1
  0
DICTIONARY
  5
1B
102
{ACAD_REACTORS
330
19
102
}
330
19
100
AcDbDictionary
281
     1
  3
STANDARD
350
1C
  0
DICTIONARY
  5
11F
102
{ACAD_REACTORS
330
19
102
}
330
19
100
AcDbDictionary
281
     1
  0
ACDBDICTIONARYWDFLT
  5
11A
102
{ACAD_REACTORS
330
19
102
}
330
19
100
AcDbDictionary
281
     1
  3
Normal
350
11B
100
AcDbDictionaryWithDefault
340
11B
  0
DICTIONARY
  5
137
102
{ACAD_REACTORS
330
19
102
}
330
19
100
AcDbDictionary
281
     1
  3
COLORDICT
350
139
  3
MATERIALDICT
350
138
  0
DICTIONARY
  5
130
102
{ACAD_REACTORS
330
19
102
}
330
19
100
AcDbDictionary
281
     1
  3
DIMASSOC
350
131
  3
PROJECTNAME
350
132
  0
DICTIONARY
  5
125
102
{ACAD_REACTORS
330
19
102
}
330
19
100
AcDbDictionary
281
     1
  3
ASEBlockHierarchyIndexRecord
350
127
1001
DCO15
1040
1522042123.812
  0
LAYOUT
  5
121
102
{ACAD_XDICTIONARY
360
13C
102
}
102
{ACAD_REACTORS
330
11E
102
}
330
11E
100
AcDbPlotSettings
  1

  2
ProgeSOFT PDF Wizard
  4

  6

 40
0.0
 41
0.0
 42
0.0
 43
0.0
 44
0.0
 45
0.0
 46
0.0
 47
0.0
 48
0.0
 49
0.0
140
0.0
141
0.0
142
1.0
143
1.0
 70
   688
 72
     0
 73
     0
 74
     5
  7

 75
    16
147
1.0
148
0.0
149
0.0
100
AcDbLayout
  1
Layout1
 70
     1
 71
     1
 10
0.0
 20
0.0
 11
12.0
 21
9.0
 12
0.0
 22
0.0
 32
0.0
 14
1.000000000000000E+20
 24
1.000000000000000E+20
 34
1.000000000000000E+20
 15
-1.000000000000000E+20
 25
-1.000000000000000E+20
 35
-1.000000000000000E+20
146
0.0
 13
0.0
 23
0.0
 33
0.0
 16
1.0
 26
0.0
 36
0.0
 17
0.0
 27
1.0
 37
0.0
 76
     0
330
B
  0
LAYOUT
  5
120
102
{ACAD_XDICTIONARY
360
13A
102
}
102
{ACAD_REACTORS
330
11E
102
}
330
11E
100
AcDbPlotSettings
  1

  2
ProgeSOFT PDF Wizard
  4

  6

 40
0.0
 41
0.0
 42
0.0
 43
0.0
 44
0.0
 45
0.0
 46
0.0
 47
0.0
 48
0.0
 49
0.0
140
0.0
141
0.0
142
1.0
143
1.0
 70
  1712
 72
     0
 73
     0
 74
     0
  7

 75
     0
147
1.0
148
0.0
149
0.0
100
AcDbLayout
  1
Model
 70
     1
 71
     0
 10
0.0
 20
0.0
 11
12.0
 21
9.0
 12
0.0
 22
0.0
 32
0.0
 14
0.0
 24
0.0
 34
0.0
 15
0.0
 25
0.0
 35
0.0
146
0.0
 13
0.0
 23
0.0
 33
0.0
 16
1.0
 26
0.0
 36
0.0
 17
0.0
 27
1.0
 37
0.0
 76
     0
330
A
  0
MLINESTYLE
  5
1C
102
{ACAD_REACTORS
330
1B
102
}
330
1B
100
AcDbMlineStyle
  2
STANDARD
 70
     0
  3

 62
     0
 51
90.0
 52
90.0
 71
     2
 49
0.5
 62
   256
  6
BYLAYER
 49
-0.5
 62
   256
  6
BYLAYER
  0
ACDBPLACEHOLDER
  5
11B
102
{ACAD_REACTORS
330
11A
102
}
330
11A
  0
XRECORD
  5
139
102
{ACAD_REACTORS
330
137
102
}
330
137
100
AcDbXrecord
280
     1
340
11D
  0
XRECORD
  5
138
102
{ACAD_REACTORS
330
137
102
}
330
137
100
AcDbXrecord
280
     1
340
11C
  0
DICTIONARYVAR
  5
131
102
{ACAD_REACTORS
330
130
102
}
330
130
100
DictionaryVariables
280
     0
  1
1
  0
DICTIONARYVAR
  5
132
102
{ACAD_REACTORS
330
130
102
}
330
130
100
DictionaryVariables
280
     0
  1

  0
XRECORD
  5
127
102
{ACAD_REACTORS
330
125
102
}
330
125
100
AcDbXrecord
280
     1
  0
DICTIONARY
  5
13C
330
121
100
AcDbDictionary
280
     1
281
     1
  3
ACAD_XREC_ROUNDTRIP
360
13D
  0
DICTIONARY
  5
13A
330
120
100
AcDbDictionary
280
     1
281
     1
  3
ACAD_XREC_ROUNDTRIP
360
13B
  0
XRECORD
  5
13D
102
{ACAD_REACTORS
330
13C
102
}
330
13C
100
AcDbXrecord
280
     1
102
SHADEPLOT
 70
     0
102
SHADEPLOTRESLEVEL
 70
     2
102
SHADEPLOTCUSTOMDPI
 70
   300
  0
XRECORD
  5
13B
102
{ACAD_REACTORS
330
13A
102
}
330
13A
100
AcDbXrecord
280
     1
102
SHADEPLOT
 70
     0
102
SHADEPLOTRESLEVEL
 70
     2
102
SHADEPLOTCUSTOMDPI
 70
   300
  0
ENDSEC
  0
EOF
