  0
SECTION
  2
HEADER
  9
$ACADVER
  1
AC1015
  9
$ACADMAINTVER
 70
    20
  9
$DWGCODEPAGE
  3
ANSI_1252
  9
$INSBASE
 10
0.0
 20
0.0
 30
0.0
  9
$EXTMIN
 10
-136.1776854402806
 20
-631.4744809910144
 30
0.0
  9
$EXTMAX
 10
694.3458960040953
 20
452.1890135623731
 30
0.0
  9
$LIMMIN
 10
0.0
 20
0.0
  9
$LIMMAX
 10
0.0
 20
0.0
  9
$ORTHOMODE
 70
     0
  9
$REGENMODE
 70
     1
  9
$FILLMODE
 70
     1
  9
$QTEXTMODE
 70
     0
  9
$MIRRTEXT
 70
     1
  9
$LTSCALE
 40
1.0
  9
$ATTMODE
 70
     1
  9
$TEXTSIZE
 40
0.0
  9
$TRACEWID
 40
0.05
  9
$TEXTSTYLE
  7
STANDARD
  9
$CLAYER
  8
0
  9
$CELTYPE
  6
CONTINUOUS
  9
$CECOLOR
 62
   256
  9
$CELTSCALE
 40
1.0
  9
$DISPSILH
 70
     0
  9
$DIMSCALE
 40
1.0
  9
$DIMASZ
 40
6.0
  9
$DIMEXO
 40
1.0
  9
$DIMDLI
 40
0.38
  9
$DIMRND
 40
0.0
  9
$DIMDLE
 40
1.0
  9
$DIMEXE
 40
0.18
  9
$DIMTP
 40
0.0
  9
$DIMTM
 40
0.0
  9
$DIMTXT
 40
3.5
  9
$DIMCEN
 40
0.09
  9
$DIMTSZ
 40
0.0
  9
$DIMTOL
 70
     0
  9
$DIMLIM
 70
     0
  9
$DIMTIH
 70
     1
  9
$DIMTOH
 70
     1
  9
$DIMSE1
 70
     0
  9
$DIMSE2
 70
     0
  9
$DIMTAD
 70
     1
  9
$DIMZIN
 70
     0
  9
$DIMBLK
  1

  9
$DIMASO
 70
     1
  9
$DIMSHO
 70
     1
  9
$DIMPOST
  1

  9
$DIMAPOST
  1

  9
$DIMALT
 70
     0
  9
$DIMALTD
 70
     2
  9
$DIMALTF
 40
0.0394
  9
$DIMLFAC
 40
1.0
  9
$DIMTOFL
 70
     0
  9
$DIMTVP
 40
0.0
  9
$DIMTIX
 70
     0
  9
$DIMSOXD
 70
     0
  9
$DIMSAH
 70
     0
  9
$DIMBLK1
  1

  9
$DIMBLK2
  1

  9
$DIMSTYLE
  2
STANDARD
  9
$DIMCLRD
 70
     0
  9
$DIMCLRE
 70
     0
  9
$DIMCLRT
 70
     0
  9
$DIMTFAC
 40
1.0
  9
$DIMGAP
 40
1.0
  9
$DIMJUST
 70
     0
  9
$DIMSD1
 70
     0
  9
$DIMSD2
 70
     0
  9
$DIMTOLJ
 70
     1
  9
$DIMTZIN
 70
     0
  9
$DIMALTZ
 70
     0
  9
$DIMALTTZ
 70
     0
  9
$DIMUPT
 70
     0
  9
$DIMDEC
 70
     4
  9
$DIMTDEC
 70
     4
  9
$DIMALTU
 70
     2
  9
$DIMALTTD
 70
     2
  9
$DIMTXSTY
  7
STANDARD
  9
$DIMAUNIT
 70
     0
  9
$DIMADEC
 70
     0
  9
$DIMALTRND
 40
0.0
  9
$DIMAZIN
 70
     0
  9
$DIMDSEP
 70
    46
  9
$DIMATFIT
 70
     3
  9
$DIMFRAC
 70
     0
  9
$DIMLDRBLK
  1

  9
$DIMLUNIT
 70
     2
  9
$DIMLWD
 70
    -2
  9
$DIMLWE
 70
    -2
  9
$DIMTMOVE
 70
     0
  9
$LUNITS
 70
     2
  9
$LUPREC
 70
     2
  9
$SKETCHINC
 40
0.1
  9
$FILLETRAD
 40
0.0
  9
$AUNITS
 70
     0
  9
$AUPREC
 70
     2
  9
$MENU
  1
acad
  9
$ELEVATION
 40
0.0
  9
$PELEVATION
 40
0.0
  9
$THICKNESS
 40
0.0
  9
$LIMCHECK
 70
     0
  9
$CHAMFERA
 40
0.0
  9
$CHAMFERB
 40
0.0
  9
$CHAMFERC
 40
0.0
  9
$CHAMFERD
 40
0.0
  9
$SKPOLY
 70
     0
  9
$TDCREATE
 40
2444972.041666667
  9
$TDUCREATE
 40
2444972.000000000
  9
$TDUPDATE
 40
2453768.890370729
  9
$TDUUPDATE
 40
2453768.848704063
  9
$TDINDWG
 40
0.0004752546
  9
$TDUSRTIMER
 40
0.0004752546
  9
$USRTIMER
 70
     1
  9
$ANGBASE
 50
0.0
  9
$ANGDIR
 70
     0
  9
$PDMODE
 70
     0
  9
$PDSIZE
 40
-1.0
  9
$PLINEWID
 40
0.0
  9
$SPLFRAME
 70
     0
  9
$SPLINETYPE
 70
     6
  9
$SPLINESEGS
 70
     8
  9
$HANDSEED
  5
27B
  9
$SURFTAB1
 70
     6
  9
$SURFTAB2
 70
     6
  9
$SURFTYPE
 70
     6
  9
$SURFU
 70
     6
  9
$SURFV
 70
     6
  9
$UCSBASE
  2

  9
$UCSNAME
  2

  9
$UCSORG
 10
0.0
 20
0.0
 30
0.0
  9
$UCSXDIR
 10
1.0
 20
0.0
 30
0.0
  9
$UCSYDIR
 10
0.0
 20
1.0
 30
0.0
  9
$UCSORTHOREF
  2

  9
$UCSORTHOVIEW
 70
     1
  9
$UCSORGTOP
 10
0.0
 20
0.0
 30
0.0
  9
$UCSORGBOTTOM
 10
0.0
 20
0.0
 30
0.0
  9
$UCSORGLEFT
 10
0.0
 20
0.0
 30
0.0
  9
$UCSORGRIGHT
 10
0.0
 20
0.0
 30
0.0
  9
$UCSORGFRONT
 10
0.0
 20
0.0
 30
0.0
  9
$UCSORGBACK
 10
0.0
 20
0.0
 30
0.0
  9
$PUCSBASE
  2

  9
$PUCSNAME
  2

  9
$PUCSORG
 10
0.0
 20
0.0
 30
0.0
  9
$PUCSXDIR
 10
1.0
 20
0.0
 30
0.0
  9
$PUCSYDIR
 10
0.0
 20
1.0
 30
0.0
  9
$PUCSORTHOREF
  2

  9
$PUCSORTHOVIEW
 70
     0
  9
$PUCSORGTOP
 10
0.0
 20
0.0
 30
0.0
  9
$PUCSORGBOTTOM
 10
0.0
 20
0.0
 30
0.0
  9
$PUCSORGLEFT
 10
0.0
 20
0.0
 30
0.0
  9
$PUCSORGRIGHT
 10
0.0
 20
0.0
 30
0.0
  9
$PUCSORGFRONT
 10
0.0
 20
0.0
 30
0.0
  9
$PUCSORGBACK
 10
0.0
 20
0.0
 30
0.0
  9
$USERI1
 70
     0
  9
$USERI2
 70
     0
  9
$USERI3
 70
     0
  9
$USERI4
 70
     0
  9
$USERI5
 70
     0
  9
$USERR1
 40
0.0
  9
$USERR2
 40
0.0
  9
$USERR3
 40
0.0
  9
$USERR4
 40
0.0
  9
$USERR5
 40
0.0
  9
$WORLDVIEW
 70
     1
  9
$SHADEDGE
 70
     3
  9
$SHADEDIF
 70
    70
  9
$TILEMODE
 70
     1
  9
$MAXACTVP
 70
    16
  9
$PINSBASE
 10
0.0
 20
0.0
 30
0.0
  9
$PLIMCHECK
 70
     0
  9
$PEXTMIN
 10
1.000000000000000E+20
 20
1.000000000000000E+20
 30
1.000000000000000E+20
  9
$PEXTMAX
 10
-1.000000000000000E+20
 20
-1.000000000000000E+20
 30
-1.000000000000000E+20
  9
$PLIMMIN
 10
0.0
 20
0.0
  9
$PLIMMAX
 10
12.0
 20
9.0
  9
$UNITMODE
 70
     0
  9
$VISRETAIN
 70
     0
  9
$PLINEGEN
 70
     1
  9
$PSLTSCALE
 70
     1
  9
$TREEDEPTH
 70
  3020
  9
$CMLSTYLE
  2
STANDARD
  9
$CMLJUST
 70
     0
  9
$CMLSCALE
 40
1.0
  9
$PROXYGRAPHICS
 70
     0
  9
$MEASUREMENT
 70
     0
  9
$CELWEIGHT
370
    -1
  9
$ENDCAPS
280
     0
  9
$JOINSTYLE
280
     0
  9
$LWDISPLAY
290
     0
  9
$INSUNITS
 70
     0
  9
$HYPERLINKBASE
  1

  9
$STYLESHEET
  1

  9
$XEDIT
290
     1
  9
$CEPSNTYPE
380
     0
  9
$PSTYLEMODE
290
     1
  9
$FINGERPRINTGUID
  2
{9897AFF4-E1A3-4392-95D9-F32C65F3255A}
  9
$VERSIONGUID
  2
{85419A3B-2011-437D-AEDE-E1D069694C7A}
  9
$EXTNAMES
290
     1
  9
$PSVPSCALE
 40
0.0
  9
$OLESTARTUP
290
     0
  0
ENDSEC
  0
SECTION
  2
CLASSES
  0
CLASS
  1
IMAGE
  2
AcDbRasterImage
  3
ISM
 90
    32895
280
     0
281
     1
  0
CLASS
  1
DICTIONARYVAR
  2
AcDbDictionaryVar
  3
ObjectDBX Classes
 90
        0
280
     0
281
     0
  0
CLASS
  1
RASTERVARIABLES
  2
AcDbRasterVariables
  3
ISM
 90
    32768
280
     0
281
     0
  0
CLASS
  1
IMAGEDEF
  2
AcDbRasterImageDef
  3
ISM
 90
    32768
280
     0
281
     0
  0
CLASS
  1
IMAGEDEF_REACTOR
  2
AcDbRasterImageDefReactor
  3
ISM
 90
    32769
280
     0
281
     0
  0
CLASS
  1
IDBUFFER
  2
AcDbIdBuffer
  3
ObjectDBX Classes
 90
    32768
280
     0
281
     0
  0
CLASS
  1
SPATIAL_FILTER
  2
AcDbSpatialFilter
  3
ObjectDBX Classes
 90
    32768
280
     0
281
     0
  0
CLASS
  1
SORTENTSTABLE
  2
AcDbSortentsTable
  3
ObjectDBX Classes
 90
    32768
280
     0
281
     0
  0
CLASS
  1
LAYER_INDEX
  2
AcDbLayerIndex
  3
ObjectDBX Classes
 90
    32768
280
     0
281
     0
  0
CLASS
  1
SPATIAL_INDEX
  2
AcDbSpatialIndex
  3
ObjectDBX Classes
 90
    32768
280
     0
281
     0
  0
CLASS
  1
OBJECT_PTR
  2
CAseDLPNTableRecord
  3
ASE-LPNTableRecord
 90
    32769
280
     0
281
     0
  0
CLASS
  1
LAYOUT
  2
AcDbLayout
  3
ObjectDBX Classes
 90
        0
280
     0
281
     0
  0
CLASS
  1
PLOTSETTINGS
  2
AcDbPlotSettings
  3
ObjectDBX Classes
 90
    32768
280
     0
281
     0
  0
CLASS
  1
ACDBDICTIONARYWDFLT
  2
AcDbDictionaryWithDefault
  3
ObjectDBX Classes
 90
        0
280
     0
281
     0
  0
CLASS
  1
ACDBPLACEHOLDER
  2
AcDbPlaceHolder
  3
ObjectDBX Classes
 90
        0
280
     0
281
     0
  0
CLASS
  1
VBA_PROJECT
  2
AcDbVbaProject
  3
acad
 90
    32768
280
     0
281
     0
  0
CLASS
  1
WIPEOUT
  2
AcDbWipeout
  3
"WipeOut|Product Desc: Object Enabler for WipeOut entity^I^I^I^I^I^I|Company: Autodesk, Inc.^I^I^I^I^I^I|WEB Address: www.autodesk.com"
 90
    32895
280
     0
281
     1
  0
CLASS
  1
WIPEOUTVARIABLES
  2
AcDbWipeoutVariables
  3
"WipeOut|Product Desc:     WipeOut Dbx Application|Company:          Autodesk, Inc.|WEB Address:      www.autodesk.com"
 90
    32768
280
     0
281
     0
  0
CLASS
  1
RTEXT
  2
RText
  3
RText|AutoCAD Express Tool|expresstools@autodesk.com
 90
    32768
280
     0
281
     1
  0
CLASS
  1
ARCALIGNEDTEXT
  2
AcDbArcAlignedText
  3
ATEXT|AutoCAD Express Tool|expresstools@autodesk.com
 90
    32768
280
     0
281
     1
  0
ENDSEC
  0
SECTION
  2
TABLES
  0
TABLE
  2
VPORT
  5
7
330
0
100
AcDbSymbolTable
 70
     2
  0
VPORT
  5
273
330
7
100
AcDbSymbolTableRecord
100
AcDbViewportTableRecord
  2
*Active
 70
     0
 10
0.0
 20
0.0
 11
1.0
 21
1.0
 12
351.2753276605903
 22
-72.858641207152
 13
0.0
 23
0.0
 14
1.0
 24
1.0
 15
0.0
 25
0.0
 16
0.0
 26
0.0
 36
1.0
 17
0.0
 27
0.0
 37
0.0
 40
1058.396375087037
 41
1.569570871261378
 42
50.0
 43
0.0
 44
0.0
 50
0.0
 51
0.0
 71
     0
 72
  2000
 73
     1
 74
     1
 75
     0
 76
     0
 77
     0
 78
     0
281
     0
 65
     1
110
0.0
120
0.0
130
0.0
111
1.0
121
0.0
131
0.0
112
0.0
122
1.0
132
0.0
 79
     1
146
0.0
  0
ENDTAB
  0
TABLE
  2
LTYPE
  5
4
330
0
100
AcDbSymbolTable
 70
     6
  0
LTYPE
  5
11
330
4
100
AcDbSymbolTableRecord
100
AcDbLinetypeTableRecord
  2
BYBLOCK
 70
     0
  3

 72
    65
 73
     0
 40
0.0
  0
LTYPE
  5
12
330
4
100
AcDbSymbolTableRecord
100
AcDbLinetypeTableRecord
  2
BYLAYER
 70
     0
  3

 72
    65
 73
     0
 40
0.0
  0
LTYPE
  5
13
330
4
100
AcDbSymbolTableRecord
100
AcDbLinetypeTableRecord
  2
CONTINUOUS
 70
     0
  3
Solid line
 72
    65
 73
     0
 40
0.0
  0
LTYPE
  5
1E
330
4
100
AcDbSymbolTableRecord
100
AcDbLinetypeTableRecord
  2
HIDDEN
 70
     0
  3
Hidden __ __ __ __ __ __ __ __ __ __ __ __ __ __
 72
    65
 73
     2
 40
1.905
 49
1.27
 74
     0
 49
-0.635
 74
     0
  0
LTYPE
  5
1F
330
4
100
AcDbSymbolTableRecord
100
AcDbLinetypeTableRecord
  2
PHANTOM
 70
     0
  3
Phantom ______  __  __  ______  __  __  ______
 72
    65
 73
     6
 40
12.7
 49
6.349999999999999
 74
     0
 49
-1.27
 74
     0
 49
1.27
 74
     0
 49
-1.27
 74
     0
 49
1.27
 74
     0
 49
-1.27
 74
     0
  0
LTYPE
  5
20
330
4
100
AcDbSymbolTableRecord
100
AcDbLinetypeTableRecord
  2
CENTER
 70
     0
  3
Center ____ _ ____ _ ____ _ ____ _ ____ _ ____
 72
    65
 73
     4
 40
10.16
 49
6.349999999999999
 74
     0
 49
-1.27
 74
     0
 49
1.27
 74
     0
 49
-1.27
 74
     0
  0
LTYPE
  5
21
330
4
100
AcDbSymbolTableRecord
100
AcDbLinetypeTableRecord
  2
CENTERX2
 70
     0
  3
Center (2x) ________  __  ________  __  _____
 72
    65
 73
     4
 40
20.32
 49
12.7
 74
     0
 49
-2.54
 74
     0
 49
2.54
 74
     0
 49
-2.54
 74
     0
  0
LTYPE
  5
22
330
4
100
AcDbSymbolTableRecord
100
AcDbLinetypeTableRecord
  2
DOT2
 70
     0
  3
Dot (.5x) ........................................
 72
    65
 73
     2
 40
0.635
 49
0.0
 74
     0
 49
-0.635
 74
     0
  0
ENDTAB
  0
TABLE
  2
LAYER
  5
2
330
0
100
AcDbSymbolTable
 70
     2
  0
LAYER
  5
14
330
2
100
AcDbSymbolTableRecord
100
AcDbLayerTableRecord
  2
0
 70
     0
 62
     7
  6
CONTINUOUS
370
    -3
390
258
  0
LAYER
  5
26
330
2
100
AcDbSymbolTableRecord
100
AcDbLayerTableRecord
  2
DEFPOINTS
 70
     0
 62
     7
  6
CONTINUOUS
290
     0
370
    -3
390
258
  0
ENDTAB
  0
TABLE
  2
STYLE
  5
3
330
0
100
AcDbSymbolTable
 70
     1
  0
STYLE
  5
17
330
3
100
AcDbSymbolTableRecord
100
AcDbTextStyleTableRecord
  2
STANDARD
 70
     0
 40
0.0
 41
1.0
 50
0.0
 71
     0
 42
0.0
  3
Century Gothic
  4

  0
ENDTAB
  0
TABLE
  2
VIEW
  5
5
330
0
100
AcDbSymbolTable
 70
     0
  0
ENDTAB
  0
TABLE
  2
UCS
  5
6
330
0
100
AcDbSymbolTable
 70
     0
  0
ENDTAB
  0
TABLE
  2
APPID
  5
8
330
0
100
AcDbSymbolTable
 70
     2
  0
APPID
  5
16
330
8
100
AcDbSymbolTableRecord
100
AcDbRegAppTableRecord
  2
ACAD
 70
     0
  0
APPID
  5
263
330
8
100
AcDbSymbolTableRecord
100
AcDbRegAppTableRecord
  2
DCO15
 70
     0
  0
ENDTAB
  0
TABLE
  2
DIMSTYLE
  5
9
330
0
100
AcDbSymbolTable
 70
     1
100
AcDbDimStyleTable
 71
     0
  0
DIMSTYLE
105
18
330
9
100
AcDbSymbolTableRecord
100
AcDbDimStyleTableRecord
  2
STANDARD
 70
     0
289
     0
340
17
  0
ENDTAB
  0
TABLE
  2
BLOCK_RECORD
  5
1
330
0
100
AcDbSymbolTable
 70
     0
  0
BLOCK_RECORD
  5
A
330
1
100
AcDbSymbolTableRecord
100
AcDbBlockTableRecord
  2
*MODEL_SPACE
340
25D
  0
BLOCK_RECORD
  5
B
330
1
100
AcDbSymbolTableRecord
100
AcDbBlockTableRecord
  2
*PAPER_SPACE
340
25E
  0
ENDTAB
  0
ENDSEC
  0
SECTION
  2
BLOCKS
  0
BLOCK
  5
D
330
A
100
AcDbEntity
  8
0
100
AcDbBlockBegin
  2
*MODEL_SPACE
 70
     0
 10
0.0
 20
0.0
 30
0.0
  3
*MODEL_SPACE
  1

  0
ENDBLK
  5
E
330
A
100
AcDbEntity
  8
0
100
AcDbBlockEnd
  0
BLOCK
  5
F
330
B
100
AcDbEntity
 67
     1
  8
0
100
AcDbBlockBegin
  2
*PAPER_SPACE
 70
     0
 10
0.0
 20
0.0
 30
0.0
  3
*PAPER_SPACE
  1

  0
ENDBLK
  5
10
330
B
100
AcDbEntity
 67
     1
  8
0
100
AcDbBlockEnd
  0
ENDSEC
  0
SECTION
  2
ENTITIES
  0
LINE
  5
27
330
A
100
AcDbEntity
  8
0
  6
Continuous
 62
     7
100
AcDbLine
 10
189.5839518340831
 20
-125.9248
 30
0.0
 11
188.4659518340832
 21
-118.5829
 31
0.0
  0
LINE
  5
28
330
A
100
AcDbEntity
  8
0
  6
Continuous
 62
     7
100
AcDbLine
 10
-49.29998248698897
 20
-118.5829
 30
0.0
 11
-50.41798248698857
 21
-125.9248
 31
0.0
  0
ARC
  5
29
330
A
100
AcDbEntity
  8
0
  6
Continuous
 62
     7
100
AcDbCircle
 10
182.5569518340832
 20
-119.6248
 30
0.0
 40
6.000000000000014
100
AcDbArc
 50
10.00000000000162
 51
90.0
  0
ARC
  5
2A
330
A
100
AcDbEntity
  8
0
  6
Continuous
 62
     7
100
AcDbCircle
 10
-43.39098248698897
 20
-119.6248
 30
0.0
 40
6.000000000000014
100
AcDbArc
 50
90.0
 51
169.9999999999976
  0
LINE
  5
2B
330
A
100
AcDbEntity
  8
0
  6
Continuous
 62
     7
100
AcDbLine
 10
27.13620026417792
 20
-125.9248
 30
0.0
 11
27.13620026417792
 21
-127.9248
 31
0.0
  0
LINE
  5
2C
330
A
100
AcDbEntity
  8
0
  6
Continuous
 62
     7
100
AcDbLine
 10
47.13620026417792
 20
-127.9248
 30
0.0
 11
47.13620026417792
 21
-125.9248
 31
0.0
  0
LINE
  5
2D
330
A
100
AcDbEntity
  8
0
  6
Continuous
 62
     7
100
AcDbLine
 10
144.5297690829169
 20
-125.9248
 30
0.0
 11
144.5297690829169
 21
-127.9248
 31
0.0
  0
LINE
  5
2E
330
A
100
AcDbEntity
  8
0
  6
Continuous
 62
     7
100
AcDbLine
 10
164.5297690829169
 20
-127.9248
 30
0.0
 11
164.5297690829169
 21
-125.9248
 31
0.0
  0
ARC
  5
2F
330
A
100
AcDbEntity
  8
0
  6
Continuous
 62
     7
100
AcDbCircle
 10
112.0762554869931
 20
-83.62480098722935
 30
0.0
 40
29.99999999999997
100
AcDbArc
 50
178.7021377200098
 51
270.0000000000008
  0
ARC
  5
30
330
A
100
AcDbEntity
  8
0
  6
Continuous
 62
     7
100
AcDbCircle
 10
27.08971386010111
 20
-83.62480098722935
 30
0.0
 40
29.99999999999998
100
AcDbArc
 50
270.0000000000008
 51
1.297862279989947
  0
LINE
  5
31
330
A
100
AcDbEntity
  8
0
  6
Continuous
 62
     7
100
AcDbLine
 10
82.08395183408324
 20
-82.94529999999999
 30
0.0
 11
82.08395183408324
 21
-79.92480000000002
 31
0.0
  0
LINE
  5
32
330
A
100
AcDbEntity
  8
0
  6
Continuous
 62
     7
100
AcDbLine
 10
57.08201751301101
 20
-79.92480000000002
 30
0.0
 11
57.08201751301101
 21
-82.94529999999999
 31
0.0
  0
LINE
  5
33
330
A
100
AcDbEntity
  8
0
  6
Continuous
 62
     7
100
AcDbLine
 10
-45.41701532645286
 20
-125.9248
 30
0.0
 11
-45.41701532645286
 21
-127.9248
 31
0.0
  0
LINE
  5
34
330
A
100
AcDbEntity
  8
0
  6
Continuous
 62
     7
100
AcDbLine
 10
-25.41701532645288
 20
-127.9248
 30
0.0
 11
-25.41701532645288
 21
-125.9248
 31
0.0
  0
ARC
  5
35
330
A
100
AcDbEntity
  8
0
  6
Continuous
 62
     7
100
AcDbCircle
 10
242.7979572319088
 20
185.1302927789533
 30
0.0
 40
1.999999999999942
100
AcDbArc
 50
315.0182471855142
 51
15.01824718550366
  0
LINE
  5
36
330
A
100
AcDbEntity
  8
0
  6
Continuous
 62
     7
100
AcDbLine
 10
244.7296439325235
 20
185.6485460863892
 30
0.0
 11
174.7374713218203
 21
446.5305260743206
 31
0.0
  0
ARC
  5
37
330
A
100
AcDbEntity
  8
0
  6
Continuous
 62
     7
100
AcDbCircle
 10
172.8057846212056
 20
446.0122727668845
 30
0.0
 40
1.999999999999993
100
AcDbArc
 50
15.01824718550915
 51
84.82969382868192
  0
LINE
  5
38
330
A
100
AcDbEntity
  8
0
  6
Continuous
 62
     7
100
AcDbLine
 10
85.58298467354712
 20
183.1302927789533
 30
0.0
 11
85.58298467354712
 21
183.7165296777867
 31
0.0
  0
LINE
  5
39
330
A
100
AcDbEntity
  8
0
  6
Continuous
 62
     7
100
AcDbLine
 10
127.5829846735471
 20
448.0041352382191
 30
0.0
 11
127.5829846735471
 21
449.7748
 31
0.0
  0
ARC
  5
3A
330
A
100
AcDbEntity
  8
0
  6
Continuous
 62
     7
100
AcDbCircle
 10
125.5829846735471
 20
449.7748
 30
0.0
 40
2.0
100
AcDbArc
 50
0.0
 51
90.0
  0
LINE
  5
3B
330
A
100
AcDbEntity
  8
0
  6
Continuous
 62
     7
100
AcDbLine
 10
82.08395183408324
 20
-79.92480000000002
 30
0.0
 11
82.08395183408324
 21
183.1302927789533
 31
0.0
  0
LINE
  5
3C
330
A
100
AcDbEntity
  8
0
  6
Continuous
 62
     7
100
AcDbLine
 10
57.08201751301101
 20
183.1302927789533
 30
0.0
 11
57.08201751301101
 21
-79.92480000000002
 31
0.0
  0
LINE
  5
3D
330
A
100
AcDbEntity
  8
0
  6
Continuous
 62
     7
100
AcDbLine
 10
188.4659518340832
 20
-118.5829
 30
0.0
 11
-49.29998248698897
 21
-118.5829
 31
0.0
  0
LINE
  5
3E
330
A
100
AcDbEntity
  8
0
  6
Continuous
 62
     7
100
AcDbLine
 10
189.5839518340831
 20
-125.9248
 30
0.0
 11
-50.41798248698857
 21
-125.9248
 31
0.0
  0
LINE
  5
3F
330
A
100
AcDbEntity
  8
0
  6
Continuous
 62
     7
100
AcDbLine
 10
182.5569518340834
 20
-113.6248
 30
0.0
 11
-43.39098248698944
 21
-113.6248
 31
0.0
  0
LINE
  5
40
330
A
100
AcDbEntity
  8
0
  6
Continuous
 62
     7
100
AcDbLine
 10
47.13620026417792
 20
-127.9248
 30
0.0
 11
27.13620026417792
 21
-127.9248
 31
0.0
  0
LINE
  5
41
330
A
100
AcDbEntity
  8
0
  6
Continuous
 62
     7
100
AcDbLine
 10
164.5297690829169
 20
-127.9248
 30
0.0
 11
144.5297690829169
 21
-127.9248
 31
0.0
  0
LINE
  5
42
330
A
100
AcDbEntity
  8
0
  6
Continuous
 62
     7
100
AcDbLine
 10
82.08395183408324
 20
-82.94529999999999
 30
0.0
 11
57.08201751301101
 21
-82.94529999999999
 31
0.0
  0
LINE
  5
43
330
A
100
AcDbEntity
  8
0
  6
Continuous
 62
     7
100
AcDbLine
 10
82.08395183408324
 20
-79.92480000000002
 30
0.0
 11
57.08201751301101
 21
-79.92480000000002
 31
0.0
  0
LINE
  5
44
330
A
100
AcDbEntity
  8
0
  6
Continuous
 62
     7
100
AcDbLine
 10
-25.41701532645288
 20
-127.9248
 30
0.0
 11
-45.41701532645286
 21
-127.9248
 31
0.0
  0
LINE
  5
45
330
A
100
AcDbEntity
  8
0
  6
Continuous
 62
     7
100
AcDbLine
 10
244.2126211120509
 20
183.7165296777867
 30
0.0
 11
-104.3140655750363
 21
183.7165296777865
 31
0.0
  0
LWPOLYLINE
  5
46
330
A
100
AcDbEntity
  8
0
  6
Continuous
 62
     7
100
AcDbPolyline
 90
        4
 70
   128
 43
0.0
 10
-104.3140655750363
 20
183.7165296777865
 10
-103.7626254174443
 20
183.3272890760842
 10
-103.113554110532
 20
183.1423452896656
 10
-102.8933771747555
 20
183.1302927789533
  0
LINE
  5
4C
330
A
100
AcDbEntity
  8
0
  6
Continuous
 62
     7
100
AcDbLine
 10
-102.8933771747555
 20
183.1302927789533
 30
0.0
 11
-102.983221665396
 21
183.1302927789533
 31
0.0
  0
LWPOLYLINE
  5
4D
330
A
100
AcDbEntity
  8
0
  6
Continuous
 62
     7
100
AcDbPolyline
 90
        5
 70
   128
 43
0.0
 10
-104.3054783368836
 20
183.6441517478801
 10
-104.6890089374532
 20
184.0758270955829
 10
-104.9432891416958
 20
184.6982919834257
 10
-104.9764866537685
 20
185.3676775602717
 10
-104.9221114936951
 20
185.6485460863892
  0
LWPOLYLINE
  5
54
330
A
100
AcDbEntity
  8
0
  6
Continuous
 62
     7
100
AcDbPolyline
 90
        3
 70
   128
 43
0.0
 10
-104.922111493695
 20
185.6485460863892
 10
-94.35047195502908
 20
224.8981911767953
 10
-34.49809329465784
 20
446.5305260743206
  0
LINE
  5
59
330
A
100
AcDbEntity
  8
0
  6
Continuous
 62
     7
100
AcDbLine
 10
-32.49705583701503
 20
448.0041352382191
 30
0.0
 11
172.9860175130111
 21
448.0041352382191
 31
0.0
  0
LWPOLYLINE
  5
5A
330
A
100
AcDbEntity
  8
0
  6
Continuous
 62
     7
100
AcDbPolyline
 90
        5
 70
   128
 43
0.0
 10
-34.49809329465784
 20
446.5305260743206
 10
-34.21634762800927
 20
447.1383958632739
 10
-33.74974538255038
 20
447.6189491877883
 10
-33.14717550275595
 20
447.9217903825909
 10
-32.54606920169645
 20
448.0122727668847
  0
LINE
  5
61
330
A
100
AcDbEntity
  8
0
  6
Continuous
 62
     7
100
AcDbLine
 10
-32.54606920169643
 20
448.0122727668847
 30
0.0
 11
-32.31447946312059
 21
448.0122727668847
 31
0.0
  0
LINE
  5
62
330
A
100
AcDbEntity
  8
0
  6
Continuous
 62
     7
100
AcDbLine
 10
-32.31447946312059
 20
448.0122727668847
 30
0.0
 11
-32.49705583701503
 21
448.0041352382191
 31
0.0
  0
LINE
  5
63
330
A
100
AcDbEntity
  8
0
  6
Continuous
 62
     7
100
AcDbLine
 10
13.97947758991075
 20
448.0122727668847
 30
0.0
 11
-32.31447946312059
 21
448.0122727668847
 31
0.0
  0
LINE
  5
64
330
A
100
AcDbEntity
  8
0
  6
Continuous
 62
     7
100
AcDbLine
 10
69.58298467354712
 20
183.1302927789533
 30
0.0
 11
-102.8933771747555
 21
183.1302927789533
 31
0.0
  0
LINE
  5
65
330
A
100
AcDbEntity
  8
0
  6
Continuous
 62
     7
100
AcDbLine
 10
85.58298467354712
 20
183.1302927789533
 30
0.0
 11
69.58298467354712
 21
183.1302927789533
 31
0.0
  0
LINE
  5
66
330
A
100
AcDbEntity
  8
0
  6
Continuous
 62
     7
100
AcDbLine
 10
13.55620536222136
 20
448.0122727668847
 30
0.0
 11
13.55620536222136
 21
449.7748
 31
0.0
  0
LINE
  5
67
330
A
100
AcDbEntity
  8
0
  6
Continuous
 62
     7
100
AcDbLine
 10
15.62930083268228
 20
451.7748
 30
0.0
 11
125.582984673547
 21
451.7748
 31
0.0
  0
LWPOLYLINE
  5
68
330
A
100
AcDbEntity
  8
0
  6
Continuous
 62
     7
100
AcDbPolyline
 90
        7
 70
   128
 43
0.0
 10
13.55620536222136
 20
449.7748
 10
13.59447193614298
 20
450.1575389629336
 10
13.70364190667592
 20
450.5159828987171
 10
14.06301952358972
 20
451.0855842928334
 10
14.58902217615366
 20
451.5051462925227
 10
15.23788552946579
 20
451.7389060711551
 10
15.62930083268228
 20
451.7748
  0
LINE
  5
71
330
A
100
AcDbEntity
  8
0
  6
Continuous
 62
     7
100
AcDbLine
 10
84.5829846735471
 20
451.7748
 30
0.0
 11
82.08395183408324
 21
451.7748
 31
0.0
  0
LINE
  5
72
330
A
100
AcDbEntity
  8
0
  6
Continuous
 62
     7
100
AcDbLine
 10
57.08201751301101
 20
451.7748
 30
0.0
 11
15.62930083268228
 21
451.7748
 31
0.0
  0
LINE
  5
73
330
A
100
AcDbEntity
  8
0
  6
Continuous
 62
     7
100
AcDbLine
 10
69.58298467354712
 20
-79.92480000000002
 30
0.0
 11
82.08395183408324
 21
-79.92480000000002
 31
0.0
  0
LINE
  5
74
330
A
100
AcDbEntity
  8
0
  6
Continuous
 62
     7
100
AcDbLine
 10
57.08201751301101
 20
-79.92480000000002
 30
0.0
 11
69.58298467354712
 21
-79.92480000000002
 31
0.0
  0
LINE
  5
75
330
A
100
AcDbEntity
  8
0
  6
PHANTOM
 62
     7
100
AcDbLine
 10
-104.922111493695
 20
185.6485460863892
 30
0.0
 11
244.7296439325234
 21
185.6485460863892
 31
0.0
  0
LINE
  5
76
330
A
100
AcDbEntity
  8
0
  6
PHANTOM
 62
     7
100
AcDbLine
 10
174.7374713218203
 20
446.5305260743206
 30
0.0
 11
-34.49809329465784
 21
446.5305260743206
 31
0.0
  0
LINE
  5
77
330
A
100
AcDbEntity
  8
0
  6
PHANTOM
 62
     7
100
AcDbLine
 10
69.58298467354712
 20
183.7165296777867
 30
0.0
 11
69.58298467354712
 21
183.1302927789533
 31
0.0
  0
LINE
  5
78
330
A
100
AcDbEntity
  8
0
  6
PHANTOM
 62
     7
100
AcDbLine
 10
127.5829846735472
 20
449.7748
 30
0.0
 11
13.55620536222136
 21
449.7748
 31
0.0
  0
LINE
  5
79
330
A
100
AcDbEntity
  8
0
  6
Continuous
 62
     7
100
AcDbLine
 10
49.63592205932096
 20
-354.7268167858105
 30
0.0
 11
48.95317457923201
 21
-353.5442634615566
 31
0.0
  0
LINE
  5
7A
330
A
100
AcDbEntity
  8
0
  6
Continuous
 62
     7
100
AcDbLine
 10
20.37433625434423
 20
-370.0442634615543
 30
0.0
 11
21.0570837344332
 21
-371.2268167858082
 31
0.0
  0
ARC
  5
7B
330
A
100
AcDbEntity
  8
0
  6
Continuous
 62
     7
100
AcDbCircle
 10
31.8735393435387
 20
-356.9614674585912
 30
0.0
 40
30.00000000000007
100
AcDbArc
 50
144.8998987913976
 51
255.4360082044517
  0
ARC
  5
7C
330
A
100
AcDbEntity
  8
0
  6
Continuous
 62
     7
100
AcDbCircle
 10
31.8735393435387
 20
-356.9614674585912
 30
0.0
 40
30.00000000000002
100
AcDbArc
 50
344.56399179555
 51
95.09882857181883
  0
LINE
  5
7D
330
A
100
AcDbEntity
  8
0
  6
Continuous
 62
     7
100
AcDbLine
 10
21.05708373443603
 20
-473.3254686050032
 30
0.0
 11
20.37433625434691
 21
-474.5080219292569
 31
0.0
  0
LINE
  5
7E
330
A
100
AcDbEntity
  8
0
  6
Continuous
 62
     7
100
AcDbLine
 10
48.95317457923217
 20
-491.008021929259
 30
0.0
 11
49.63592205932128
 21
-489.8254686050052
 31
0.0
  0
ARC
  5
7F
330
A
100
AcDbEntity
  8
0
  6
Continuous
 62
     7
100
AcDbCircle
 10
31.87353934353943
 20
-487.5908179322216
 30
0.0
 40
30.0
100
AcDbArc
 50
264.9011714281777
 51
15.43600820444966
  0
ARC
  5
80
330
A
100
AcDbEntity
  8
0
  6
Continuous
 62
     7
100
AcDbCircle
 10
31.87353934353943
 20
-487.5908179322216
 30
0.0
 40
30.00000000000002
100
AcDbArc
 50
104.5639917955509
 51
215.100101208608
  0
LINE
  5
81
330
A
100
AcDbEntity
  8
0
  6
Continuous
 62
     7
100
AcDbLine
 10
138.0559482268845
 20
-438.7761426954066
 30
0.0
 11
139.4214431870626
 21
-438.7761426954067
 31
0.0
  0
LINE
  5
82
330
A
100
AcDbEntity
  8
0
  6
Continuous
 62
     7
100
AcDbLine
 10
139.4214431870653
 20
-405.7761426954066
 30
0.0
 11
138.0559482268872
 21
-405.7761426954066
 31
0.0
  0
ARC
  5
83
330
A
100
AcDbEntity
  8
0
  6
Continuous
 62
     7
100
AcDbCircle
 10
145.0018753335635
 20
-422.276142695407
 30
0.0
 40
30.00000000000003
100
AcDbArc
 50
24.90948832411965
 51
135.4360082044497
  0
ARC
  5
84
330
A
100
AcDbEntity
  8
0
  6
Continuous
 62
     7
100
AcDbCircle
 10
145.0018753335635
 20
-422.276142695407
 30
0.0
 40
30.0
100
AcDbArc
 50
224.5639917955505
 51
335.0905116758807
  0
ARC
  5
85
330
A
100
AcDbEntity
  8
0
  6
Continuous
 62
     7
100
AcDbCircle
 10
69.58201751301102
 20
-422.2761426954057
 30
0.0
 40
175.2159397188978
100
AcDbArc
 50
184.9118886116631
 51
270.0000000000008
  0
ARC
  5
86
330
A
100
AcDbEntity
  8
0
  6
Continuous
 62
     7
100
AcDbCircle
 10
69.58201751301102
 20
-422.2761426954057
 30
0.0
 40
175.2159397188977
100
AcDbArc
 50
270.0000000000008
 51
175.088570624366
  0
LWPOLYLINE
  5
87
330
A
100
AcDbEntity
  8
0
  6
Continuous
 62
     7
100
AcDbPolyline
 90
       18
 70
   128
 43
0.0
 10
27.22183893452616
 20
-348.904486008594
 10
25.22786437157967
 20
-350.255659291826
 10
23.44955102132336
 20
-351.8779619612017
 10
21.92480054539889
 20
-353.7368174518848
 10
20.68611035300466
 20
-355.7926074863436
 10
19.75988097503933
 20
-358.0015164691539
 10
19.1658533826209
 20
-360.316465340345
 10
18.91668824256062
 20
-362.6881149838264
 10
19.01769607723076
 20
-365.0659178049873
 10
19.46672408000011
 20
-367.3991950649178
 10
20.2542019985697
 20
-369.638217009742
 10
21.36334610828518
 20
-371.7352627739846
 10
22.77051692808877
 20
-373.6456374679671
 10
24.44572305501625
 20
-375.3286247717848
 10
26.35326037888168
 20
-376.7483547329756
 10
28.45247305339821
 20
-377.8745682722813
 10
30.69862000495705
 20
-378.6832621033872
 10
31.18106847324144
 20
-378.8101464207934
  0
LWPOLYLINE
  5
9B
330
A
100
AcDbEntity
  8
0
  6
Continuous
 62
     7
100
AcDbPolyline
 90
       18
 70
   128
 43
0.0
 10
51.14128579908417
 20
-367.2861095746344
 10
51.2726249910109
 20
-366.8048547863798
 10
51.69534906516869
 20
-364.4552875501439
 10
51.76962586730221
 20
-362.0742092764135
 10
51.49387231632968
 20
-359.7123685146837
 10
50.87396562044051
 20
-357.4201038002803
 10
49.9231180146064
 20
-355.246270775875
 10
48.66159516473143
 20
-353.2372009182823
 10
47.11628424016754
 20
-351.4357140634697
 10
45.32012086037988
 20
-349.8802057760957
 10
43.31138712939917
 20
-348.6038290147097
 10
41.13289571923778
 20
-347.6337875339988
 10
38.83107739211494
 20
-346.9907560839866
 10
36.45499140937089
 20
-346.6884397636309
 10
34.05527991848561
 20
-346.7332819204337
 10
31.68308860362768
 20
-347.1243268216753
 10
29.38897660419283
 20
-347.8532400241984
 10
27.22183893452616
 20
-348.904486008594
  0
LWPOLYLINE
  5
AF
330
A
100
AcDbEntity
  8
0
  6
Continuous
 62
     7
100
AcDbPolyline
 90
       18
 70
   128
 43
0.0
 10
27.22183893452813
 20
-495.6477993822198
 10
29.38897660419505
 20
-496.6990453666154
 10
31.68308860362992
 20
-497.4279585691385
 10
34.05527991848785
 20
-497.8190034703799
 10
36.45499140937314
 20
-497.8638456271826
 10
38.83107739211718
 20
-497.5615293068269
 10
41.13289571923997
 20
-496.9184978568145
 10
43.31138712940132
 20
-495.9484563761036
 10
45.32012086038196
 20
-494.6720796147174
 10
47.11628424016955
 20
-493.1165713273435
 10
48.66159516473336
 20
-491.3150844725308
 10
49.92311801460823
 20
-489.306014614938
 10
50.87396562044223
 20
-487.1321815905327
 10
51.49387231633132
 20
-484.8399168761292
 10
51.76962586730374
 20
-482.4780761143994
 10
51.69534906517011
 20
-480.096997840669
 10
51.27262499101222
 20
-477.747430604433
 10
51.14128579908573
 20
-477.2661758161794
  0
LWPOLYLINE
  5
C3
330
A
100
AcDbEntity
  8
0
  6
Continuous
 62
     7
100
AcDbPolyline
 90
       18
 70
   128
 43
0.0
 10
31.18106847324201
 20
-465.7421389700204
 10
30.69862000495791
 20
-465.8690232874264
 10
28.4524730533991
 20
-466.6777171185326
 10
26.35326037888264
 20
-467.8039306578383
 10
24.44572305501727
 20
-469.2236606190292
 10
22.77051692808986
 20
-470.906647922847
 10
21.36334610828637
 20
-472.8170226168296
 10
20.25420199857098
 20
-474.9140683810722
 10
19.4667240800015
 20
-477.1530903258965
 10
19.01769607723225
 20
-479.4863675858269
 10
18.91668824256222
 20
-481.8641704069879
 10
19.16585338262261
 20
-484.2358200504693
 10
19.75988097504114
 20
-486.5507689216603
 10
20.68611035300656
 20
-488.7596779044706
 10
21.92480054540086
 20
-490.8154679389293
 10
23.44955102132542
 20
-492.6743234296123
 10
25.22786437158179
 20
-494.296626098988
 10
27.22183893452813
 20
-495.6477993822198
  0
LWPOLYLINE
  5
D7
330
A
100
AcDbEntity
  8
0
  6
Continuous
 62
     7
100
AcDbPolyline
 90
       18
 70
   128
 43
0.0
 10
154.3052761515874
 20
-422.2761426954065
 10
154.132113044867
 20
-419.8737234277788
 10
153.6163143956884
 20
-417.52250755588
 10
152.768873556755
 20
-415.2726071639555
 10
151.6078522582639
 20
-413.1719749726941
 10
150.1579956534852
 20
-411.2653823102395
 10
148.4502049187808
 20
-409.5934648890606
 10
146.5208786486798
 20
-408.1918567262902
 10
144.411137083029
 20
-407.0904306665154
 10
142.1659457004721
 20
-406.3126616939589
 10
139.8331568573386
 20
-405.8751266039474
 10
137.4624898977483
 20
-405.7871506972976
 10
135.1044714721107
 20
-406.0506090277203
 10
132.8093586492941
 20
-406.6598864383061
 10
130.6260677744562
 20
-407.6019972388451
 10
128.6011319020733
 20
-408.8568619732698
 10
126.7777090246723
 20
-410.3977353783998
 10
126.4265997483149
 20
-410.7521058492476
  0
LWPOLYLINE
  5
EB
330
A
100
AcDbEntity
  8
0
  6
Continuous
 62
     7
100
AcDbPolyline
 90
       18
 70
   128
 43
0.0
 10
126.4265997483149
 20
-433.8001795415657
 10
126.7777090246726
 20
-434.1545500124138
 10
128.6011319020737
 20
-435.6954234175437
 10
130.6260677744566
 20
-436.9502881519683
 10
132.8093586492945
 20
-437.8923989525073
 10
135.1044714721111
 20
-438.5016763630929
 10
137.4624898977487
 20
-438.7651346935157
 10
139.8331568573391
 20
-438.6771587868658
 10
142.1659457004725
 20
-438.2396236968541
 10
144.4111370830294
 20
-437.4618547242977
 10
146.5208786486802
 20
-436.3604286645227
 10
148.4502049187812
 20
-434.9588205017522
 10
150.1579956534855
 20
-433.2869030805733
 10
151.6078522582642
 20
-431.3803104181188
 10
152.7688735567552
 20
-429.2796782268573
 10
153.6163143956885
 20
-427.0297778349327
 10
154.1321130448671
 20
-424.6785619630339
 10
154.3052761515874
 20
-422.2761426954065
  0
ARC
  5
FF
330
A
100
AcDbEntity
  8
0
  6
Continuous
 62
     7
100
AcDbCircle
 10
69.58298467354712
 20
-422.2761426954047
 30
0.0
 40
42.50096716053607
100
AcDbArc
 50
159.3331753338375
 51
200.666824666169
  0
ARC
  5
100
330
A
100
AcDbEntity
  8
0
  6
Continuous
 62
     7
100
AcDbCircle
 10
69.58298467354712
 20
-422.2761426954046
 30
0.0
 40
118.8828136786093
100
AcDbArc
 50
172.7414963703863
 51
187.2555634379534
  0
ARC
  5
101
330
A
100
AcDbEntity
  8
0
  6
Continuous
 62
     7
100
AcDbCircle
 10
69.58298467354712
 20
-422.2761426954046
 30
0.0
 40
118.8829671605361
100
AcDbArc
 50
172.7415061593169
 51
187.2555546678389
  0
ARC
  5
102
330
A
100
AcDbEntity
  8
0
  6
Continuous
 62
     7
100
AcDbCircle
 10
69.58298467354712
 20
-422.2761426954046
 30
0.0
 40
120.0009671605361
100
AcDbArc
 50
172.8133308061981
 51
187.1909449113416
  0
ARC
  5
103
330
A
100
AcDbEntity
  8
0
  6
Continuous
 62
     7
100
AcDbCircle
 10
69.58201751301102
 20
-422.2761426954066
 30
0.0
 40
103.404
100
AcDbArc
 50
189.1818394296074
 51
170.8181605703933
  0
LINE
  5
104
330
A
100
AcDbEntity
  8
0
  6
Continuous
 62
     7
100
AcDbLine
 10
-32.49705583701503
 20
-405.7761426954066
 30
0.0
 11
-32.31447946312062
 21
-405.7761426954066
 31
0.0
  0
LINE
  5
105
330
A
100
AcDbEntity
  8
0
  6
Continuous
 62
     7
100
AcDbLine
 10
-32.54606920169643
 20
-407.2761426954066
 30
0.0
 11
-34.49809329465784
 21
-407.2761426954066
 31
0.0
  0
LINE
  5
106
330
A
100
AcDbEntity
  8
0
  6
Continuous
 62
     7
100
AcDbLine
 10
-34.49809329465784
 20
-437.2761426954066
 30
0.0
 11
-32.54606920169643
 21
-437.2761426954066
 31
0.0
  0
LINE
  5
107
330
A
100
AcDbEntity
  8
0
  6
Continuous
 62
     7
100
AcDbLine
 10
-32.31447946312059
 20
-438.7761426954066
 30
0.0
 11
-32.49705583701503
 21
-438.7761426954066
 31
0.0
  0
LINE
  5
108
330
A
100
AcDbEntity
  8
0
  6
Continuous
 62
     7
100
AcDbLine
 10
13.97947758991075
 20
-438.7761426954066
 30
0.0
 11
-32.31447946312059
 21
-438.7761426954066
 31
0.0
  0
LINE
  5
109
330
A
100
AcDbEntity
  8
0
  6
Continuous
 62
     7
100
AcDbLine
 10
-32.31447946312062
 20
-405.7761426954066
 30
0.0
 11
13.97947758991075
 21
-405.7761426954066
 31
0.0
  0
LINE
  5
10A
330
A
100
AcDbEntity
  8
0
  6
Continuous
 62
     7
100
AcDbLine
 10
-32.54606920169643
 20
-437.2761426954066
 30
0.0
 11
13.43112974477908
 21
-437.2761426954066
 31
0.0
  0
LINE
  5
10B
330
A
100
AcDbEntity
  8
0
  6
Continuous
 62
     7
100
AcDbLine
 10
13.4314193511504
 20
-407.2761426954066
 30
0.0
 11
-32.54606920169643
 21
-407.2761426954066
 31
0.0
  0
LINE
  5
10C
330
A
100
AcDbEntity
  8
0
  6
Continuous
 62
     7
100
AcDbLine
 10
-104.922111493695
 20
-437.2761426954057
 30
0.0
 11
-34.49809329465784
 21
-437.2761426954066
 31
0.0
  0
LINE
  5
10D
330
A
100
AcDbEntity
  8
0
  6
Continuous
 62
     7
100
AcDbLine
 10
-34.49809329465784
 20
-407.2761426954066
 30
0.0
 11
-104.922111493695
 21
-407.2761426954057
 31
0.0
  0
LINE
  5
10E
330
A
100
AcDbEntity
  8
0
  6
Continuous
 62
     7
100
AcDbLine
 10
-104.922111493695
 20
-437.2761426954057
 30
0.0
 11
-104.9764866537685
 21
-437.2761426954057
 31
0.0
  0
LINE
  5
10F
330
A
100
AcDbEntity
  8
0
  6
Continuous
 62
     7
100
AcDbLine
 10
-104.922111493695
 20
-407.2761426954057
 30
0.0
 11
-104.9701929436617
 21
-407.2761426954057
 31
0.0
  0
LWPOLYLINE
  5
110
330
A
100
AcDbEntity
  8
0
  6
Continuous
 62
     7
100
AcDbPolyline
 90
        7
 70
   128
 43
0.0
 10
15.62930083268228
 20
-407.2761426954066
 10
15.07948334220428
 20
-407.2761426954066
 10
14.42347624542593
 20
-407.2761426954066
 10
13.91917091131599
 20
-407.2761426954066
 10
13.7036417476555
 20
-407.2761424754473
 10
13.55913237444273
 20
-407.2761426954066
 10
13.55620536222134
 20
-407.2761426954066
  0
ARC
  5
119
330
A
100
AcDbEntity
  8
0
  6
Continuous
 62
     7
100
AcDbCircle
 10
69.58298467354712
 20
-422.2761426954066
 30
0.0
 40
57.99999999999999
100
AcDbArc
 50
194.9882344823059
 51
165.0117655176949
  0
LINE
  5
11A
330
A
100
AcDbEntity
  8
0
  6
Continuous
 62
     7
100
AcDbLine
 10
13.55620536222136
 20
-437.2761426954066
 30
0.0
 11
15.62930083268228
 21
-437.2761426954066
 31
0.0
  0
ARC
  5
11B
330
A
100
AcDbEntity
  8
0
  6
Continuous
 62
     7
100
AcDbCircle
 10
69.58298467354712
 20
-422.2761426954066
 30
0.0
 40
15.0
100
AcDbArc
 50
270.0000000000008
 51
90.0
  0
LINE
  5
11C
330
A
100
AcDbEntity
  8
0
  6
Continuous
 62
     7
100
AcDbLine
 10
69.58298467354712
 20
-407.2761426954066
 30
0.0
 11
15.62930083268228
 21
-407.2761426954066
 31
0.0
  0
LINE
  5
11D
330
A
100
AcDbEntity
  8
0
  6
Continuous
 62
     7
100
AcDbLine
 10
15.62930083268228
 20
-437.2761426954066
 30
0.0
 11
69.58298467354712
 21
-437.2761426954066
 31
0.0
  0
CIRCLE
  5
11E
330
A
100
AcDbEntity
  8
0
  6
Continuous
 62
     7
100
AcDbCircle
 10
69.58298467354712
 20
-422.2761426954066
 30
0.0
 40
12.5009671605361
  0
LWPOLYLINE
  5
11F
330
A
100
AcDbEntity
  8
0
  6
PHANTOM
 62
     7
100
AcDbPolyline
 90
       12
 70
   128
 43
0.0
 10
26.53909145443707
 20
-347.72193268434
 10
24.54511689149057
 20
-349.0731059675718
 10
22.76680354123428
 20
-350.6954086369476
 10
21.24205306530979
 20
-352.5542641276307
 10
20.00336287291558
 20
-354.6100541620894
 10
19.07713349495025
 20
-356.8189631448997
 10
18.48310590253181
 20
-359.1339120160908
 10
18.23394076247153
 20
-361.5055616595723
 10
18.33494859714167
 20
-363.8833644807332
 10
18.78397659991102
 20
-366.2166417406636
 10
19.57145451848061
 20
-368.4556636854878
 10
20.37433625434423
 20
-370.0442634615543
  0
LWPOLYLINE
  5
12D
330
A
100
AcDbEntity
  8
0
  6
PHANTOM
 62
     7
100
AcDbPolyline
 90
       12
 70
   128
 43
0.0
 10
48.95317457923201
 20
-353.5442634615566
 10
47.97884768464235
 20
-352.0546475940282
 10
46.43353676007845
 20
-350.2531607392155
 10
44.63737338029079
 20
-348.6976524518416
 10
42.6286396493101
 20
-347.4212756904555
 10
40.45014823914869
 20
-346.4512342097446
 10
38.14832991202587
 20
-345.8082027597324
 10
35.7722439292818
 20
-345.5058864393769
 10
33.37253243839653
 20
-345.5507285961795
 10
31.00034112353859
 20
-345.9417734974212
 10
28.70622912410374
 20
-346.6706866999443
 10
26.53909145443707
 20
-347.72193268434
  0
LWPOLYLINE
  5
13B
330
A
100
AcDbEntity
  8
0
  6
PHANTOM
 62
     7
100
AcDbPolyline
 90
       20
 70
   128
 43
0.0
 10
23.39320198574318
 20
-342.2730922895661
 10
21.1078472728803
 20
-343.7968418868128
 10
19.03852411656501
 20
-345.6009688638597
 10
17.22063920972665
 20
-347.654604107931
 10
15.68529706713414
 20
-349.9226093506254
 10
14.45876781852449
 20
-352.3661783934304
 10
13.56203771939957
 20
-354.9435010925385
 10
13.01045007037596
 20
-357.610478741999
 10
12.81344268905744
 20
-360.3214786148037
 10
12.97438642635913
 20
-363.0301147514978
 10
13.49052749031377
 20
-365.6900416368066
 10
14.35303456421576
 20
-368.2557471842515
 10
15.5471499128985
 20
-370.6833314605677
 10
17.0524418916747
 20
-372.9312578257339
 10
18.84315453744171
 20
-374.9610636363993
 10
20.88864826035115
 20
-376.7380183523747
 10
23.153924095686
 20
-378.2317177858049
 10
25.60022254585057
 20
-379.4166043252523
 10
28.18568676612049
 20
-380.2724042335143
 10
29.31543450891324
 20
-380.5325874594341
  0
LWPOLYLINE
  5
151
330
A
100
AcDbEntity
  8
0
  6
PHANTOM
 62
     7
100
AcDbPolyline
 90
       20
 70
   128
 43
0.0
 10
53.56578047723238
 20
-366.5316436866834
 10
53.90532906534378
 20
-365.4231618285962
 10
54.4569167143674
 20
-362.7561841791357
 10
54.6539240956859
 20
-360.045184306331
 10
54.49298035838418
 20
-357.336548169637
 10
53.97683929442952
 20
-354.6766212843281
 10
53.11433222052752
 20
-352.1109157368832
 10
51.92021687184475
 20
-349.683331460567
 10
50.41492489306854
 20
-347.4354050954008
 10
48.6242122473015
 20
-345.4055992847354
 10
46.57871852439206
 20
-343.6286445687601
 10
44.3134426890572
 20
-342.1349451353298
 10
41.86714423889261
 20
-340.9500585958824
 10
39.28168001862269
 20
-340.0942586876205
 10
36.60128803788234
 20
-339.5821883842469
 10
33.87183054660709
 20
-339.4226093506251
 10
31.14000931922124
 20
-339.618252028264
 10
28.45256657432931
 20
-340.1657689167067
 10
25.85548520239628
 20
-341.0557918501918
 10
23.39320198574318
 20
-342.2730922895661
  0
LWPOLYLINE
  5
167
330
A
100
AcDbEntity
  8
0
  6
PHANTOM
 62
     7
100
AcDbPolyline
 90
       12
 70
   128
 43
0.0
 10
26.53909145443888
 20
-496.8303527064738
 10
28.70622912410579
 20
-497.8815986908694
 10
31.00034112354066
 20
-498.6105118933925
 10
33.3725324383986
 20
-499.001556794634
 10
35.77224392928388
 20
-499.0463989514366
 10
38.14832991202793
 20
-498.7440826310809
 10
40.45014823915074
 20
-498.1010511810686
 10
42.62863964931207
 20
-497.1310097003575
 10
44.63737338029271
 20
-495.8546329389715
 10
46.4335367600803
 20
-494.2991246515974
 10
47.97884768464412
 20
-492.4976377967848
 10
48.95317457923217
 20
-491.008021929259
  0
LWPOLYLINE
  5
175
330
A
100
AcDbEntity
  8
0
  6
PHANTOM
 62
     7
100
AcDbPolyline
 90
       12
 70
   128
 43
0.0
 10
20.37433625434691
 20
-474.5080219292569
 10
19.57145451848172
 20
-476.0966217053262
 10
18.78397659991224
 20
-478.3356436501505
 10
18.33494859714299
 20
-480.6689209100809
 10
18.23394076247296
 20
-483.0467237312419
 10
18.48310590253334
 20
-485.4183733747233
 10
19.07713349495188
 20
-487.7333222459143
 10
20.0033628729173
 20
-489.9422312287247
 10
21.24205306531161
 20
-491.9980212631833
 10
22.76680354123617
 20
-493.8568767538663
 10
24.54511689149253
 20
-495.479179423242
 10
26.53909145443888
 20
-496.8303527064738
  0
LWPOLYLINE
  5
183
330
A
100
AcDbEntity
  8
0
  6
PHANTOM
 62
     7
100
AcDbPolyline
 90
       20
 70
   128
 43
0.0
 10
23.39320198574495
 20
-502.2791931012474
 10
25.85548520239835
 20
-503.4964935406218
 10
28.45256657433141
 20
-504.3865164741068
 10
31.14000931922336
 20
-504.9340333625495
 10
33.87183054660921
 20
-505.1296760401883
 10
36.60128803788444
 20
-504.9700970065663
 10
39.28168001862476
 20
-504.4580267031926
 10
41.86714423889464
 20
-503.6022267949306
 10
44.31344268905918
 20
-502.4173402554829
 10
46.57871852439396
 20
-500.9236408220528
 10
48.62421224730332
 20
-499.1466861060772
 10
50.41492489307026
 20
-497.1168802954117
 10
51.92021687184638
 20
-494.8689539302455
 10
53.11433222052903
 20
-492.4413696539294
 10
53.97683929443092
 20
-489.8756641064844
 10
54.49298035838547
 20
-487.2157372211755
 10
54.65392409568706
 20
-484.5071010844813
 10
54.45691671436843
 20
-481.7961012116767
 10
53.90532906534473
 20
-479.1291235622161
 10
53.56578047723367
 20
-478.0206417041303
  0
LWPOLYLINE
  5
199
330
A
100
AcDbEntity
  8
0
  6
PHANTOM
 62
     7
100
AcDbPolyline
 90
       20
 70
   128
 43
0.0
 10
29.31543450891343
 20
-464.0196979313794
 10
28.18568676612085
 20
-464.2798811572991
 10
25.60022254585097
 20
-465.1356810655612
 10
23.15392409568645
 20
-466.3205676050087
 10
20.88864826035166
 20
-467.814267038439
 10
18.84315453744233
 20
-469.5912217544146
 10
17.05244189167539
 20
-471.62102756508
 10
15.54714991289929
 20
-473.8689539302463
 10
14.35303456421667
 20
-476.2965382065625
 10
13.49052749031479
 20
-478.8622437540074
 10
12.97438642636026
 20
-481.5221706393163
 10
12.81344268905869
 20
-484.2308067760105
 10
13.01045007037732
 20
-486.9418066488152
 10
13.56203771940105
 20
-489.6087842982757
 10
14.45876781852608
 20
-492.1861069973837
 10
15.68529706713584
 20
-494.6296760401887
 10
17.22063920972845
 20
-496.897681282883
 10
19.03852411656689
 20
-498.9513165269542
 10
21.10784727288224
 20
-500.755443504001
 10
23.39320198574495
 20
-502.2791931012474
  0
LWPOLYLINE
  5
1AF
330
A
100
AcDbEntity
  8
0
  6
PHANTOM
 62
     7
100
AcDbPolyline
 90
       12
 70
   128
 43
0.0
 10
155.6707711117657
 20
-422.2761426954066
 10
155.4976080050453
 20
-419.873723427779
 10
154.9818093558668
 20
-417.5225075558802
 10
154.1343685169333
 20
-415.2726071639555
 10
152.9733472184423
 20
-413.1719749726942
 10
151.5234906136635
 20
-411.2653823102395
 10
149.8156998789592
 20
-409.5934648890607
 10
147.8863736088581
 20
-408.1918567262903
 10
145.7766320432073
 20
-407.0904306665154
 10
143.5314406606504
 20
-406.312661693959
 10
141.198651817517
 20
-405.8751266039475
 10
139.4214431870653
 20
-405.7761426954066
  0
LWPOLYLINE
  5
1BD
330
A
100
AcDbEntity
  8
0
  6
PHANTOM
 62
     7
100
AcDbPolyline
 90
       12
 70
   128
 43
0.0
 10
139.4214431870626
 20
-438.7761426954067
 10
141.1986518175174
 20
-438.6771587868658
 10
143.5314406606508
 20
-438.2396236968542
 10
145.7766320432077
 20
-437.4618547242978
 10
147.8863736088585
 20
-436.3604286645228
 10
149.8156998789595
 20
-434.9588205017523
 10
151.5234906136638
 20
-433.2869030805735
 10
152.9733472184425
 20
-431.3803104181189
 10
154.1343685169335
 20
-429.2796782268574
 10
154.9818093558669
 20
-427.0297778349329
 10
155.4976080050454
 20
-424.6785619630339
 10
155.6707711117657
 20
-422.2761426954066
  0
LWPOLYLINE
  5
1CB
330
A
100
AcDbEntity
  8
0
  6
PHANTOM
 62
     7
100
AcDbPolyline
 90
       20
 70
   128
 43
0.0
 10
161.9625500491536
 20
-422.2761426954066
 10
161.7856215453631
 20
-419.5350926587854
 10
161.2578633297453
 20
-416.8409427482536
 10
160.3883054916917
 20
-414.2397906157397
 10
159.1918264068984
 20
-411.7761426954065
 10
157.6888981642328
 20
-409.4921526862234
 10
155.9052362826174
 20
-407.426900290489
 10
153.8713597113711
 20
-405.6157225492906
 10
151.6220686425252
 20
-404.0896092159334
 10
149.1958490698887
 20
-402.8746725126695
 10
146.6342142830247
 20
-401.9917003433362
 10
143.9809945633558
 20
-401.4558006065566
 10
141.2815872358969
 20
-401.2761426954067
 10
138.582179908438
 20
-401.4558006065566
 10
135.9289601887691
 20
-401.9917003433363
 10
133.3673254019051
 20
-402.8746725126698
 10
130.9411058292686
 20
-404.0896092159336
 10
128.6918147604227
 20
-405.6157225492909
 10
126.6579381891764
 20
-407.4269002904894
 10
125.8677390344952
 20
-408.2751989226558
  0
LWPOLYLINE
  5
1E1
330
A
100
AcDbEntity
  8
0
  6
PHANTOM
 62
     7
100
AcDbPolyline
 90
       20
 70
   128
 43
0.0
 10
125.8677390344952
 20
-436.2770864681577
 10
126.6579381891768
 20
-437.1253851003245
 10
128.6918147604231
 20
-438.936562841523
 10
130.9411058292691
 20
-440.4626761748803
 10
133.3673254019056
 20
-441.677612878144
 10
135.9289601887696
 20
-442.5605850474774
 10
138.5821799084385
 20
-443.0964847842569
 10
141.2815872358974
 20
-443.2761426954068
 10
143.9809945633563
 20
-443.0964847842568
 10
146.6342142830252
 20
-442.5605850474773
 10
149.1958490698892
 20
-441.6776128781438
 10
151.6220686425256
 20
-440.4626761748799
 10
153.8713597113716
 20
-438.9365628415226
 10
155.9052362826179
 20
-437.125385100324
 10
157.6888981642332
 20
-435.0601327045896
 10
159.1918264068987
 20
-432.7761426954064
 10
160.3883054916919
 20
-430.3124947750733
 10
161.2578633297454
 20
-427.7113426425593
 10
161.7856215453632
 20
-425.0171927320273
 10
161.9625500491536
 20
-422.2761426954066
  0
ARC
  5
1F7
330
A
100
AcDbEntity
  8
0
  6
PHANTOM
 62
     7
100
AcDbCircle
 10
69.58298467354712
 20
-422.2761426954047
 30
0.0
 40
112.9739671605361
100
AcDbArc
 50
172.358361631633
 51
187.6341802988873
  0
ARC
  5
1F8
330
A
100
AcDbEntity
  8
0
  6
PHANTOM
 62
     7
100
AcDbCircle
 10
69.58201751301102
 20
-422.2761426954066
 30
0.0
 40
103.2237671081946
100
AcDbArc
 50
170.801989673189
 51
171.6444579607737
  0
ARC
  5
1F9
330
A
100
AcDbEntity
  8
0
  6
PHANTOM
 62
     7
100
AcDbCircle
 10
69.58201751301102
 20
-422.2761426954066
 30
0.0
 40
105.1554538088093
100
AcDbArc
 50
188.2009852505884
 51
171.7990147494124
  0
ARC
  5
1FA
330
A
100
AcDbEntity
  8
0
  6
PHANTOM
 62
     7
100
AcDbCircle
 10
69.58201751301102
 20
-422.2761426954066
 30
0.0
 40
103.2237671081946
100
AcDbArc
 50
188.355542039227
 51
189.1980103268118
  0
ARC
  5
1FB
330
A
100
AcDbEntity
  8
0
  6
PHANTOM
 62
     7
100
AcDbCircle
 10
69.58201751301102
 20
-422.2761426954057
 30
0.0
 40
175.1476264195124
100
AcDbArc
 50
184.9129456746961
 51
175.0870543253047
  0
ARC
  5
1FC
330
A
100
AcDbEntity
  8
0
  6
PHANTOM
 62
     7
100
AcDbCircle
 10
69.58298467354712
 20
-422.2761426954066
 30
0.0
 40
55.99999999999999
100
AcDbArc
 50
195.5367940681519
 51
164.4632059318488
  0
LINE
  5
1FD
330
A
100
AcDbEntity
  8
0
  6
Continuous
 62
     7
100
AcDbLine
 10
638.9403956268944
 20
-125.9248
 30
0.0
 11
637.8223956268945
 21
-118.5829
 31
0.0
  0
LINE
  5
1FE
330
A
100
AcDbEntity
  8
0
  6
Continuous
 62
     7
100
AcDbLine
 10
400.0564613058221
 20
-118.5829
 30
0.0
 11
398.9384613058222
 21
-125.9248
 31
0.0
  0
ARC
  5
1FF
330
A
100
AcDbEntity
  8
0
  6
Continuous
 62
     7
100
AcDbCircle
 10
631.9133956268943
 20
-119.6248
 30
0.0
 40
6.000000000000014
100
AcDbArc
 50
10.00000000000162
 51
90.0
  0
ARC
  5
200
330
A
100
AcDbEntity
  8
0
  6
Continuous
 62
     7
100
AcDbCircle
 10
405.9654613058222
 20
-119.6248
 30
0.0
 40
6.000000000000014
100
AcDbArc
 50
90.0
 51
169.9999999999953
  0
LINE
  5
201
330
A
100
AcDbEntity
  8
0
  6
Continuous
 62
     7
100
AcDbLine
 10
508.9394284663586
 20
-125.9248
 30
0.0
 11
508.9394284663586
 21
-127.9248
 31
0.0
  0
LINE
  5
202
330
A
100
AcDbEntity
  8
0
  6
Continuous
 62
     7
100
AcDbLine
 10
528.9394284663586
 20
-127.9248
 30
0.0
 11
528.9394284663586
 21
-125.9248
 31
0.0
  0
ARC
  5
203
330
A
100
AcDbEntity
  8
0
  6
Continuous
 62
     7
100
AcDbCircle
 10
561.4326992798043
 20
-83.62480098722935
 30
0.0
 40
29.99999999999997
100
AcDbArc
 50
178.702137719998
 51
270.0000000000008
  0
ARC
  5
204
330
A
100
AcDbEntity
  8
0
  6
Continuous
 62
     7
100
AcDbCircle
 10
476.4461576529122
 20
-83.62480098722935
 30
0.0
 40
29.99999999999997
100
AcDbArc
 50
270.0000000000008
 51
1.297862279992475
  0
LINE
  5
205
330
A
100
AcDbEntity
  8
0
  6
Continuous
 62
     7
100
AcDbLine
 10
409.0784942553677
 20
-125.9248
 30
0.0
 11
409.0784942553677
 21
-127.9248
 31
0.0
  0
LINE
  5
206
330
A
100
AcDbEntity
  8
0
  6
Continuous
 62
     7
100
AcDbLine
 10
429.0784942553677
 20
-127.9248
 30
0.0
 11
429.0784942553677
 21
-125.9248
 31
0.0
  0
LINE
  5
207
330
A
100
AcDbEntity
  8
0
  6
Continuous
 62
     7
100
AcDbLine
 10
608.8003626773497
 20
-125.9248
 30
0.0
 11
608.8003626773497
 21
-127.9248
 31
0.0
  0
LINE
  5
208
330
A
100
AcDbEntity
  8
0
  6
Continuous
 62
     7
100
AcDbLine
 10
628.8003626773496
 20
-127.9248
 30
0.0
 11
628.8003626773496
 21
-125.9248
 31
0.0
  0
LINE
  5
209
330
A
100
AcDbEntity
  8
0
  6
Continuous
 62
     7
100
AcDbLine
 10
531.4403956268945
 20
-82.94529999999999
 30
0.0
 11
531.4403956268945
 21
-79.92480000000002
 31
0.0
  0
LINE
  5
20A
330
A
100
AcDbEntity
  8
0
  6
Continuous
 62
     7
100
AcDbLine
 10
506.4384613058221
 20
-79.92480000000002
 30
0.0
 11
506.4384613058221
 21
-82.94529999999999
 31
0.0
  0
LINE
  5
20B
330
A
100
AcDbEntity
  8
0
  6
Continuous
 62
     7
100
AcDbLine
 10
447.2219769756476
 20
-125.9248
 30
0.0
 11
447.2219769756476
 21
-127.9248
 31
0.0
  0
LINE
  5
20C
330
A
100
AcDbEntity
  8
0
  6
Continuous
 62
     7
100
AcDbLine
 10
467.2219769756475
 20
-127.9248
 30
0.0
 11
467.2219769756475
 21
-125.9248
 31
0.0
  0
LINE
  5
20D
330
A
100
AcDbEntity
  8
0
  6
Continuous
 62
     7
100
AcDbLine
 10
570.6568799570673
 20
-125.9248
 30
0.0
 11
570.6568799570673
 21
-127.9248
 31
0.0
  0
LINE
  5
20E
330
A
100
AcDbEntity
  8
0
  6
Continuous
 62
     7
100
AcDbLine
 10
590.6568799570672
 20
-127.9248
 30
0.0
 11
590.6568799570672
 21
-125.9248
 31
0.0
  0
ARC
  5
20F
330
A
100
AcDbEntity
  8
0
  6
Continuous
 62
     7
100
AcDbCircle
 10
345.7234887474605
 20
185.1302927789533
 30
0.0
 40
1.999999999999996
100
AcDbArc
 50
164.9817528144968
 51
224.9817528144867
  0
ARC
  5
210
330
A
100
AcDbEntity
  8
0
  6
Continuous
 62
     7
100
AcDbCircle
 10
692.1553681852562
 20
185.1302927789533
 30
0.0
 40
1.999999999999996
100
AcDbArc
 50
315.0182471855126
 51
15.01824718550322
  0
LINE
  5
211
330
A
100
AcDbEntity
  8
0
  6
Continuous
 62
     7
100
AcDbLine
 10
694.0870548858709
 20
185.6485460863892
 30
0.0
 11
624.0948822751676
 21
446.5305260743206
 31
0.0
  0
LINE
  5
212
330
A
100
AcDbEntity
  8
0
  6
Continuous
 62
     7
100
AcDbLine
 10
413.783974657549
 20
446.5305260743206
 30
0.0
 11
343.7918020468458
 21
185.6485460863892
 31
0.0
  0
ARC
  5
213
330
A
100
AcDbEntity
  8
0
  6
Continuous
 62
     7
100
AcDbCircle
 10
622.163195574553
 20
446.0122727668845
 30
0.0
 40
1.999999999999958
100
AcDbArc
 50
15.01824718551166
 51
84.8296938286843
  0
ARC
  5
214
330
A
100
AcDbEntity
  8
0
  6
Continuous
 62
     7
100
AcDbCircle
 10
415.7156613581636
 20
446.0122727668845
 30
0.0
 40
1.999999999999993
100
AcDbArc
 50
95.17030617131888
 51
164.9817528144908
  0
ARC
  5
215
330
A
100
AcDbEntity
  8
0
  6
Continuous
 62
     7
100
AcDbCircle
 10
462.9394284663582
 20
449.7748
 30
0.0
 40
2.0
100
AcDbArc
 50
90.0
 51
180.0000000000004
  0
ARC
  5
216
330
A
100
AcDbEntity
  8
0
  6
Continuous
 62
     7
100
AcDbCircle
 10
574.9394284663582
 20
449.7748
 30
0.0
 40
2.0
100
AcDbArc
 50
0.0
 51
90.0
  0
LINE
  5
217
330
A
100
AcDbEntity
  8
0
  6
Continuous
 62
     7
100
AcDbLine
 10
460.9394284663583
 20
449.7748
 30
0.0
 11
460.9394284663583
 21
448.0041352382191
 31
0.0
  0
LINE
  5
218
330
A
100
AcDbEntity
  8
0
  6
Continuous
 62
     7
100
AcDbLine
 10
576.9394284663582
 20
448.0041352382191
 30
0.0
 11
576.9394284663582
 21
449.7748
 31
0.0
  0
LINE
  5
219
330
A
100
AcDbEntity
  8
0
  6
Continuous
 62
     7
100
AcDbLine
 10
531.4403956268945
 20
-79.92480000000002
 30
0.0
 11
531.4403956268945
 21
451.7748
 31
0.0
  0
LINE
  5
21A
330
A
100
AcDbEntity
  8
0
  6
Continuous
 62
     7
100
AcDbLine
 10
506.4384613058221
 20
451.7748
 30
0.0
 11
506.4384613058221
 21
-79.92480000000002
 31
0.0
  0
LINE
  5
21B
330
A
100
AcDbEntity
  8
0
  6
Continuous
 62
     7
100
AcDbLine
 10
637.8223956268945
 20
-118.5829
 30
0.0
 11
400.0564613058221
 21
-118.5829
 31
0.0
  0
LINE
  5
21C
330
A
100
AcDbEntity
  8
0
  6
Continuous
 62
     7
100
AcDbLine
 10
638.9403956268944
 20
-125.9248
 30
0.0
 11
398.9384613058222
 21
-125.9248
 31
0.0
  0
LINE
  5
21D
330
A
100
AcDbEntity
  8
0
  6
Continuous
 62
     7
100
AcDbLine
 10
405.9654613058222
 20
-113.6248
 30
0.0
 11
631.9133956268943
 21
-113.6248
 31
0.0
  0
LINE
  5
21E
330
A
100
AcDbEntity
  8
0
  6
Continuous
 62
     7
100
AcDbLine
 10
528.9394284663586
 20
-127.9248
 30
0.0
 11
508.9394284663586
 21
-127.9248
 31
0.0
  0
LINE
  5
21F
330
A
100
AcDbEntity
  8
0
  6
Continuous
 62
     7
100
AcDbLine
 10
531.4403956268945
 20
-82.94529999999999
 30
0.0
 11
506.4384613058221
 21
-82.94529999999999
 31
0.0
  0
LINE
  5
220
330
A
100
AcDbEntity
  8
0
  6
Continuous
 62
     7
100
AcDbLine
 10
429.0784942553677
 20
-127.9248
 30
0.0
 11
409.0784942553677
 21
-127.9248
 31
0.0
  0
LINE
  5
221
330
A
100
AcDbEntity
  8
0
  6
Continuous
 62
     7
100
AcDbLine
 10
628.8003626773496
 20
-127.9248
 30
0.0
 11
608.8003626773497
 21
-127.9248
 31
0.0
  0
LINE
  5
222
330
A
100
AcDbEntity
  8
0
  6
Continuous
 62
     7
100
AcDbLine
 10
531.4403956268945
 20
-79.92480000000002
 30
0.0
 11
506.4384613058222
 21
-79.92480000000002
 31
0.0
  0
LINE
  5
223
330
A
100
AcDbEntity
  8
0
  6
Continuous
 62
     7
100
AcDbLine
 10
467.2219769756475
 20
-127.9248
 30
0.0
 11
447.2219769756476
 21
-127.9248
 31
0.0
  0
LINE
  5
224
330
A
100
AcDbEntity
  8
0
  6
Continuous
 62
     7
100
AcDbLine
 10
590.6568799570672
 20
-127.9248
 30
0.0
 11
570.6568799570673
 21
-127.9248
 31
0.0
  0
LINE
  5
225
330
A
100
AcDbEntity
  8
0
  6
Continuous
 62
     7
100
AcDbLine
 10
503.9394284663589
 20
183.1302927789533
 30
0.0
 11
502.9394284663589
 21
183.1302927789533
 31
0.0
  0
LINE
  5
226
330
A
100
AcDbEntity
  8
0
  6
Continuous
 62
     7
100
AcDbLine
 10
502.9394284663589
 20
183.1302927789533
 30
0.0
 11
502.9394284663589
 21
183.7165296777867
 31
0.0
  0
LINE
  5
227
330
A
100
AcDbEntity
  8
0
  6
Continuous
 62
     7
100
AcDbLine
 10
502.9394284663589
 20
183.7165296777867
 30
0.0
 11
344.3088248673181
 21
183.7165296777867
 31
0.0
  0
LINE
  5
228
330
A
100
AcDbEntity
  8
0
  6
Continuous
 62
     7
100
AcDbLine
 10
693.5700320653985
 20
183.7165296777867
 30
0.0
 11
534.9394284663588
 21
183.7165296777865
 31
0.0
  0
LINE
  5
229
330
A
100
AcDbEntity
  8
0
  6
Continuous
 62
     7
100
AcDbLine
 10
534.9394284663588
 20
183.7165296777865
 30
0.0
 11
534.9394284663588
 21
183.1302927789533
 31
0.0
  0
LINE
  5
22A
330
A
100
AcDbEntity
  8
0
  6
Continuous
 62
     7
100
AcDbLine
 10
534.9394284663588
 20
183.1302927789533
 30
0.0
 11
533.9394284663589
 21
183.1302927789533
 31
0.0
  0
LINE
  5
22B
330
A
100
AcDbEntity
  8
0
  6
Continuous
 62
     7
100
AcDbLine
 10
533.9394284663589
 20
183.1302927789533
 30
0.0
 11
533.9394284663589
 21
185.6485460863892
 31
0.0
  0
LINE
  5
22C
330
A
100
AcDbEntity
  8
0
  6
Continuous
 62
     7
100
AcDbLine
 10
503.9394284663589
 20
185.6485460863892
 30
0.0
 11
503.9394284663589
 21
183.1302927789533
 31
0.0
  0
LINE
  5
22D
330
A
100
AcDbEntity
  8
0
  6
Continuous
 62
     7
100
AcDbLine
 10
533.9394284663589
 20
185.6485460863892
 30
0.0
 11
533.9394284663586
 21
446.5305260743206
 31
0.0
  0
LINE
  5
22E
330
A
100
AcDbEntity
  8
0
  6
Continuous
 62
     7
100
AcDbLine
 10
503.9394284663587
 20
446.5305260743206
 30
0.0
 11
503.9394284663589
 21
185.6485460863892
 31
0.0
  0
LINE
  5
22F
330
A
100
AcDbEntity
  8
0
  6
Continuous
 62
     7
100
AcDbLine
 10
535.4394284663587
 20
448.0041352382191
 30
0.0
 11
622.3434284663584
 21
448.0041352382191
 31
0.0
  0
LINE
  5
230
330
A
100
AcDbEntity
  8
0
  6
Continuous
 62
     7
100
AcDbLine
 10
415.5354284663581
 20
448.0041352382191
 30
0.0
 11
502.4394284663586
 21
448.0041352382191
 31
0.0
  0
LINE
  5
231
330
A
100
AcDbEntity
  8
0
  6
Continuous
 62
     7
100
AcDbLine
 10
502.4394284663586
 20
448.0041352382191
 30
0.0
 11
502.4394284663586
 21
448.0122727668847
 31
0.0
  0
LINE
  5
232
330
A
100
AcDbEntity
  8
0
  6
Continuous
 62
     7
100
AcDbLine
 10
502.4394284663586
 20
448.0122727668847
 30
0.0
 11
503.9394284663586
 21
448.0122727668847
 31
0.0
  0
LINE
  5
233
330
A
100
AcDbEntity
  8
0
  6
Continuous
 62
     7
100
AcDbLine
 10
533.9394284663586
 20
448.0122727668847
 30
0.0
 11
535.4394284663587
 21
448.0122727668847
 31
0.0
  0
LINE
  5
234
330
A
100
AcDbEntity
  8
0
  6
Continuous
 62
     7
100
AcDbLine
 10
535.4394284663587
 20
448.0122727668847
 30
0.0
 11
535.4394284663587
 21
448.0041352382191
 31
0.0
  0
LINE
  5
235
330
A
100
AcDbEntity
  8
0
  6
Continuous
 62
     7
100
AcDbLine
 10
533.9394284663586
 20
446.5305260743206
 30
0.0
 11
533.9394284663586
 21
448.0122727668847
 31
0.0
  0
LINE
  5
236
330
A
100
AcDbEntity
  8
0
  6
Continuous
 62
     7
100
AcDbLine
 10
503.9394284663586
 20
448.0122727668847
 30
0.0
 11
503.9394284663587
 21
446.5305260743206
 31
0.0
  0
LINE
  5
237
330
A
100
AcDbEntity
  8
0
  6
Continuous
 62
     7
100
AcDbLine
 10
533.9394284663582
 20
448.0122727668847
 30
0.0
 11
531.4403956268945
 21
448.0122727668847
 31
0.0
  0
LINE
  5
238
330
A
100
AcDbEntity
  8
0
  6
Continuous
 62
     7
100
AcDbLine
 10
506.4384613058222
 20
448.0122727668847
 30
0.0
 11
503.9394284663583
 21
448.0122727668847
 31
0.0
  0
LINE
  5
239
330
A
100
AcDbEntity
  8
0
  6
Continuous
 62
     7
100
AcDbLine
 10
503.9394284663583
 20
183.1302927789533
 30
0.0
 11
506.4384613058222
 21
183.1302927789533
 31
0.0
  0
LINE
  5
23A
330
A
100
AcDbEntity
  8
0
  6
Continuous
 62
     7
100
AcDbLine
 10
531.4403956268945
 20
183.1302927789533
 30
0.0
 11
533.9394284663582
 21
183.1302927789533
 31
0.0
  0
LINE
  5
23B
330
A
100
AcDbEntity
  8
0
  6
Continuous
 62
     7
100
AcDbLine
 10
533.9394284663585
 20
451.7748
 30
0.0
 11
574.9394284663582
 21
451.7748
 31
0.0
  0
LINE
  5
23C
330
A
100
AcDbEntity
  8
0
  6
Continuous
 62
     7
100
AcDbLine
 10
462.9394284663582
 20
451.7748
 30
0.0
 11
503.9394284663585
 21
451.7748
 31
0.0
  0
LWPOLYLINE
  5
23D
330
A
100
AcDbEntity
  8
0
  6
Continuous
 62
     7
100
AcDbPolyline
 90
        7
 70
   128
 43
0.0
 10
503.9394284663585
 20
451.7748
 10
503.9394284663585
 20
451.7033192890122
 10
503.9394284663585
 20
451.4021253274927
 10
503.9394284663585
 20
450.9058543202376
 10
503.9394282463991
 20
450.5159829644128
 10
503.9394284663585
 20
449.8811095231205
 10
503.9394284663585
 20
449.7748
  0
LINE
  5
246
330
A
100
AcDbEntity
  8
0
  6
Continuous
 62
     7
100
AcDbLine
 10
533.9394284663585
 20
449.7748
 30
0.0
 11
533.9394284663585
 21
451.7748
 31
0.0
  0
LINE
  5
247
330
A
100
AcDbEntity
  8
0
  6
Continuous
 62
     7
100
AcDbLine
 10
533.9394284663585
 20
448.1251835505127
 30
0.0
 11
533.9394284663585
 21
449.7748
 31
0.0
  0
LINE
  5
248
330
A
100
AcDbEntity
  8
0
  6
Continuous
 62
     7
100
AcDbLine
 10
503.9394284663585
 20
449.7748
 30
0.0
 11
503.9394284663585
 21
448.127945819684
 31
0.0
  0
LINE
  5
249
330
A
100
AcDbEntity
  8
0
  6
Continuous
 62
     7
100
AcDbLine
 10
503.9394284663583
 20
270.0752
 30
0.0
 11
506.4384613058222
 21
270.0752
 31
0.0
  0
LINE
  5
24A
330
A
100
AcDbEntity
  8
0
  6
Continuous
 62
     7
100
AcDbLine
 10
531.4403956268945
 20
270.0752
 30
0.0
 11
533.9394284663582
 21
270.0752
 31
0.0
  0
LINE
  5
24B
330
A
100
AcDbEntity
  8
0
  6
Continuous
 62
     7
100
AcDbLine
 10
533.9394284663582
 20
451.7748
 30
0.0
 11
531.4403956268945
 21
451.7748
 31
0.0
  0
LINE
  5
24C
330
A
100
AcDbEntity
  8
0
  6
Continuous
 62
     7
100
AcDbLine
 10
506.4384613058221
 20
451.7748
 30
0.0
 11
503.9394284663583
 21
451.7748
 31
0.0
  0
LINE
  5
24D
330
A
100
AcDbEntity
  8
0
  6
Continuous
 62
     7
100
AcDbLine
 10
518.9394284663583
 20
451.7748
 30
0.0
 11
531.4403956268945
 21
451.7748
 31
0.0
  0
LINE
  5
24E
330
A
100
AcDbEntity
  8
0
  6
Continuous
 62
     7
100
AcDbLine
 10
506.4384613058221
 20
451.7748
 30
0.0
 11
518.9394284663583
 21
451.7748
 31
0.0
  0
LINE
  5
24F
330
A
100
AcDbEntity
  8
0
  6
Continuous
 62
     7
100
AcDbLine
 10
506.4384613058221
 20
-79.92480000000002
 30
0.0
 11
531.4403956268945
 21
-79.92480000000002
 31
0.0
  0
LINE
  5
250
330
A
100
AcDbEntity
  8
0
  6
PHANTOM
 62
     7
100
AcDbLine
 10
533.9394284663589
 20
185.6485460863892
 30
0.0
 11
694.0870548858709
 21
185.6485460863892
 31
0.0
  0
LINE
  5
251
330
A
100
AcDbEntity
  8
0
  6
PHANTOM
 62
     7
100
AcDbLine
 10
343.7918020468458
 20
185.6485460863892
 30
0.0
 11
503.9394284663589
 21
185.6485460863892
 31
0.0
  0
LINE
  5
252
330
A
100
AcDbEntity
  8
0
  6
PHANTOM
 62
     7
100
AcDbLine
 10
503.9394284663587
 20
446.5305260743206
 30
0.0
 11
413.783974657549
 21
446.5305260743206
 31
0.0
  0
LINE
  5
253
330
A
100
AcDbEntity
  8
0
  6
PHANTOM
 62
     7
100
AcDbLine
 10
624.0948822751676
 20
446.5305260743206
 30
0.0
 11
533.9394284663586
 21
446.5305260743206
 31
0.0
  0
LINE
  5
254
330
A
100
AcDbEntity
  8
0
  6
PHANTOM
 62
     7
100
AcDbLine
 10
503.9394284663585
 20
449.7748
 30
0.0
 11
460.9394284663583
 21
449.7748
 31
0.0
  0
LINE
  5
255
330
A
100
AcDbEntity
  8
0
  6
PHANTOM
 62
     7
100
AcDbLine
 10
576.9394284663582
 20
449.7748
 30
0.0
 11
533.9394284663585
 21
449.7748
 31
0.0
  0
ENDSEC
  0
SECTION
  2
OBJECTS
  0
DICTIONARY
  5
19
330
0
100
AcDbDictionary
281
     1
  3
ACAD_COLOR
350
25A
  3
ACAD_GROUP
350
1A
  3
ACAD_LAYOUT
350
25B
  3
ACAD_MATERIAL
350
259
  3
ACAD_MLINESTYLE
350
1B
  3
ACAD_PLOTSETTINGS
350
25C
  3
ACAD_PLOTSTYLENAME
350
257
  3
ACDBHEADERROUNDTRIPXREC
350
274
  3
AcDbVariableDictionary
350
26D
  3
ASE_INDEX_DICTIONARY
350
262
  0
DICTIONARY
  5
25A
102
{ACAD_REACTORS
330
19
102
}
330
19
100
AcDbDictionary
281
     1
  0
DICTIONARY
  5
1A
102
{ACAD_REACTORS
330
19
102
}
330
19
100
AcDbDictionary
281
     1
  0
DICTIONARY
  5
25B
102
{ACAD_REACTORS
330
19
102
}
330
19
100
AcDbDictionary
281
     1
  3
Layout1
350
25E
  3
Model
350
25D
  0
DICTIONARY
  5
259
102
{ACAD_REACTORS
330
19
102
}
330
19
100
AcDbDictionary
281
     1
  0
DICTIONARY
  5
1B
102
{ACAD_REACTORS
330
19
102
}
330
19
100
AcDbDictionary
281
     1
  3
STANDARD
350
1C
  0
DICTIONARY
  5
25C
102
{ACAD_REACTORS
330
19
102
}
330
19
100
AcDbDictionary
281
     1
  0
ACDBDICTIONARYWDFLT
  5
257
102
{ACAD_REACTORS
330
19
102
}
330
19
100
AcDbDictionary
281
     1
  3
Normal
350
258
100
AcDbDictionaryWithDefault
340
258
  0
DICTIONARY
  5
274
102
{ACAD_REACTORS
330
19
102
}
330
19
100
AcDbDictionary
281
     1
  3
COLORDICT
350
276
  3
MATERIALDICT
350
275
  0
DICTIONARY
  5
26D
102
{ACAD_REACTORS
330
19
102
}
330
19
100
AcDbDictionary
281
     1
  3
DIMASSOC
350
26E
  3
PROJECTNAME
350
26F
  0
DICTIONARY
  5
262
102
{ACAD_REACTORS
330
19
102
}
330
19
100
AcDbDictionary
281
     1
  3
ASEBlockHierarchyIndexRecord
350
264
1001
DCO15
1040
1522042132.359
  0
LAYOUT
  5
25E
102
{ACAD_XDICTIONARY
360
279
102
}
102
{ACAD_REACTORS
330
25B
102
}
330
25B
100
AcDbPlotSettings
  1

  2
ProgeSOFT PDF Wizard
  4

  6

 40
0.0
 41
0.0
 42
0.0
 43
0.0
 44
0.0
 45
0.0
 46
0.0
 47
0.0
 48
0.0
 49
0.0
140
0.0
141
0.0
142
1.0
143
1.0
 70
   688
 72
     0
 73
     0
 74
     5
  7

 75
    16
147
1.0
148
0.0
149
0.0
100
AcDbLayout
  1
Layout1
 70
     1
 71
     1
 10
0.0
 20
0.0
 11
12.0
 21
9.0
 12
0.0
 22
0.0
 32
0.0
 14
1.000000000000000E+20
 24
1.000000000000000E+20
 34
1.000000000000000E+20
 15
-1.000000000000000E+20
 25
-1.000000000000000E+20
 35
-1.000000000000000E+20
146
0.0
 13
0.0
 23
0.0
 33
0.0
 16
1.0
 26
0.0
 36
0.0
 17
0.0
 27
1.0
 37
0.0
 76
     0
330
B
  0
LAYOUT
  5
25D
102
{ACAD_XDICTIONARY
360
277
102
}
102
{ACAD_REACTORS
330
25B
102
}
330
25B
100
AcDbPlotSettings
  1

  2
ProgeSOFT PDF Wizard
  4

  6

 40
0.0
 41
0.0
 42
0.0
 43
0.0
 44
0.0
 45
0.0
 46
0.0
 47
0.0
 48
0.0
 49
0.0
140
0.0
141
0.0
142
1.0
143
1.0
 70
  1712
 72
     0
 73
     0
 74
     0
  7

 75
     0
147
1.0
148
0.0
149
0.0
100
AcDbLayout
  1
Model
 70
     1
 71
     0
 10
0.0
 20
0.0
 11
12.0
 21
9.0
 12
0.0
 22
0.0
 32
0.0
 14
0.0
 24
0.0
 34
0.0
 15
0.0
 25
0.0
 35
0.0
146
0.0
 13
0.0
 23
0.0
 33
0.0
 16
1.0
 26
0.0
 36
0.0
 17
0.0
 27
1.0
 37
0.0
 76
     0
330
A
  0
MLINESTYLE
  5
1C
102
{ACAD_REACTORS
330
1B
102
}
330
1B
100
AcDbMlineStyle
  2
STANDARD
 70
     0
  3

 62
     0
 51
90.0
 52
90.0
 71
     2
 49
0.5
 62
   256
  6
BYLAYER
 49
-0.5
 62
   256
  6
BYLAYER
  0
ACDBPLACEHOLDER
  5
258
102
{ACAD_REACTORS
330
257
102
}
330
257
  0
XRECORD
  5
276
102
{ACAD_REACTORS
330
274
102
}
330
274
100
AcDbXrecord
280
     1
340
25A
  0
XRECORD
  5
275
102
{ACAD_REACTORS
330
274
102
}
330
274
100
AcDbXrecord
280
     1
340
259
  0
DICTIONARYVAR
  5
26E
102
{ACAD_REACTORS
330
26D
102
}
330
26D
100
DictionaryVariables
280
     0
  1
1
  0
DICTIONARYVAR
  5
26F
102
{ACAD_REACTORS
330
26D
102
}
330
26D
100
DictionaryVariables
280
     0
  1

  0
XRECORD
  5
264
102
{ACAD_REACTORS
330
262
102
}
330
262
100
AcDbXrecord
280
     1
  0
DICTIONARY
  5
279
330
25E
100
AcDbDictionary
280
     1
281
     1
  3
ACAD_XREC_ROUNDTRIP
360
27A
  0
DICTIONARY
  5
277
330
25D
100
AcDbDictionary
280
     1
281
     1
  3
ACAD_XREC_ROUNDTRIP
360
278
  0
XRECORD
  5
27A
102
{ACAD_REACTORS
330
279
102
}
330
279
100
AcDbXrecord
280
     1
102
SHADEPLOT
 70
     0
102
SHADEPLOTRESLEVEL
 70
     2
102
SHADEPLOTCUSTOMDPI
 70
   300
  0
XRECORD
  5
278
102
{ACAD_REACTORS
330
277
102
}
330
277
100
AcDbXrecord
280
     1
102
SHADEPLOT
 70
     0
102
SHADEPLOTRESLEVEL
 70
     2
102
SHADEPLOTCUSTOMDPI
 70
   300
  0
ENDSEC
  0
EOF
