  0
SECTION
  2
HEADER
  9
$ACADVER
  1
AC1015
  9
$ACADMAINTVER
 70
    20
  9
$DWGCODEPAGE
  3
ANSI_1252
  9
$INSBASE
 10
0.0
 20
0.0
 30
0.0
  9
$EXTMIN
 10
-53.44337627761013
 20
-407.2994718801288
 30
0.0
  9
$EXTMAX
 10
525.7654594030647
 20
379.9249999999999
 30
0.0
  9
$LIMMIN
 10
0.0
 20
0.0
  9
$LIMMAX
 10
0.0
 20
0.0
  9
$ORTHOMODE
 70
     0
  9
$REGENMODE
 70
     1
  9
$FILLMODE
 70
     1
  9
$QTEXTMODE
 70
     0
  9
$MIRRTEXT
 70
     1
  9
$LTSCALE
 40
1.0
  9
$ATTMODE
 70
     1
  9
$TEXTSIZE
 40
0.0
  9
$TRACEWID
 40
0.05
  9
$TEXTSTYLE
  7
STANDARD
  9
$CLAYER
  8
0
  9
$CELTYPE
  6
CONTINUOUS
  9
$CECOLOR
 62
   256
  9
$CELTSCALE
 40
1.0
  9
$DISPSILH
 70
     0
  9
$DIMSCALE
 40
1.0
  9
$DIMASZ
 40
6.0
  9
$DIMEXO
 40
1.0
  9
$DIMDLI
 40
0.38
  9
$DIMRND
 40
0.0
  9
$DIMDLE
 40
1.0
  9
$DIMEXE
 40
0.18
  9
$DIMTP
 40
0.0
  9
$DIMTM
 40
0.0
  9
$DIMTXT
 40
3.5
  9
$DIMCEN
 40
0.09
  9
$DIMTSZ
 40
0.0
  9
$DIMTOL
 70
     0
  9
$DIMLIM
 70
     0
  9
$DIMTIH
 70
     1
  9
$DIMTOH
 70
     1
  9
$DIMSE1
 70
     0
  9
$DIMSE2
 70
     0
  9
$DIMTAD
 70
     1
  9
$DIMZIN
 70
     0
  9
$DIMBLK
  1

  9
$DIMASO
 70
     1
  9
$DIMSHO
 70
     1
  9
$DIMPOST
  1

  9
$DIMAPOST
  1

  9
$DIMALT
 70
     0
  9
$DIMALTD
 70
     2
  9
$DIMALTF
 40
0.0394
  9
$DIMLFAC
 40
1.0
  9
$DIMTOFL
 70
     0
  9
$DIMTVP
 40
0.0
  9
$DIMTIX
 70
     0
  9
$DIMSOXD
 70
     0
  9
$DIMSAH
 70
     0
  9
$DIMBLK1
  1

  9
$DIMBLK2
  1

  9
$DIMSTYLE
  2
STANDARD
  9
$DIMCLRD
 70
     0
  9
$DIMCLRE
 70
     0
  9
$DIMCLRT
 70
     0
  9
$DIMTFAC
 40
1.0
  9
$DIMGAP
 40
1.0
  9
$DIMJUST
 70
     0
  9
$DIMSD1
 70
     0
  9
$DIMSD2
 70
     0
  9
$DIMTOLJ
 70
     1
  9
$DIMTZIN
 70
     0
  9
$DIMALTZ
 70
     0
  9
$DIMALTTZ
 70
     0
  9
$DIMUPT
 70
     0
  9
$DIMDEC
 70
     4
  9
$DIMTDEC
 70
     4
  9
$DIMALTU
 70
     2
  9
$DIMALTTD
 70
     2
  9
$DIMTXSTY
  7
STANDARD
  9
$DIMAUNIT
 70
     0
  9
$DIMADEC
 70
     0
  9
$DIMALTRND
 40
0.0
  9
$DIMAZIN
 70
     0
  9
$DIMDSEP
 70
    46
  9
$DIMATFIT
 70
     3
  9
$DIMFRAC
 70
     0
  9
$DIMLDRBLK
  1

  9
$DIMLUNIT
 70
     2
  9
$DIMLWD
 70
    -2
  9
$DIMLWE
 70
    -2
  9
$DIMTMOVE
 70
     0
  9
$LUNITS
 70
     2
  9
$LUPREC
 70
     2
  9
$SKETCHINC
 40
0.1
  9
$FILLETRAD
 40
0.0
  9
$AUNITS
 70
     0
  9
$AUPREC
 70
     2
  9
$MENU
  1
acad
  9
$ELEVATION
 40
0.0
  9
$PELEVATION
 40
0.0
  9
$THICKNESS
 40
0.0
  9
$LIMCHECK
 70
     0
  9
$CHAMFERA
 40
0.0
  9
$CHAMFERB
 40
0.0
  9
$CHAMFERC
 40
0.0
  9
$CHAMFERD
 40
0.0
  9
$SKPOLY
 70
     0
  9
$TDCREATE
 40
2444972.041666667
  9
$TDUCREATE
 40
2444972.000000000
  9
$TDUPDATE
 40
2453768.758982384
  9
$TDUUPDATE
 40
2453768.717315718
  9
$TDINDWG
 40
0.0014807639
  9
$TDUSRTIMER
 40
0.0014807639
  9
$USRTIMER
 70
     1
  9
$ANGBASE
 50
0.0
  9
$ANGDIR
 70
     0
  9
$PDMODE
 70
     0
  9
$PDSIZE
 40
-1.0
  9
$PLINEWID
 40
0.0
  9
$SPLFRAME
 70
     0
  9
$SPLINETYPE
 70
     6
  9
$SPLINESEGS
 70
     8
  9
$HANDSEED
  5
4E9
  9
$SURFTAB1
 70
     6
  9
$SURFTAB2
 70
     6
  9
$SURFTYPE
 70
     6
  9
$SURFU
 70
     6
  9
$SURFV
 70
     6
  9
$UCSBASE
  2

  9
$UCSNAME
  2

  9
$UCSORG
 10
0.0
 20
0.0
 30
0.0
  9
$UCSXDIR
 10
1.0
 20
0.0
 30
0.0
  9
$UCSYDIR
 10
0.0
 20
1.0
 30
0.0
  9
$UCSORTHOREF
  2

  9
$UCSORTHOVIEW
 70
     1
  9
$UCSORGTOP
 10
0.0
 20
0.0
 30
0.0
  9
$UCSORGBOTTOM
 10
0.0
 20
0.0
 30
0.0
  9
$UCSORGLEFT
 10
0.0
 20
0.0
 30
0.0
  9
$UCSORGRIGHT
 10
0.0
 20
0.0
 30
0.0
  9
$UCSORGFRONT
 10
0.0
 20
0.0
 30
0.0
  9
$UCSORGBACK
 10
0.0
 20
0.0
 30
0.0
  9
$PUCSBASE
  2

  9
$PUCSNAME
  2

  9
$PUCSORG
 10
0.0
 20
0.0
 30
0.0
  9
$PUCSXDIR
 10
1.0
 20
0.0
 30
0.0
  9
$PUCSYDIR
 10
0.0
 20
1.0
 30
0.0
  9
$PUCSORTHOREF
  2

  9
$PUCSORTHOVIEW
 70
     0
  9
$PUCSORGTOP
 10
0.0
 20
0.0
 30
0.0
  9
$PUCSORGBOTTOM
 10
0.0
 20
0.0
 30
0.0
  9
$PUCSORGLEFT
 10
0.0
 20
0.0
 30
0.0
  9
$PUCSORGRIGHT
 10
0.0
 20
0.0
 30
0.0
  9
$PUCSORGFRONT
 10
0.0
 20
0.0
 30
0.0
  9
$PUCSORGBACK
 10
0.0
 20
0.0
 30
0.0
  9
$USERI1
 70
     0
  9
$USERI2
 70
     0
  9
$USERI3
 70
     0
  9
$USERI4
 70
     0
  9
$USERI5
 70
     0
  9
$USERR1
 40
0.0
  9
$USERR2
 40
0.0
  9
$USERR3
 40
0.0
  9
$USERR4
 40
0.0
  9
$USERR5
 40
0.0
  9
$WORLDVIEW
 70
     1
  9
$SHADEDGE
 70
     3
  9
$SHADEDIF
 70
    70
  9
$TILEMODE
 70
     1
  9
$MAXACTVP
 70
    16
  9
$PINSBASE
 10
0.0
 20
0.0
 30
0.0
  9
$PLIMCHECK
 70
     0
  9
$PEXTMIN
 10
1.000000000000000E+20
 20
1.000000000000000E+20
 30
1.000000000000000E+20
  9
$PEXTMAX
 10
-1.000000000000000E+20
 20
-1.000000000000000E+20
 30
-1.000000000000000E+20
  9
$PLIMMIN
 10
0.0
 20
0.0
  9
$PLIMMAX
 10
12.0
 20
9.0
  9
$UNITMODE
 70
     0
  9
$VISRETAIN
 70
     0
  9
$PLINEGEN
 70
     1
  9
$PSLTSCALE
 70
     1
  9
$TREEDEPTH
 70
  3020
  9
$CMLSTYLE
  2
STANDARD
  9
$CMLJUST
 70
     0
  9
$CMLSCALE
 40
1.0
  9
$PROXYGRAPHICS
 70
     0
  9
$MEASUREMENT
 70
     0
  9
$CELWEIGHT
370
    -1
  9
$ENDCAPS
280
     0
  9
$JOINSTYLE
280
     0
  9
$LWDISPLAY
290
     0
  9
$INSUNITS
 70
     0
  9
$HYPERLINKBASE
  1

  9
$STYLESHEET
  1

  9
$XEDIT
290
     1
  9
$CEPSNTYPE
380
     0
  9
$PSTYLEMODE
290
     1
  9
$FINGERPRINTGUID
  2
{D5D51391-145B-4F7D-BAEB-086AC811B753}
  9
$VERSIONGUID
  2
{925C678E-A3D9-47B1-A270-2CCF819D1B2F}
  9
$EXTNAMES
290
     1
  9
$PSVPSCALE
 40
0.0
  9
$OLESTARTUP
290
     0
  0
ENDSEC
  0
SECTION
  2
CLASSES
  0
CLASS
  1
IMAGE
  2
AcDbRasterImage
  3
ISM
 90
    32895
280
     0
281
     1
  0
CLASS
  1
DICTIONARYVAR
  2
AcDbDictionaryVar
  3
ObjectDBX Classes
 90
        0
280
     0
281
     0
  0
CLASS
  1
RASTERVARIABLES
  2
AcDbRasterVariables
  3
ISM
 90
    32768
280
     0
281
     0
  0
CLASS
  1
IMAGEDEF
  2
AcDbRasterImageDef
  3
ISM
 90
    32768
280
     0
281
     0
  0
CLASS
  1
IMAGEDEF_REACTOR
  2
AcDbRasterImageDefReactor
  3
ISM
 90
    32769
280
     0
281
     0
  0
CLASS
  1
IDBUFFER
  2
AcDbIdBuffer
  3
ObjectDBX Classes
 90
    32768
280
     0
281
     0
  0
CLASS
  1
SPATIAL_FILTER
  2
AcDbSpatialFilter
  3
ObjectDBX Classes
 90
    32768
280
     0
281
     0
  0
CLASS
  1
SORTENTSTABLE
  2
AcDbSortentsTable
  3
ObjectDBX Classes
 90
    32768
280
     0
281
     0
  0
CLASS
  1
LAYER_INDEX
  2
AcDbLayerIndex
  3
ObjectDBX Classes
 90
    32768
280
     0
281
     0
  0
CLASS
  1
SPATIAL_INDEX
  2
AcDbSpatialIndex
  3
ObjectDBX Classes
 90
    32768
280
     0
281
     0
  0
CLASS
  1
OBJECT_PTR
  2
CAseDLPNTableRecord
  3
ASE-LPNTableRecord
 90
    32769
280
     0
281
     0
  0
CLASS
  1
LAYOUT
  2
AcDbLayout
  3
ObjectDBX Classes
 90
        0
280
     0
281
     0
  0
CLASS
  1
PLOTSETTINGS
  2
AcDbPlotSettings
  3
ObjectDBX Classes
 90
    32768
280
     0
281
     0
  0
CLASS
  1
ACDBDICTIONARYWDFLT
  2
AcDbDictionaryWithDefault
  3
ObjectDBX Classes
 90
        0
280
     0
281
     0
  0
CLASS
  1
ACDBPLACEHOLDER
  2
AcDbPlaceHolder
  3
ObjectDBX Classes
 90
        0
280
     0
281
     0
  0
CLASS
  1
VBA_PROJECT
  2
AcDbVbaProject
  3
acad
 90
    32768
280
     0
281
     0
  0
CLASS
  1
WIPEOUT
  2
AcDbWipeout
  3
"WipeOut|Product Desc: Object Enabler for WipeOut entity^I^I^I^I^I^I|Company: Autodesk, Inc.^I^I^I^I^I^I|WEB Address: www.autodesk.com"
 90
    32895
280
     0
281
     1
  0
CLASS
  1
WIPEOUTVARIABLES
  2
AcDbWipeoutVariables
  3
"WipeOut|Product Desc:     WipeOut Dbx Application|Company:          Autodesk, Inc.|WEB Address:      www.autodesk.com"
 90
    32768
280
     0
281
     0
  0
CLASS
  1
RTEXT
  2
RText
  3
RText|AutoCAD Express Tool|expresstools@autodesk.com
 90
    32768
280
     0
281
     1
  0
CLASS
  1
ARCALIGNEDTEXT
  2
AcDbArcAlignedText
  3
ATEXT|AutoCAD Express Tool|expresstools@autodesk.com
 90
    32768
280
     0
281
     1
  0
ENDSEC
  0
SECTION
  2
TABLES
  0
TABLE
  2
VPORT
  5
7
330
0
100
AcDbSymbolTable
 70
     2
  0
VPORT
  5
4E1
330
7
100
AcDbSymbolTableRecord
100
AcDbViewportTableRecord
  2
*Active
 70
     0
 10
0.0
 20
0.0
 11
1.0
 21
1.0
 12
278.6970689939547
 22
-13.69949428482567
 13
0.0
 23
0.0
 14
1.0
 24
1.0
 15
0.0
 25
0.0
 16
0.0
 26
0.0
 36
1.0
 17
0.0
 27
0.0
 37
0.0
 40
794.0492481048672
 41
1.569570871261378
 42
50.0
 43
0.0
 44
0.0
 50
0.0
 51
0.0
 71
     0
 72
  2000
 73
     1
 74
     1
 75
     0
 76
     0
 77
     0
 78
     0
281
     0
 65
     1
110
0.0
120
0.0
130
0.0
111
1.0
121
0.0
131
0.0
112
0.0
122
1.0
132
0.0
 79
     1
146
0.0
  0
ENDTAB
  0
TABLE
  2
LTYPE
  5
4
330
0
100
AcDbSymbolTable
 70
     6
  0
LTYPE
  5
11
330
4
100
AcDbSymbolTableRecord
100
AcDbLinetypeTableRecord
  2
BYBLOCK
 70
     0
  3

 72
    65
 73
     0
 40
0.0
  0
LTYPE
  5
12
330
4
100
AcDbSymbolTableRecord
100
AcDbLinetypeTableRecord
  2
BYLAYER
 70
     0
  3

 72
    65
 73
     0
 40
0.0
  0
LTYPE
  5
13
330
4
100
AcDbSymbolTableRecord
100
AcDbLinetypeTableRecord
  2
CONTINUOUS
 70
     0
  3
Solid line
 72
    65
 73
     0
 40
0.0
  0
LTYPE
  5
1E
330
4
100
AcDbSymbolTableRecord
100
AcDbLinetypeTableRecord
  2
HIDDEN
 70
     0
  3
Hidden __ __ __ __ __ __ __ __ __ __ __ __ __ __
 72
    65
 73
     2
 40
1.905
 49
1.27
 74
     0
 49
-0.635
 74
     0
  0
LTYPE
  5
1F
330
4
100
AcDbSymbolTableRecord
100
AcDbLinetypeTableRecord
  2
PHANTOM
 70
     0
  3
Phantom ______  __  __  ______  __  __  ______
 72
    65
 73
     6
 40
12.7
 49
6.349999999999999
 74
     0
 49
-1.27
 74
     0
 49
1.27
 74
     0
 49
-1.27
 74
     0
 49
1.27
 74
     0
 49
-1.27
 74
     0
  0
LTYPE
  5
20
330
4
100
AcDbSymbolTableRecord
100
AcDbLinetypeTableRecord
  2
CENTER
 70
     0
  3
Center ____ _ ____ _ ____ _ ____ _ ____ _ ____
 72
    65
 73
     4
 40
10.16
 49
6.349999999999999
 74
     0
 49
-1.27
 74
     0
 49
1.27
 74
     0
 49
-1.27
 74
     0
  0
LTYPE
  5
21
330
4
100
AcDbSymbolTableRecord
100
AcDbLinetypeTableRecord
  2
CENTERX2
 70
     0
  3
Center (2x) ________  __  ________  __  _____
 72
    65
 73
     4
 40
20.32
 49
12.7
 74
     0
 49
-2.54
 74
     0
 49
2.54
 74
     0
 49
-2.54
 74
     0
  0
LTYPE
  5
22
330
4
100
AcDbSymbolTableRecord
100
AcDbLinetypeTableRecord
  2
DOT2
 70
     0
  3
Dot (.5x) ........................................
 72
    65
 73
     2
 40
0.635
 49
0.0
 74
     0
 49
-0.635
 74
     0
  0
ENDTAB
  0
TABLE
  2
LAYER
  5
2
330
0
100
AcDbSymbolTable
 70
     2
  0
LAYER
  5
14
330
2
100
AcDbSymbolTableRecord
100
AcDbLayerTableRecord
  2
0
 70
     0
 62
     7
  6
CONTINUOUS
370
    -3
390
4C6
  0
LAYER
  5
26
330
2
100
AcDbSymbolTableRecord
100
AcDbLayerTableRecord
  2
DEFPOINTS
 70
     0
 62
     7
  6
CONTINUOUS
290
     0
370
    -3
390
4C6
  0
ENDTAB
  0
TABLE
  2
STYLE
  5
3
330
0
100
AcDbSymbolTable
 70
     1
  0
STYLE
  5
17
330
3
100
AcDbSymbolTableRecord
100
AcDbTextStyleTableRecord
  2
STANDARD
 70
     0
 40
0.0
 41
1.0
 50
0.0
 71
     0
 42
0.0
  3
Century Gothic
  4

  0
ENDTAB
  0
TABLE
  2
VIEW
  5
5
330
0
100
AcDbSymbolTable
 70
     0
  0
ENDTAB
  0
TABLE
  2
UCS
  5
6
330
0
100
AcDbSymbolTable
 70
     0
  0
ENDTAB
  0
TABLE
  2
APPID
  5
8
330
0
100
AcDbSymbolTable
 70
     2
  0
APPID
  5
16
330
8
100
AcDbSymbolTableRecord
100
AcDbRegAppTableRecord
  2
ACAD
 70
     0
  0
APPID
  5
4D1
330
8
100
AcDbSymbolTableRecord
100
AcDbRegAppTableRecord
  2
DCO15
 70
     0
  0
ENDTAB
  0
TABLE
  2
DIMSTYLE
  5
9
330
0
100
AcDbSymbolTable
 70
     1
100
AcDbDimStyleTable
 71
     0
  0
DIMSTYLE
105
18
330
9
100
AcDbSymbolTableRecord
100
AcDbDimStyleTableRecord
  2
STANDARD
 70
     0
289
     0
340
17
  0
ENDTAB
  0
TABLE
  2
BLOCK_RECORD
  5
1
330
0
100
AcDbSymbolTable
 70
     0
  0
BLOCK_RECORD
  5
A
330
1
100
AcDbSymbolTableRecord
100
AcDbBlockTableRecord
  2
*MODEL_SPACE
340
4CB
  0
BLOCK_RECORD
  5
B
330
1
100
AcDbSymbolTableRecord
100
AcDbBlockTableRecord
  2
*PAPER_SPACE
340
4CC
  0
ENDTAB
  0
ENDSEC
  0
SECTION
  2
BLOCKS
  0
BLOCK
  5
D
330
A
100
AcDbEntity
  8
0
100
AcDbBlockBegin
  2
*MODEL_SPACE
 70
     0
 10
0.0
 20
0.0
 30
0.0
  3
*MODEL_SPACE
  1

  0
ENDBLK
  5
E
330
A
100
AcDbEntity
  8
0
100
AcDbBlockEnd
  0
BLOCK
  5
F
330
B
100
AcDbEntity
 67
     1
  8
0
100
AcDbBlockBegin
  2
*PAPER_SPACE
 70
     0
 10
0.0
 20
0.0
 30
0.0
  3
*PAPER_SPACE
  1

  0
ENDBLK
  5
10
330
B
100
AcDbEntity
 67
     1
  8
0
100
AcDbBlockEnd
  0
ENDSEC
  0
SECTION
  2
ENTITIES
  0
LINE
  5
27
330
A
100
AcDbEntity
  8
0
  6
Continuous
 62
     7
100
AcDbLine
 10
156.5826606408603
 20
-42.87499999999996
 30
0.0
 11
156.5826606408603
 21
-39.37499999999996
 31
0.0
  0
LINE
  5
28
330
A
100
AcDbEntity
  8
0
  6
Continuous
 62
     7
100
AcDbLine
 10
-23.41733935913974
 20
-39.37499999999996
 30
0.0
 11
-23.41733935913974
 21
-42.87499999999996
 31
0.0
  0
LINE
  5
29
330
A
100
AcDbEntity
  8
0
  6
Continuous
 62
     7
100
AcDbLine
 10
151.5826606408603
 20
-54.87499999999998
 30
0.0
 11
151.5826606408603
 21
-42.87499999999996
 31
0.0
  0
LINE
  5
2A
330
A
100
AcDbEntity
  8
0
  6
Continuous
 62
     7
100
AcDbLine
 10
-18.41733935913969
 20
-42.87499999999996
 30
0.0
 11
-18.41733935913969
 21
-54.87499999999998
 31
0.0
  0
LINE
  5
2B
330
A
100
AcDbEntity
  8
0
  6
Continuous
 62
     7
100
AcDbLine
 10
148.5826606408602
 20
-56.07499999999999
 30
0.0
 11
148.5826606408603
 21
-54.87499999999998
 31
0.0
  0
LINE
  5
2C
330
A
100
AcDbEntity
  8
0
  6
Continuous
 62
     7
100
AcDbLine
 10
-15.41733935913969
 20
-54.87499999999998
 30
0.0
 11
-15.41733935913958
 21
-56.07499999999999
 31
0.0
  0
LINE
  5
2D
330
A
100
AcDbEntity
  8
0
  6
Continuous
 62
     7
100
AcDbLine
 10
77.58266064086029
 20
-39.375
 30
0.0
 11
77.58266064086029
 21
27.91428081688807
 31
0.0
  0
LINE
  5
2E
330
A
100
AcDbEntity
  8
0
  6
Continuous
 62
     7
100
AcDbLine
 10
69.58266064086029
 20
27.91428081688807
 30
0.0
 11
69.58266064086029
 21
-39.375
 31
0.0
  0
ARC
  5
2F
330
A
100
AcDbEntity
  8
0
  6
Continuous
 62
     7
100
AcDbCircle
 10
93.58266064086029
 20
27.91428081688807
 30
0.0
 40
16.0
100
AcDbArc
 50
168.5180086452519
 51
180.0000000000004
  0
ARC
  5
30
330
A
100
AcDbEntity
  8
0
  6
Continuous
 62
     7
100
AcDbCircle
 10
93.58266064086029
 20
27.91428081688807
 30
0.0
 40
24.0
100
AcDbArc
 50
168.5180086452518
 51
180.0000000000004
  0
LINE
  5
31
330
A
100
AcDbEntity
  8
0
  6
Continuous
 62
     7
100
AcDbLine
 10
95.24445918586478
 20
156.6621520581828
 30
0.0
 11
70.06296497089102
 21
32.69171899985057
 31
0.0
  0
LINE
  5
32
330
A
100
AcDbEntity
  8
0
  6
Continuous
 62
     7
100
AcDbLine
 10
77.90286352754744
 20
31.09923960552974
 30
0.0
 11
103.4078301194926
 21
156.6621520581828
 31
0.0
  0
LINE
  5
33
330
A
100
AcDbEntity
  8
0
  6
Continuous
 62
     7
100
AcDbLine
 10
46.19034167853078
 20
156.662152058183
 30
0.0
 11
58.90300548206273
 21
31.49130845417425
 31
0.0
  0
LINE
  5
34
330
A
100
AcDbEntity
  8
0
  6
Continuous
 62
     7
100
AcDbLine
 10
66.86206219129906
 20
32.29965015120606
 30
0.0
 11
54.2314955913719
 21
156.662152058183
 31
0.0
  0
LWPOLYLINE
  5
35
330
A
100
AcDbEntity
  8
0
  6
Continuous
 62
     7
100
AcDbPolyline
 90
        4
 70
   128
 43
0.0
 10
67.08266064086036
 20
27.91428081688807
 10
67.05870676614084
 20
29.36541917801788
 10
66.89738862406298
 20
31.9362336554998
 10
66.86206219129906
 20
32.29965015120606
  0
LWPOLYLINE
  5
3B
330
A
100
AcDbEntity
  8
0
  6
Continuous
 62
     7
100
AcDbPolyline
 90
        4
 70
   128
 43
0.0
 10
58.90300548206273
 20
31.49130845417425
 10
59.00159051562422
 20
30.32437463081478
 10
59.08179932580583
 20
28.16330183841773
 10
59.08266064086036
 20
27.91428081688807
  0
LINE
  5
41
330
A
100
AcDbEntity
  8
0
  6
Continuous
 62
     7
100
AcDbLine
 10
67.08266064086036
 20
-39.375
 30
0.0
 11
67.08266064086027
 21
27.91428081688807
 31
0.0
  0
LINE
  5
42
330
A
100
AcDbEntity
  8
0
  6
Continuous
 62
     7
100
AcDbLine
 10
59.08266064086027
 20
27.91428081688807
 30
0.0
 11
59.08266064086035
 21
-39.375
 31
0.0
  0
LINE
  5
43
330
A
100
AcDbEntity
  8
0
  6
Continuous
 62
     7
100
AcDbLine
 10
32.0826606408603
 20
377.9413039033155
 30
0.0
 11
32.0826606408603
 21
376.6620220581828
 31
0.0
  0
LINE
  5
44
330
A
100
AcDbEntity
  8
0
  6
Continuous
 62
     7
100
AcDbLine
 10
101.0826606408603
 20
376.6620220581826
 30
0.0
 11
101.0826606408603
 21
377.9413039033155
 31
0.0
  0
ARC
  5
45
330
A
100
AcDbEntity
  8
0
  6
Continuous
 62
     7
100
AcDbCircle
 10
66.58266064086034
 20
78.92500000000002
 30
0.0
 40
300.9999999999999
100
AcDbArc
 50
83.41841107744688
 51
96.58158892255315
  0
LWPOLYLINE
  5
46
330
A
100
AcDbEntity
  8
0
  6
Continuous
 62
     7
100
AcDbPolyline
 90
       11
 70
   128
 43
0.0
 10
-49.26745260598858
 20
369.7027946900397
 10
-49.7480080345322
 20
345.041264109886
 10
-50.23669558264302
 20
319.8167106442734
 10
-50.68979056848038
 20
295.6655424325166
 10
-51.08657451243635
 20
272.5877594746158
 10
-51.39800708314438
 20
250.5833617705707
 10
-51.59285288175567
 20
229.6523493203816
 10
-51.65128389330109
 20
209.7947221240483
 10
-51.58795249538889
 20
191.0104801815707
 10
-51.48322657074666
 20
173.299623492949
 10
-51.50034966147249
 20
156.6621520581833
  0
ARC
  5
53
330
A
100
AcDbEntity
  8
0
  6
Continuous
 62
     7
100
AcDbCircle
 10
-42.17258011744458
 20
369.565252058183
 30
0.0
 40
7.096770000000002
100
AcDbArc
 50
90.01131182355235
 51
179.0103569795986
  0
LWPOLYLINE
  5
54
330
A
100
AcDbEntity
  8
0
  6
Continuous
 62
     7
100
AcDbPolyline
 90
        9
 70
   128
 43
0.0
 10
144.7770112403078
 20
376.6620220560568
 10
146.1496698190709
 20
376.5280389699918
 10
147.4809762942073
 20
376.1267722870223
 10
148.7084875045511
 20
375.4736168162539
 10
149.7850807864515
 20
374.5936464024722
 10
150.6694270321295
 20
373.5206420404919
 10
151.3275772639018
 20
372.2957950638174
 10
151.7342658941776
 20
370.9661258594068
 10
151.8738806406626
 20
369.5826788121575
  0
LWPOLYLINE
  5
5F
330
A
100
AcDbEntity
  8
0
  6
Continuous
 62
     7
100
AcDbPolyline
 90
        4
 70
   128
 43
0.0
 10
151.810541981928
 20
156.6621520581828
 10
151.8418861040496
 20
266.6585613805714
 10
151.8508059855633
 20
296.1392732924181
 10
151.8740122142888
 20
369.5624399093678
  0
LWPOLYLINE
  5
65
330
A
100
AcDbEntity
  8
0
  6
Continuous
 62
     7
100
AcDbPolyline
 90
        5
 70
   128
 43
0.0
 10
-51.76728470467162
 20
369.3586085543299
 10
-51.32124993967403
 20
353.7279086336176
 10
-50.8602268322457
 20
336.9502708255164
 10
-50.44156452119142
 20
321.2256692395478
 10
-50.3073143654258
 20
316.0525416395248
  0
LWPOLYLINE
  5
6C
330
A
100
AcDbEntity
  8
0
  6
Continuous
 62
     7
100
AcDbPolyline
 90
        9
 70
   128
 43
0.0
 10
-51.75766330353357
 20
369.3771428304321
 10
-51.65531023673833
 20
370.7809091644072
 10
-51.27806453747348
 20
372.1368582952081
 10
-50.64076495768304
 20
373.3916547100914
 10
-49.76847932556754
 20
374.4959416827193
 10
-48.69551851635899
 20
375.4062826928242
 10
-47.46408685292849
 20
376.0868699778269
 10
-46.12262202197542
 20
376.5109330114679
 10
-44.72388980428121
 20
376.6617915077238
  0
LWPOLYLINE
  5
77
330
A
100
AcDbEntity
  8
0
  6
Continuous
 62
     7
100
AcDbPolyline
 90
        9
 70
   128
 43
0.0
 10
170.1488325045514
 20
376.6617533814021
 10
171.4883799833657
 20
376.5427675667823
 10
172.780798783722
 20
376.1665937664057
 10
173.9784509480109
 20
375.5470975720997
 10
175.0371915728794
 20
374.7071133262894
 10
175.917995969896
 20
373.6776024587244
 10
176.5883980974683
 20
372.4965122625375
 10
177.0236872440794
 20
371.2073771746185
 10
177.2078188536546
 20
369.8577141164589
  0
LWPOLYLINE
  5
82
330
A
100
AcDbEntity
  8
0
  6
Continuous
 62
     7
100
AcDbPolyline
 90
       38
 70
   128
 43
0.0
 10
199.404524490165
 20
156.6621520581826
 10
197.7035346416776
 20
165.3415572388055
 10
196.1511101146099
 20
173.3733732524569
 10
194.7453473831319
 20
180.7576000991367
 10
193.4838563924422
 20
187.4942377788449
 10
192.3758328135204
 20
193.5162929302611
 10
191.4836313709841
 20
198.4517439303262
 10
190.9358022936751
 20
201.5271369862854
 10
190.5184476926944
 20
203.8963640971583
 10
190.1571568971041
 20
205.9675285479833
 10
189.7155835076698
 20
208.5262392821967
 10
189.193999896487
 20
211.5921122091149
 10
188.5981192734735
 20
215.1651473287381
 10
187.7044360078261
 20
220.7154061409806
 10
186.8076142396099
 20
226.6214270756667
 10
185.9539391642151
 20
232.6902243432911
 10
185.1549415425696
 20
238.921797943854
 10
184.4185551940639
 20
245.3152088377413
 10
183.8211426148147
 20
251.1013886804702
 10
183.3961257399484
 20
255.6123865947123
 10
183.0578897363217
 20
259.4672761675663
 10
182.6178221230629
 20
264.8687433509887
 10
182.1401771979688
 20
271.272813537633
 10
181.6971207317683
 20
277.7635035064161
 10
181.2913250313471
 20
284.1981744330909
 10
180.9169736940163
 20
290.5563119688307
 10
180.5743104725597
 20
296.7283360206216
 10
180.2590364589886
 20
302.6980632612721
 10
179.9658017312601
 20
308.4962671956505
 10
179.4239079800223
 20
319.8176633812752
 10
178.9583836281269
 20
330.1247089170319
 10
178.8418551025643
 20
332.7855147328717
 10
178.6955930373947
 20
336.1681594469775
 10
178.5204309806483
 20
340.2809923880333
 10
178.3176478199532
 20
345.1240135560393
 10
178.0065056959625
 20
352.7172234664141
 10
177.6515328674945
 20
361.6085457802558
 10
177.3316312031328
 20
369.8392526859748
  0
LINE
  5
AA
330
A
100
AcDbEntity
  8
0
  6
Continuous
 62
     7
100
AcDbLine
 10
156.5826606408603
 20
-42.87499999999996
 30
0.0
 11
-23.41733935913974
 21
-42.87499999999996
 31
0.0
  0
LINE
  5
AB
330
A
100
AcDbEntity
  8
0
  6
Continuous
 62
     7
100
AcDbLine
 10
156.5826606408603
 20
-39.37499999999996
 30
0.0
 11
-23.41733935913974
 21
-39.37499999999996
 31
0.0
  0
LINE
  5
AC
330
A
100
AcDbEntity
  8
0
  6
Continuous
 62
     7
100
AcDbLine
 10
151.5826606408603
 20
-54.87499999999998
 30
0.0
 11
-18.41733935913969
 21
-54.87499999999998
 31
0.0
  0
LINE
  5
AD
330
A
100
AcDbEntity
  8
0
  6
Continuous
 62
     7
100
AcDbLine
 10
148.5826606408602
 20
-56.07499999999999
 30
0.0
 11
-15.41733935913958
 21
-56.07499999999999
 31
0.0
  0
LINE
  5
AE
330
A
100
AcDbEntity
  8
0
  6
Continuous
 62
     7
100
AcDbLine
 10
32.0826606408603
 20
377.9413039033155
 30
0.0
 11
101.0826606408603
 21
377.9413039033155
 31
0.0
  0
LINE
  5
AF
330
A
100
AcDbEntity
  8
0
  6
Continuous
 62
     7
100
AcDbLine
 10
-49.19165556707507
 20
369.7013149799877
 30
0.0
 11
-49.18222166703189
 21
369.7011773944329
 31
0.0
  0
LINE
  5
B0
330
A
100
AcDbEntity
  8
0
  6
Continuous
 62
     7
100
AcDbLine
 10
62.23933303065954
 20
368.9715010812913
 30
0.0
 11
62.23933303065956
 21
368.9726496588397
 31
0.0
  0
LINE
  5
B1
330
A
100
AcDbEntity
  8
0
  6
Continuous
 62
     7
100
AcDbLine
 10
62.23933303065954
 20
368.9715010812912
 30
0.0
 11
62.23933302657866
 21
156.6621520581827
 31
0.0
  0
LINE
  5
B2
330
A
100
AcDbEntity
  8
0
  6
Continuous
 62
     7
100
AcDbLine
 10
62.23933302658075
 20
156.6621520581827
 30
0.0
 11
-51.53074024713458
 21
156.6621520581833
 31
0.0
  0
LWPOLYLINE
  5
B3
330
A
100
AcDbEntity
  8
0
  6
Continuous
 62
     7
100
AcDbPolyline
 90
        7
 70
   128
 43
0.0
 10
-28.63912266752894
 20
369.3984714188726
 10
-28.30261805233286
 20
371.7562945892323
 10
-27.22326876363734
 20
373.8670943338322
 10
-25.5227631889624
 20
375.4928941445825
 10
-23.39282022562878
 20
376.4503974629477
 10
-22.17809912465372
 20
376.6460602629499
 10
-21.71375041994396
 20
376.6620220581829
  0
LINE
  5
BC
330
A
100
AcDbEntity
  8
0
  6
Continuous
 62
     7
100
AcDbLine
 10
57.0556779683926
 20
376.6620220581827
 30
0.0
 11
-42.15017438841747
 21
376.662022058183
 31
0.0
  0
LWPOLYLINE
  5
BD
330
A
100
AcDbEntity
  8
0
  6
Continuous
 62
     7
100
AcDbPolyline
 90
        7
 70
   128
 43
0.0
 10
57.05567796839261
 20
376.6620220581827
 10
57.3002398720713
 20
376.6541745534415
 10
58.61736877314759
 20
376.3346526571769
 10
60.17175059578249
 20
375.2478205846474
 10
61.37481874456645
 20
373.5203227024609
 10
62.09093691520445
 20
371.3469210126011
 10
62.23933303065956
 20
368.9726496588397
  0
LWPOLYLINE
  5
C6
330
A
100
AcDbEntity
  8
0
  6
Continuous
 62
     7
100
AcDbPolyline
 90
        5
 70
   128
 43
0.0
 10
135.716772289109
 20
376.6620220581824
 10
137.0859105319458
 20
376.2367873723338
 10
138.3445640580697
 20
374.9315188158661
 10
139.2468998045375
 20
372.9478771006456
 10
139.6962692631359
 20
370.5150666221563
  0
LINE
  5
CD
330
A
100
AcDbEntity
  8
0
  6
Continuous
 62
     7
100
AcDbLine
 10
125.0985838779986
 20
370.9759433138355
 30
0.0
 11
125.1316961237953
 21
370.9664804887241
 31
0.0
  0
LINE
  5
CE
330
A
100
AcDbEntity
  8
0
  6
Continuous
 62
     7
100
AcDbLine
 10
57.05567796839261
 20
376.6620220581827
 30
0.0
 11
144.7320848370213
 21
376.6620220581823
 31
0.0
  0
LINE
  5
CF
330
A
100
AcDbEntity
  8
0
  6
Continuous
 62
     7
100
AcDbLine
 10
151.8582063838732
 20
319.5537058817703
 30
0.0
 11
190.7323024896256
 21
156.6621520581824
 31
0.0
  0
LINE
  5
D0
330
A
100
AcDbEntity
  8
0
  6
Continuous
 62
     7
100
AcDbLine
 10
190.7323024896258
 20
156.6621520581823
 30
0.0
 11
151.810541981928
 21
156.6621520581826
 31
0.0
  0
LINE
  5
D1
330
A
100
AcDbEntity
  8
0
  6
Continuous
 62
     7
100
AcDbLine
 10
151.7266201670181
 20
156.6621520581827
 30
0.0
 11
62.23933302658075
 21
156.6621520581827
 31
0.0
  0
LWPOLYLINE
  5
D2
330
A
100
AcDbEntity
  8
0
  6
Continuous
 62
     7
100
AcDbPolyline
 90
        3
 70
   128
 43
0.0
 10
-51.7522923446598
 20
369.3591039996792
 10
-51.76535511037555
 20
369.3658519722242
 10
-51.73349825850532
 20
369.3774870520874
  0
LINE
  5
D7
330
A
100
AcDbEntity
  8
0
  6
Continuous
 62
     7
100
AcDbLine
 10
-44.67175808326048
 20
376.662022058183
 30
0.0
 11
-42.15496627589811
 21
376.662022058183
 31
0.0
  0
LWPOLYLINE
  5
D8
330
A
100
AcDbEntity
  8
0
  6
Continuous
 62
     7
100
AcDbPolyline
 90
        3
 70
   128
 43
0.0
 10
177.1133544115876
 20
369.8440974811591
 10
177.328015221604
 20
369.8402937357023
 10
177.3097207388365
 20
369.8384154204674
  0
LINE
  5
DD
330
A
100
AcDbEntity
  8
0
  6
Continuous
 62
     7
100
AcDbLine
 10
144.8377882772212
 20
376.6620220581823
 30
0.0
 11
170.2393598399052
 21
376.6620220581824
 31
0.0
  0
LINE
  5
DE
330
A
100
AcDbEntity
  8
0
  6
Continuous
 62
     7
100
AcDbLine
 10
199.3402018255697
 20
156.6621520581824
 30
0.0
 11
190.7323024896257
 21
156.6621520581823
 31
0.0
  0
LINE
  5
DF
330
A
100
AcDbEntity
  8
0
  6
PHANTOM
 62
     7
100
AcDbLine
 10
59.08266064086027
 20
27.91428081688807
 30
0.0
 11
67.08266064086027
 21
27.91428081688807
 31
0.0
  0
LINE
  5
E0
330
A
100
AcDbEntity
  8
0
  6
PHANTOM
 62
     7
100
AcDbLine
 10
73.5826606408603
 20
27.91428081688807
 30
0.0
 11
77.58266064086029
 21
27.91428081688807
 31
0.0
  0
LINE
  5
E1
330
A
100
AcDbEntity
  8
0
  6
PHANTOM
 62
     7
100
AcDbLine
 10
69.58266064086029
 20
27.91428081688807
 30
0.0
 11
73.5826606408603
 21
27.91428081688807
 31
0.0
  0
LINE
  5
E2
330
A
100
AcDbEntity
  8
0
  6
PHANTOM
 62
     7
100
AcDbLine
 10
73.98291424921922
 20
31.89547930269016
 30
0.0
 11
77.90286352754744
 21
31.09923960552974
 31
0.0
  0
LINE
  5
E3
330
A
100
AcDbEntity
  8
0
  6
PHANTOM
 62
     7
100
AcDbLine
 10
70.06296497089102
 20
32.69171899985057
 30
0.0
 11
73.98291424921922
 21
31.89547930269016
 31
0.0
  0
LWPOLYLINE
  5
E4
330
A
100
AcDbEntity
  8
0
  6
PHANTOM
 62
     7
100
AcDbPolyline
 90
       13
 70
   128
 43
0.0
 10
58.90300548206273
 20
31.49130845417425
 10
58.91626573654626
 20
31.44694151025318
 10
59.19033192930273
 20
31.2729540398593
 10
59.79246646449094
 20
31.15428067097509
 10
60.66916704623554
 20
31.1014660532154
 10
61.74253498051138
 20
31.11920299714125
 10
62.91719681596047
 20
31.20591549744761
 10
64.08877869358457
 20
31.35389876795064
 10
65.15318042215444
 20
31.55000384565235
 10
66.01582523703655
 20
31.77680593380594
 10
66.60006336077422
 20
32.01415267157437
 10
66.85398267218662
 20
32.24095475972794
 10
66.86206219129906
 20
32.29965015120606
  0
LINE
  5
F3
330
A
100
AcDbEntity
  8
0
  6
PHANTOM
 62
     7
100
AcDbLine
 10
59.08266076154853
 20
27.91428081688807
 30
0.0
 11
67.08266017643611
 21
27.91428081688807
 31
0.0
  0
LWPOLYLINE
  5
F4
330
A
100
AcDbEntity
  8
0
  6
PHANTOM
 62
     7
100
AcDbPolyline
 90
       27
 70
   128
 43
0.0
 10
62.23933303065956
 20
368.9726496588397
 10
62.23930418087022
 20
368.9726508791976
 10
59.35076429619203
 20
369.0738799931541
 10
56.70126538140092
 20
369.1319792349286
 10
52.77322797915766
 20
369.1839077894019
 10
48.40283382302477
 20
369.2355641649174
 10
44.50777298332163
 20
369.2877818272484
 10
40.16767130087866
 20
369.3387364053156
 10
35.75839830196748
 20
369.3779633010853
 10
31.07897636024841
 20
369.4303375477594
 10
16.97297418715516
 20
369.6265630276868
 10
2.807228149727447
 20
369.4908739656721
 10
-4.840261203187062
 20
369.3120612979032
 10
-12.35544467667671
 20
369.2781443793017
 10
-16.6630865397545
 20
369.32241575705
 10
-20.80687666687657
 20
369.4013034978302
 10
-24.67238504943642
 20
369.5123329373256
 10
-28.52206424369734
 20
369.674248288832
 10
-31.93468740308281
 20
369.8448234828457
 10
-34.92965776716402
 20
369.9698217021925
 10
-39.06338390389795
 20
370.0260662110473
 10
-42.87660454959374
 20
369.9473339043596
 10
-45.10938540618438
 20
369.8532263025095
 10
-47.07691377618185
 20
369.7598004252983
 10
-48.53643130472363
 20
369.7036815061848
 10
-49.23586034088295
 20
369.7019596697024
 10
-49.19165556707507
 20
369.7013149799877
  0
LWPOLYLINE
  5
111
330
A
100
AcDbEntity
  8
0
  6
PHANTOM
 62
     7
100
AcDbPolyline
 90
        8
 70
   128
 43
0.0
 10
139.6962692631359
 20
370.5150666221563
 10
139.6962340847006
 20
370.5150677176677
 10
134.9882154016207
 20
370.6737838064364
 10
130.8290059642332
 20
370.8326551334449
 10
128.5818044137722
 20
370.9215235399836
 10
126.8145234472223
 20
370.980794229249
 10
125.5864192857902
 20
371.0049412250269
 10
125.0583568129624
 20
370.9874394136026
  0
LWPOLYLINE
  5
11B
330
A
100
AcDbEntity
  8
0
  6
PHANTOM
 62
     7
100
AcDbPolyline
 90
       31
 70
   128
 43
0.0
 10
151.7613976358757
 20
369.5657742023826
 10
151.8033286560154
 20
369.5152749786217
 10
151.2152224132711
 20
369.4249440992117
 10
150.1464458665801
 20
369.3459431112783
 10
147.9475729124526
 20
369.2313579686744
 10
145.2824218916645
 20
369.1067526497828
 10
141.3281627106071
 20
368.8970272292719
 10
138.4764346829554
 20
368.7272681816403
 10
135.1841489817477
 20
368.529766631129
 10
133.0162084463836
 20
368.4105308895658
 10
130.6813639356074
 20
368.313073958637
 10
128.2582915241413
 20
368.2611789612268
 10
125.8015778794302
 20
368.2466186812607
 10
122.5797245509749
 20
368.2556170047965
 10
119.4399561684402
 20
368.2775257228198
 10
115.9018591728375
 20
368.3053262572107
 10
112.4662613185787
 20
368.3321125816807
 10
104.7742495869614
 20
368.3824331130245
 10
98.45490105224477
 20
368.4271901890349
 10
92.13234610253142
 20
368.4703284351221
 10
85.65644096501518
 20
368.5085905300931
 10
78.8770418668898
 20
368.5387191527544
 10
75.60580939483755
 20
368.552492528376
 10
72.24256122161365
 20
368.5832577524924
 10
70.29151935018433
 20
368.6186777969786
 10
68.38752314499426
 20
368.6784688180352
 10
66.60867621119793
 20
368.7605918679736
 10
64.97586602619124
 20
368.8449294375429
 10
62.23936194222067
 20
368.9714999265342
 10
62.23933303065954
 20
368.9715010812913
 10
62.23933303065954
 20
368.9715010812913
  0
LWPOLYLINE
  5
13C
330
A
100
AcDbEntity
  8
0
  6
PHANTOM
 62
     7
100
AcDbPolyline
 90
        4
 70
   128
 43
0.0
 10
-49.27868557169539
 20
369.1263323074925
 10
-51.0905285848448
 20
369.2051606438806
 10
-51.60356730347738
 20
369.2822755150786
 10
-51.7522923446598
 20
369.3591039996792
  0
LWPOLYLINE
  5
142
330
A
100
AcDbEntity
  8
0
  6
PHANTOM
 62
     7
100
AcDbPolyline
 90
        9
 70
   128
 43
0.0
 10
177.3097207388365
 20
369.8384154204674
 10
176.9967618231836
 20
369.8062835746739
 10
176.6722948912401
 20
369.7945530325956
 10
175.2098125216221
 20
369.7758231923974
 10
173.2751193621309
 20
369.7790679853405
 10
170.5057910538281
 20
369.8050430742885
 10
167.5221089753778
 20
369.8501951047547
 10
158.3281625147968
 20
370.0311702140405
 10
151.7269192911963
 20
370.1874979143659
  0
LWPOLYLINE
  5
14D
330
A
100
AcDbEntity
  8
0
  6
Continuous
 62
     7
100
AcDbPolyline
 90
       12
 70
   128
 43
0.0
 10
62.25861396741997
 20
-183.5661703298988
 10
56.38591131969484
 20
-177.2536657253612
 10
54.03517672198337
 20
-174.6410555794428
 10
52.39891667003211
 20
-172.9027122111337
 10
50.99073692796374
 20
-171.6188494467128
 10
49.63911910751001
 20
-170.6102104877878
 10
48.07579379687529
 20
-169.7894451127856
 10
46.50162355769555
 20
-169.2620692281139
 10
44.88907025406637
 20
-168.9715713845564
 10
43.24236963557299
 20
-168.8916922832437
 10
41.55645422676676
 20
-168.9948598025793
 10
41.34884933695395
 20
-169.023570572531
  0
LWPOLYLINE
  5
15B
330
A
100
AcDbEntity
  8
0
  6
Continuous
 62
     7
100
AcDbPolyline
 90
        7
 70
   128
 43
0.0
 10
49.77122649686261
 20
-391.3573496761429
 10
50.55680909974368
 20
-390.5198226865784
 10
52.97092725796292
 20
-387.5963334628899
 10
55.53903333429598
 20
-384.1594795874256
 10
58.49718857077817
 20
-380.0137577082378
 10
61.27911897002149
 20
-376.5107497459327
 10
62.32358672978069
 20
-375.3225282668305
  0
LWPOLYLINE
  5
164
330
A
100
AcDbEntity
  8
0
  6
Continuous
 62
     7
100
AcDbPolyline
 90
       13
 70
   128
 43
0.0
 10
-28.68268472403422
 20
-286.210206586227
 10
-28.14831154009118
 20
-288.9188107836117
 10
-27.64308310065353
 20
-292.59588699733
 10
-27.43747552072845
 20
-295.9695282947437
 10
-27.52536520132303
 20
-299.5251690135242
 10
-27.92735291578866
 20
-303.0477708097027
 10
-28.63669146033668
 20
-306.453199556009
 10
-29.64509650540732
 20
-309.7251034706277
 10
-30.96427888002293
 20
-312.9227564075172
 10
-32.58574009742488
 20
-316.171245533526
 10
-34.73786115358576
 20
-319.9399453715151
 10
-37.54684296717138
 20
-324.4575649482675
 10
-38.09963299076456
 20
-325.3316059704242
  0
LWPOLYLINE
  5
173
330
A
100
AcDbEntity
  8
0
  6
Continuous
 62
     7
100
AcDbPolyline
 90
        5
 70
   128
 43
0.0
 10
68.74133430513635
 20
-193.567435303319
 10
67.3429344900852
 20
-190.7769850654407
 10
65.72190326012445
 20
-188.0469097938103
 10
63.68102032014125
 20
-185.2297260433422
 10
62.30517678111256
 20
-183.5350284664881
  0
LWPOLYLINE
  5
17A
330
A
100
AcDbEntity
  8
0
  6
Continuous
 62
     7
100
AcDbPolyline
 90
       34
 70
   128
 43
0.0
 10
62.25176190689754
 20
-375.264532224072
 10
63.32029284186215
 20
-374.1788222161704
 10
64.94982326698573
 20
-372.8046313977062
 10
66.68158475436209
 20
-371.7261004816641
 10
68.45863143891877
 20
-370.990224310196
 10
70.26475540152926
 20
-370.5760280955574
 10
72.17986361388327
 20
-370.4737487462438
 10
74.26461961609693
 20
-370.652734497435
 10
76.64905541891339
 20
-371.145418750847
 10
79.32043562263458
 20
-371.9821822404376
 10
82.3440411945315
 20
-373.1741693256446
 10
86.01242048812432
 20
-374.8975722767955
 10
89.9952990870141
 20
-377.0530076834259
 10
94.58335551995025
 20
-379.7916908516352
 10
100.4762476406583
 20
-383.4767386771259
 10
106.3390138997375
 20
-387.0370017331966
 10
110.8147866872333
 20
-389.5170503738427
 10
115.1251390584081
 20
-391.6200785124564
 10
118.3784096691309
 20
-393.0140701769069
 10
121.0604011982961
 20
-393.9713111241545
 10
123.3417258878996
 20
-394.54923486593
 10
125.5322649880797
 20
-394.85263602099
 10
127.6411259237646
 20
-394.8820291990545
 10
129.6782369261051
 20
-394.6399887557859
 10
131.8542706076936
 20
-394.0545428035015
 10
133.7162587849568
 20
-393.2643044070122
 10
135.5451986259457
 20
-392.1990133969942
 10
137.261170163041
 20
-390.9033255824272
 10
138.8948364532561
 20
-389.3704859900346
 10
140.4861588590764
 20
-387.5791748904322
 10
142.1022286451363
 20
-385.4884836878708
 10
144.0809168935829
 20
-382.7077882327439
 10
146.3991421052073
 20
-379.0658599993116
 10
147.6105485026045
 20
-376.8572557748963
  0
LWPOLYLINE
  5
19E
330
A
100
AcDbEntity
  8
0
  6
Continuous
 62
     7
100
AcDbPolyline
 90
        3
 70
   128
 43
0.0
 10
-45.52866598031695
 20
-219.475919370361
 10
-47.90640933725621
 20
-224.6252102925768
 10
-50.23926134607879
 20
-229.6775335737108
  0
LWPOLYLINE
  5
1A3
330
A
100
AcDbEntity
  8
0
  6
Continuous
 62
     7
100
AcDbPolyline
 90
        3
 70
   128
 43
0.0
 10
151.8739763981654
 20
-362.9001540305198
 10
151.8431331588691
 20
-355.0974850434592
 10
151.8104657655296
 20
-346.0301527487885
  0
LWPOLYLINE
  5
1A8
330
A
100
AcDbEntity
  8
0
  6
Continuous
 62
     7
100
AcDbPolyline
 90
        3
 70
   128
 43
0.0
 10
145.4670559673281
 20
-218.7679377637409
 10
140.5510928692833
 20
-216.5084899275361
 10
135.6823798280091
 20
-213.6715561574638
  0
LWPOLYLINE
  5
1AD
330
A
100
AcDbEntity
  8
0
  6
Continuous
 62
     7
100
AcDbPolyline
 90
        6
 70
   128
 43
0.0
 10
101.446631646255
 20
-218.6801506346219
 10
101.2182854761448
 20
-218.7336510351177
 10
100.9506390238732
 20
-218.7822596909205
 10
100.6816332174782
 20
-218.8226475655252
 10
100.4090537867847
 20
-218.8593223538948
 10
100.24633150018
 20
-218.8804236129849
  0
LWPOLYLINE
  5
1B5
330
A
100
AcDbEntity
  8
0
  6
Continuous
 62
     7
100
AcDbPolyline
 90
        7
 70
   128
 43
0.0
 10
5.176190601369396
 20
-404.1668256461194
 10
7.645582338405919
 20
-404.1728598585914
 10
10.14511387448426
 20
-404.426186400736
 10
12.55125363083676
 20
-404.8650289360502
 10
14.86615563606715
 20
-405.4314566304189
 10
17.08991838711789
 20
-406.0752190865543
 10
19.22032041577209
 20
-406.7559565840664
  0
LWPOLYLINE
  5
1BE
330
A
100
AcDbEntity
  8
0
  6
Continuous
 62
     7
100
AcDbPolyline
 90
        3
 70
   128
 43
0.0
 10
-46.869127982095
 20
-341.0703181430327
 10
-47.23351168197316
 20
-341.6864794467253
 10
-47.82330904436589
 20
-342.2827423185282
  0
ARC
  5
1C3
330
A
100
AcDbEntity
  8
0
  6
Continuous
 62
     7
100
AcDbCircle
 10
66.5826606408603
 20
-286.2514757605308
 30
0.0
 40
90.00000000000003
100
AcDbArc
 50
55.45245333717147
 51
87.89235682563864
  0
ARC
  5
1C4
330
A
100
AcDbEntity
  8
0
  6
Continuous
 62
     7
100
AcDbCircle
 10
66.5826606408603
 20
-286.2514757605308
 30
0.0
 40
90.0
100
AcDbArc
 50
332.4945253715433
 51
344.6961932597268
  0
ARC
  5
1C5
330
A
100
AcDbEntity
  8
0
  6
Continuous
 62
     7
100
AcDbCircle
 10
66.5826606408603
 20
-286.2514757605308
 30
0.0
 40
90.0
100
AcDbArc
 50
266.927711489507
 51
281.590321496464
  0
CIRCLE
  5
1C6
330
A
100
AcDbEntity
  8
0
  6
Continuous
 62
     7
100
AcDbCircle
 10
66.5826606408603
 20
-286.2514757605323
 30
0.0
 40
34.5
  0
LINE
  5
1C7
330
A
100
AcDbEntity
  8
0
  6
Continuous
 62
     7
100
AcDbLine
 10
-28.63912268887507
 20
-286.1972018144265
 30
0.0
 11
-28.63912178830409
 21
-286.1972018144265
 31
0.0
  0
LWPOLYLINE
  5
1C8
330
A
100
AcDbEntity
  8
0
  6
Continuous
 62
     7
100
AcDbPolyline
 90
       19
 70
   128
 43
0.0
 10
-28.63912178830411
 20
-286.1972018144265
 10
-28.63913103376245
 20
-286.1971602567445
 10
-30.580658628747
 20
-279.6123623332534
 10
-33.2851207058745
 20
-273.2620339687199
 10
-36.54581511169222
 20
-267.144339170626
 10
-40.15603969274734
 20
-261.2574419464539
 10
-43.27879850422273
 20
-256.6447345449809
 10
-46.40482219730652
 20
-252.0003176205192
 10
-49.14007686113511
 20
-247.1828837063571
 10
-51.0905285848448
 20
-242.0511253357827
 10
-51.60356730347738
 20
-239.4706964667844
 10
-51.76535511037555
 20
-236.8459757935151
 10
-51.54509774905681
 20
-234.1235560670067
 10
-50.92552705865539
 20
-231.4646538996
 10
-49.27160275279682
 20
-227.9028233520651
 10
-47.95080322816517
 20
-226.2246558449867
 10
-46.35180669361495
 20
-224.8084683470284
 10
-42.8340651159931
 20
-222.8017521968104
 10
-42.63846275373722
 20
-222.7225222786668
  0
LWPOLYLINE
  5
1DD
330
A
100
AcDbEntity
  8
0
  6
Continuous
 62
     7
100
AcDbPolyline
 90
        9
 70
   128
 43
0.0
 10
-20.16353108268661
 20
-204.3575148929906
 10
-19.3908001529504
 20
-201.5281949624599
 10
-18.79632142750723
 20
-197.9448843472325
 10
-18.06984249732596
 20
-190.3789127376845
 10
-17.42215513688688
 20
-184.8673284476704
 10
-16.63397816493078
 20
-181.2630316311991
 10
-15.28891254491835
 20
-177.8461953954773
 10
-14.09250821886985
 20
-175.9735256732143
 10
-12.70606117525585
 20
-174.4701136893393
  0
LWPOLYLINE
  5
1E8
330
A
100
AcDbEntity
  8
0
  6
Continuous
 62
     7
100
AcDbPolyline
 90
        6
 70
   128
 43
0.0
 10
24.24275813011094
 20
-171.5104452798698
 10
25.07751057128159
 20
-171.5283941554454
 10
32.77511113236597
 20
-170.6246839040396
 10
36.87075543422653
 20
-169.7998100314064
 10
40.9826489780693
 20
-169.0725842392992
 10
41.34203889086468
 20
-169.0522307806141
  0
LINE
  5
1F0
330
A
100
AcDbEntity
  8
0
  6
Continuous
 62
     7
100
AcDbLine
 10
62.2021816639247
 20
-183.6186709075485
 30
0.0
 11
56.95315051982375
 21
-188.2871479377525
 31
0.0
  0
LWPOLYLINE
  5
1F1
330
A
100
AcDbEntity
  8
0
  6
Continuous
 62
     7
100
AcDbPolyline
 90
        7
 70
   128
 43
0.0
 10
-28.63912266752894
 20
-286.1972019099118
 10
-28.30261805233282
 20
-286.1223107183199
 10
-27.22326876363734
 20
-285.8820948200766
 10
-25.5227631889624
 20
-285.5036366928258
 10
-23.39282022562878
 20
-285.0296045420393
 10
-22.17809912465372
 20
-284.7592607266014
 10
-21.713750419944
 20
-284.65591699976
  0
LWPOLYLINE
  5
1FA
330
A
100
AcDbEntity
  8
0
  6
Continuous
 62
     7
100
AcDbPolyline
 90
        7
 70
   128
 43
0.0
 10
49.72667805421027
 20
-391.3217684915398
 10
48.40283382302477
 20
-392.827385171075
 10
44.50777298332163
 20
-396.2891026372818
 10
40.16767130087866
 20
-399.1563822023136
 10
35.75839830196748
 20
-401.0469218157926
 10
31.07897636024841
 20
-402.1114224286277
 10
22.50278755414926
 20
-403.0225863295264
  0
LWPOLYLINE
  5
203
330
A
100
AcDbEntity
  8
0
  6
Continuous
 62
     7
100
AcDbPolyline
 90
       22
 70
   128
 43
0.0
 10
13.7035660418213
 20
-403.753323747478
 10
2.807228149727447
 20
-404.2306862712227
 10
-4.840261203187062
 20
-403.7818661919052
 10
-12.35544467667671
 20
-402.2939200877241
 10
-16.6630865397545
 20
-400.8926575468609
 10
-20.80687666687657
 20
-399.0383070099947
 10
-24.67238504943642
 20
-396.6988750541848
 10
-28.52206424369734
 20
-393.5261656656097
 10
-31.93468740308281
 20
-389.8488437190006
 10
-34.92965776716402
 20
-385.835240401798
 10
-39.06338390389797
 20
-379.0973044152293
 10
-42.87660454959374
 20
-372.1639737182292
 10
-45.10938540618438
 20
-367.9317286184206
 10
-47.07691377618185
 20
-363.5701655659446
 10
-48.53643130472363
 20
-359.0383034792305
 10
-49.23586034088295
 20
-353.9958692911242
 10
-48.98487958502877
 20
-348.9063911937421
 10
-47.63967231767392
 20
-343.2260626867573
 10
-45.42739690827478
 20
-337.8104759720705
 10
-42.86758056585576
 20
-333.0381159385089
 10
-40.04714129542586
 20
-328.4099923961064
 10
-38.0928067369131
 20
-325.3432623701431
  0
LWPOLYLINE
  5
21B
330
A
100
AcDbEntity
  8
0
  6
Continuous
 62
     7
100
AcDbPolyline
 90
        7
 70
   128
 43
0.0
 10
57.05567796839261
 20
-370.4395697237004
 10
57.3002398720713
 20
-370.666531957398
 10
58.61736877314759
 20
-371.8888749055164
 10
60.17175059578249
 20
-373.3313970961358
 10
61.37481874456645
 20
-374.447887577112
 10
62.09093691520445
 20
-375.1124709790959
 10
62.20314883208265
 20
-375.2166612181269
  0
LWPOLYLINE
  5
224
330
A
100
AcDbEntity
  8
0
  6
Continuous
 62
     7
100
AcDbPolyline
 90
       37
 70
   128
 43
0.0
 10
68.71872644536982
 20
-193.9045453765574
 10
68.74673713901541
 20
-193.9570399645343
 10
71.30137294803571
 20
-199.5705259093048
 10
73.22847532701489
 20
-203.556850418158
 10
75.47649508931676
 20
-207.3754983653894
 10
78.14315149844607
 20
-210.8875756048901
 10
81.53988808373178
 20
-214.2279921150714
 10
85.42679286430923
 20
-216.9703066790536
 10
88.48118417998586
 20
-218.4347067035907
 10
91.73405993653537
 20
-219.3565014818321
 10
95.10380270902277
 20
-219.6259721380164
 10
98.47839275254594
 20
-219.3254139418898
 10
103.8972714758028
 20
-217.9614817193595
 10
109.1421559350779
 20
-215.9279429470978
 10
114.2728483825704
 20
-213.6146723968998
 10
118.9873479995599
 20
-211.596159945806
 10
122.0257013712327
 20
-210.6179181150311
 10
125.1637013657366
 20
-210.1037445773374
 10
127.5458334668151
 20
-210.1941909889726
 10
129.8707575068143
 20
-210.7281484671569
 10
133.8761159716698
 20
-212.5739599518057
 10
138.415439000656
 20
-215.5224493377286
 10
147.7884750171455
 20
-222.3117206529624
 10
156.7608997243042
 20
-229.6278909146433
 10
165.0578456554435
 20
-237.6588031031559
 10
170.0866457676416
 20
-243.3262578924594
 10
174.5421869042732
 20
-249.4331138708635
 10
175.8407405467982
 20
-251.7406757073726
 10
176.8314309087317
 20
-254.1892977050892
 10
177.328015221604
 20
-256.9924144998345
 10
176.9967618231836
 20
-259.491750012999
 10
176.6722948912401
 20
-260.3975516287581
 10
175.2098125216221
 20
-262.920854273743
 10
173.2751193621309
 20
-265.1263712437331
 10
170.5057910538281
 20
-267.5532179846824
 10
167.5221089753778
 20
-269.719980740738
 10
166.7150045017446
 20
-270.2134885997048
  0
LINE
  5
24B
330
A
100
AcDbEntity
  8
0
  6
Continuous
 62
     7
100
AcDbLine
 10
139.6963175653541
 20
-286.1972018138699
 30
0.0
 11
139.6962692631359
 21
-286.1972018138699
 31
0.0
  0
LWPOLYLINE
  5
24C
330
A
100
AcDbEntity
  8
0
  6
Continuous
 62
     7
100
AcDbPolyline
 90
        5
 70
   128
 43
0.0
 10
135.716772289109
 20
-280.3984432522317
 10
137.0859105319458
 20
-282.3934924975884
 10
138.3445640580696
 20
-284.2275470721586
 10
139.2468998045375
 20
-285.5423903949969
 10
139.6962692631359
 20
-286.1972018138699
  0
LWPOLYLINE
  5
253
330
A
100
AcDbEntity
  8
0
  6
Continuous
 62
     7
100
AcDbPolyline
 90
       11
 70
   128
 43
0.0
 10
144.5843758600432
 20
-345.0300303736363
 10
144.6599857460969
 20
-345.1313441454361
 10
147.0705412519591
 20
-348.7997840781223
 10
149.187900914537
 20
-352.6477494374089
 10
150.8280075556968
 20
-356.6976443917411
 10
151.7056747491523
 20
-360.6087867825082
 10
151.8033286560154
 20
-364.6084719193015
 10
151.2152224132711
 20
-368.1032922754652
 10
150.1464458665801
 20
-371.4886222351661
 10
147.9475729124526
 20
-376.2655722068213
 10
147.6072612800441
 20
-376.845734253412
  0
LWPOLYLINE
  5
260
330
A
100
AcDbEntity
  8
0
  6
Continuous
 62
     7
100
AcDbPolyline
 90
       30
 70
   128
 43
0.0
 10
-45.51866078416621
 20
-219.4818416852803
 10
-43.77097156142219
 20
-216.527390123862
 10
-41.42328661272354
 20
-213.5331312902545
 10
-36.57429568383759
 20
-207.8543761836955
 10
-32.2707665849452
 20
-202.3419538913232
 10
-28.61156141388454
 20
-196.4854352189205
 10
-25.68203698649481
 20
-190.0560900284953
 10
-23.57067687055097
 20
-183.1711027111278
 10
-22.180781984473
 20
-176.0169558741412
 10
-21.39547813781244
 20
-171.740355830407
 10
-20.41568732342933
 20
-167.5787727790439
 10
-19.05244081103633
 20
-163.6165620415743
 10
-17.11676987034623
 20
-159.9380789395209
 10
-14.44552088252218
 20
-156.6324865073007
 10
-11.1175368032681
 20
-153.8340163452431
 10
-7.344001742968883
 20
-151.701546791193
 10
-3.335569298709761
 20
-150.3906770745476
 10
0.7763980774663643
 20
-149.9079329205049
 10
4.967340788194773
 20
-150.0590424015513
 10
9.52593127101791
 20
-150.6875224118427
 10
14.13469535044417
 20
-151.5479990052358
 10
18.77269154510475
 20
-152.3841058791081
 10
23.41408990386771
 20
-152.97679501754
 10
27.97808491881579
 20
-153.5266985272635
 10
32.34926343709977
 20
-154.4986412129844
 10
36.41576335580165
 20
-156.3207269207949
 10
40.6814950839815
 20
-159.535035860342
 10
44.35934981189555
 20
-163.6043685597729
 10
47.37351134825664
 20
-168.1920053632279
 10
48.16466897020228
 20
-169.8361056923002
  0
LWPOLYLINE
  5
280
330
A
100
AcDbEntity
  8
0
  6
Continuous
 62
     7
100
AcDbPolyline
 90
       21
 70
   128
 43
0.0
 10
190.7323024896258
 20
-286.1972018143191
 10
189.1644129129019
 20
-287.6849792354793
 10
184.808272109089
 20
-291.189711490368
 10
180.2909472947644
 20
-294.1154792251673
 10
175.6653997768228
 20
-296.6521057152592
 10
170.98404848808
 20
-298.9900163911648
 10
166.2993123613516
 20
-301.319636683405
 10
161.6636103294537
 20
-303.831392022501
 10
157.1624292107858
 20
-306.7133712653719
 10
153.0561455535268
 20
-310.1413055775224
 10
150.6950351476269
 20
-312.8146744953
 10
148.744759604767
 20
-315.8563776933144
 10
147.2874865506146
 20
-319.2388242662108
 10
146.387960643164
 20
-322.8210725476888
 10
146.1095302282105
 20
-326.4530967100548
 10
146.5155436515493
 20
-329.9848709256153
 10
147.8225706435937
 20
-333.6831398344608
 10
149.591773684936
 20
-337.2400736943212
 10
151.1027270772406
 20
-340.9909949534317
 10
151.7857851440004
 20
-345.1169687719201
 10
151.7292126601529
 20
-346.0315197060319
  0
LINE
  5
297
330
A
100
AcDbEntity
  8
0
  6
Continuous
 62
     7
100
AcDbLine
 10
139.6963175653541
 20
-286.1972018138699
 30
0.0
 11
190.7323024896257
 21
-286.1972018143192
 31
0.0
  0
LWPOLYLINE
  5
298
330
A
100
AcDbEntity
  8
0
  6
Continuous
 62
     7
100
AcDbPolyline
 90
       18
 70
   128
 43
0.0
 10
145.4266609483397
 20
-218.8430770950472
 10
149.5148752771986
 20
-220.5385294338751
 10
155.7525718146308
 20
-223.8381457057931
 10
163.2000052146262
 20
-228.6573848975865
 10
170.0940000780375
 20
-233.9624250642803
 10
176.6486145298825
 20
-239.7388490022667
 10
183.1162917933223
 20
-246.0093171689474
 10
186.9715047598582
 20
-249.9270245717749
 10
190.8957216712268
 20
-254.0266738043274
 10
194.5668300026847
 20
-258.3083173984693
 10
196.9531515528927
 20
-261.7988324075207
 10
198.6399676702777
 20
-265.3994779832229
 10
199.3878824143322
 20
-269.1092715252297
 10
199.0839879761118
 20
-272.6673883123383
 10
197.9067515256121
 20
-276.2377894590563
 10
196.015904301752
 20
-279.7379252411288
 10
193.5711775434504
 20
-283.0852459343012
 10
190.7323024896257
 20
-286.1972018143191
  0
LWPOLYLINE
  5
2AC
330
A
100
AcDbEntity
  8
0
  6
Continuous
 62
     7
100
AcDbPolyline
 90
        8
 70
   128
 43
0.0
 10
39.38447729396106
 20
-399.4921879679088
 10
36.55704536187507
 20
-401.7241313030021
 10
33.32734603673504
 20
-403.7792508593486
 10
29.90338458239172
 20
-405.5345622350765
 10
26.40052776295801
 20
-406.7796974597437
 10
22.93641708809351
 20
-407.2994718801288
 10
19.62732519405888
 20
-406.8823945346811
 10
19.22850609493346
 20
-406.7089251468023
  0
LWPOLYLINE
  5
2B6
330
A
100
AcDbEntity
  8
0
  6
Continuous
 62
     7
100
AcDbPolyline
 90
       21
 70
   128
 43
0.0
 10
-25.37900806152639
 20
-396.1165123814761
 10
-26.22376906882148
 20
-396.2274408793914
 10
-31.33719121567442
 20
-397.2604144306782
 10
-34.89099851380137
 20
-397.9572295335948
 10
-38.37326330956916
 20
-398.0631559202038
 10
-41.69486317672652
 20
-397.0975714911282
 10
-44.72334439280497
 20
-395.1077390983637
 10
-47.30529179482078
 20
-392.3962850372642
 10
-49.287153465424
 20
-389.2675016177773
 10
-50.56455655119201
 20
-385.9808912786536
 10
-51.24815424184347
 20
-382.6001213205294
 10
-51.53074024713457
 20
-377.3746389593976
 10
-51.4301737975198
 20
-371.994436099572
 10
-51.51820259765637
 20
-366.4937942023487
 10
-52.29029610501486
 20
-360.9180464838652
 10
-52.99007856280264
 20
-357.2452436596216
 10
-53.44337627761013
 20
-353.705578839561
 10
-53.30593737443104
 20
-350.3836321391337
 10
-52.25662227006567
 20
-347.3586968409158
 10
-50.29977403880918
 20
-344.6356135324399
 10
-47.81446559727412
 20
-342.2908011077528
  0
LWPOLYLINE
  5
2CD
330
A
100
AcDbEntity
  8
0
  6
PHANTOM
 62
     7
100
AcDbPolyline
 90
        9
 70
   128
 43
0.0
 10
-42.63846275373722
 20
-222.7225222786668
 10
-39.05446098983306
 20
-221.2708007191416
 10
-34.49868240861938
 20
-219.3144417830798
 10
-30.16380978370043
 20
-216.894012529285
 10
-26.26248008538901
 20
-213.885223047613
 10
-23.81669540183118
 20
-211.2812390506453
 10
-21.8093331139135
 20
-208.3329116788663
 10
-20.34872377354304
 20
-205.0355896937594
 10
-20.16353108268661
 20
-204.3575148929906
  0
LWPOLYLINE
  5
2D8
330
A
100
AcDbEntity
  8
0
  6
PHANTOM
 62
     7
100
AcDbPolyline
 90
       11
 70
   128
 43
0.0
 10
-12.70606117525585
 20
-174.4701136893393
 10
-12.58737938610428
 20
-174.3414195391371
 10
-10.6314566434625
 20
-172.8728657533465
 10
-8.471220738759152
 20
-171.7158018397289
 10
-5.158118012080381
 20
-170.5460468249415
 10
-1.699750158156973
 20
-169.9037834088627
 10
3.052660015951349
 20
-169.7416944496272
 10
7.816483669133774
 20
-170.1248449223158
 10
12.58137480119762
 20
-170.7620080764131
 10
17.33698741195018
 20
-171.3619571614039
 10
24.24275813011094
 20
-171.5104452798698
  0
LWPOLYLINE
  5
2E5
330
A
100
AcDbEntity
  8
0
  6
PHANTOM
 62
     7
100
AcDbPolyline
 90
       46
 70
   128
 43
0.0
 10
56.95315051982245
 20
-188.2871479377761
 10
50.94440644347765
 20
-181.8468962980273
 10
48.73641938518885
 20
-179.3401425263907
 10
46.36402214233099
 20
-177.0040812015999
 10
45.11466800562177
 20
-176.1706629218707
 10
43.93598779872871
 20
-175.9722498241564
 10
41.90363000681611
 20
-176.1011179074156
 10
37.95560964843761
 20
-176.8101702226318
 10
34.02178345121974
 20
-177.6110021543899
 10
28.24900641653491
 20
-178.4016152412901
 10
22.41992871974266
 20
-178.6863890541743
 10
16.60756708599265
 20
-178.3969926390421
 10
12.23118946862697
 20
-177.8211292672277
 10
7.848151739930045
 20
-177.1925586506584
 10
3.466175018024403
 20
-176.8003659490465
 10
-0.907019578967369
 20
-176.9336363221043
 10
-3.275201452103831
 20
-177.3673482484302
 10
-5.543623928932247
 20
-178.1625235221546
 10
-7.841741353462425
 20
-179.6062765899185
 10
-9.005095651446845
 20
-181.1406184355337
 10
-9.903887290059657
 20
-183.5117871388446
 10
-10.41834913127969
 20
-186.0113403855651
 10
-11.00202285321884
 20
-191.0140195473864
 10
-11.76031167991897
 20
-198.8518193538857
 10
-12.53062580976287
 20
-203.3202621824042
 10
-13.77762925488536
 20
-207.6873843200717
 10
-15.63277378127814
 20
-211.7967517138044
 10
-18.25973467190171
 20
-215.6628126309137
 10
-21.45761956755542
 20
-219.0787139872639
 10
-26.04999952715184
 20
-222.6497670431403
 10
-31.14281171757066
 20
-225.5456926762978
 10
-36.50613036421326
 20
-227.8796356441791
 10
-39.42051861136746
 20
-229.0137148570094
 10
-42.13459525381223
 20
-230.5124335683781
 10
-43.31173053425113
 20
-231.7552638728966
 10
-44.16195127423621
 20
-233.6131166422036
 10
-44.67175808326048
 20
-236.9185378739994
 10
-44.24098872230975
 20
-240.2295100422068
 10
-42.45744735107872
 20
-244.8353298066424
 10
-39.92659002673594
 20
-249.1346022180065
 10
-37.04123108738936
 20
-253.2771107605986
 10
-34.19418487114683
 20
-257.4126389187184
 10
-30.26480648967997
 20
-263.8395552766144
 10
-26.73598186993341
 20
-270.5255384694214
 10
-23.81615013800348
 20
-277.4658914071483
 10
-21.71375041998658
 20
-284.6559169998044
  0
LWPOLYLINE
  5
315
330
A
100
AcDbEntity
  8
0
  6
PHANTOM
 62
     7
100
AcDbPolyline
 90
        3
 70
   128
 43
0.0
 10
22.50278755414926
 20
-403.0225863295264
 10
16.97297418715516
 20
-403.6100927887042
 10
13.7035660418213
 20
-403.753323747478
  0
LWPOLYLINE
  5
31A
330
A
100
AcDbEntity
  8
0
  6
PHANTOM
 62
     7
100
AcDbPolyline
 90
       37
 70
   128
 43
0.0
 10
-21.71375041998656
 20
-284.6559169998044
 10
-20.69409090989566
 20
-290.6660352917279
 10
-20.33222736726999
 20
-296.7491168751164
 10
-20.62510708515479
 20
-302.0521069048958
 10
-21.52895026716143
 20
-307.302708430701
 10
-23.057658848499
 20
-312.3840739691598
 10
-26.18366531263386
 20
-319.2411472639826
 10
-29.99540129383067
 20
-325.7824987880472
 10
-34.04381842134531
 20
-332.1839349900423
 10
-36.6635286340498
 20
-336.478517158476
 10
-39.04223227918495
 20
-340.906759653277
 10
-40.85135874740453
 20
-345.2927241414928
 10
-41.95820593194921
 20
-349.8924440477131
 10
-42.1501743884175
 20
-353.6457918252568
 10
-41.64125805043481
 20
-357.3645151072532
 10
-40.354754874986
 20
-361.3046766624183
 10
-38.61275261826853
 20
-365.0912966163945
 10
-36.6546405762678
 20
-368.7720241003315
 10
-33.01672102630469
 20
-375.4103424188869
 10
-29.06606263204992
 20
-381.857964961561
 10
-26.58893598774166
 20
-385.1917079030573
 10
-23.77373695357299
 20
-388.2550047465507
 10
-20.59006883900934
 20
-390.8940461714673
 10
-15.74342057512669
 20
-393.605805289098
 10
-10.49008790529508
 20
-395.4527098344804
 10
-3.933437068517411
 20
-396.7478987156943
 10
2.740502117473869
 20
-397.1346197573804
 10
16.46922158010348
 20
-396.5300259336292
 10
30.13751558339102
 20
-395.0786708964451
 10
33.55439360642991
 20
-394.3046815525311
 10
36.7741341818467
 20
-392.9276792142384
 10
40.26033593497966
 20
-390.6109933195072
 10
43.38872049956882
 20
-387.8159863737854
 10
47.34360826306804
 20
-383.3030352875834
 10
50.89791073535149
 20
-378.4541183158793
 10
53.84265594459113
 20
-374.3386111086285
 10
57.0556779683926
 20
-370.4395697237004
  0
LWPOLYLINE
  5
341
330
A
100
AcDbEntity
  8
0
  6
PHANTOM
 62
     7
100
AcDbPolyline
 90
        6
 70
   128
 43
0.0
 10
166.7150045017446
 20
-270.2134885997048
 10
158.3281625147968
 20
-275.3416629162702
 10
148.8899422639699
 20
-280.5778058176837
 10
139.6963527471749
 20
-286.1971778523232
 10
139.6963175653541
 20
-286.1972018138699
 10
139.6963175653541
 20
-286.1972018138699
  0
LWPOLYLINE
  5
349
330
A
100
AcDbEntity
  8
0
  6
PHANTOM
 62
     7
100
AcDbPolyline
 90
       39
 70
   128
 43
0.0
 10
135.7167722891089
 20
-280.3984432522318
 10
144.899008879225
 20
-274.7501759148755
 10
154.3326356721203
 20
-269.4950457732781
 10
163.5255886327991
 20
-263.862440553555
 10
165.9899978539919
 20
-262.0839096333149
 10
168.2780195906358
 20
-260.0917490080619
 10
169.3268604219747
 20
-258.9597633276745
 10
170.1282963891151
 20
-257.6611947258271
 10
170.2012252794468
 20
-257.4603142341236
 10
170.2393598399052
 20
-257.1910634062958
 10
170.0591327105941
 20
-256.2915716660658
 10
169.3943429507926
 20
-254.6949013237547
 10
168.5277666990947
 20
-253.1907037283437
 10
164.4579829966629
 20
-247.641831867275
 10
159.8664401795566
 20
-242.4929947062241
 10
151.9259994043301
 20
-234.8202429378317
 10
143.3352846988054
 20
-227.8363038993717
 10
134.3661088482878
 20
-221.3504810260566
 10
130.344624236804
 20
-218.72961258427
 10
127.6543975797481
 20
-217.4692323990567
 10
125.598901846259
 20
-217.1850065363532
 10
123.5150686365665
 20
-217.5537523230166
 10
121.4976965211642
 20
-218.2320032255941
 10
117.2185081882666
 20
-220.0700661641926
 10
111.5034631582066
 20
-222.6196809526291
 10
105.6538378327805
 20
-224.8370888337347
 10
99.61806792223388
 20
-226.330043040143
 10
95.04300099583906
 20
-226.7216312854485
 10
90.47455537026305
 20
-226.3404283952823
 10
86.04398112008007
 20
-225.0988623124363
 10
81.88338165005498
 20
-223.1190949218304
 10
77.04190774325503
 20
-219.7164350735876
 10
72.81025082776583
 20
-215.5696773635953
 10
69.70317679263619
 20
-211.5013284748782
 10
67.07142552408303
 20
-207.0835591619546
 10
64.82350919369934
 20
-202.4641485104597
 10
62.60226980242428
 20
-197.4921058951959
 10
60.10170191875734
 20
-192.6596567192594
 10
56.95315051982246
 20
-188.2871479377761
  0
LWPOLYLINE
  5
372
330
A
100
AcDbEntity
  8
0
  6
PHANTOM
 62
     7
100
AcDbPolyline
 90
       43
 70
   128
 43
0.0
 10
57.05567796839261
 20
-370.4395697237004
 10
60.77229395110356
 20
-367.0670344642758
 10
63.40233765028615
 20
-365.4111211843287
 10
66.2645925255614
 20
-364.2100757469533
 10
69.30367276945762
 20
-363.5426287023158
 10
72.41448241157555
 20
-363.3808773547357
 10
76.85379802205133
 20
-363.9084808703949
 10
81.17131827724916
 20
-365.1105801626089
 10
88.27589495668442
 20
-368.1116969853494
 10
95.07048879738672
 20
-371.821815756516
 10
101.703836078078
 20
-375.8812274199173
 10
108.3246730774803
 20
-379.9302229193617
 10
115.6276479408109
 20
-383.9833825699427
 10
121.7039035383707
 20
-386.6252384099945
 10
124.0049209352569
 20
-387.3058260175697
 10
126.3666826090579
 20
-387.6953593373734
 10
128.9360146269012
 20
-387.533616451782
 10
131.2811674280857
 20
-386.424969480849
 10
133.7087419568427
 20
-384.3942964896913
 10
135.8091030773636
 20
-382.0074098400971
 10
139.2874541499423
 20
-377.0389284622807
 10
141.6034771509459
 20
-373.1026400192759
 10
143.5169236787956
 20
-368.9656312362956
 10
144.2975257523533
 20
-366.5268387160972
 10
144.7320848370213
 20
-364.0091743498447
 10
144.6561888451302
 20
-361.4111349598628
 10
144.0742442240542
 20
-358.870715058843
 10
142.6825473905552
 20
-355.4735337128328
 10
140.8773564979239
 20
-352.2527481039012
 10
138.8386205118123
 20
-349.1755231854875
 10
134.378724830496
 20
-343.1757320927157
 10
129.8038889649889
 20
-337.2582335937672
 10
125.5309369537716
 20
-331.1347121328748
 10
122.0497240503242
 20
-324.8529735713789
 10
119.4733754877929
 20
-318.1638032274626
 10
118.3819403826942
 20
-313.0919042605948
 10
118.1103337070947
 20
-307.9182840954333
 10
118.8016811334699
 20
-302.7482241796564
 10
120.4034097256701
 20
-297.779312912205
 10
122.6216038396042
 20
-293.4589938236777
 10
125.4430491688459
 20
-289.5034377186285
 10
130.2572440572127
 20
-284.5984319544137
 10
135.7167722891089
 20
-280.3984432522318
  0
LWPOLYLINE
  5
39F
330
A
100
AcDbEntity
  8
0
  6
PHANTOM
 62
     7
100
AcDbPolyline
 90
       15
 70
   128
 43
0.0
 10
139.6962692631359
 20
-286.1972018138699
 10
139.6962340847006
 20
-286.1972257802369
 10
134.9882154016207
 20
-289.7700955155232
 10
130.8290059642332
 20
-293.9474565390136
 10
128.5818044137722
 20
-297.0639007896415
 10
126.8145234472223
 20
-300.4733815164089
 10
125.5864192857902
 20
-304.2474583463381
 10
125.0583568129624
 20
-308.1761648417296
 10
125.2944641253268
 20
-312.2330776584164
 10
126.1783724764987
 20
-316.2067590526703
 10
128.4433742646084
 20
-321.9720973224169
 10
131.4858501870545
 20
-327.3832988367811
 10
135.7212381512559
 20
-333.4046322822451
 10
140.2512574300738
 20
-339.2238508552115
 10
144.5843758600432
 20
-345.0300303736363
  0
LINE
  5
3B0
330
A
100
AcDbEntity
  8
0
  6
Continuous
 62
     7
100
AcDbLine
 10
494.7136183008449
 20
-42.87499999999996
 30
0.0
 11
494.7136183008449
 21
-39.37499999999996
 31
0.0
  0
LINE
  5
3B1
330
A
100
AcDbEntity
  8
0
  6
Continuous
 62
     7
100
AcDbLine
 10
314.7136183008449
 20
-39.37499999999996
 30
0.0
 11
314.7136183008449
 21
-42.87499999999996
 31
0.0
  0
LINE
  5
3B2
330
A
100
AcDbEntity
  8
0
  6
Continuous
 62
     7
100
AcDbLine
 10
489.7136183008448
 20
-54.87499999999998
 30
0.0
 11
489.7136183008448
 21
-42.87499999999996
 31
0.0
  0
LINE
  5
3B3
330
A
100
AcDbEntity
  8
0
  6
Continuous
 62
     7
100
AcDbLine
 10
319.7136183008449
 20
-42.87499999999996
 30
0.0
 11
319.7136183008449
 21
-54.87499999999998
 31
0.0
  0
LINE
  5
3B4
330
A
100
AcDbEntity
  8
0
  6
Continuous
 62
     7
100
AcDbLine
 10
486.7136183008449
 20
-56.07499999999999
 30
0.0
 11
486.7136183008449
 21
-54.87499999999998
 31
0.0
  0
LINE
  5
3B5
330
A
100
AcDbEntity
  8
0
  6
Continuous
 62
     7
100
AcDbLine
 10
322.7136183008449
 20
-54.87499999999998
 30
0.0
 11
322.7136183008449
 21
-56.07499999999999
 31
0.0
  0
LINE
  5
3B6
330
A
100
AcDbEntity
  8
0
  6
Continuous
 62
     7
100
AcDbLine
 10
372.2955112130256
 20
156.6621520581832
 30
0.0
 11
394.3653000212741
 21
31.20247442716328
 31
0.0
  0
LINE
  5
3B7
330
A
100
AcDbEntity
  8
0
  6
Continuous
 62
     7
100
AcDbLine
 10
402.2443213418432
 20
32.58848417821699
 30
0.0
 11
380.4183474633756
 21
156.6621520581833
 31
0.0
  0
LWPOLYLINE
  5
3B8
330
A
100
AcDbEntity
  8
0
  6
Continuous
 62
     7
100
AcDbPolyline
 90
        4
 70
   128
 43
0.0
 10
402.6514404743538
 20
27.91428081688807
 10
402.607194565468
 20
29.46188683332041
 10
402.3304760244276
 20
32.06881540897749
 10
402.2443213418432
 20
32.58848417821699
  0
LWPOLYLINE
  5
3BE
330
A
100
AcDbEntity
  8
0
  6
Continuous
 62
     7
100
AcDbPolyline
 90
        3
 70
   128
 43
0.0
 10
394.3653000212741
 20
31.20247442716328
 10
394.5223890903207
 20
30.12896933069759
 10
394.6514404743539
 20
27.91428081688807
  0
LINE
  5
3C3
330
A
100
AcDbEntity
  8
0
  6
Continuous
 62
     7
100
AcDbLine
 10
402.6514404743538
 20
-39.375
 30
0.0
 11
402.6514404408827
 21
27.91428081688807
 31
0.0
  0
LINE
  5
3C4
330
A
100
AcDbEntity
  8
0
  6
Continuous
 62
     7
100
AcDbLine
 10
394.6514455459514
 20
27.91428081688807
 30
0.0
 11
394.6514404743539
 21
-39.375
 31
0.0
  0
LINE
  5
3C5
330
A
100
AcDbEntity
  8
0
  6
Continuous
 62
     7
100
AcDbLine
 10
400.7136183008448
 20
156.6621520581833
 30
0.0
 11
400.7136183008448
 21
41.29004048856571
 31
0.0
  0
LINE
  5
3C6
330
A
100
AcDbEntity
  8
0
  6
Continuous
 62
     7
100
AcDbLine
 10
408.7136183008449
 20
41.29004048856482
 30
0.0
 11
408.7136183008448
 21
156.6621520581831
 31
0.0
  0
LINE
  5
3C7
330
A
100
AcDbEntity
  8
0
  6
Continuous
 62
     7
100
AcDbLine
 10
429.0088891383144
 20
156.6621520581831
 30
0.0
 11
407.1829152598466
 21
32.58848417821699
 31
0.0
  0
LINE
  5
3C8
330
A
100
AcDbEntity
  8
0
  6
Continuous
 62
     7
100
AcDbLine
 10
415.0619365804159
 20
31.20247442716328
 30
0.0
 11
437.1317253886645
 21
156.6621520581831
 31
0.0
  0
LWPOLYLINE
  5
3C9
330
A
100
AcDbEntity
  8
0
  6
Continuous
 62
     7
100
AcDbPolyline
 90
        3
 70
   128
 43
0.0
 10
414.7757961273359
 20
27.91428081688807
 10
414.8069685340033
 20
29.00471605665439
 10
415.0619365804159
 20
31.20247442716328
  0
LWPOLYLINE
  5
3CE
330
A
100
AcDbEntity
  8
0
  6
Continuous
 62
     7
100
AcDbPolyline
 90
        4
 70
   128
 43
0.0
 10
407.1829152598466
 20
32.58848417821699
 10
406.9591388800468
 20
31.05940704818774
 10
406.7809214004696
 20
28.44124825340422
 10
406.7757961273359
 20
27.91428081688807
  0
LINE
  5
3D4
330
A
100
AcDbEntity
  8
0
  6
Continuous
 62
     7
100
AcDbLine
 10
414.7757961273359
 20
-39.375
 30
0.0
 11
414.7757931018648
 21
27.91428081688807
 31
0.0
  0
LINE
  5
3D5
330
A
100
AcDbEntity
  8
0
  6
Continuous
 62
     7
100
AcDbLine
 10
406.7757963007506
 20
27.91428081688807
 30
0.0
 11
406.775796127336
 21
-39.375
 31
0.0
  0
ARC
  5
3D6
330
A
100
AcDbEntity
  8
0
  6
Continuous
 62
     7
100
AcDbCircle
 10
404.7136183008449
 20
78.92500000000002
 30
0.0
 40
300.9999999999999
100
AcDbArc
 50
83.41841107744688
 51
96.58158892255313
  0
LINE
  5
3D7
330
A
100
AcDbEntity
  8
0
  6
Continuous
 62
     7
100
AcDbLine
 10
370.2136183008446
 20
377.9413039033155
 30
0.0
 11
370.2136183008449
 21
376.662022058183
 31
0.0
  0
LINE
  5
3D8
330
A
100
AcDbEntity
  8
0
  6
Continuous
 62
     7
100
AcDbLine
 10
439.2136183008449
 20
376.662022058183
 30
0.0
 11
439.2136183008452
 21
377.9413039033155
 31
0.0
  0
LWPOLYLINE
  5
3D9
330
A
100
AcDbEntity
  8
0
  6
Continuous
 62
     7
100
AcDbPolyline
 90
       19
 70
   128
 43
0.0
 10
288.1865470556169
 20
370.1642140861545
 10
286.850576408911
 20
354.1292042793768
 10
285.4986871940386
 20
338.0583833483199
 10
284.2480191653393
 20
323.3461198706806
 10
283.1005693801355
 20
309.9924138464587
 10
282.0589990916224
 20
297.9972652756543
 10
281.1420125471558
 20
287.5386999148376
 10
280.3330447913062
 20
278.3906053118616
 10
279.634988351894
 20
270.552981466726
 10
279.05040922893
 20
264.0247503860499
 10
278.4416365437082
 20
257.30122801178
 10
277.6991055735276
 20
249.2404940890507
 10
276.8173858310257
 20
239.842548617862
 10
275.7901599850002
 20
229.1073915982137
 10
274.6102186721681
 20
217.0350230301061
 10
273.2947571834979
 20
203.8766258867886
 10
271.8163217812835
 20
189.4283483435699
 10
270.169753196959
 20
173.6901904004501
 10
268.3563198194723
 20
156.6621520581831
  0
LWPOLYLINE
  5
3EE
330
A
100
AcDbEntity
  8
0
  6
Continuous
 62
     7
100
AcDbPolyline
 90
        3
 70
   128
 43
0.0
 10
287.3447679521731
 20
369.1629654564277
 10
287.5059315474645
 20
366.3683066195406
 10
287.6533994492062
 20
363.7651011128761
  0
LWPOLYLINE
  5
3F3
330
A
100
AcDbEntity
  8
0
  6
Continuous
 62
     7
100
AcDbPolyline
 90
        9
 70
   128
 43
0.0
 10
287.3520336673026
 20
369.165688817999
 10
287.4176313909166
 20
370.6070511568948
 10
287.7732710260278
 20
372.0053501016058
 10
288.4042519937882
 20
373.3027861217626
 10
289.2844923152713
 20
374.4457289168261
 10
290.3776067258056
 20
375.3869342569099
 10
291.6384106818371
 20
376.0874968515228
 10
293.0147880912944
 20
376.5184585232192
 10
294.4435197923389
 20
376.6620161791408
  0
LWPOLYLINE
  5
3FE
330
A
100
AcDbEntity
  8
0
  6
Continuous
 62
     7
100
AcDbPolyline
 90
        9
 70
   128
 43
0.0
 10
288.1875699972442
 20
370.1704184728027
 10
288.4208529397578
 20
371.4654778199282
 10
288.8892246196881
 20
372.6952043706859
 10
289.576581670685
 20
373.8173181623756
 10
290.4592916596191
 20
374.7932391308122
 10
291.5070056073746
 20
375.5894135545458
 10
292.6837014352183
 20
376.17846768539
 10
293.9489224613943
 20
376.5401489016014
 10
295.2585252192089
 20
376.6620220580733
  0
LWPOLYLINE
  5
409
330
A
100
AcDbEntity
  8
0
  6
Continuous
 62
     7
100
AcDbPolyline
 90
       23
 70
   128
 43
0.0
 10
525.7654594030647
 20
156.6621520581829
 10
525.4190869023496
 20
175.7254560771409
 10
525.0978348826339
 20
193.4266970429338
 10
524.8025470479428
 20
209.7658749555616
 10
524.5336608062453
 20
224.7429898150245
 10
524.2912820949174
 20
238.3580416213223
 10
524.0752565852431
 20
250.611030374455
 10
523.9108072522385
 20
260.0295011613557
 10
523.7651680868782
 20
268.4472725622576
 10
523.6379967689431
 20
275.8643445771608
 10
523.5289308960853
 20
282.2807172060651
 10
523.4376097148955
 20
287.6963904489705
 10
523.3636932927278
 20
292.1113643058772
 10
523.3010440999517
 20
295.8800527827837
 10
523.1989992350374
 20
302.1088826596212
 10
523.0923374148381
 20
308.7857098743226
 10
522.9824763991969
 20
315.9105344268879
 10
522.871062446966
 20
323.5569244480188
 10
522.7597114394164
 20
332.035986622434
 10
522.6615877621054
 20
341.2080978007301
 10
522.601570778683
 20
351.1667563318651
 10
522.6171475087357
 20
361.2747528403684
 10
522.6990060541929
 20
369.4695805880495
  0
LWPOLYLINE
  5
422
330
A
100
AcDbEntity
  8
0
  6
Continuous
 62
     7
100
AcDbPolyline
 90
        9
 70
   128
 43
0.0
 10
515.599318929015
 20
376.6620220347231
 10
516.9940135494474
 20
376.5235100329728
 10
518.3342880206081
 20
376.1136032569315
 10
519.567867263173
 20
375.4482894088902
 10
520.6466376600101
 20
374.5535179006521
 10
521.5285236443005
 20
373.4641877417681
 10
522.1791287839882
 20
372.2227863642464
 10
522.5730773549082
 20
370.8777324740156
 10
522.6950040768603
 20
369.4814875633447
  0
LINE
  5
42D
330
A
100
AcDbEntity
  8
0
  6
Continuous
 62
     7
100
AcDbLine
 10
481.8365571055911
 20
376.6620220581823
 30
0.0
 11
481.8362840732797
 21
376.6620220530092
 31
0.0
  0
LINE
  5
42E
330
A
100
AcDbEntity
  8
0
  6
Continuous
 62
     7
100
AcDbLine
 10
494.7136183008449
 20
-39.37499999999996
 30
0.0
 11
314.7136183008449
 21
-39.37499999999996
 31
0.0
  0
LINE
  5
42F
330
A
100
AcDbEntity
  8
0
  6
Continuous
 62
     7
100
AcDbLine
 10
494.7136183008449
 20
-42.87499999999996
 30
0.0
 11
314.7136183008449
 21
-42.87499999999996
 31
0.0
  0
LINE
  5
430
330
A
100
AcDbEntity
  8
0
  6
Continuous
 62
     7
100
AcDbLine
 10
489.7136183008448
 20
-54.87499999999998
 30
0.0
 11
319.7136183008449
 21
-54.87499999999998
 31
0.0
  0
LINE
  5
431
330
A
100
AcDbEntity
  8
0
  6
Continuous
 62
     7
100
AcDbLine
 10
486.7136183008449
 20
-56.07499999999999
 30
0.0
 11
322.7136183008449
 21
-56.07499999999999
 31
0.0
  0
LINE
  5
432
330
A
100
AcDbEntity
  8
0
  6
Continuous
 62
     7
100
AcDbLine
 10
404.713618300845
 20
377.9413039033155
 30
0.0
 11
439.2136183008452
 21
377.9413039033155
 31
0.0
  0
LINE
  5
433
330
A
100
AcDbEntity
  8
0
  6
Continuous
 62
     7
100
AcDbLine
 10
370.2136183008446
 20
377.9413039033155
 30
0.0
 11
404.713618300845
 21
377.9413039033155
 31
0.0
  0
LINE
  5
434
330
A
100
AcDbEntity
  8
0
  6
Continuous
 62
     7
100
AcDbLine
 10
287.410206635981
 20
369.17200736806
 30
0.0
 11
287.3953822508645
 21
369.1656777280602
 31
0.0
  0
LINE
  5
435
330
A
100
AcDbEntity
  8
0
  6
Continuous
 62
     7
100
AcDbLine
 10
404.6593443547395
 20
369.398434029769
 30
0.0
 11
404.6593443578491
 21
156.6621520581832
 31
0.0
  0
LINE
  5
436
330
A
100
AcDbEntity
  8
0
  6
Continuous
 62
     7
100
AcDbLine
 10
404.6593443578491
 20
156.6621520581831
 30
0.0
 11
268.3700754608185
 21
156.662152058183
 31
0.0
  0
LINE
  5
437
330
A
100
AcDbEntity
  8
0
  6
Continuous
 62
     7
100
AcDbLine
 10
404.6593443547395
 20
369.3984714207301
 30
0.0
 11
404.6593443547395
 21
369.3984340297689
 31
0.0
  0
LINE
  5
438
330
A
100
AcDbEntity
  8
0
  6
Continuous
 62
     7
100
AcDbLine
 10
295.3149684819182
 20
376.6620220581829
 30
0.0
 11
403.1180595401173
 21
376.6620220581829
 31
0.0
  0
LWPOLYLINE
  5
439
330
A
100
AcDbEntity
  8
0
  6
Continuous
 62
     7
100
AcDbPolyline
 90
        7
 70
   128
 43
0.0
 10
404.6593444502248
 20
369.3984714188726
 10
404.5844532586329
 20
371.7562945892323
 10
404.3442373603896
 20
373.8670943338322
 10
403.9657792331388
 20
375.4928941445825
 10
403.4917470823522
 20
376.4503974629477
 10
403.2214032669144
 20
376.6460602629499
 10
403.118059540073
 20
376.6620220581829
  0
LINE
  5
442
330
A
100
AcDbEntity
  8
0
  6
Continuous
 62
     7
100
AcDbLine
 10
522.65735056197
 20
369.4767392138085
 30
0.0
 11
522.6433331054179
 21
369.4711545732878
 31
0.0
  0
LINE
  5
443
330
A
100
AcDbEntity
  8
0
  6
Continuous
 62
     7
100
AcDbLine
 10
525.7228138529093
 20
156.662152058183
 30
0.0
 11
404.6593443578491
 21
156.6621520581831
 31
0.0
  0
LINE
  5
444
330
A
100
AcDbEntity
  8
0
  6
Continuous
 62
     7
100
AcDbLine
 10
403.1180595401173
 20
376.6620220581829
 30
0.0
 11
515.5669205944132
 21
376.6620220581829
 31
0.0
  0
LWPOLYLINE
  5
445
330
A
100
AcDbEntity
  8
0
  6
PHANTOM
 62
     7
100
AcDbPolyline
 90
       13
 70
   128
 43
0.0
 10
394.3653000212741
 20
31.20247442716328
 10
394.4140210915804
 20
31.15428067097509
 10
394.7700673190673
 20
31.1014660532154
 10
395.4401910062774
 20
31.11920299714125
 10
396.3648487228125
 20
31.20591549744761
 10
397.4618805727652
 20
31.35389876795064
 10
398.6338104620219
 20
31.55000384565235
 10
399.7765072769928
 20
31.77680593380594
 10
400.788437391025
 20
32.01415267157437
 10
401.5796863727051
 20
32.24095475972794
 10
402.0799482776714
 20
32.43705983742962
 10
402.2447726403048
 20
32.5850431079327
 10
402.2443213418432
 20
32.58848417821699
  0
LINE
  5
454
330
A
100
AcDbEntity
  8
0
  6
PHANTOM
 62
     7
100
AcDbLine
 10
394.6514455459514
 20
27.91428081688807
 30
0.0
 11
402.6514404408827
 21
27.91428081688807
 31
0.0
  0
LINE
  5
455
330
A
100
AcDbEntity
  8
0
  6
PHANTOM
 62
     7
100
AcDbLine
 10
400.7136183008448
 20
27.91428081688807
 30
0.0
 11
408.7136183008449
 21
27.91428081688807
 31
0.0
  0
LWPOLYLINE
  5
456
330
A
100
AcDbEntity
  8
0
  6
PHANTOM
 62
     7
100
AcDbPolyline
 90
       13
 70
   128
 43
0.0
 10
400.7136183008448
 20
31.89547930269016
 10
400.7582949959444
 20
32.01415267157437
 10
401.1097428292352
 20
32.24095475972794
 10
401.7814108135255
 20
32.43705983742962
 10
402.7136183008449
 20
32.5850431079327
 10
403.8235345650196
 20
32.67175560823904
 10
405.0125386751906
 20
32.68949255216492
 10
406.1749823983105
 20
32.63667793440517
 10
407.2075775082798
 20
32.51800456552095
 10
408.0185733981089
 20
32.3440170951271
 10
408.5359095239895
 20
32.13017507349952
 10
408.7136183008449
 20
31.89547930269016
 10
408.7136183008449
 20
31.89547930269016
  0
LWPOLYLINE
  5
465
330
A
100
AcDbEntity
  8
0
  6
PHANTOM
 62
     7
100
AcDbPolyline
 90
        8
 70
   128
 43
0.0
 10
409.1224259201313
 20
31.89547930269016
 10
410.2119079992998
 20
31.66078353188073
 10
411.3822935914761
 20
31.44694151025318
 10
412.5295888006432
 20
31.2729540398593
 10
413.551851412644
 20
31.15428067097509
 10
414.3582489082769
 20
31.1014660532154
 10
414.8771293312378
 20
31.11920299714125
 10
415.0619365804159
 20
31.20247442716328
  0
LWPOLYLINE
  5
46F
330
A
100
AcDbEntity
  8
0
  6
PHANTOM
 62
     7
100
AcDbPolyline
 90
        5
 70
   128
 43
0.0
 10
407.1829152598466
 20
32.58848417821699
 10
407.2213038321844
 20
32.51800456552095
 10
407.5576031515224
 20
32.3440170951271
 10
408.2106526178183
 20
32.13017507349952
 10
409.1224259201313
 20
31.89547930269016
  0
LINE
  5
476
330
A
100
AcDbEntity
  8
0
  6
PHANTOM
 62
     7
100
AcDbLine
 10
408.775796127336
 20
27.91428081688807
 30
0.0
 11
414.7757931018648
 21
27.91428081688807
 31
0.0
  0
LINE
  5
477
330
A
100
AcDbEntity
  8
0
  6
PHANTOM
 62
     7
100
AcDbLine
 10
406.7757963007506
 20
27.91428081688807
 30
0.0
 11
408.775796127336
 21
27.91428081688807
 31
0.0
  0
LWPOLYLINE
  5
478
330
A
100
AcDbEntity
  8
0
  6
PHANTOM
 62
     7
100
AcDbPolyline
 90
       38
 70
   128
 43
0.0
 10
404.6593443547395
 20
369.398434029769
 10
404.6593027970575
 20
369.3984347977318
 10
398.0745048735664
 20
369.5001837717007
 10
391.7241765090329
 20
369.5435779363298
 10
385.606481710939
 20
369.5074214326469
 10
379.7195844867669
 20
369.3705184016802
 10
375.106877085294
 20
369.2296037732528
 10
370.4624601608323
 20
369.1373238888529
 10
365.6450262466702
 20
369.1203018214167
 10
360.5132678760958
 20
369.2051606438806
 10
357.9328390070975
 20
369.2822755150786
 10
355.3081183338282
 20
369.365851972224
 10
352.5856986073197
 20
369.4462965811222
 10
349.9267964399131
 20
369.5173471005868
 10
346.3649658923781
 20
369.6178790946059
 10
344.6867983852998
 20
369.6923289142564
 10
343.2706108873414
 20
369.7751397865772
 10
341.2638947371235
 20
369.9091048940551
 10
339.7329432594547
 20
370.0050888336268
 10
337.7765843233929
 20
370.0779622657851
 10
335.3561550695981
 20
370.1138461793755
 10
332.347365587926
 20
370.1176212253427
 10
329.7433815909583
 20
370.0942289071229
 10
326.7950542191793
 20
370.03008692746
 10
323.4977322340724
 20
369.9338722794075
 10
319.9903375027729
 20
369.8368904018977
 10
316.4070268875454
 20
369.7554628845066
 10
308.8410552779976
 20
369.6471620792077
 10
303.3294709879834
 20
369.6108870740776
 10
299.725174171512
 20
369.6335281313839
 10
296.3083379357903
 20
369.7219891481397
 10
294.4356682135272
 20
369.8172839822329
 10
292.8035620794501
 20
369.9178769734702
 10
291.3350082936594
 20
369.997351435284
 10
290.1779443800419
 20
370.0480572998018
 10
289.0081893652544
 20
370.0955352361362
 10
288.3659259491756
 20
370.1281824978511
 10
288.249593665307
 20
370.1590251458654
  0
LWPOLYLINE
  5
4A0
330
A
100
AcDbEntity
  8
0
  6
PHANTOM
 62
     7
100
AcDbPolyline
 90
        3
 70
   128
 43
0.0
 10
288.1173264034308
 20
369.3333920622038
 10
287.5347267796121
 20
369.2251743409711
 10
287.410206635981
 20
369.17200736806
  0
LWPOLYLINE
  5
4A5
330
A
100
AcDbEntity
  8
0
  6
PHANTOM
 62
     7
100
AcDbPolyline
 90
       29
 70
   128
 43
0.0
 10
522.6433331054179
 20
369.4711545732878
 10
522.2440087322182
 20
369.3120612979032
 10
520.756062628037
 20
369.2781443793017
 10
519.3548000871738
 20
369.32241575705
 10
517.5004495503077
 20
369.4013034978302
 10
515.1610175944978
 20
369.5123329373256
 10
511.9883082059226
 20
369.674248288832
 10
508.3109862593137
 20
369.8448234828457
 10
504.2973829421111
 20
369.9698217021925
 10
497.5594469555423
 20
370.0260662110473
 10
490.6261162585423
 20
369.9473339043596
 10
486.3938711587336
 20
369.8532263025095
 10
482.0323081062576
 20
369.7598004252983
 10
477.5004460195436
 20
369.7036815061848
 10
472.4580118314372
 20
369.7019596697024
 10
467.3685337340551
 20
369.6982993249487
 10
461.6882052270703
 20
369.615377095425
 10
456.2726185123834
 20
369.4825208197388
 10
451.5002584788219
 20
369.3707524958819
 10
446.8721349364194
 20
369.2795665665698
 10
440.8915216599807
 20
369.1546320273742
 10
434.7876649880607
 20
369.0377162226059
 10
428.3784344246402
 20
368.9848534558276
 10
421.9047197136044
 20
369.048707481448
 10
415.2219328274464
 20
369.1822867241916
 10
409.9086888118405
 20
369.2925073408233
 10
404.6593859021564
 20
369.398470612475
 10
404.6593443547395
 20
369.3984714207301
 10
404.6593443547395
 20
369.3984714207301
  0
ENDSEC
  0
SECTION
  2
OBJECTS
  0
DICTIONARY
  5
19
330
0
100
AcDbDictionary
281
     1
  3
ACAD_COLOR
350
4C8
  3
ACAD_GROUP
350
1A
  3
ACAD_LAYOUT
350
4C9
  3
ACAD_MATERIAL
350
4C7
  3
ACAD_MLINESTYLE
350
1B
  3
ACAD_PLOTSETTINGS
350
4CA
  3
ACAD_PLOTSTYLENAME
350
4C5
  3
ACDBHEADERROUNDTRIPXREC
350
4E2
  3
AcDbVariableDictionary
350
4DB
  3
ASE_INDEX_DICTIONARY
350
4D0
  0
DICTIONARY
  5
4C8
102
{ACAD_REACTORS
330
19
102
}
330
19
100
AcDbDictionary
281
     1
  0
DICTIONARY
  5
1A
102
{ACAD_REACTORS
330
19
102
}
330
19
100
AcDbDictionary
281
     1
  0
DICTIONARY
  5
4C9
102
{ACAD_REACTORS
330
19
102
}
330
19
100
AcDbDictionary
281
     1
  3
Layout1
350
4CC
  3
Model
350
4CB
  0
DICTIONARY
  5
4C7
102
{ACAD_REACTORS
330
19
102
}
330
19
100
AcDbDictionary
281
     1
  0
DICTIONARY
  5
1B
102
{ACAD_REACTORS
330
19
102
}
330
19
100
AcDbDictionary
281
     1
  3
STANDARD
350
1C
  0
DICTIONARY
  5
4CA
102
{ACAD_REACTORS
330
19
102
}
330
19
100
AcDbDictionary
281
     1
  0
ACDBDICTIONARYWDFLT
  5
4C5
102
{ACAD_REACTORS
330
19
102
}
330
19
100
AcDbDictionary
281
     1
  3
Normal
350
4C6
100
AcDbDictionaryWithDefault
340
4C6
  0
DICTIONARY
  5
4E2
102
{ACAD_REACTORS
330
19
102
}
330
19
100
AcDbDictionary
281
     1
  3
COLORDICT
350
4E4
  3
MATERIALDICT
350
4E3
  0
DICTIONARY
  5
4DB
102
{ACAD_REACTORS
330
19
102
}
330
19
100
AcDbDictionary
281
     1
  3
DIMASSOC
350
4DC
  3
PROJECTNAME
350
4DD
  0
DICTIONARY
  5
4D0
102
{ACAD_REACTORS
330
19
102
}
330
19
100
AcDbDictionary
281
     1
  3
ASEBlockHierarchyIndexRecord
350
4D2
1001
DCO15
1040
1521898690.375
  0
LAYOUT
  5
4CC
102
{ACAD_XDICTIONARY
360
4E7
102
}
102
{ACAD_REACTORS
330
4C9
102
}
330
4C9
100
AcDbPlotSettings
  1

  2
ProgeSOFT PDF Wizard
  4

  6

 40
0.0
 41
0.0
 42
0.0
 43
0.0
 44
0.0
 45
0.0
 46
0.0
 47
0.0
 48
0.0
 49
0.0
140
0.0
141
0.0
142
1.0
143
1.0
 70
   688
 72
     0
 73
     0
 74
     5
  7

 75
    16
147
1.0
148
0.0
149
0.0
100
AcDbLayout
  1
Layout1
 70
     1
 71
     1
 10
0.0
 20
0.0
 11
12.0
 21
9.0
 12
0.0
 22
0.0
 32
0.0
 14
1.000000000000000E+20
 24
1.000000000000000E+20
 34
1.000000000000000E+20
 15
-1.000000000000000E+20
 25
-1.000000000000000E+20
 35
-1.000000000000000E+20
146
0.0
 13
0.0
 23
0.0
 33
0.0
 16
1.0
 26
0.0
 36
0.0
 17
0.0
 27
1.0
 37
0.0
 76
     0
330
B
  0
LAYOUT
  5
4CB
102
{ACAD_XDICTIONARY
360
4E5
102
}
102
{ACAD_REACTORS
330
4C9
102
}
330
4C9
100
AcDbPlotSettings
  1

  2
ProgeSOFT PDF Wizard
  4

  6

 40
0.0
 41
0.0
 42
0.0
 43
0.0
 44
0.0
 45
0.0
 46
0.0
 47
0.0
 48
0.0
 49
0.0
140
0.0
141
0.0
142
1.0
143
1.0
 70
  1712
 72
     0
 73
     0
 74
     0
  7

 75
     0
147
1.0
148
0.0
149
0.0
100
AcDbLayout
  1
Model
 70
     1
 71
     0
 10
0.0
 20
0.0
 11
12.0
 21
9.0
 12
0.0
 22
0.0
 32
0.0
 14
0.0
 24
0.0
 34
0.0
 15
0.0
 25
0.0
 35
0.0
146
0.0
 13
0.0
 23
0.0
 33
0.0
 16
1.0
 26
0.0
 36
0.0
 17
0.0
 27
1.0
 37
0.0
 76
     0
330
A
  0
MLINESTYLE
  5
1C
102
{ACAD_REACTORS
330
1B
102
}
330
1B
100
AcDbMlineStyle
  2
STANDARD
 70
     0
  3

 62
     0
 51
90.0
 52
90.0
 71
     2
 49
0.5
 62
   256
  6
BYLAYER
 49
-0.5
 62
   256
  6
BYLAYER
  0
ACDBPLACEHOLDER
  5
4C6
102
{ACAD_REACTORS
330
4C5
102
}
330
4C5
  0
XRECORD
  5
4E4
102
{ACAD_REACTORS
330
4E2
102
}
330
4E2
100
AcDbXrecord
280
     1
340
4C8
  0
XRECORD
  5
4E3
102
{ACAD_REACTORS
330
4E2
102
}
330
4E2
100
AcDbXrecord
280
     1
340
4C7
  0
DICTIONARYVAR
  5
4DC
102
{ACAD_REACTORS
330
4DB
102
}
330
4DB
100
DictionaryVariables
280
     0
  1
1
  0
DICTIONARYVAR
  5
4DD
102
{ACAD_REACTORS
330
4DB
102
}
330
4DB
100
DictionaryVariables
280
     0
  1

  0
XRECORD
  5
4D2
102
{ACAD_REACTORS
330
4D0
102
}
330
4D0
100
AcDbXrecord
280
     1
  0
DICTIONARY
  5
4E7
330
4CC
100
AcDbDictionary
280
     1
281
     1
  3
ACAD_XREC_ROUNDTRIP
360
4E8
  0
DICTIONARY
  5
4E5
330
4CB
100
AcDbDictionary
280
     1
281
     1
  3
ACAD_XREC_ROUNDTRIP
360
4E6
  0
XRECORD
  5
4E8
102
{ACAD_REACTORS
330
4E7
102
}
330
4E7
100
AcDbXrecord
280
     1
102
SHADEPLOT
 70
     0
102
SHADEPLOTRESLEVEL
 70
     2
102
SHADEPLOTCUSTOMDPI
 70
   300
  0
XRECORD
  5
4E6
102
{ACAD_REACTORS
330
4E5
102
}
330
4E5
100
AcDbXrecord
280
     1
102
SHADEPLOT
 70
     0
102
SHADEPLOTRESLEVEL
 70
     2
102
SHADEPLOTCUSTOMDPI
 70
   300
  0
ENDSEC
  0
EOF
