  0
SECTION
  2
HEADER
  9
$ACADVER
  1
AC1015
  9
$ACADMAINTVER
 70
    20
  9
$DWGCODEPAGE
  3
ANSI_1252
  9
$INSBASE
 10
0.0
 20
0.0
 30
0.0
  9
$EXTMIN
 10
-153.3353385925764
 20
-703.1588679559334
 30
0.0
  9
$EXTMAX
 10
845.2531234120911
 20
484.9249999999999
 30
0.0
  9
$LIMMIN
 10
0.0
 20
0.0
  9
$LIMMAX
 10
0.0
 20
0.0
  9
$ORTHOMODE
 70
     0
  9
$REGENMODE
 70
     1
  9
$FILLMODE
 70
     1
  9
$QTEXTMODE
 70
     0
  9
$MIRRTEXT
 70
     1
  9
$LTSCALE
 40
1.0
  9
$ATTMODE
 70
     1
  9
$TEXTSIZE
 40
0.0
  9
$TRACEWID
 40
0.05
  9
$TEXTSTYLE
  7
STANDARD
  9
$CLAYER
  8
0
  9
$CELTYPE
  6
CONTINUOUS
  9
$CECOLOR
 62
   256
  9
$CELTSCALE
 40
1.0
  9
$DISPSILH
 70
     0
  9
$DIMSCALE
 40
1.0
  9
$DIMASZ
 40
6.0
  9
$DIMEXO
 40
1.0
  9
$DIMDLI
 40
0.38
  9
$DIMRND
 40
0.0
  9
$DIMDLE
 40
1.0
  9
$DIMEXE
 40
0.18
  9
$DIMTP
 40
0.0
  9
$DIMTM
 40
0.0
  9
$DIMTXT
 40
3.5
  9
$DIMCEN
 40
0.09
  9
$DIMTSZ
 40
0.0
  9
$DIMTOL
 70
     0
  9
$DIMLIM
 70
     0
  9
$DIMTIH
 70
     1
  9
$DIMTOH
 70
     1
  9
$DIMSE1
 70
     0
  9
$DIMSE2
 70
     0
  9
$DIMTAD
 70
     1
  9
$DIMZIN
 70
     0
  9
$DIMBLK
  1

  9
$DIMASO
 70
     1
  9
$DIMSHO
 70
     1
  9
$DIMPOST
  1

  9
$DIMAPOST
  1

  9
$DIMALT
 70
     0
  9
$DIMALTD
 70
     2
  9
$DIMALTF
 40
0.0394
  9
$DIMLFAC
 40
1.0
  9
$DIMTOFL
 70
     0
  9
$DIMTVP
 40
0.0
  9
$DIMTIX
 70
     0
  9
$DIMSOXD
 70
     0
  9
$DIMSAH
 70
     0
  9
$DIMBLK1
  1

  9
$DIMBLK2
  1

  9
$DIMSTYLE
  2
STANDARD
  9
$DIMCLRD
 70
     0
  9
$DIMCLRE
 70
     0
  9
$DIMCLRT
 70
     0
  9
$DIMTFAC
 40
1.0
  9
$DIMGAP
 40
1.0
  9
$DIMJUST
 70
     0
  9
$DIMSD1
 70
     0
  9
$DIMSD2
 70
     0
  9
$DIMTOLJ
 70
     1
  9
$DIMTZIN
 70
     0
  9
$DIMALTZ
 70
     0
  9
$DIMALTTZ
 70
     0
  9
$DIMUPT
 70
     0
  9
$DIMDEC
 70
     4
  9
$DIMTDEC
 70
     4
  9
$DIMALTU
 70
     2
  9
$DIMALTTD
 70
     2
  9
$DIMTXSTY
  7
STANDARD
  9
$DIMAUNIT
 70
     0
  9
$DIMADEC
 70
     0
  9
$DIMALTRND
 40
0.0
  9
$DIMAZIN
 70
     0
  9
$DIMDSEP
 70
    46
  9
$DIMATFIT
 70
     3
  9
$DIMFRAC
 70
     0
  9
$DIMLDRBLK
  1

  9
$DIMLUNIT
 70
     2
  9
$DIMLWD
 70
    -2
  9
$DIMLWE
 70
    -2
  9
$DIMTMOVE
 70
     0
  9
$LUNITS
 70
     2
  9
$LUPREC
 70
     2
  9
$SKETCHINC
 40
0.1
  9
$FILLETRAD
 40
0.0
  9
$AUNITS
 70
     0
  9
$AUPREC
 70
     2
  9
$MENU
  1
acad
  9
$ELEVATION
 40
0.0
  9
$PELEVATION
 40
0.0
  9
$THICKNESS
 40
0.0
  9
$LIMCHECK
 70
     0
  9
$CHAMFERA
 40
0.0
  9
$CHAMFERB
 40
0.0
  9
$CHAMFERC
 40
0.0
  9
$CHAMFERD
 40
0.0
  9
$SKPOLY
 70
     0
  9
$TDCREATE
 40
2444972.041666667
  9
$TDUCREATE
 40
2444972.000000000
  9
$TDUPDATE
 40
2453768.758711470
  9
$TDUUPDATE
 40
2453768.717044804
  9
$TDINDWG
 40
0.0011583102
  9
$TDUSRTIMER
 40
0.0011583102
  9
$USRTIMER
 70
     1
  9
$ANGBASE
 50
0.0
  9
$ANGDIR
 70
     0
  9
$PDMODE
 70
     0
  9
$PDSIZE
 40
-1.0
  9
$PLINEWID
 40
0.0
  9
$SPLFRAME
 70
     0
  9
$SPLINETYPE
 70
     6
  9
$SPLINESEGS
 70
     8
  9
$HANDSEED
  5
644
  9
$SURFTAB1
 70
     6
  9
$SURFTAB2
 70
     6
  9
$SURFTYPE
 70
     6
  9
$SURFU
 70
     6
  9
$SURFV
 70
     6
  9
$UCSBASE
  2

  9
$UCSNAME
  2

  9
$UCSORG
 10
0.0
 20
0.0
 30
0.0
  9
$UCSXDIR
 10
1.0
 20
0.0
 30
0.0
  9
$UCSYDIR
 10
0.0
 20
1.0
 30
0.0
  9
$UCSORTHOREF
  2

  9
$UCSORTHOVIEW
 70
     1
  9
$UCSORGTOP
 10
0.0
 20
0.0
 30
0.0
  9
$UCSORGBOTTOM
 10
0.0
 20
0.0
 30
0.0
  9
$UCSORGLEFT
 10
0.0
 20
0.0
 30
0.0
  9
$UCSORGRIGHT
 10
0.0
 20
0.0
 30
0.0
  9
$UCSORGFRONT
 10
0.0
 20
0.0
 30
0.0
  9
$UCSORGBACK
 10
0.0
 20
0.0
 30
0.0
  9
$PUCSBASE
  2

  9
$PUCSNAME
  2

  9
$PUCSORG
 10
0.0
 20
0.0
 30
0.0
  9
$PUCSXDIR
 10
1.0
 20
0.0
 30
0.0
  9
$PUCSYDIR
 10
0.0
 20
1.0
 30
0.0
  9
$PUCSORTHOREF
  2

  9
$PUCSORTHOVIEW
 70
     0
  9
$PUCSORGTOP
 10
0.0
 20
0.0
 30
0.0
  9
$PUCSORGBOTTOM
 10
0.0
 20
0.0
 30
0.0
  9
$PUCSORGLEFT
 10
0.0
 20
0.0
 30
0.0
  9
$PUCSORGRIGHT
 10
0.0
 20
0.0
 30
0.0
  9
$PUCSORGFRONT
 10
0.0
 20
0.0
 30
0.0
  9
$PUCSORGBACK
 10
0.0
 20
0.0
 30
0.0
  9
$USERI1
 70
     0
  9
$USERI2
 70
     0
  9
$USERI3
 70
     0
  9
$USERI4
 70
     0
  9
$USERI5
 70
     0
  9
$USERR1
 40
0.0
  9
$USERR2
 40
0.0
  9
$USERR3
 40
0.0
  9
$USERR4
 40
0.0
  9
$USERR5
 40
0.0
  9
$WORLDVIEW
 70
     1
  9
$SHADEDGE
 70
     3
  9
$SHADEDIF
 70
    70
  9
$TILEMODE
 70
     1
  9
$MAXACTVP
 70
    16
  9
$PINSBASE
 10
0.0
 20
0.0
 30
0.0
  9
$PLIMCHECK
 70
     0
  9
$PEXTMIN
 10
1.000000000000000E+20
 20
1.000000000000000E+20
 30
1.000000000000000E+20
  9
$PEXTMAX
 10
-1.000000000000000E+20
 20
-1.000000000000000E+20
 30
-1.000000000000000E+20
  9
$PLIMMIN
 10
0.0
 20
0.0
  9
$PLIMMAX
 10
12.0
 20
9.0
  9
$UNITMODE
 70
     0
  9
$VISRETAIN
 70
     0
  9
$PLINEGEN
 70
     1
  9
$PSLTSCALE
 70
     1
  9
$TREEDEPTH
 70
  3020
  9
$CMLSTYLE
  2
STANDARD
  9
$CMLJUST
 70
     0
  9
$CMLSCALE
 40
1.0
  9
$PROXYGRAPHICS
 70
     0
  9
$MEASUREMENT
 70
     0
  9
$CELWEIGHT
370
    -1
  9
$ENDCAPS
280
     0
  9
$JOINSTYLE
280
     0
  9
$LWDISPLAY
290
     0
  9
$INSUNITS
 70
     0
  9
$HYPERLINKBASE
  1

  9
$STYLESHEET
  1

  9
$XEDIT
290
     1
  9
$CEPSNTYPE
380
     0
  9
$PSTYLEMODE
290
     1
  9
$FINGERPRINTGUID
  2
{76EE7881-CC58-4044-BED6-F6A9DB72193C}
  9
$VERSIONGUID
  2
{D189CCD8-A260-46E2-94E6-2CCF84E8A94F}
  9
$EXTNAMES
290
     1
  9
$PSVPSCALE
 40
0.0
  9
$OLESTARTUP
290
     0
  0
ENDSEC
  0
SECTION
  2
CLASSES
  0
CLASS
  1
IMAGE
  2
AcDbRasterImage
  3
ISM
 90
    32895
280
     0
281
     1
  0
CLASS
  1
DICTIONARYVAR
  2
AcDbDictionaryVar
  3
ObjectDBX Classes
 90
        0
280
     0
281
     0
  0
CLASS
  1
RASTERVARIABLES
  2
AcDbRasterVariables
  3
ISM
 90
    32768
280
     0
281
     0
  0
CLASS
  1
IMAGEDEF
  2
AcDbRasterImageDef
  3
ISM
 90
    32768
280
     0
281
     0
  0
CLASS
  1
IMAGEDEF_REACTOR
  2
AcDbRasterImageDefReactor
  3
ISM
 90
    32769
280
     0
281
     0
  0
CLASS
  1
IDBUFFER
  2
AcDbIdBuffer
  3
ObjectDBX Classes
 90
    32768
280
     0
281
     0
  0
CLASS
  1
SPATIAL_FILTER
  2
AcDbSpatialFilter
  3
ObjectDBX Classes
 90
    32768
280
     0
281
     0
  0
CLASS
  1
SORTENTSTABLE
  2
AcDbSortentsTable
  3
ObjectDBX Classes
 90
    32768
280
     0
281
     0
  0
CLASS
  1
LAYER_INDEX
  2
AcDbLayerIndex
  3
ObjectDBX Classes
 90
    32768
280
     0
281
     0
  0
CLASS
  1
SPATIAL_INDEX
  2
AcDbSpatialIndex
  3
ObjectDBX Classes
 90
    32768
280
     0
281
     0
  0
CLASS
  1
OBJECT_PTR
  2
CAseDLPNTableRecord
  3
ASE-LPNTableRecord
 90
    32769
280
     0
281
     0
  0
CLASS
  1
LAYOUT
  2
AcDbLayout
  3
ObjectDBX Classes
 90
        0
280
     0
281
     0
  0
CLASS
  1
PLOTSETTINGS
  2
AcDbPlotSettings
  3
ObjectDBX Classes
 90
    32768
280
     0
281
     0
  0
CLASS
  1
ACDBDICTIONARYWDFLT
  2
AcDbDictionaryWithDefault
  3
ObjectDBX Classes
 90
        0
280
     0
281
     0
  0
CLASS
  1
ACDBPLACEHOLDER
  2
AcDbPlaceHolder
  3
ObjectDBX Classes
 90
        0
280
     0
281
     0
  0
CLASS
  1
VBA_PROJECT
  2
AcDbVbaProject
  3
acad
 90
    32768
280
     0
281
     0
  0
CLASS
  1
WIPEOUT
  2
AcDbWipeout
  3
"WipeOut|Product Desc: Object Enabler for WipeOut entity^I^I^I^I^I^I|Company: Autodesk, Inc.^I^I^I^I^I^I|WEB Address: www.autodesk.com"
 90
    32895
280
     0
281
     1
  0
CLASS
  1
WIPEOUTVARIABLES
  2
AcDbWipeoutVariables
  3
"WipeOut|Product Desc:     WipeOut Dbx Application|Company:          Autodesk, Inc.|WEB Address:      www.autodesk.com"
 90
    32768
280
     0
281
     0
  0
CLASS
  1
RTEXT
  2
RText
  3
RText|AutoCAD Express Tool|expresstools@autodesk.com
 90
    32768
280
     0
281
     1
  0
CLASS
  1
ARCALIGNEDTEXT
  2
AcDbArcAlignedText
  3
ATEXT|AutoCAD Express Tool|expresstools@autodesk.com
 90
    32768
280
     0
281
     1
  0
ENDSEC
  0
SECTION
  2
TABLES
  0
TABLE
  2
VPORT
  5
7
330
0
100
AcDbSymbolTable
 70
     2
  0
VPORT
  5
63C
330
7
100
AcDbSymbolTableRecord
100
AcDbViewportTableRecord
  2
*Active
 70
     0
 10
0.0
 20
0.0
 11
1.0
 21
1.0
 12
410.1565180126906
 22
-109.1169339779667
 13
0.0
 23
0.0
 14
1.0
 24
1.0
 15
0.0
 25
0.0
 16
0.0
 26
0.0
 36
1.0
 17
0.0
 27
0.0
 37
0.0
 40
1197.883116483536
 41
1.569570871261378
 42
50.0
 43
0.0
 44
0.0
 50
0.0
 51
0.0
 71
     0
 72
  2000
 73
     1
 74
     1
 75
     0
 76
     0
 77
     0
 78
     0
281
     0
 65
     1
110
0.0
120
0.0
130
0.0
111
1.0
121
0.0
131
0.0
112
0.0
122
1.0
132
0.0
 79
     1
146
0.0
  0
ENDTAB
  0
TABLE
  2
LTYPE
  5
4
330
0
100
AcDbSymbolTable
 70
     6
  0
LTYPE
  5
11
330
4
100
AcDbSymbolTableRecord
100
AcDbLinetypeTableRecord
  2
BYBLOCK
 70
     0
  3

 72
    65
 73
     0
 40
0.0
  0
LTYPE
  5
12
330
4
100
AcDbSymbolTableRecord
100
AcDbLinetypeTableRecord
  2
BYLAYER
 70
     0
  3

 72
    65
 73
     0
 40
0.0
  0
LTYPE
  5
13
330
4
100
AcDbSymbolTableRecord
100
AcDbLinetypeTableRecord
  2
CONTINUOUS
 70
     0
  3
Solid line
 72
    65
 73
     0
 40
0.0
  0
LTYPE
  5
1E
330
4
100
AcDbSymbolTableRecord
100
AcDbLinetypeTableRecord
  2
HIDDEN
 70
     0
  3
Hidden __ __ __ __ __ __ __ __ __ __ __ __ __ __
 72
    65
 73
     2
 40
1.905
 49
1.27
 74
     0
 49
-0.635
 74
     0
  0
LTYPE
  5
1F
330
4
100
AcDbSymbolTableRecord
100
AcDbLinetypeTableRecord
  2
PHANTOM
 70
     0
  3
Phantom ______  __  __  ______  __  __  ______
 72
    65
 73
     6
 40
12.7
 49
6.349999999999999
 74
     0
 49
-1.27
 74
     0
 49
1.27
 74
     0
 49
-1.27
 74
     0
 49
1.27
 74
     0
 49
-1.27
 74
     0
  0
LTYPE
  5
20
330
4
100
AcDbSymbolTableRecord
100
AcDbLinetypeTableRecord
  2
CENTER
 70
     0
  3
Center ____ _ ____ _ ____ _ ____ _ ____ _ ____
 72
    65
 73
     4
 40
10.16
 49
6.349999999999999
 74
     0
 49
-1.27
 74
     0
 49
1.27
 74
     0
 49
-1.27
 74
     0
  0
LTYPE
  5
21
330
4
100
AcDbSymbolTableRecord
100
AcDbLinetypeTableRecord
  2
CENTERX2
 70
     0
  3
Center (2x) ________  __  ________  __  _____
 72
    65
 73
     4
 40
20.32
 49
12.7
 74
     0
 49
-2.54
 74
     0
 49
2.54
 74
     0
 49
-2.54
 74
     0
  0
LTYPE
  5
22
330
4
100
AcDbSymbolTableRecord
100
AcDbLinetypeTableRecord
  2
DOT2
 70
     0
  3
Dot (.5x) ........................................
 72
    65
 73
     2
 40
0.635
 49
0.0
 74
     0
 49
-0.635
 74
     0
  0
ENDTAB
  0
TABLE
  2
LAYER
  5
2
330
0
100
AcDbSymbolTable
 70
     2
  0
LAYER
  5
14
330
2
100
AcDbSymbolTableRecord
100
AcDbLayerTableRecord
  2
0
 70
     0
 62
     7
  6
CONTINUOUS
370
    -3
390
621
  0
LAYER
  5
26
330
2
100
AcDbSymbolTableRecord
100
AcDbLayerTableRecord
  2
DEFPOINTS
 70
     0
 62
     7
  6
CONTINUOUS
290
     0
370
    -3
390
621
  0
ENDTAB
  0
TABLE
  2
STYLE
  5
3
330
0
100
AcDbSymbolTable
 70
     1
  0
STYLE
  5
17
330
3
100
AcDbSymbolTableRecord
100
AcDbTextStyleTableRecord
  2
STANDARD
 70
     0
 40
0.0
 41
1.0
 50
0.0
 71
     0
 42
0.0
  3
Century Gothic
  4

  0
ENDTAB
  0
TABLE
  2
VIEW
  5
5
330
0
100
AcDbSymbolTable
 70
     0
  0
ENDTAB
  0
TABLE
  2
UCS
  5
6
330
0
100
AcDbSymbolTable
 70
     0
  0
ENDTAB
  0
TABLE
  2
APPID
  5
8
330
0
100
AcDbSymbolTable
 70
     2
  0
APPID
  5
16
330
8
100
AcDbSymbolTableRecord
100
AcDbRegAppTableRecord
  2
ACAD
 70
     0
  0
APPID
  5
62C
330
8
100
AcDbSymbolTableRecord
100
AcDbRegAppTableRecord
  2
DCO15
 70
     0
  0
ENDTAB
  0
TABLE
  2
DIMSTYLE
  5
9
330
0
100
AcDbSymbolTable
 70
     1
100
AcDbDimStyleTable
 71
     0
  0
DIMSTYLE
105
18
330
9
100
AcDbSymbolTableRecord
100
AcDbDimStyleTableRecord
  2
STANDARD
 70
     0
289
     0
340
17
  0
ENDTAB
  0
TABLE
  2
BLOCK_RECORD
  5
1
330
0
100
AcDbSymbolTable
 70
     0
  0
BLOCK_RECORD
  5
A
330
1
100
AcDbSymbolTableRecord
100
AcDbBlockTableRecord
  2
*MODEL_SPACE
340
626
  0
BLOCK_RECORD
  5
B
330
1
100
AcDbSymbolTableRecord
100
AcDbBlockTableRecord
  2
*PAPER_SPACE
340
627
  0
ENDTAB
  0
ENDSEC
  0
SECTION
  2
BLOCKS
  0
BLOCK
  5
D
330
A
100
AcDbEntity
  8
0
100
AcDbBlockBegin
  2
*MODEL_SPACE
 70
     0
 10
0.0
 20
0.0
 30
0.0
  3
*MODEL_SPACE
  1

  0
ENDBLK
  5
E
330
A
100
AcDbEntity
  8
0
100
AcDbBlockEnd
  0
BLOCK
  5
F
330
B
100
AcDbEntity
 67
     1
  8
0
100
AcDbBlockBegin
  2
*PAPER_SPACE
 70
     0
 10
0.0
 20
0.0
 30
0.0
  3
*PAPER_SPACE
  1

  0
ENDBLK
  5
10
330
B
100
AcDbEntity
 67
     1
  8
0
100
AcDbBlockEnd
  0
ENDSEC
  0
SECTION
  2
ENTITIES
  0
LINE
  5
27
330
A
100
AcDbEntity
  8
0
  6
Continuous
 62
     7
100
AcDbLine
 10
185.2770572353463
 20
-144.875
 30
0.0
 11
185.2770572353463
 21
-139.875
 31
0.0
  0
LINE
  5
28
330
A
100
AcDbEntity
  8
0
  6
Continuous
 62
     7
100
AcDbLine
 10
-74.72294276465371
 20
-139.875
 30
0.0
 11
-74.72294276465371
 21
-144.875
 31
0.0
  0
LINE
  5
29
330
A
100
AcDbEntity
  8
0
  6
Continuous
 62
     7
100
AcDbLine
 10
178.2770572353463
 20
-159.875
 30
0.0
 11
178.2770572353463
 21
-144.875
 31
0.0
  0
LINE
  5
2A
330
A
100
AcDbEntity
  8
0
  6
Continuous
 62
     7
100
AcDbLine
 10
-67.72294276465371
 20
-144.875
 30
0.0
 11
-67.72294276465371
 21
-159.875
 31
0.0
  0
LINE
  5
2B
330
A
100
AcDbEntity
  8
0
  6
Continuous
 62
     7
100
AcDbLine
 10
175.2770572353462
 20
-161.075
 30
0.0
 11
175.2770572353463
 21
-159.875
 31
0.0
  0
LINE
  5
2C
330
A
100
AcDbEntity
  8
0
  6
Continuous
 62
     7
100
AcDbLine
 10
-64.72294276465371
 20
-159.875
 30
0.0
 11
-64.72294276465333
 21
-161.075
 31
0.0
  0
ARC
  5
2D
330
A
100
AcDbEntity
  8
0
  6
Continuous
 62
     7
100
AcDbCircle
 10
85.27705723534628
 20
-42.24900535396513
 30
0.0
 40
15.00000000000001
100
AcDbArc
 50
167.5925814725991
 51
180.0000000000004
  0
ARC
  5
2E
330
A
100
AcDbEntity
  8
0
  6
Continuous
 62
     7
100
AcDbCircle
 10
85.27705723534628
 20
-42.24900535396513
 30
0.0
 40
25.0
100
AcDbArc
 50
167.592581472599
 51
180.0000000000004
  0
LINE
  5
2F
330
A
100
AcDbEntity
  8
0
  6
Continuous
 62
     7
100
AcDbLine
 10
106.1374869408782
 20
168.9249999999998
 30
0.0
 11
60.86094556771906
 21
-36.87746078708704
 31
0.0
  0
LINE
  5
30
330
A
100
AcDbEntity
  8
0
  6
Continuous
 62
     7
100
AcDbLine
 10
70.62739023476993
 20
-39.02607861383831
 30
0.0
 11
116.3766275298143
 21
168.9249999999997
 31
0.0
  0
LINE
  5
31
330
A
100
AcDbEntity
  8
0
  6
Continuous
 62
     7
100
AcDbLine
 10
70.27705723534629
 20
-139.875
 30
0.0
 11
70.27705723534629
 21
-42.24900535396519
 31
0.0
  0
LINE
  5
32
330
A
100
AcDbEntity
  8
0
  6
Continuous
 62
     7
100
AcDbLine
 10
60.27705723534629
 20
-42.24900535396519
 30
0.0
 11
60.27705723534629
 21
-139.875
 31
0.0
  0
LINE
  5
33
330
A
100
AcDbEntity
  8
0
  6
Continuous
 62
     7
100
AcDbLine
 10
22.25689819213549
 20
168.9249999999999
 30
0.0
 11
45.0734801227201
 21
-38.49847209622717
 31
0.0
  0
LINE
  5
34
330
A
100
AcDbEntity
  8
0
  6
Continuous
 62
     7
100
AcDbLine
 10
55.01352368207442
 20
-37.40506730469817
 30
0.0
 11
32.31721627855801
 21
168.9249999999998
 31
0.0
  0
LWPOLYLINE
  5
35
330
A
100
AcDbEntity
  8
0
  6
Continuous
 62
     7
100
AcDbPolyline
 90
        4
 70
   128
 43
0.0
 10
55.27705723534636
 20
-42.24900535396525
 10
55.25255774004529
 20
-40.76483755957776
 10
55.08826315732653
 20
-38.14280159414993
 10
55.01352368207442
 20
-37.40506730469817
  0
LWPOLYLINE
  5
3B
330
A
100
AcDbEntity
  8
0
  6
Continuous
 62
     7
100
AcDbPolyline
 90
        4
 70
   128
 43
0.0
 10
45.0734801227201
 20
-38.49847209622715
 10
45.17826370006194
 20
-39.6275013997372
 10
45.27321505583747
 20
-41.73046202197766
 10
45.27705723534636
 20
-42.24900535396519
  0
LINE
  5
41
330
A
100
AcDbEntity
  8
0
  6
Continuous
 62
     7
100
AcDbLine
 10
55.27705723534636
 20
-139.875
 30
0.0
 11
55.27705723534625
 21
-42.24900535396519
 31
0.0
  0
LINE
  5
42
330
A
100
AcDbEntity
  8
0
  6
Continuous
 62
     7
100
AcDbLine
 10
45.27705723534625
 20
-42.24900535396519
 30
0.0
 11
45.27705723534636
 21
-139.875
 31
0.0
  0
LINE
  5
43
330
A
100
AcDbEntity
  8
0
  6
Continuous
 62
     7
100
AcDbLine
 10
14.27705723534628
 20
482.1195673549401
 30
0.0
 11
14.27705723534628
 21
478.9249999999999
 31
0.0
  0
LINE
  5
44
330
A
100
AcDbEntity
  8
0
  6
Continuous
 62
     7
100
AcDbLine
 10
96.27705723534631
 20
478.925
 30
0.0
 11
96.27705723534631
 21
482.1195673549401
 31
0.0
  0
ARC
  5
45
330
A
100
AcDbEntity
  8
0
  6
Continuous
 62
     7
100
AcDbCircle
 10
55.27705723534633
 20
183.925
 30
0.0
 40
300.9999999999999
100
AcDbArc
 50
82.1712540677824
 51
97.82874593221762
  0
LINE
  5
46
330
A
100
AcDbEntity
  8
0
  6
Continuous
 62
     7
100
AcDbLine
 10
51.52705723534629
 20
168.9249999999998
 30
0.0
 11
51.52705723534629
 21
74.31261821662949
 31
0.0
  0
LINE
  5
47
330
A
100
AcDbEntity
  8
0
  6
Continuous
 62
     7
100
AcDbLine
 10
59.02705723534629
 20
74.31261821662949
 30
0.0
 11
59.02705723534629
 21
168.9249999999999
 31
0.0
  0
LWPOLYLINE
  5
48
330
A
100
AcDbEntity
  8
0
  6
Continuous
 62
     7
100
AcDbPolyline
 90
       38
 70
   128
 43
0.0
 10
197.2539621093373
 20
168.9249999999999
 10
197.0478602111522
 20
184.3913161564357
 10
196.8614415749576
 20
198.8081158602434
 10
196.6939834197841
 20
212.1753991114231
 10
196.5447262536169
 20
224.4931659099747
 10
196.4128508258659
 20
235.7614162558981
 10
196.2993935850902
 20
245.8068761072365
 10
196.2009579654417
 20
254.8399675691614
 10
196.1166162760662
 20
262.8606906416733
 10
196.0454289545335
 20
269.8690453247717
 10
195.9853909751652
 20
275.9768575737486
 10
195.936753752077
 20
281.0750226213311
 10
195.8911343281729
 20
286.0200964444466
 10
195.8456795328643
 20
291.1406734543856
 10
195.8006063808409
 20
296.4367536511484
 10
195.756104680475
 20
301.9083370347347
 10
195.7125389796596
 20
307.5284823683326
 10
195.6944588082937
 20
309.9439962542367
 10
195.6805543198376
 20
311.8373975828997
 10
195.6706323761386
 20
313.2086863543213
 10
195.6645512235066
 20
314.0578625685019
 10
195.6596038520912
 20
314.7540405911567
 10
195.6504142314008
 20
316.0588357717648
 10
195.636548620439
 20
318.054268715542
 10
195.6140652842281
 20
321.3604300954583
 10
195.5857315139315
 20
325.6611098543381
 10
195.5522732879921
 20
330.9563079921816
 10
195.5146052117942
 20
337.2460245089889
 10
195.4738456669964
 20
344.5302594047597
 10
195.4261890650059
 20
353.8692947075289
 10
195.3785931270373
 20
364.4558538648701
 10
195.3337405053949
 20
376.2899368767834
 10
195.2948024037017
 20
389.3715437432687
 10
195.2655049462593
 20
403.700674464326
 10
195.2503290472805
 20
418.9882347917935
 10
195.2534619815453
 20
435.4791623578069
 10
195.2799362873368
 20
453.1734571623665
 10
195.3246453811723
 20
468.9544595919307
  0
LWPOLYLINE
  5
70
330
A
100
AcDbEntity
  8
0
  6
Continuous
 62
     7
100
AcDbPolyline
 90
        9
 70
   128
 43
0.0
 10
185.5985659722463
 20
478.9249977183102
 10
187.5523026419087
 20
478.7309405034315
 10
189.4304673005539
 20
478.1588890585591
 10
191.1606614461004
 20
477.2308945215053
 10
192.676190465874
 20
475.982728736934
 10
193.9186345454097
 20
474.4625053421326
 10
194.8401006046926
 20
472.7288251078619
 10
195.4050684553815
 20
470.8485170267088
 10
195.5917600143217
 20
468.894062224276
  0
LWPOLYLINE
  5
7B
330
A
100
AcDbEntity
  8
0
  6
Continuous
 62
     7
100
AcDbPolyline
 90
       48
 70
   128
 43
0.0
 10
-140.9859481394042
 20
468.7416986672126
 10
-140.9252874407048
 20
465.3679483193286
 10
-140.838603989295
 20
460.0677215089204
 10
-140.7712928661982
 20
455.5239789506801
 10
-140.7205062971828
 20
451.7367206446074
 10
-140.6835620156569
 20
448.7059465907027
 10
-140.6580978279395
 20
446.4316567889656
 10
-140.6422031441669
 20
444.9136123655062
 10
-140.6295901698295
 20
443.6427584135009
 10
-140.5993879219919
 20
440.2685948031123
 10
-140.5679549337758
 20
435.9312752587796
 10
-140.5417912258779
 20
430.6307997805031
 10
-140.5304064217048
 20
425.0843410546976
 10
-140.5395748680722
 20
418.770060315225
 10
-140.5779004039693
 20
412.0850554380471
 10
-140.6438305941755
 20
405.838062451336
 10
-140.7342671027809
 20
400.0527696424663
 10
-140.845723583144
 20
394.729177011438
 10
-141.0431049398602
 20
387.6094758983481
 10
-141.2590377864799
 20
381.5286001854012
 10
-141.4731858394437
 20
376.4861597718729
 10
-141.7004919904799
 20
371.6024107591143
 10
-141.9815293467796
 20
365.7893308855536
 10
-142.3084187181522
 20
359.2632756423145
 10
-142.6803951497434
 20
352.0377582214682
 10
-143.0351127412308
 20
345.2443695218532
 10
-143.3520119408674
 20
339.1869120210217
 10
-143.4954187580423
 20
336.4447182954676
 10
-143.6095584475743
 20
334.2650414576237
 10
-143.6912016410079
 20
332.7077313072951
 10
-143.736873855307
 20
331.837874620554
 10
-143.8078073933157
 20
330.4911021831964
 10
-143.9122043586644
 20
328.5177805404495
 10
-144.0505211667764
 20
325.917909692313
 10
-144.2838720577896
 20
321.5658565944832
 10
-144.577781021191
 20
316.1393639579328
 10
-144.933886202861
 20
309.6384317826618
 10
-145.3622376227629
 20
301.9153808120242
 10
-145.8589481204242
 20
293.078464587361
 10
-146.4260475079493
 20
283.1276831086719
 10
-147.0655074705289
 20
272.0630363759572
 10
-147.7791546291316
 20
259.8845243892165
 10
-148.5685791643782
 20
246.5921471484501
 10
-149.3834361116898
 20
233.0391246765302
 10
-150.2674898097933
 20
218.4958987257251
 10
-151.2210391799345
 20
202.9624692960352
 10
-152.2439007932088
 20
186.4388363874604
 10
-153.3353385925764
 20
168.9250000000009
  0
LWPOLYLINE
  5
AD
330
A
100
AcDbEntity
  8
0
  6
Continuous
 62
     7
100
AcDbPolyline
 90
        9
 70
   128
 43
0.0
 10
-140.9766010079605
 20
468.7292014910527
 10
-140.8173814374445
 20
470.7130944974846
 10
-140.2684907920426
 20
472.6261576716165
 10
-139.3516716767568
 20
474.3926109335967
 10
-138.1032410447885
 20
475.9424817017252
 10
-136.5726516137791
 20
477.2143766398296
 10
-134.8205329493756
 20
478.1579135643641
 10
-132.9162898125364
 20
478.7357171787618
 10
-130.9669252481087
 20
478.9249912384402
  0
LINE
  5
B8
330
A
100
AcDbEntity
  8
0
  6
Continuous
 62
     7
100
AcDbLine
 10
185.2770572353463
 20
-144.875
 30
0.0
 11
-74.72294276465371
 21
-144.875
 31
0.0
  0
LINE
  5
B9
330
A
100
AcDbEntity
  8
0
  6
Continuous
 62
     7
100
AcDbLine
 10
185.2770572353463
 20
-139.875
 30
0.0
 11
-74.72294276465371
 21
-139.875
 31
0.0
  0
LINE
  5
BA
330
A
100
AcDbEntity
  8
0
  6
Continuous
 62
     7
100
AcDbLine
 10
178.2770572353463
 20
-159.875
 30
0.0
 11
-67.72294276465371
 21
-159.875
 31
0.0
  0
LINE
  5
BB
330
A
100
AcDbEntity
  8
0
  6
Continuous
 62
     7
100
AcDbLine
 10
175.2770572353462
 20
-161.075
 30
0.0
 11
-64.72294276465333
 21
-161.075
 31
0.0
  0
LINE
  5
BC
330
A
100
AcDbEntity
  8
0
  6
Continuous
 62
     7
100
AcDbLine
 10
14.27705723534628
 20
482.1195673549401
 30
0.0
 11
96.27705723534631
 21
482.1195673549401
 31
0.0
  0
LINE
  5
BD
330
A
100
AcDbEntity
  8
0
  6
Continuous
 62
     7
100
AcDbLine
 10
59.02705723534629
 20
74.31261821662949
 30
0.0
 11
51.52705723534629
 21
74.31261821662949
 31
0.0
  0
LINE
  5
BE
330
A
100
AcDbEntity
  8
0
  6
Continuous
 62
     7
100
AcDbLine
 10
-53.39503854167488
 20
468.0883504018149
 30
0.0
 11
-21.44859142872665
 21
168.9250000000004
 31
0.0
  0
LINE
  5
BF
330
A
100
AcDbEntity
  8
0
  6
Continuous
 62
     7
100
AcDbLine
 10
109.8490558595617
 20
470.2630906615032
 30
0.0
 11
109.8490218284334
 21
470.2633758582762
 31
0.0
  0
LINE
  5
C0
330
A
100
AcDbEntity
  8
0
  6
Continuous
 62
     7
100
AcDbLine
 10
109.8490558595618
 20
470.2630906615031
 30
0.0
 11
145.8062483030902
 21
168.9249999999996
 31
0.0
  0
LINE
  5
C1
330
A
100
AcDbEntity
  8
0
  6
Continuous
 62
     7
100
AcDbLine
 10
145.8062483030905
 20
168.9249999999998
 30
0.0
 11
-21.44859142872151
 21
168.9250000000003
 31
0.0
  0
LWPOLYLINE
  5
C2
330
A
100
AcDbEntity
  8
0
  6
Continuous
 62
     7
100
AcDbPolyline
 90
        7
 70
   128
 43
0.0
 10
-51.17680588225724
 20
478.9250000000002
 10
-51.28146491480646
 20
478.9139421458763
 10
-51.84512358582039
 20
478.4637064805459
 10
-52.51031345569316
 20
476.9322603824909
 10
-53.0251604145448
 20
474.4980573828353
 10
-53.33161958362097
 20
471.4355350101787
 10
-53.39521136954175
 20
468.0899688529532
  0
LWPOLYLINE
  5
CB
330
A
100
AcDbEntity
  8
0
  6
Continuous
 62
     7
100
AcDbPolyline
 90
       11
 70
   128
 43
0.0
 10
114.1215623472577
 20
478.925
 10
113.6688440026192
 20
478.8697153443155
 10
113.0852018404805
 20
478.6317853567789
 10
112.6516060053425
 20
478.325805315871
 10
112.1124576673074
 20
477.7728108465907
 10
111.641372774846
 20
477.1046091995782
 10
111.3002713975662
 20
476.4865621722046
 10
110.9336027087332
 20
475.6572354366813
 10
110.6069080112094
 20
474.7165826666671
 10
110.3314928598082
 20
473.6914290127243
 10
109.8490218284333
 20
470.2633758582762
  0
LINE
  5
D8
330
A
100
AcDbEntity
  8
0
  6
Continuous
 62
     7
100
AcDbLine
 10
-53.39503854167488
 20
468.0883504018149
 30
0.0
 11
-53.39521136954172
 21
468.0899688529532
 31
0.0
  0
LINE
  5
D9
330
A
100
AcDbEntity
  8
0
  6
Continuous
 62
     7
100
AcDbLine
 10
-51.17680588225724
 20
478.9250000000002
 30
0.0
 11
114.1215623472576
 21
478.925
 31
0.0
  0
LINE
  5
DA
330
A
100
AcDbEntity
  8
0
  6
Continuous
 62
     7
100
AcDbLine
 10
195.5826037265892
 20
468.8909049578834
 30
0.0
 11
195.2769204108921
 21
468.9543794944313
 31
0.0
  0
LINE
  5
DB
330
A
100
AcDbEntity
  8
0
  6
Continuous
 62
     7
100
AcDbLine
 10
197.224925532838
 20
168.9249999999999
 30
0.0
 11
145.8062483030903
 21
168.9249999999997
 31
0.0
  0
LINE
  5
DC
330
A
100
AcDbEntity
  8
0
  6
Continuous
 62
     7
100
AcDbLine
 10
180.4949643205666
 20
468.1334206553345
 30
0.0
 11
180.4948321873969
 21
468.1319439066712
 31
0.0
  0
LWPOLYLINE
  5
DD
330
A
100
AcDbEntity
  8
0
  6
Continuous
 62
     7
100
AcDbPolyline
 90
        7
 70
   128
 43
0.0
 10
180.4949643205666
 20
468.1334206553345
 10
180.2102896549827
 20
471.4777112091208
 10
178.890973321593
 20
474.5342029367482
 10
176.6857580924808
 20
476.9583000706815
 10
173.8432644754228
 20
478.4767043784865
 10
171.4979488179696
 20
478.913007313866
 10
171.0332430600147
 20
478.9250000000002
  0
LINE
  5
E6
330
A
100
AcDbEntity
  8
0
  6
Continuous
 62
     7
100
AcDbLine
 10
114.1215623472576
 20
478.925
 30
0.0
 11
185.5916817874866
 21
478.925
 31
0.0
  0
LINE
  5
E7
330
A
100
AcDbEntity
  8
0
  6
Continuous
 62
     7
100
AcDbLine
 10
-140.907430354391
 20
468.7254381284422
 30
0.0
 11
-140.8925872533335
 21
468.7431106500927
 31
0.0
  0
LINE
  5
E8
330
A
100
AcDbEntity
  8
0
  6
Continuous
 62
     7
100
AcDbLine
 10
-21.44859142872151
 20
168.9250000000003
 30
0.0
 11
-122.5597083359139
 21
168.9250000000005
 31
0.0
  0
LINE
  5
E9
330
A
100
AcDbEntity
  8
0
  6
Continuous
 62
     7
100
AcDbLine
 10
-121.1026094780217
 20
168.9250000000005
 30
0.0
 11
-153.3314439425013
 21
168.9250000000008
 31
0.0
  0
LINE
  5
EA
330
A
100
AcDbEntity
  8
0
  6
Continuous
 62
     7
100
AcDbLine
 10
-51.17680588225724
 20
478.9250000000002
 30
0.0
 11
-130.940742843519
 21
478.9250000000008
 31
0.0
  0
LINE
  5
EB
330
A
100
AcDbEntity
  8
0
  6
PHANTOM
 62
     7
100
AcDbLine
 10
65.74416790124449
 20
-37.95176970046266
 30
0.0
 11
70.62739023476993
 21
-39.02607861383831
 31
0.0
  0
LINE
  5
EC
330
A
100
AcDbEntity
  8
0
  6
PHANTOM
 62
     7
100
AcDbLine
 10
60.86094556771906
 20
-36.87746078708704
 30
0.0
 11
65.74416790124449
 21
-37.95176970046266
 31
0.0
  0
LINE
  5
ED
330
A
100
AcDbEntity
  8
0
  6
PHANTOM
 62
     7
100
AcDbLine
 10
65.27705723534627
 20
-42.24900535396519
 30
0.0
 11
70.27705723534629
 21
-42.24900535396519
 31
0.0
  0
LINE
  5
EE
330
A
100
AcDbEntity
  8
0
  6
PHANTOM
 62
     7
100
AcDbLine
 10
60.27705723534629
 20
-42.24900535396519
 30
0.0
 11
65.27705723534627
 21
-42.24900535396519
 31
0.0
  0
LWPOLYLINE
  5
EF
330
A
100
AcDbEntity
  8
0
  6
PHANTOM
 62
     7
100
AcDbPolyline
 90
       14
 70
   128
 43
0.0
 10
45.0734801227201
 20
-38.49847209622717
 10
45.07513537880191
 20
-38.50996336923265
 10
45.30354284364265
 20
-38.73691329110213
 10
45.88349138800138
 20
-38.90563270464681
 10
46.77196888143106
 20
-39.00360846280404
 10
47.9030810127581
 20
-39.02357415180058
 10
49.19293836969565
 20
-38.96404900782047
 10
50.54587813278443
 20
-38.82944773848332
 10
51.86155894908373
 20
-38.62975310417605
 10
53.04240279128785
 20
-38.37977554238303
 10
54.00083187362167
 20
-38.09805474529126
 10
54.66576389556975
 20
-37.80548465563408
 10
54.98788389092585
 20
-37.52376385854228
 10
55.01352368207442
 20
-37.40506730469817
  0
LINE
  5
FF
330
A
100
AcDbEntity
  8
0
  6
PHANTOM
 62
     7
100
AcDbLine
 10
45.27705724885194
 20
-42.24900535396519
 30
0.0
 11
55.27705665514019
 21
-42.24900535396519
 31
0.0
  0
LINE
  5
100
330
A
100
AcDbEntity
  8
0
  6
PHANTOM
 62
     7
100
AcDbLine
 10
45.27705723534625
 20
-42.24900535396519
 30
0.0
 11
55.27705723534625
 21
-42.24900535396519
 31
0.0
  0
LWPOLYLINE
  5
101
330
A
100
AcDbEntity
  8
0
  6
PHANTOM
 62
     7
100
AcDbPolyline
 90
       52
 70
   128
 43
0.0
 10
109.8490218284334
 20
470.2633758582762
 10
109.8489677972328
 20
470.2633774019521
 10
104.7739393044872
 20
470.4109707658412
 10
99.53095355052042
 20
470.5630994029836
 10
94.14392059614582
 20
470.7108872068031
 10
88.75763829341904
 20
470.836110944558
 10
83.35188693559151
 20
470.9196287833291
 10
77.88109037424177
 20
470.9536541156673
 10
72.71480928377977
 20
470.9289924577239
 10
67.93046950102318
 20
470.8339142724906
 10
63.70410333953919
 20
470.6945959085346
 10
59.95890881562776
 20
470.5369721748999
 10
56.6787822834409
 20
470.3730926213284
 10
53.80463002397518
 20
470.208783188165
 10
49.44076625732081
 20
469.9131638234532
 10
45.53112641418903
 20
469.6345596421527
 10
41.42830907051148
 20
469.4140728548623
 10
38.65002483552498
 20
469.3291863331341
 10
35.44609414207464
 20
469.2588126089511
 10
31.65950025143121
 20
469.1632539087881
 10
27.50505383215193
 20
469.0202989469868
 10
22.69300274106334
 20
468.8545777099149
 10
18.01389332724143
 20
468.7272932137144
 10
13.12974177852424
 20
468.6159735740285
 10
5.751178706697862
 20
468.4545125958599
 10
-1.671066149062441
 20
468.2789322700331
 10
-6.500399505557544
 20
468.1439932314382
 10
-11.30219507107904
 20
467.9834099119593
 10
-17.17299474016205
 20
467.7442038398565
 10
-22.76054429965155
 20
467.4659060360511
 10
-25.7606582516918
 20
467.2978919372944
 10
-28.41817034405345
 20
467.1605661807478
 10
-30.58065874582885
 20
467.0874413684596
 10
-32.2810226887727
 20
467.0669245982021
 10
-33.9258259339031
 20
467.0796040615858
 10
-35.03167252519201
 20
467.1104754552246
 10
-35.83605039846097
 20
467.1496489586505
 10
-36.27122384410224
 20
467.1873933472528
 10
-36.49674597186861
 20
467.258299592409
 10
-36.29719761361769
 20
467.308788664091
 10
-36.00939432561305
 20
467.3584053472946
 10
-35.91154526087111
 20
467.4047996314505
 10
-36.28185957240837
 20
467.4456215059891
 10
-37.39854641324126
 20
467.4785209603411
 10
-38.57209957588492
 20
467.4979289101852
 10
-40.43754138728401
 20
467.5412799334203
 10
-41.93221201355202
 20
467.5911900255978
 10
-43.78362393246379
 20
467.6754410595988
 10
-45.97231550887164
 20
467.791159971073
 10
-48.40312376593033
 20
467.9099993438711
 10
-53.39498005047885
 20
468.0883487746563
 10
-53.39503854167488
 20
468.0883504018149
  0
LWPOLYLINE
  5
137
330
A
100
AcDbEntity
  8
0
  6
PHANTOM
 62
     7
100
AcDbPolyline
 90
       24
 70
   128
 43
0.0
 10
195.2769204108921
 20
468.9543794944313
 10
195.191671962615
 20
468.9720811662858
 10
194.0009357302477
 20
469.0554551025065
 10
192.3492263136436
 20
469.120136304869
 10
190.0581398357232
 20
469.1729509539483
 10
186.9492724194065
 20
469.2207252303202
 10
184.7724823395518
 20
469.2478534643462
 10
182.2755535318366
 20
469.2745029600164
 10
179.2631256054718
 20
469.3015532168086
 10
177.3620771708207
 20
469.315947275872
 10
175.07198791427
 20
469.3249580788629
 10
172.0011850031033
 20
469.3125589564263
 10
168.7178395569478
 20
469.2646355193862
 10
167.3838796343236
 20
469.2481061094176
 10
163.2742841749775
 20
469.2217140462703
 10
159.2197913504464
 20
469.2262862572101
 10
154.3071690125308
 20
469.2628875405374
 10
149.5609075020925
 20
469.32651089379
 10
139.5064334258642
 20
469.5118266621945
 10
129.7032814993024
 20
469.7320201495854
 10
119.9009931704289
 20
469.9836035662447
 10
109.8491098872654
 20
470.2630891224543
 10
109.8490558595618
 20
470.2630906615032
 10
109.8490558595618
 20
470.2630906615032
  0
LWPOLYLINE
  5
151
330
A
100
AcDbEntity
  8
0
  6
PHANTOM
 62
     7
100
AcDbPolyline
 90
       19
 70
   128
 43
0.0
 10
-53.39521136954172
 20
468.0899688529532
 10
-53.39526988380447
 20
468.0899705725495
 10
-59.74550993877584
 20
468.2326116810489
 10
-66.16327668182556
 20
468.3144788428343
 10
-75.44852650915159
 20
468.3876509401029
 10
-84.59318965311068
 20
468.4604395122498
 10
-91.56180451073046
 20
468.5340189890132
 10
-98.11857299032192
 20
468.6058186641714
 10
-103.5321510428573
 20
468.6610929590544
 10
-108.1280383886763
 20
468.7348930775226
 10
-116.074680034535
 20
468.9391215204486
 10
-123.6013490551789
 20
469.0316975922739
 10
-130.6329391114975
 20
468.8201944440778
 10
-134.0030480072194
 20
468.6307372566232
 10
-136.792193429015
 20
468.5284104360972
 10
-138.952283964299
 20
468.5204389407002
 10
-140.277241619373
 20
468.5828213734804
 10
-140.9338507403019
 20
468.6939814375381
 10
-140.907430354391
 20
468.7254381284422
  0
LWPOLYLINE
  5
166
330
A
100
AcDbEntity
  8
0
  6
Continuous
 62
     7
100
AcDbPolyline
 90
       11
 70
   128
 43
0.0
 10
33.37595884488378
 20
-362.2992963220577
 10
32.45439981574274
 20
-362.9083410637599
 10
30.22036731286425
 20
-364.7391020454973
 10
28.20101131960927
 20
-366.7615591693306
 10
26.41954213229295
 20
-368.864949967409
 10
24.51591646856751
 20
-371.4914498755006
 10
22.72814396842304
 20
-374.366722460318
 10
20.95805616603234
 20
-377.6050228550687
 10
18.98990213201382
 20
-381.4954395852056
 10
15.61700523873424
 20
-388.2959598034513
 10
14.78250783088569
 20
-389.9371771909108
  0
LWPOLYLINE
  5
173
330
A
100
AcDbEntity
  8
0
  6
Continuous
 62
     7
100
AcDbPolyline
 90
       15
 70
   128
 43
0.0
 10
180.5100428490888
 20
-462.7363806721697
 10
183.5959400020724
 20
-452.7540990141584
 10
185.4169551105525
 20
-447.0607383787632
 10
186.3626472507326
 20
-444.0595513852376
 10
186.9764927851905
 20
-441.5987907554832
 10
187.2937341962685
 20
-439.8166549271641
 10
187.4633999115786
 20
-437.8364479161346
 10
187.3577945509973
 20
-435.7792553293716
 10
186.9872800056757
 20
-433.8122634380598
 10
186.3776130962923
 20
-431.923591835766
 10
185.5484771600901
 20
-430.1077240999923
 10
184.5143197385081
 20
-428.3502013337638
 10
183.293572892696
 20
-426.6322435514133
 10
181.9032683264017
 20
-424.8929340581004
 10
180.6383341122702
 20
-423.4122126166838
  0
LWPOLYLINE
  5
184
330
A
100
AcDbEntity
  8
0
  6
Continuous
 62
     7
100
AcDbPolyline
 90
       12
 70
   128
 43
0.0
 10
-96.30774742869835
 20
-588.6787799243891
 10
-94.85685411403069
 20
-589.4782345539109
 10
-91.63600506653118
 20
-590.9340176428218
 10
-88.22453256865804
 20
-592.1938193300965
 10
-84.38979497620897
 20
-593.3264399750867
 10
-80.27184127854036
 20
-594.2691213605235
 10
-75.77150763477746
 20
-595.0450373360698
 10
-70.72622323030912
 20
-595.6872644948998
 10
-64.76989992144833
 20
-596.2698731808456
 10
-59.49596445847396
 20
-596.8616871002929
 10
-54.17235711790956
 20
-597.7499135500619
 10
-53.42163333668312
 20
-597.9049463400492
  0
LWPOLYLINE
  5
192
330
A
100
AcDbEntity
  8
0
  6
Continuous
 62
     7
100
AcDbPolyline
 90
       16
 70
   128
 43
0.0
 10
-8.790431384096478
 20
-424.0916850345703
 10
-11.91063222852882
 20
-426.7963569497347
 10
-15.4524323816229
 20
-429.5570827221348
 10
-18.74666710102983
 20
-431.8106394884645
 10
-22.41177970150324
 20
-433.9464008347381
 10
-26.19972081157998
 20
-435.7937138845594
 10
-30.0789057704716
 20
-437.3333301239519
 10
-34.00387384911004
 20
-438.5483745704141
 10
-37.96019644939896
 20
-439.4386089487739
 10
-41.99856938128532
 20
-440.0184084354786
 10
-46.21062406665873
 20
-440.3513844482477
 10
-51.12717289567828
 20
-440.4812785228168
 10
-56.84406508637
 20
-440.3959777816209
 10
-64.05072417441424
 20
-440.113806934474
 10
-71.71293213630375
 20
-439.8004984713044
 10
-71.78394123454417
 20
-439.7995818511725
  0
LWPOLYLINE
  5
1A4
330
A
100
AcDbEntity
  8
0
  6
Continuous
 62
     7
100
AcDbPolyline
 90
        8
 70
   128
 43
0.0
 10
169.5823810583426
 20
-482.257905572287
 10
170.1714113541404
 20
-481.4728782359794
 10
173.3019478096186
 20
-477.1253588822591
 10
175.5356864374788
 20
-473.6649708713281
 10
177.3935047861365
 20
-470.3434037479811
 10
178.9639554374053
 20
-466.9699456799952
 10
180.2300181044261
 20
-463.7097390746101
 10
180.5551804994108
 20
-462.7542902115841
  0
LWPOLYLINE
  5
1AE
330
A
100
AcDbEntity
  8
0
  6
Continuous
 62
     7
100
AcDbPolyline
 90
       41
 70
   128
 43
0.0
 10
-53.40080032666865
 20
-597.7881605773106
 10
-52.09657490758876
 20
-598.1068863112287
 10
-49.43574490049527
 20
-598.976990195593
 10
-47.36336807305066
 20
-599.8950689626596
 10
-45.41282846287035
 20
-601.0798043918469
 10
-43.64878732070523
 20
-602.5108739773604
 10
-42.15321251333594
 20
-604.1228495564864
 10
-40.89007175333946
 20
-605.9635336017734
 10
-39.77635806766199
 20
-608.1099402304992
 10
-38.77611641636884
 20
-610.675236963045
 10
-37.93208017456291
 20
-613.6345775647298
 10
-37.24154660912586
 20
-617.0658687565809
 10
-36.7021718346279
 20
-620.9977384703437
 10
-36.33283740451931
 20
-625.6386891420691
 10
-36.17362877797664
 20
-630.8703789055518
 10
-36.20828013006615
 20
-637.0694411972464
 10
-36.39334102763846
 20
-645.1572040974959
 10
-36.64737133413446
 20
-654.6140606536065
 10
-36.69501250908219
 20
-662.9078788267071
 10
-36.49393790152888
 20
-668.8728439492946
 10
-36.07199243893294
 20
-674.2211250601447
 10
-35.55240067325402
 20
-678.2606185625748
 10
-34.86299180959939
 20
-681.8432951730316
 10
-33.96831918332513
 20
-685.1502806441889
 10
-33.06666466410216
 20
-687.6942878231505
 10
-32.01861427588232
 20
-689.9737063706261
 10
-30.79434754211977
 20
-692.0363731225781
 10
-29.39105159339096
 20
-693.8829902950287
 10
-27.77316533441507
 20
-695.5472593037938
 10
-26.02948363299888
 20
-696.9607086364674
 10
-24.06193189618526
 20
-698.2250407928464
 10
-21.93784724903924
 20
-699.2982980842364
 10
-19.64274772021387
 20
-700.2043418478209
 10
-17.15556790447453
 20
-700.9733924814751
 10
-14.00589206106997
 20
-701.7231054045184
 10
-10.44330776587691
 20
-702.3219382692162
 10
-6.576276546004581
 20
-702.7524338929579
 10
-1.781015013755632
 20
-703.0759203018105
 10
3.238944579484121
 20
-703.1588679559334
 10
8.021346260921852
 20
-702.9681558844787
 10
11.67797219666015
 20
-702.6073748054328
  0
LWPOLYLINE
  5
1D9
330
A
100
AcDbEntity
  8
0
  6
Continuous
 62
     7
100
AcDbPolyline
 90
        3
 70
   128
 43
0.0
 10
60.828832393323
 20
-356.504228947418
 10
53.86941499558162
 20
-357.1391363641176
 10
45.0735329672762
 20
-357.9416902605964
  0
LWPOLYLINE
  5
1DE
330
A
100
AcDbEntity
  8
0
  6
Continuous
 62
     7
100
AcDbPolyline
 90
        3
 70
   128
 43
0.0
 10
24.82764267181484
 20
-698.4503859503673
 10
33.99523160024525
 20
-693.1089778618148
 10
45.37605393358219
 20
-686.4833936047144
  0
LWPOLYLINE
  5
1E3
330
A
100
AcDbEntity
  8
0
  6
Continuous
 62
     7
100
AcDbPolyline
 90
        3
 70
   128
 43
0.0
 10
196.1993600499006
 20
-589.0843161521681
 10
195.5315972024193
 20
-582.2816754536128
 10
195.5335872701891
 20
-573.383886978014
  0
LWPOLYLINE
  5
1E8
330
A
100
AcDbEntity
  8
0
  6
Continuous
 62
     7
100
AcDbPolyline
 90
       40
 70
   128
 43
0.0
 10
166.6750765846568
 20
-536.6650437593501
 10
166.6762095736929
 20
-536.6659556377495
 10
166.6438363099784
 20
-536.6237400342702
 10
166.5430133154568
 20
-536.5096489087437
 10
166.3744764101481
 20
-536.3234709572708
 10
166.1632123917716
 20
-536.0913317681753
 10
165.8974696442676
 20
-535.7988181662944
 10
165.5782444029587
 20
-535.4452546137679
 10
165.206830042759
 20
-535.0297151198732
 10
164.7850168604927
 20
-534.5510888994245
 10
164.5018926845071
 20
-534.2252806987386
 10
164.3563791305054
 20
-534.0562606469214
 10
164.2082959530449
 20
-533.8830726629407
 10
164.1333076819767
 20
-533.7948936449334
 10
164.0576979385927
 20
-533.7056458997916
 10
163.9814743458325
 20
-533.6153202211327
 10
163.90464483363
 20
-533.5239072650003
 10
163.7492012964604
 20
-533.33778146489
 10
163.591436848321
 20
-533.1471910486235
 10
163.1599653589553
 20
-532.6165113055512
 10
162.7141091781099
 20
-532.05193042251
 10
162.2651668311959
 20
-531.4643211955313
 10
160.8242566643692
 20
-529.4117426038513
 10
159.5155383255074
 20
-527.2231804593324
 10
159.1368752617543
 20
-526.5024321938223
 10
158.7225732461217
 20
-525.6517848136676
 10
158.2554911163483
 20
-524.594445741092
 10
157.7599305084694
 20
-523.3181046551354
 10
157.2660823322199
 20
-521.8084498885827
 10
157.0431189805164
 20
-521.0077327363738
 10
156.8474101785692
 20
-520.2122523704434
 10
156.6930935680575
 20
-519.49885649178
 10
156.6003869968995
 20
-519.0198998804207
 10
156.5244674464591
 20
-518.5904735513496
 10
156.4629384019565
 20
-518.211712768844
 10
156.4136615891566
 20
-517.8845955056519
 10
156.3576354888176
 20
-517.4834083897813
 10
156.307735428964
 20
-517.08641201842
 10
156.2615125950936
 20
-516.6668845293596
 10
156.2177652434297
 20
-516.1913992366581
  0
LWPOLYLINE
  5
212
330
A
100
AcDbEntity
  8
0
  6
Continuous
 62
     7
100
AcDbPolyline
 90
        7
 70
   128
 43
0.0
 10
156.125463121033
 20
-514.1816723713665
 10
156.1288471168997
 20
-513.423846383413
 10
156.1545729545562
 20
-512.6089842716247
 10
156.2056282257194
 20
-511.7447866921107
 10
156.2850805581913
 20
-510.8300222916518
 10
156.3960321284038
 20
-509.8635119257902
 10
156.4930335866778
 20
-509.1843001675115
  0
LWPOLYLINE
  5
21B
330
A
100
AcDbEntity
  8
0
  6
Continuous
 62
     7
100
AcDbPolyline
 90
       26
 70
   128
 43
0.0
 10
-128.9141315583043
 20
-548.4535531599582
 10
-128.28567610934
 20
-549.4630062985387
 10
-127.6484699644699
 20
-550.5836595104081
 10
-127.0914938476152
 20
-551.6508049775928
 10
-126.6057588833298
 20
-552.658921066481
 10
-126.1832401854333
 20
-553.6029398632087
 10
-125.8169048977138
 20
-554.4782707722182
 10
-125.5006961808448
 20
-555.2808078620578
 10
-125.2840395522358
 20
-555.8579269080588
 10
-125.0930304748207
 20
-556.3863023720223
 10
-124.9258552575627
 20
-556.8645491464648
 10
-124.780973211589
 20
-557.2914467609551
 10
-124.657088733797
 20
-557.6659320773352
 10
-124.550647905354
 20
-557.9948254101657
 10
-124.4422031570434
 20
-558.336876014789
 10
-124.2707697579146
 20
-558.8923702476169
 10
-124.0878559452591
 20
-559.5056747918999
 10
-123.8945346372404
 20
-560.1778729365909
 10
-123.6918518801626
 20
-560.9100948462473
 10
-123.480800403755
 20
-561.7035093209296
 10
-123.2622899286562
 20
-562.5593144935357
 10
-123.050148717136
 20
-563.4244546170999
 10
-122.8326244632139
 20
-564.3471668123335
 10
-122.6101066739291
 20
-565.3284732016182
 10
-122.3827994087684
 20
-566.3693810800189
 10
-122.1506841625814
 20
-567.4708710316046
  0
LWPOLYLINE
  5
237
330
A
100
AcDbEntity
  8
0
  6
Continuous
 62
     7
100
AcDbPolyline
 90
        3
 70
   128
 43
0.0
 10
-88.53600463196578
 20
-440.5391626156152
 10
-89.55373113238465
 20
-440.5334715623397
 10
-90.70882634160211
 20
-440.2321423752218
  0
ARC
  5
23C
330
A
100
AcDbEntity
  8
0
  6
Continuous
 62
     7
100
AcDbCircle
 10
55.27705723534629
 20
-535.0277660077666
 30
0.0
 40
130.0
100
AcDbArc
 50
353.2943944042348
 51
25.76180536199685
  0
ARC
  5
23D
330
A
100
AcDbEntity
  8
0
  6
Continuous
 62
     7
100
AcDbCircle
 10
55.27705723534629
 20
-535.0277660077666
 30
0.0
 40
130.0000000000001
100
AcDbArc
 50
275.8060442986934
 51
282.8981701373635
  0
ARC
  5
23E
330
A
100
AcDbEntity
  8
0
  6
Continuous
 62
     7
100
AcDbCircle
 10
55.27705723534629
 20
-535.0277660077666
 30
0.0
 40
130.0
100
AcDbArc
 50
208.4977147448604
 51
225.1774306641802
  0
ARC
  5
23F
330
A
100
AcDbEntity
  8
0
  6
Continuous
 62
     7
100
AcDbCircle
 10
55.27705723534629
 20
-535.0277660077666
 30
0.0
 40
130.0
100
AcDbArc
 50
117.2298415620352
 51
131.2461108059637
  0
CIRCLE
  5
240
330
A
100
AcDbEntity
  8
0
  6
Continuous
 62
     7
100
AcDbCircle
 10
55.2770572353463
 20
-535.0277660077689
 30
0.0
 40
41.00000000000001
  0
LINE
  5
241
330
A
100
AcDbEntity
  8
0
  6
Continuous
 62
     7
100
AcDbLine
 10
-8.750983492983518
 20
-424.1279463575117
 30
0.0
 11
-8.750982858489964
 21
-424.1279474564867
 31
0.0
  0
LWPOLYLINE
  5
242
330
A
100
AcDbEntity
  8
0
  6
Continuous
 62
     7
100
AcDbPolyline
 90
        8
 70
   128
 43
0.0
 10
-8.750982858489964
 20
-424.1279474564867
 10
-8.750938659115941
 20
-424.1279068948752
 10
-3.346239326537492
 20
-418.5903579062319
 10
1.512397903651998
 20
-412.5305619777241
 10
5.900683304659454
 20
-406.0770039773408
 10
9.894327149691809
 20
-399.3581687730708
 10
13.56903971195597
 20
-392.5025412329034
 10
14.81140698388174
 20
-389.9613811374639
  0
LWPOLYLINE
  5
24C
330
A
100
AcDbEntity
  8
0
  6
Continuous
 62
     7
100
AcDbPolyline
 90
        9
 70
   128
 43
0.0
 10
33.39998935329663
 20
-362.3154942633431
 10
35.1792822916858
 20
-361.1365886253344
 10
38.65665766608789
 20
-359.4873011424632
 10
42.33785653311112
 20
-358.3700504405586
 10
45.0786383231476
 20
-357.9411957904134
 10
47.84965681840983
 20
-357.8788765558796
 10
50.82810399261904
 20
-358.3083144383222
 10
53.68285709442304
 20
-359.2618156374658
 10
54.67129458637291
 20
-359.7958061514841
  0
LWPOLYLINE
  5
257
330
A
100
AcDbEntity
  8
0
  6
Continuous
 62
     7
100
AcDbPolyline
 90
        7
 70
   128
 43
0.0
 10
102.458838972275
 20
-375.2455544237275
 10
105.8788403566314
 20
-373.9614018635366
 10
115.6235031867231
 20
-369.5173567614368
 10
122.8056659036647
 20
-366.4245716815249
 10
127.7593294602145
 20
-364.846998887361
 10
132.8765867345978
 20
-364.0810770367543
 10
135.6265685112857
 20
-364.2046806661941
  0
LWPOLYLINE
  5
260
330
A
100
AcDbEntity
  8
0
  6
Continuous
 62
     7
100
AcDbPolyline
 90
        5
 70
   128
 43
0.0
 10
170.3317160741452
 20
-410.7460202336802
 10
171.0821655733929
 20
-411.9017926090323
 10
175.5523733867626
 20
-417.6461633604004
 10
179.444543880591
 20
-422.0629544836292
 10
180.5956816428967
 20
-423.433390242394
  0
LINE
  5
267
330
A
100
AcDbEntity
  8
0
  6
Continuous
 62
     7
100
AcDbLine
 10
180.4282365748279
 20
-462.7110912886914
 30
0.0
 11
171.0332430600147
 21
-459.5948644456766
 31
0.0
  0
LWPOLYLINE
  5
268
330
A
100
AcDbEntity
  8
0
  6
Continuous
 62
     7
100
AcDbPolyline
 90
        7
 70
   128
 43
0.0
 10
-8.750983594465772
 20
-424.1279464508343
 10
-8.422510243862161
 20
-424.4858218638103
 10
-7.368921477959672
 20
-425.6337186597405
 10
-5.709001345553993
 20
-427.4422202221698
 10
-3.629893009707507
 20
-429.7074319163145
 10
-2.444163216558298
 20
-430.9992976865713
 10
-1.990896948775536
 20
-431.4931363076232
  0
LWPOLYLINE
  5
271
330
A
100
AcDbEntity
  8
0
  6
Continuous
 62
     7
100
AcDbPolyline
 90
        5
 70
   128
 43
0.0
 10
-96.27251692979598
 20
-588.6008323769561
 10
-98.11857299032192
 20
-587.6784372738477
 10
-103.5321510428573
 20
-583.6297325496725
 10
-108.1280383886763
 20
-578.6693802060888
 10
-113.9416567022121
 20
-570.8447325522143
  0
LWPOLYLINE
  5
278
330
A
100
AcDbEntity
  8
0
  6
Continuous
 62
     7
100
AcDbPolyline
 90
       10
 70
   128
 43
0.0
 10
-124.8745982414888
 20
-554.9244486796822
 10
-130.6329391114975
 20
-545.6622230931897
 10
-134.0030480072194
 20
-539.3065498762649
 10
-136.792193429015
 20
-532.6574573028937
 10
-138.952283964299
 20
-525.7945326527678
 10
-140.277241619373
 20
-519.5506237276338
 10
-140.933850740302
 20
-513.1874433139075
 10
-140.8024482672381
 20
-506.8220905749243
 10
-139.6430372503937
 20
-499.8889721662145
 10
-137.9464277360723
 20
-494.3870808253893
  0
LWPOLYLINE
  5
284
330
A
100
AcDbEntity
  8
0
  6
Continuous
 62
     7
100
AcDbPolyline
 90
       11
 70
   128
 43
0.0
 10
-118.2579947470079
 20
-459.0582345754452
 10
-116.1601960200354
 20
-456.1409415715046
 10
-111.6582198685312
 20
-451.1669741182225
 10
-107.9841095423051
 20
-448.1098993741569
 10
-103.9304522731891
 20
-445.5369403035184
 10
-99.61010602519674
 20
-443.4813315713006
 10
-94.40739572918532
 20
-441.7552418561042
 10
-89.02180082172234
 20
-440.6247454706029
 10
-83.56324837223203
 20
-440.0049793163399
 10
-75.93598527045561
 20
-439.7664003075466
 10
-71.79127203859391
 20
-439.8647040289175
  0
LWPOLYLINE
  5
291
330
A
100
AcDbEntity
  8
0
  6
Continuous
 62
     7
100
AcDbPolyline
 90
        7
 70
   128
 43
0.0
 10
-51.17680588225724
 20
-588.0547162768891
 10
-51.28146491480648
 20
-588.5130627334214
 10
-51.8451235858204
 20
-590.9815639846244
 10
-52.51031345569316
 20
-593.89471354547
 10
-53.0251604145448
 20
-596.1494474875577
 10
-53.33161958362097
 20
-597.4915626031328
 10
-53.37967553752841
 20
-597.7017717881627
  0
LWPOLYLINE
  5
29A
330
A
100
AcDbEntity
  8
0
  6
Continuous
 62
     7
100
AcDbPolyline
 90
       39
 70
   128
 43
0.0
 10
169.4495028596273
 20
-482.1702561902831
 10
167.3730134770352
 20
-485.0537902777909
 10
163.8661968507308
 20
-490.2139995988145
 10
160.7900984999871
 20
-495.6476915403294
 10
158.383059938929
 20
-501.3762565258382
 10
156.6998755263086
 20
-507.8748022415823
 10
156.0919064258756
 20
-514.5501144809001
 10
156.4568443276066
 20
-519.309153430652
 10
157.6237698208124
 20
-523.9281144927226
 10
159.669070644164
 20
-528.2300971880689
 10
162.413398070476
 20
-532.1363835788999
 10
166.4430468888844
 20
-536.4529142993279
 10
170.9243543579303
 20
-540.3357514368682
 10
175.6743809826615
 20
-543.9315648563556
 10
180.510187268126
 20
-547.3870244226252
 10
186.2949779109074
 20
-551.7180372762164
 10
189.6293947827125
 20
-554.7365517414664
 10
192.4677104430037
 20
-558.2036233014422
 10
194.0356591864207
 20
-561.174284772114
 10
195.022081572029
 20
-564.3876086076063
 10
195.4637030568282
 20
-567.4652140360004
 10
195.591579521272
 20
-570.5758434301414
 10
195.191671962615
 20
-578.1925673088177
 10
194.0009357302477
 20
-590.3616804404962
 10
192.3492263136436
 20
-602.4931761717257
 10
190.0581398357232
 20
-614.5013804167267
 10
186.9492724194065
 20
-626.3006190897197
 10
184.7724823395518
 20
-633.0762381675023
 10
182.2755535318366
 20
-639.7410157363692
 10
179.2631256054718
 20
-646.1699904283721
 10
177.3620771708207
 20
-649.3804106066477
 10
175.07198791427
 20
-652.3145257316654
 10
172.0011850031033
 20
-654.8954365226884
 10
168.7178395569478
 20
-656.2521014540026
 10
167.3838796343236
 20
-656.4943302455915
 10
163.2742841749775
 20
-656.4874319493473
 10
159.2197913504464
 20
-655.6803958756797
 10
154.3071690125308
 20
-654.0107837902732
 10
153.4672570078948
 20
-653.6366080237099
  0
LINE
  5
2C3
330
A
100
AcDbEntity
  8
0
  6
Continuous
 62
     7
100
AcDbLine
 10
109.8490558595617
 20
-629.5492402942208
 30
0.0
 11
109.8490218284333
 21
-629.5491813505774
 31
0.0
  0
LWPOLYLINE
  5
2C4
330
A
100
AcDbEntity
  8
0
  6
Continuous
 62
     7
100
AcDbPolyline
 90
       11
 70
   128
 43
0.0
 10
114.1215623472577
 20
-620.6074730035271
 10
113.6688440026192
 20
-621.5549342574542
 10
113.0852018404805
 20
-622.776407066839
 10
112.6516060053425
 20
-623.6838487663992
 10
112.1124576673074
 20
-624.812201500643
 10
111.641372774846
 20
-625.798104296565
 10
111.3002713975661
 20
-626.5119708775444
 10
110.9336027087332
 20
-627.2793482788077
 10
110.6069080112094
 20
-627.9630678470677
 10
110.3314928598082
 20
-628.539466964642
 10
109.8490218284334
 20
-629.5491813505774
  0
LWPOLYLINE
  5
2D1
330
A
100
AcDbEntity
  8
0
  6
Continuous
 62
     7
100
AcDbPolyline
 90
        8
 70
   128
 43
0.0
 10
35.9231458122712
 20
-687.1609777791226
 10
35.44609414207463
 20
-687.9493661462622
 10
31.65950025143122
 20
-692.8041402101335
 10
27.50505383215193
 20
-696.6307448217867
 10
22.69300274106335
 20
-699.5678744350035
 10
18.01389332724144
 20
-701.3124642015327
 10
13.12974177852424
 20
-702.3933465458203
 10
11.67805120744524
 20
-702.5275803705547
  0
LWPOLYLINE
  5
2DB
330
A
100
AcDbEntity
  8
0
  6
Continuous
 62
     7
100
AcDbPolyline
 90
       32
 70
   128
 43
0.0
 10
60.8345052512027
 20
-356.60078320397
 10
62.54926420916962
 20
-356.4307229825643
 10
66.65441334622845
 20
-356.6867485737677
 10
70.91462361333704
 20
-357.3321420884095
 10
79.83089758284679
 20
-358.9959817566078
 10
88.25922376480209
 20
-360.3105625284462
 10
96.54841459037839
 20
-360.9635761830097
 10
104.9792797989279
 20
-360.7071615528253
 10
113.4920105347765
 20
-359.4860050293032
 10
121.9417448622189
 20
-357.2947164956919
 10
130.2531864768829
 20
-354.3820818954598
 10
136.0252436282766
 20
-352.3273345371978
 10
141.7939694706398
 20
-350.5909561706576
 10
147.5895615639339
 20
-349.462979277815
 10
153.4422174681201
 20
-349.2334363406452
 10
159.3580799164906
 20
-350.1642446762387
 10
165.1177963673573
 20
-352.25376381663
 10
170.3786972233155
 20
-355.3562209165012
 10
174.8024881842684
 20
-359.3241802385018
 10
178.2886549742552
 20
-364.0019366407524
 10
181.0569660594747
 20
-369.2226463351898
 10
184.1880570225364
 20
-377.1246349492419
 10
187.0522112257882
 20
-385.3022830430738
 10
190.2808967982637
 20
-393.3095448035873
 10
192.2877554242236
 20
-397.9015338172753
 10
194.0289104051774
 20
-402.4955939953161
 10
195.2058127993584
 20
-407.1779613695516
 10
195.5726308191536
 20
-412.0110910954359
 10
194.8841677718725
 20
-418.4134172504693
 10
193.0873094248374
 20
-424.7658719329561
 10
190.4071782353778
 20
-430.86079687253
 10
187.3684972693119
 20
-435.9877442986235
  0
LWPOLYLINE
  5
2FD
330
A
100
AcDbEntity
  8
0
  6
Continuous
 62
     7
100
AcDbPolyline
 90
       23
 70
   128
 43
0.0
 10
145.8062483030904
 20
-691.8289245052116
 10
142.8860496348743
 20
-690.9638217990626
 10
135.5400914481179
 20
-688.1172275440429
 10
128.7870874884696
 20
-684.6660318889052
 10
122.4327083282277
 20
-680.808603210924
 10
116.28150759679
 20
-676.7430722691891
 10
111.3754955193342
 20
-673.4739577560067
 10
106.3743634173793
 20
-670.2999044284926
 10
101.1790591334083
 20
-667.32385971834
 10
95.73399697098878
 20
-664.7131114429551
 10
90.04245632753807
 20
-662.7220813328537
 10
85.11660893579062
 20
-661.7243075093249
 10
80.03073182312856
 20
-661.4873876634106
 10
74.87638528780596
 20
-662.0921526498785
 10
69.87117732961038
 20
-663.5183111043931
 10
65.24281766846224
 20
-665.7374675215337
 10
61.21901602428196
 20
-668.7212263958796
 10
58.27657578219582
 20
-672.024197344532
 10
55.76900652110577
 20
-675.7060700292676
 10
53.22950571536264
 20
-679.4389670358158
 10
50.19200236764106
 20
-682.8939480792875
 10
46.46630401413339
 20
-685.8138078656099
 10
45.33876779350494
 20
-686.4295701001981
  0
LINE
  5
316
330
A
100
AcDbEntity
  8
0
  6
Continuous
 62
     7
100
AcDbLine
 10
109.8490558595618
 20
-629.5492402942208
 30
0.0
 11
145.8062483030902
 21
-691.8289245052114
 31
0.0
  0
LWPOLYLINE
  5
317
330
A
100
AcDbEntity
  8
0
  6
Continuous
 62
     7
100
AcDbPolyline
 90
       20
 70
   128
 43
0.0
 10
196.0796687670024
 20
-589.0914823933568
 10
196.8905650472018
 20
-595.2713705266834
 10
197.2587561461025
 20
-605.2080202961891
 10
196.6248524589195
 20
-617.6915671960963
 10
195.0081985152973
 20
-629.8420170044184
 10
192.5772015301866
 20
-641.9104292487261
 10
189.4820665684404
 20
-654.2208280596756
 10
187.4174263839973
 20
-661.6855846565965
 10
185.1793773471658
 20
-669.3627337701819
 10
182.540912303563
 20
-676.8592355197921
 10
180.6594971275059
 20
-680.9490074718773
 10
178.4488167114483
 20
-684.6434467915401
 10
175.8382211910507
 20
-687.8190160898562
 10
172.7570607019736
 20
-690.3521779779008
 10
169.0098326200165
 20
-692.2092899930321
 10
164.8002115364749
 20
-693.316481168021
 10
160.2516200071801
 20
-693.7528958548004
 10
155.4874805879636
 20
-693.5976784053035
 10
150.6312158346569
 20
-692.9299731714628
 10
145.8062483030903
 20
-691.8289245052115
  0
LWPOLYLINE
  5
32D
330
A
100
AcDbEntity
  8
0
  6
Continuous
 62
     7
100
AcDbPolyline
 90
        9
 70
   128
 43
0.0
 10
-99.08015597413246
 20
-586.9592889524493
 10
-103.7958725522963
 20
-585.081454087981
 10
-107.7892993425097
 20
-583.0346729726318
 10
-111.6614037308121
 20
-580.6773232036154
 10
-115.2197381774619
 20
-578.0053648015088
 10
-118.2643746376116
 20
-575.0141401059448
 10
-120.595385066413
 20
-571.698991456556
 10
-122.0183132992126
 20
-568.0561931193275
 10
-122.0865909560123
 20
-567.4562765430021
  0
LWPOLYLINE
  5
338
330
A
100
AcDbEntity
  8
0
  6
Continuous
 62
     7
100
AcDbPolyline
 90
       23
 70
   128
 43
0.0
 10
-140.5888027575097
 20
-505.5445198127737
 10
-141.197771285572
 20
-504.7462256078135
 10
-146.1833616241428
 20
-499.0845962457928
 10
-148.9051906870668
 20
-496.0252333671644
 10
-151.2261130210437
 20
-492.7914624230314
 10
-152.7756346961482
 20
-489.2392513975931
 10
-153.3314439425012
 20
-485.3271461105777
 10
-152.9875909632376
 20
-481.2326912573233
 10
-151.4978788870413
 20
-476.1715732107602
 10
-149.0761080125259
 20
-471.5487176535527
 10
-145.9654161017865
 20
-467.6743231153197
 10
-142.3214571982838
 20
-464.4582150194752
 10
-136.1438475686606
 20
-460.431780683993
 10
-129.5074826041344
 20
-456.7639031428327
 10
-122.8570187733381
 20
-452.7810262484223
 10
-116.5968575794137
 20
-447.910463371633
 10
-112.6079311805135
 20
-444.468854304848
 10
-108.6078145110276
 20
-441.4218346796791
 10
-104.4571802306754
 20
-439.2490888127674
 10
-101.1636719480463
 20
-438.4751461565448
 10
-97.70276119922236
 20
-438.4884664642494
 10
-94.1200145725368
 20
-439.1525634511281
 10
-90.71148159158129
 20
-440.2437449710118
  0
LWPOLYLINE
  5
351
330
A
100
AcDbEntity
  8
0
  6
PHANTOM
 62
     7
100
AcDbPolyline
 90
       12
 70
   128
 43
0.0
 10
54.67129458637291
 20
-359.7958061514841
 10
57.02789238833003
 20
-361.0689274989139
 10
60.14826140694321
 20
-363.2852719025025
 10
63.14122038897355
 20
-365.6743849411476
 10
68.73833827240083
 20
-369.8554990498438
 10
74.74612707534749
 20
-373.4400807517338
 10
81.16644642474604
 20
-376.081079243217
 10
86.06727966888533
 20
-377.2310667300091
 10
91.0794296280815
 20
-377.603437611475
 10
96.13224840866019
 20
-377.0627181027579
 10
101.0872557552437
 20
-375.7605606771525
 10
102.458838972275
 20
-375.2455544237275
  0
LWPOLYLINE
  5
35F
330
A
100
AcDbEntity
  8
0
  6
PHANTOM
 62
     7
100
AcDbPolyline
 90
       13
 70
   128
 43
0.0
 10
135.6265685112857
 20
-364.2046806661941
 10
136.0047446365758
 20
-364.2216785757983
 10
139.056851144418
 20
-364.9085075671631
 10
142.226978197485
 20
-366.2606746658181
 10
145.1609392746324
 20
-368.0816259081883
 10
148.9226349789451
 20
-371.300489728289
 10
152.1429737544829
 20
-375.0682639538729
 10
155.6890633747257
 20
-380.7534749165555
 10
158.5778335952215
 20
-386.836760043662
 10
161.1573818801852
 20
-393.1003114109504
 10
163.7758056938315
 20
-399.3263210941792
 10
167.1120849406702
 20
-405.7874444379419
 10
170.3317160741452
 20
-410.7460202336802
  0
LWPOLYLINE
  5
36E
330
A
100
AcDbEntity
  8
0
  6
PHANTOM
 62
     7
100
AcDbPolyline
 90
       54
 70
   128
 43
0.0
 10
171.033243059985
 20
-459.5948644456917
 10
172.8562187614531
 20
-453.6632105576435
 10
174.6589058454697
 20
-447.724885800719
 10
176.1622924821021
 20
-443.2643357624289
 10
177.3415470311973
 20
-438.7234151146151
 10
177.4783477643044
 20
-436.6116353041127
 10
176.8900388288557
 20
-435.033489822486
 10
175.3008906251014
 20
-432.6441782966144
 10
171.6540660883351
 20
-428.3259324363064
 10
167.9052424746726
 20
-424.0896707919465
 10
162.8732637925926
 20
-417.6021207952997
 10
158.4188990538645
 20
-410.6894796083747
 10
154.6769767855561
 20
-403.3927079243894
 10
152.296349402137
 20
-397.6464516992343
 10
149.9753488028123
 20
-391.8549334069945
 10
147.3666415765981
 20
-386.2312489550983
 10
144.1228943125106
 20
-380.988494250974
 10
141.9251388791364
 20
-378.4041499651157
 10
139.3565714520946
 20
-376.1962105016881
 10
137.7320055438792
 20
-375.1719615907453
 10
135.9756170943511
 20
-374.4089868257894
 10
133.2836090887591
 20
-374.0703490330348
 10
129.7568100618324
 20
-374.6441424065099
 10
126.344120161523
 20
-375.7773897846636
 10
119.828079621827
 20
-378.5897442926861
 10
109.7292907988057
 20
-383.1864869177415
 10
103.7336870667173
 20
-385.3946884078846
 10
97.52587642157777
 20
-386.9497964454157
 10
91.20414298558882
 20
-387.5811842589119
 10
84.63553865980872
 20
-387.0992968545384
 10
78.21402605724753
 20
-385.6035475490944
 10
72.47577881586021
 20
-383.4033512490672
 10
66.99926640082104
 20
-380.5414218656038
 10
61.79458076312332
 20
-377.169759366509
 10
56.87181385376042
 20
-373.4403637195882
 10
54.596136175005
 20
-371.5846061930665
 10
52.23923595539218
 20
-369.8369383204219
 10
49.69347451038775
 20
-368.4268228881931
 10
47.34749139902063
 20
-367.8659847825595
 10
44.48131697783511
 20
-368.1373950508957
 10
42.22266328680814
 20
-368.8277054553635
 10
40.08849860911846
 20
-369.8440939692213
 10
38.12437766173238
 20
-371.1470496572834
 10
36.35158543817518
 20
-372.7024975723521
 10
32.77368196752357
 20
-376.9720434169075
 10
29.83098394708879
 20
-381.7348660748747
 10
27.28820797692878
 20
-386.7995668222501
 10
24.9100706571015
 20
-391.9747469350301
 10
22.46128858766491
 20
-397.0690076892111
 10
18.44512215743048
 20
-404.5437555815888
 10
14.06407537658011
 20
-411.8554691776469
 10
9.245893257194472
 20
-418.8722216893553
 10
3.91832081135432
 20
-425.4620863286839
 10
-1.99089694885969
 20
-431.4931363076025
  0
LWPOLYLINE
  5
3A6
330
A
100
AcDbEntity
  8
0
  6
PHANTOM
 62
     7
100
AcDbPolyline
 90
        4
 70
   128
 43
0.0
 10
-113.9416567022121
 20
-570.8447325522143
 10
-116.074680034535
 20
-567.973860211995
 10
-123.6013490551789
 20
-556.9724554680337
 10
-124.8745982414888
 20
-554.9244486796822
  0
LWPOLYLINE
  5
3AC
330
A
100
AcDbEntity
  8
0
  6
PHANTOM
 62
     7
100
AcDbPolyline
 90
        7
 70
   128
 43
0.0
 10
-137.9464277360723
 20
-494.3870808253893
 10
-137.5599168393268
 20
-493.1336745831233
 10
-134.7721736105475
 20
-486.6511169160758
 10
-129.4622077175075
 20
-476.8595077192389
 10
-123.6879890326796
 20
-467.3213497996391
 10
-120.0964377450076
 20
-461.6148558695901
 10
-118.2579947470079
 20
-459.0582345754452
  0
LWPOLYLINE
  5
3B5
330
A
100
AcDbEntity
  8
0
  6
PHANTOM
 62
     7
100
AcDbPolyline
 90
       41
 70
   128
 43
0.0
 10
-1.990896948859677
 20
-431.4931363076025
 10
-8.60670296414527
 20
-436.9718402601202
 10
-15.77499419127386
 20
-441.6992356982019
 10
-22.45262914456521
 20
-445.0780315996447
 10
-29.49678570804401
 20
-447.6743530335471
 10
-36.77466836859084
 20
-449.388910927924
 10
-44.68914061274184
 20
-450.2767797948011
 10
-52.67297413530911
 20
-450.4743470105728
 10
-60.68320647687928
 20
-450.2650457441599
 10
-68.67687517803891
 20
-449.9323091644833
 10
-75.76329951313137
 20
-449.7611827076038
 10
-82.84303059809412
 20
-449.9783286241813
 10
-87.27132512739379
 20
-450.4695827991043
 10
-91.64243389601745
 20
-451.3638686591894
 10
-95.86278153035374
 20
-452.7507658557077
 10
-100.5782771048542
 20
-455.1609106522067
 10
-104.757714599464
 20
-458.4019570974095
 10
-108.6595296703532
 20
-462.7479133698694
 10
-112.0530565089877
 20
-467.5415422809871
 10
-115.1651025306239
 20
-472.5242858584136
 10
-120.7028225459197
 20
-481.6406724772132
 10
-125.7874958815945
 20
-491.0043432773602
 10
-128.1104438633786
 20
-496.3759786454366
 10
-129.8651764652717
 20
-501.9696251945655
 10
-130.8425828886664
 20
-507.7140105655004
 10
-130.940742843519
 20
-512.9275935714095
 10
-130.3843183476674
 20
-518.137803303857
 10
-129.2896624369978
 20
-523.2508983297107
 10
-126.2507321284794
 20
-532.1645599377395
 10
-122.0205550948185
 20
-540.5812923374424
 10
-115.2021938267601
 20
-551.5420136756624
 10
-107.908226275558
 20
-562.2007294039778
 10
-100.2092089818541
 20
-572.5656108638157
 10
-96.85735532785741
 20
-576.1899477066715
 10
-92.90853171691829
 20
-579.1488655844667
 10
-87.62526945254627
 20
-581.7708983311464
 10
-82.01040621047464
 20
-583.6192843333424
 10
-73.71681043600666
 20
-585.2658893793078
 10
-65.29546309844464
 20
-586.1869531137662
 10
-58.19856352926472
 20
-586.8808893062154
 10
-51.17680588225725
 20
-588.0547162768891
  0
LWPOLYLINE
  5
3E0
330
A
100
AcDbEntity
  8
0
  6
PHANTOM
 62
     7
100
AcDbPolyline
 90
        8
 70
   128
 43
0.0
 10
153.4672570078948
 20
-653.6366080237099
 10
149.5609075020926
 20
-651.896352719904
 10
139.5064334258642
 20
-646.5501830525182
 10
129.7032814993024
 20
-640.7234800427728
 10
119.9009931704289
 20
-634.8964417778453
 10
109.8491098872654
 20
-629.5492663449132
 10
109.8490558595618
 20
-629.5492402942208
 10
109.8490558595618
 20
-629.5492402942208
  0
LWPOLYLINE
  5
3EA
330
A
100
AcDbEntity
  8
0
  6
PHANTOM
 62
     7
100
AcDbPolyline
 90
       45
 70
   128
 43
0.0
 10
114.1215623472576
 20
-620.607473003527
 10
124.1945805321551
 20
-625.9273602221333
 10
134.013878072032
 20
-631.7364016443156
 10
143.8299236721976
 20
-637.5522245570406
 10
153.8931860379608
 20
-642.8924562472748
 10
157.7998331026685
 20
-644.6467409863232
 10
161.842901397414
 20
-646.0352665207818
 10
163.9632304648703
 20
-646.5176408463865
 10
166.1125341358738
 20
-646.5807394195778
 10
166.4090522055108
 20
-646.5282056976806
 10
166.7644890269353
 20
-646.3850420953731
 10
167.7351688332105
 20
-645.531376071887
 10
169.2152255322579
 20
-643.5951994854689
 10
170.4402690437265
 20
-641.4779322695494
 10
173.1708382785793
 20
-635.6203208690271
 10
175.4225949868065
 20
-629.544455395105
 10
177.3924804239466
 20
-623.3714087279219
 10
180.3573494065434
 20
-612.0863152648833
 10
182.5320376863896
 20
-600.6000884415262
 10
184.0955102732421
 20
-588.9959815670662
 10
185.2267321768578
 20
-577.3572479507191
 10
185.5916817874866
 20
-570.6032710635348
 10
185.2343472962932
 20
-566.4323669486273
 10
184.1329997124898
 20
-563.7237763448402
 10
182.2148597366485
 20
-561.4406537362286
 10
179.9658526961597
 20
-559.4566947668156
 10
174.7079630294102
 20
-555.5297613385546
 10
169.3427526449589
 20
-551.670496100644
 10
164.090038846976
 20
-547.6349070654728
 10
159.1364308483011
 20
-543.2798603903173
 10
154.6685378617741
 20
-538.4622222324545
 10
150.9673345940122
 20
-533.1551176487931
 10
148.2138405031682
 20
-527.3116262961919
 10
146.6073922783141
 20
-521.0302153227003
 10
146.0919875502987
 20
-514.5581603859944
 10
146.4258082230605
 20
-509.0115149570123
 10
147.3893109094015
 20
-503.5183901060153
 10
148.9121747313167
 20
-498.1672239979197
 10
151.68774230857
 20
-491.5092944183789
 10
155.2245975522578
 20
-485.1852228879915
 10
159.277946906281
 20
-479.1874831085685
 10
162.6637990448651
 20
-474.5412390016406
 10
165.9346296539065
 20
-469.7901034619372
 10
168.8159429275612
 20
-464.8395030798302
 10
171.033243059985
 20
-459.5948644456917
  0
LWPOLYLINE
  5
419
330
A
100
AcDbEntity
  8
0
  6
PHANTOM
 62
     7
100
AcDbPolyline
 90
       51
 70
   128
 43
0.0
 10
-51.17680588225724
 20
-588.0547162768891
 10
-47.75906911071564
 20
-588.9800309352422
 10
-44.44274348319969
 20
-590.2140313278583
 10
-40.56903077095243
 20
-592.2568311037871
 10
-37.08679406678409
 20
-594.9034755848772
 10
-34.13113083085419
 20
-598.1418462422816
 10
-31.74203607766405
 20
-601.8240347627235
 10
-29.25817404246913
 20
-607.6130935203251
 10
-27.683215853504
 20
-613.7287374942205
 10
-26.50456037378242
 20
-622.3440999168348
 10
-26.0890078218751
 20
-631.0462686922748
 10
-26.15815931513966
 20
-639.7984170560881
 10
-26.43361597093366
 20
-648.5637182438225
 10
-26.63697890661468
 20
-657.3053454910258
 10
-26.43780631307133
 20
-669.0728701256611
 10
-26.0701234576777
 20
-673.7309846381553
 10
-25.38068662600416
 20
-678.3490896274908
 10
-24.59004166952098
 20
-681.6365476175918
 10
-23.40142334550879
 20
-684.7930713137211
 10
-22.52112581817077
 20
-686.3899691118318
 10
-21.39383474291176
 20
-687.8144956453726
 10
-19.98105049818613
 20
-688.9790005318648
 10
-18.38867487264856
 20
-689.8952146430511
 10
-14.20028823830632
 20
-691.4269040114605
 10
-9.807747639184599
 20
-692.3083229706422
 10
-1.294005996566552
 20
-693.0524639012709
 10
5.141227622061442
 20
-693.1054324110519
 10
11.53776853527298
 20
-692.5257164422533
 10
15.06381956106362
 20
-691.7600511689649
 10
18.44231547076844
 20
-690.5165376038382
 10
21.55925474851216
 20
-688.5934830987407
 10
24.24934595905549
 20
-686.0934883462583
 10
27.41444350365396
 20
-682.0017177447289
 10
30.07295816759596
 20
-677.5296354084481
 10
32.39174116246403
 20
-672.8737009272841
 10
36.57114061190642
 20
-663.2041209569113
 10
40.56913701617487
 20
-653.4522573243747
 10
45.03123616852641
 20
-643.9236327228841
 10
48.38890690239667
 20
-638.0738899551852
 10
52.22562338162788
 20
-632.5163125317252
 10
56.59192629836224
 20
-627.3929341554661
 10
62.01224539872224
 20
-622.4876603322599
 10
68.13430255255636
 20
-618.5111634703251
 10
72.60268879745059
 20
-616.5062160370585
 10
77.30222560386465
 20
-615.0575224835355
 10
82.12256005872021
 20
-614.1660550523844
 10
88.95750488585511
 20
-613.8290748612952
 10
95.77234422500231
 20
-614.4852399589209
 10
102.0628483947592
 20
-615.9291177649704
 10
108.1916554182889
 20
-618.02206354867
 10
114.1215623472576
 20
-620.607473003527
  0
LWPOLYLINE
  5
44E
330
A
100
AcDbEntity
  8
0
  6
PHANTOM
 62
     7
100
AcDbPolyline
 90
       19
 70
   128
 43
0.0
 10
109.8490218284334
 20
-629.5491813505774
 10
109.8489677972329
 20
-629.5491553074125
 10
104.7739393044872
 20
-627.3010602109077
 10
99.53095355052042
 20
-625.4630085119612
 10
94.14392059614582
 20
-624.188787937344
 10
88.75763829341902
 20
-623.6421850393932
 10
83.35188693559151
 20
-623.8876913059435
 10
77.88109037424177
 20
-625.0480346912739
 10
72.71480928377975
 20
-627.1715891131329
 10
67.93046950102317
 20
-630.3179942225985
 10
63.70410333953919
 20
-634.1962765733848
 10
59.95890881562776
 20
-638.6472182642511
 10
56.6787822834409
 20
-643.4749254783206
 10
53.80463002397518
 20
-648.5474256446051
 10
49.4407662573208
 20
-657.9582143479354
 10
45.53112641418902
 20
-667.5861451693833
 10
41.42830907051147
 20
-677.1282570951919
 10
38.65002483552498
 20
-682.6544644707334
 10
35.9231458122712
 20
-687.1609777791226
  0
LINE
  5
463
330
A
100
AcDbEntity
  8
0
  6
Continuous
 62
     7
100
AcDbLine
 10
807.1615696082272
 20
-144.875
 30
0.0
 11
807.1615696082272
 21
-139.875
 31
0.0
  0
LINE
  5
464
330
A
100
AcDbEntity
  8
0
  6
Continuous
 62
     7
100
AcDbLine
 10
547.1615696082271
 20
-139.875
 30
0.0
 11
547.1615696082271
 21
-144.875
 31
0.0
  0
LINE
  5
465
330
A
100
AcDbEntity
  8
0
  6
Continuous
 62
     7
100
AcDbLine
 10
800.1615696082271
 20
-159.875
 30
0.0
 11
800.1615696082271
 21
-144.875
 31
0.0
  0
LINE
  5
466
330
A
100
AcDbEntity
  8
0
  6
Continuous
 62
     7
100
AcDbLine
 10
554.1615696082272
 20
-144.875
 30
0.0
 11
554.1615696082272
 21
-159.875
 31
0.0
  0
LINE
  5
467
330
A
100
AcDbEntity
  8
0
  6
Continuous
 62
     7
100
AcDbLine
 10
797.1615696082271
 20
-161.075
 30
0.0
 11
797.1615696082271
 21
-159.875
 31
0.0
  0
LINE
  5
468
330
A
100
AcDbEntity
  8
0
  6
Continuous
 62
     7
100
AcDbLine
 10
557.1615696082272
 20
-159.875
 30
0.0
 11
557.1615696082272
 21
-161.075
 31
0.0
  0
LINE
  5
469
330
A
100
AcDbEntity
  8
0
  6
Continuous
 62
     7
100
AcDbLine
 10
672.1615696082269
 20
168.9250000000006
 30
0.0
 11
672.1615696082271
 21
-32.57108920524313
 31
0.0
  0
LINE
  5
46A
330
A
100
AcDbEntity
  8
0
  6
Continuous
 62
     7
100
AcDbLine
 10
682.1615696082272
 20
-32.57108920524418
 30
0.0
 11
682.1615696082269
 21
168.9250000000006
 31
0.0
  0
LINE
  5
46B
330
A
100
AcDbEntity
  8
0
  6
Continuous
 62
     7
100
AcDbLine
 10
720.551730651518
 20
168.9250000000005
 30
0.0
 11
681.3147051192982
 21
-37.01597502933767
 31
0.0
  0
LINE
  5
46C
330
A
100
AcDbEntity
  8
0
  6
Continuous
 62
     7
100
AcDbLine
 10
691.138001578938
 20
-38.88756437158764
 30
0.0
 11
730.7316127726429
 21
168.9250000000003
 31
0.0
  0
LWPOLYLINE
  5
46D
330
A
100
AcDbEntity
  8
0
  6
Continuous
 62
     7
100
AcDbPolyline
 90
        4
 70
   128
 43
0.0
 10
690.8218236460716
 20
-42.24900535396519
 10
690.8513618649615
 20
-41.21571646128213
 10
691.0809200845742
 20
-39.20262090979859
 10
691.138001578938
 20
-38.88756437158764
  0
LWPOLYLINE
  5
473
330
A
100
AcDbEntity
  8
0
  6
Continuous
 62
     7
100
AcDbPolyline
 90
        4
 70
   128
 43
0.0
 10
681.3147051192982
 20
-37.01597502933771
 10
681.0603421215228
 20
-38.59805898714214
 10
680.8342183793292
 20
-41.41459549358766
 10
680.8218236460715
 20
-42.24900535396525
  0
LINE
  5
479
330
A
100
AcDbEntity
  8
0
  6
Continuous
 62
     7
100
AcDbLine
 10
690.8218236460716
 20
-139.875
 30
0.0
 11
690.8218203107324
 21
-42.24900535396519
 31
0.0
  0
LINE
  5
47A
330
A
100
AcDbEntity
  8
0
  6
Continuous
 62
     7
100
AcDbLine
 10
680.8218238623033
 20
-42.24900535396519
 30
0.0
 11
680.8218236460715
 21
-139.875
 31
0.0
  0
LINE
  5
47B
330
A
100
AcDbEntity
  8
0
  6
Continuous
 62
     7
100
AcDbLine
 10
623.5915264438117
 20
168.9250000000008
 30
0.0
 11
663.1851376375163
 21
-38.88756437158764
 31
0.0
  0
LINE
  5
47C
330
A
100
AcDbEntity
  8
0
  6
Continuous
 62
     7
100
AcDbLine
 10
673.0084340971562
 20
-37.01597502933771
 30
0.0
 11
633.7714085649369
 21
168.9250000000008
 31
0.0
  0
LWPOLYLINE
  5
47D
330
A
100
AcDbEntity
  8
0
  6
Continuous
 62
     7
100
AcDbPolyline
 90
        4
 70
   128
 43
0.0
 10
673.5013155703828
 20
-42.24900535396525
 10
673.4554354737196
 20
-40.6442529904496
 10
673.1514395568648
 20
-37.83279541406376
 10
673.0084340971562
 20
-37.01597502933773
  0
LWPOLYLINE
  5
483
330
A
100
AcDbEntity
  8
0
  6
Continuous
 62
     7
100
AcDbPolyline
 90
        4
 70
   128
 43
0.0
 10
663.1851376375163
 20
-38.88756437158764
 10
663.3479932963637
 20
-39.9006201703131
 10
663.4984095953281
 20
-41.92473779412859
 10
663.5013155703829
 20
-42.24900535396519
  0
LINE
  5
489
330
A
100
AcDbEntity
  8
0
  6
Continuous
 62
     7
100
AcDbLine
 10
673.5013155703828
 20
-139.875
 30
0.0
 11
673.5013155287316
 21
-42.24900535396519
 31
0.0
  0
LINE
  5
48A
330
A
100
AcDbEntity
  8
0
  6
Continuous
 62
     7
100
AcDbLine
 10
663.5013161263116
 20
-42.24900535396519
 30
0.0
 11
663.5013155703829
 21
-139.875
 31
0.0
  0
ARC
  5
48B
330
A
100
AcDbEntity
  8
0
  6
Continuous
 62
     7
100
AcDbCircle
 10
677.1615696082271
 20
183.925
 30
0.0
 40
300.9999999999999
100
AcDbArc
 50
82.1712540677824
 51
97.82874593221762
  0
LINE
  5
48C
330
A
100
AcDbEntity
  8
0
  6
Continuous
 62
     7
100
AcDbLine
 10
636.1615696082268
 20
482.1195673549401
 30
0.0
 11
636.161569608227
 21
478.9250000000008
 31
0.0
  0
LINE
  5
48D
330
A
100
AcDbEntity
  8
0
  6
Continuous
 62
     7
100
AcDbLine
 10
718.1615696082271
 20
478.9250000000004
 30
0.0
 11
718.1615696082274
 21
482.1195673549401
 31
0.0
  0
LINE
  5
48E
330
A
100
AcDbEntity
  8
0
  6
Continuous
 62
     7
100
AcDbLine
 10
673.4115696082271
 20
168.9250000000006
 30
0.0
 11
673.4115696082271
 21
74.31261821662949
 31
0.0
  0
LINE
  5
48F
330
A
100
AcDbEntity
  8
0
  6
Continuous
 62
     7
100
AcDbLine
 10
680.9115696082272
 20
74.31261821662949
 30
0.0
 11
680.9115696082272
 21
168.9250000000006
 31
0.0
  0
LWPOLYLINE
  5
490
330
A
100
AcDbEntity
  8
0
  6
Continuous
 62
     7
100
AcDbPolyline
 90
       41
 70
   128
 43
0.0
 10
584.2877089217002
 20
431.5990330747599
 10
584.1152242986765
 20
431.5435578376009
 10
583.7622102295236
 20
430.7948411215057
 10
583.4101910339202
 20
429.3501198491089
 10
583.12681052965
 20
427.5933854503402
 10
582.8514170629264
 20
424.5774075013119
 10
582.7173726953836
 20
421.1043779312332
 10
582.6829049790148
 20
417.174296740104
 10
582.6878479915432
 20
413.9267957204429
 10
582.7007872488909
 20
410.3676220835531
 10
582.7117521103183
 20
406.3521649745124
 10
582.7190207908229
 20
401.8726725555598
 10
582.720690866243
 20
395.1781832926491
 10
582.7105224236336
 20
387.6587423676729
 10
582.6861286275931
 20
379.314349780631
 10
582.6465588627695
 20
370.2264816777852
 10
582.6168981995009
 20
364.6148787084224
 10
582.5885092927445
 20
359.716760013996
 10
582.5627421980023
 20
355.5321255945058
 10
582.5404429944774
 20
352.0609754499521
 10
582.5221382541122
 20
349.3033095803347
 10
582.5081256856699
 20
347.2491811250693
 10
582.4940868435308
 20
345.2426266149935
 10
582.4817335632181
 20
343.5166068288094
 10
582.4684914928779
 20
341.7036695941315
 10
582.4481935542197
 20
338.9892474672119
 10
582.4201132642644
 20
335.3436967120825
 10
582.3836172958023
 20
330.7670173287438
 10
582.3379643021779
 20
325.2592093171955
 10
582.2823210715447
 20
318.8202726774378
 10
582.2157818892669
 20
311.4502074094704
 10
582.1373904901365
 20
303.1490135132934
 10
582.0343113501847
 20
292.746240442165
 10
581.9137750809044
 20
281.1754596198106
 10
581.7745002129246
 20
268.4366710462301
 10
581.6153610154291
 20
254.5298747214235
 10
581.4354765314216
 20
239.4550706453909
 10
581.2380935698582
 20
223.5125514442438
 10
581.0201156362455
 20
206.443366602963
 10
580.7820321557877
 20
188.2475161215489
 10
580.5250313522288
 20
168.9250000000009
  0
LWPOLYLINE
  5
4BB
330
A
100
AcDbEntity
  8
0
  6
Continuous
 62
     7
100
AcDbPolyline
 90
       26
 70
   128
 43
0.0
 10
732.5270793502408
 20
168.9250000000004
 10
732.2856996638776
 20
183.1316965610108
 10
732.0865011719945
 20
196.3190409013915
 10
731.9261952856655
 20
208.4870330211423
 10
731.8007982338932
 20
219.6356729202634
 10
731.7059117927641
 20
229.7649605987544
 10
731.6369564116012
 20
238.874896056616
 10
731.5893630097425
 20
246.9654792938474
 10
731.5587291927816
 20
254.0367103104492
 10
731.5409451123171
 20
260.0885891064211
 10
731.5322936684647
 20
265.1211156817633
 10
731.5295292295947
 20
269.1342900364755
 10
731.5299688939152
 20
272.1792067703547
 10
731.5325391879971
 20
275.0906111613389
 10
731.5359408054913
 20
277.3024672604984
 10
731.540699584865
 20
279.5856167903557
 10
731.5494722391989
 20
283.0536375374911
 10
731.5629977552646
 20
287.7155586192813
 10
731.5789643308374
 20
292.51250005419
 10
731.5985409755469
 20
297.8422369776719
 10
731.6030219736252
 20
302.1405062269435
 10
731.5876061461519
 20
304.5376238386447
 10
731.5498095481856
 20
306.2262406001296
 10
731.4838815911929
 20
307.206356511398
 10
731.4385830467878
 20
307.4307266482011
 10
731.3971897530501
 20
307.4666408517365
  0
ARC
  5
4D7
330
A
100
AcDbEntity
  8
0
  6
Continuous
 62
     7
100
AcDbCircle
 10
592.6154739437293
 20
468.9250000000007
 30
0.0
 40
10.00000000000004
100
AcDbArc
 50
89.99660183816388
 51
90.0000045662488
  0
LWPOLYLINE
  5
4D8
330
A
100
AcDbEntity
  8
0
  6
Continuous
 62
     7
100
AcDbPolyline
 90
        9
 70
   128
 43
0.0
 10
581.9026164092994
 20
468.6641504621062
 10
582.0483106743677
 20
470.6453843234308
 10
582.5827705134514
 20
472.5587229658951
 10
583.4849033908581
 20
474.3286562002264
 10
584.719106500681
 20
475.8853333525512
 10
586.2366718367387
 20
477.1673199314522
 10
587.9777084611618
 20
478.1240221491549
 10
589.8735061090117
 20
478.7176836127589
 10
591.8492468489326
 20
478.9248753858043
  0
LWPOLYLINE
  5
4E3
330
A
100
AcDbEntity
  8
0
  6
Continuous
 62
     7
100
AcDbPolyline
 90
        9
 70
   128
 43
0.0
 10
835.2983490958557
 20
478.9249447388875
 10
837.3130086289744
 20
478.7130523388843
 10
839.243624877545
 20
478.0994711331935
 10
841.0109678877132
 20
477.1093816882009
 10
842.542508224775
 20
475.7834159736709
 10
843.7753934858665
 20
474.1759898801
 10
844.6590276799842
 20
472.3530700620794
 10
845.1571476209693
 20
470.3894667534752
 10
845.249311121014
 20
468.3657636537374
  0
LWPOLYLINE
  5
4EE
330
A
100
AcDbEntity
  8
0
  6
Continuous
 62
     7
100
AcDbPolyline
 90
       41
 70
   128
 43
0.0
 10
831.9464693497684
 20
168.9249999999998
 10
832.6107664359463
 20
184.9005515216973
 10
833.2297904712309
 20
199.7454026918314
 10
833.8033271855831
 20
213.4595535100685
 10
834.3311212643326
 20
226.0430039764087
 10
834.8128873623682
 20
237.4957540908522
 10
835.2483209301029
 20
247.8178038533986
 10
835.6371087039084
 20
257.0091532640482
 10
835.9789387254695
 20
265.069802322801
 10
836.2735097662564
 20
271.999751029657
 10
836.5205400450644
 20
277.7989993846159
 10
836.7079843757975
 20
282.1914881984218
 10
836.8586912835734
 20
285.7177650791888
 10
837.0167906621203
 20
289.4118392025472
 10
837.1926034374038
 20
293.5136969444489
 10
837.3862129880253
 20
298.0233383048938
 10
837.5977177801743
 20
302.9407632838819
 10
837.9665275337568
 20
311.4920347454707
 10
838.3803981411357
 20
321.0502820814213
 10
838.8400892804677
 20
331.6155052917336
 10
839.2687808346337
 20
341.4147838583784
 10
839.7059331653705
 20
351.3492935624167
 10
840.1166608607519
 20
360.6252693872051
 10
840.5004969748548
 20
369.2387809964541
 10
840.8571162827072
 20
377.1898283901635
 10
841.1861752959113
 20
384.4784115683333
 10
841.4873008085777
 20
391.1045305309638
 10
841.760092040057
 20
397.0681852780546
 10
841.959393446959
 20
401.4001115480072
 10
842.1440928564505
 20
405.3945036759704
 10
842.3140280762
 20
409.0515367494495
 10
842.4799797281574
 20
412.6052777717938
 10
842.6549736146455
 20
416.3329080480624
 10
842.8054138145727
 20
419.5206911450121
 10
843.009221788103
 20
423.8136883136979
 10
843.26765914687
 20
429.21189955412
 10
843.5826625851499
 20
435.7153248662782
 10
843.9571317192877
 20
443.3239642501727
 10
844.3952666037715
 20
452.0378177058035
 10
844.902944029955
 20
461.8568852331705
 10
845.2531234120911
 20
468.3941674210467
  0
LWPOLYLINE
  5
519
330
A
100
AcDbEntity
  8
0
  6
Continuous
 62
     7
100
AcDbPolyline
 90
        9
 70
   128
 43
0.0
 10
499.9895633258593
 20
468.971496334757
 10
499.8025811299716
 20
429.4752340176527
 10
499.608048059306
 20
388.4759547589757
 10
499.4189644520671
 20
348.7359479189666
 10
499.2358325597331
 20
310.2552134976253
 10
499.0597522435407
 20
273.0337514949519
 10
498.8924142790378
 20
237.0715619109463
 10
498.7360469477518
 20
202.3686447456086
 10
498.5932976758451
 20
168.9250000000008
  0
LWPOLYLINE
  5
524
330
A
100
AcDbEntity
  8
0
  6
Continuous
 62
     7
100
AcDbPolyline
 90
       12
 70
   128
 43
0.0
 10
499.1603817999319
 20
294.3057442455125
 10
498.9280103262375
 20
290.1339932910303
 10
498.128257315708
 20
276.250038318562
 10
497.6788172724815
 20
268.628803421915
 10
497.1572996402186
 20
259.9248886491618
 10
496.5591952817281
 20
250.1034737530605
 10
495.8821926964916
 20
239.164558733611
 10
495.1241683611104
 20
227.1081435908132
 10
494.2987755555432
 20
214.1792763183842
 10
493.3913541242956
 20
200.1724632955955
 10
492.400305439145
 20
185.087704522447
 10
491.3242950210064
 20
168.9250000000008
  0
LWPOLYLINE
  5
532
330
A
100
AcDbEntity
  8
0
  6
Continuous
 62
     7
100
AcDbPolyline
 90
        9
 70
   128
 43
0.0
 10
499.9913303116549
 20
468.9680157033128
 10
500.1900866723255
 20
470.9094021338813
 10
500.7620786887192
 20
472.7752127325596
 10
501.6855220804546
 20
474.494388218702
 10
502.9252475633719
 20
476.0014539008067
 10
504.434040269533
 20
477.2390132760717
 10
506.1544379225315
 20
478.1599339726339
 10
508.0209192847173
 20
478.7291427830225
 10
509.9623995294582
 20
478.9249614250834
  0
LWPOLYLINE
  5
53D
330
A
100
AcDbEntity
  8
0
  6
Continuous
 62
     7
100
AcDbPolyline
 90
        3
 70
   128
 43
0.0
 10
835.8832782405698
 20
168.9249999999997
 10
833.939560057108
 20
179.1710699094719
 10
832.6558720176501
 20
185.9822310836664
  0
LINE
  5
542
330
A
100
AcDbEntity
  8
0
  6
Continuous
 62
     7
100
AcDbLine
 10
807.1615696082272
 20
-144.875
 30
0.0
 11
547.1615696082271
 21
-144.875
 31
0.0
  0
LINE
  5
543
330
A
100
AcDbEntity
  8
0
  6
Continuous
 62
     7
100
AcDbLine
 10
807.1615696082272
 20
-139.875
 30
0.0
 11
547.1615696082271
 21
-139.875
 31
0.0
  0
LINE
  5
544
330
A
100
AcDbEntity
  8
0
  6
Continuous
 62
     7
100
AcDbLine
 10
800.1615696082271
 20
-159.875
 30
0.0
 11
554.1615696082272
 21
-159.875
 31
0.0
  0
LINE
  5
545
330
A
100
AcDbEntity
  8
0
  6
Continuous
 62
     7
100
AcDbLine
 10
797.1615696082271
 20
-161.075
 30
0.0
 11
557.1615696082272
 21
-161.075
 31
0.0
  0
LINE
  5
546
330
A
100
AcDbEntity
  8
0
  6
Continuous
 62
     7
100
AcDbLine
 10
677.1615696082273
 20
482.1195673549401
 30
0.0
 11
718.1615696082274
 21
482.1195673549401
 31
0.0
  0
LINE
  5
547
330
A
100
AcDbEntity
  8
0
  6
Continuous
 62
     7
100
AcDbLine
 10
636.1615696082268
 20
482.1195673549401
 30
0.0
 11
677.1615696082273
 21
482.1195673549401
 31
0.0
  0
LINE
  5
548
330
A
100
AcDbEntity
  8
0
  6
Continuous
 62
     7
100
AcDbLine
 10
680.9115696082272
 20
74.31261821662949
 30
0.0
 11
673.4115696082271
 21
74.31261821662949
 31
0.0
  0
LINE
  5
549
330
A
100
AcDbEntity
  8
0
  6
Continuous
 62
     7
100
AcDbLine
 10
566.2617510569453
 20
468.68993809379
 30
0.0
 11
572.514381774325
 21
168.9250000000008
 31
0.0
  0
LINE
  5
54A
330
A
100
AcDbEntity
  8
0
  6
Continuous
 62
     7
100
AcDbLine
 10
566.2617499579702
 20
468.6899907810846
 30
0.0
 11
566.2617510569453
 21
468.68993809379
 31
0.0
  0
LWPOLYLINE
  5
54B
330
A
100
AcDbEntity
  8
0
  6
Continuous
 62
     7
100
AcDbPolyline
 90
        6
 70
   128
 43
0.0
 10
581.9217833967395
 20
468.6651774197818
 10
581.9002039080054
 20
468.6509322729911
 10
582.081286691895
 20
468.5224429330348
 10
582.4145689011861
 20
468.392434745132
 10
582.6523511532306
 20
468.2576789244002
 10
582.6198887838046
 20
468.2337845430197
  0
LINE
  5
553
330
A
100
AcDbEntity
  8
0
  6
Continuous
 62
     7
100
AcDbLine
 10
739.9034333581671
 20
468.0883504018149
 30
0.0
 11
739.9035331403825
 21
468.0899688529532
 31
0.0
  0
LINE
  5
554
330
A
100
AcDbEntity
  8
0
  6
Continuous
 62
     7
100
AcDbLine
 10
739.9034333581671
 20
468.0883504018149
 30
0.0
 11
721.4591435112143
 21
168.9250000000004
 31
0.0
  0
LINE
  5
555
330
A
100
AcDbEntity
  8
0
  6
Continuous
 62
     7
100
AcDbLine
 10
580.6089497570046
 20
168.9250000000008
 30
0.0
 11
732.5287513780286
 21
168.9250000000004
 31
0.0
  0
LINE
  5
556
330
A
100
AcDbEntity
  8
0
  6
Continuous
 62
     7
100
AcDbLine
 10
580.5250313522288
 20
168.9250000000006
 30
0.0
 11
572.514381774325
 21
168.9250000000008
 31
0.0
  0
LWPOLYLINE
  5
557
330
A
100
AcDbEntity
  8
0
  6
Continuous
 62
     7
100
AcDbPolyline
 90
        7
 70
   128
 43
0.0
 10
566.2617500512929
 20
468.689990778467
 10
566.6196254642689
 20
472.0123799362948
 10
567.7675222601991
 20
474.9866904248691
 10
569.5760238226283
 20
477.2775915119133
 10
571.841235516773
 20
478.6268015305065
 10
573.1331012870297
 20
478.9025083661544
 10
573.6269399080818
 20
478.9250000000008
  0
LINE
  5
560
330
A
100
AcDbEntity
  8
0
  6
Continuous
 62
     7
100
AcDbLine
 10
573.6269399080611
 20
478.9250000000008
 30
0.0
 11
591.6859806886577
 21
478.9250000000009
 31
0.0
  0
LINE
  5
561
330
A
100
AcDbEntity
  8
0
  6
Continuous
 62
     7
100
AcDbLine
 10
591.9204291605733
 20
478.9250000000008
 30
0.0
 11
730.1885198773478
 21
478.9250000000001
 31
0.0
  0
LWPOLYLINE
  5
562
330
A
100
AcDbEntity
  8
0
  6
Continuous
 62
     7
100
AcDbPolyline
 90
        7
 70
   128
 43
0.0
 10
730.1885198773478
 20
478.9250000000001
 10
730.6468663338801
 20
478.913942145876
 10
733.1153675850831
 20
478.4637064805459
 10
736.0285171459287
 20
476.9322603824909
 10
738.2832510880164
 20
474.4980573828353
 10
739.6253662035916
 20
471.4355350101787
 10
739.9035331403825
 20
468.0899688529532
  0
LWPOLYLINE
  5
56B
330
A
100
AcDbEntity
  8
0
  6
Continuous
 62
     7
100
AcDbPolyline
 90
       11
 70
   128
 43
0.0
 10
762.7412766039851
 20
478.925
 10
763.6887378579123
 20
478.8697153443155
 10
764.9102106672972
 20
478.6317853567789
 10
765.8176523668573
 20
478.325805315871
 10
766.9460051011011
 20
477.7728108465907
 10
767.9319078970231
 20
477.1046091995782
 10
768.6457744780026
 20
476.4865621722046
 10
769.4131518792658
 20
475.6572354366813
 10
770.0968714475259
 20
474.7165826666671
 10
770.6732705651002
 20
473.6914290127243
 10
771.6829849510355
 20
470.2633758582762
  0
LINE
  5
578
330
A
100
AcDbEntity
  8
0
  6
Continuous
 62
     7
100
AcDbLine
 10
845.1927941755597
 20
468.3974520822673
 30
0.0
 11
845.184844422029
 21
468.3701772738944
 31
0.0
  0
LINE
  5
579
330
A
100
AcDbEntity
  8
0
  6
Continuous
 62
     7
100
AcDbLine
 10
730.1885198773478
 20
478.9250000000001
 30
0.0
 11
835.2153541996488
 21
478.9249999999999
 31
0.0
  0
LINE
  5
57A
330
A
100
AcDbEntity
  8
0
  6
Continuous
 62
     7
100
AcDbLine
 10
832.2841820410841
 20
177.0465868801814
 30
0.0
 11
833.9627281056705
 21
168.9249999999998
 31
0.0
  0
LINE
  5
57B
330
A
100
AcDbEntity
  8
0
  6
Continuous
 62
     7
100
AcDbLine
 10
833.9627281056706
 20
168.9249999999996
 30
0.0
 11
831.9464693497684
 21
168.9249999999997
 31
0.0
  0
LINE
  5
57C
330
A
100
AcDbEntity
  8
0
  6
Continuous
 62
     7
100
AcDbLine
 10
831.853118301119
 20
168.9249999999999
 30
0.0
 11
732.5270793502408
 21
168.9250000000003
 31
0.0
  0
LINE
  5
57D
330
A
100
AcDbEntity
  8
0
  6
Continuous
 62
     7
100
AcDbLine
 10
500.0399680053353
 20
468.966461051215
 30
0.0
 11
500.0359041542488
 21
468.9713302042731
 31
0.0
  0
LINE
  5
57E
330
A
100
AcDbEntity
  8
0
  6
Continuous
 62
     7
100
AcDbLine
 10
572.514381774325
 20
168.9250000000008
 30
0.0
 11
498.5645265830235
 21
168.9250000000009
 31
0.0
  0
LINE
  5
57F
330
A
100
AcDbEntity
  8
0
  6
Continuous
 62
     7
100
AcDbLine
 10
498.5932976758451
 20
168.9250000000007
 30
0.0
 11
491.4272589407368
 21
168.9250000000006
 31
0.0
  0
LINE
  5
580
330
A
100
AcDbEntity
  8
0
  6
Continuous
 62
     7
100
AcDbLine
 10
510.0525442662513
 20
478.9250000000008
 30
0.0
 11
573.6269399080611
 21
478.9250000000008
 31
0.0
  0
LINE
  5
581
330
A
100
AcDbEntity
  8
0
  6
Continuous
 62
     7
100
AcDbLine
 10
833.9627281056706
 20
168.9249999999997
 30
0.0
 11
835.8866994552595
 21
168.9249999999996
 31
0.0
  0
LWPOLYLINE
  5
582
330
A
100
AcDbEntity
  8
0
  6
PHANTOM
 62
     7
100
AcDbPolyline
 90
        9
 70
   128
 43
0.0
 10
673.0013784788333
 20
-37.35583088798533
 10
673.283013154705
 20
-37.27378629674927
 10
674.2781679976529
 20
-37.07409166244203
 10
675.4871715473722
 20
-36.93949039310488
 10
676.8203575414038
 20
-36.8799652491248
 10
678.1788496734904
 20
-36.8999309381213
 10
679.4618947968829
 20
-36.99790669627854
 10
680.5743353243205
 20
-37.16662610982321
 10
681.3169680668663
 20
-37.35428920197975
  0
LINE
  5
58D
330
A
100
AcDbEntity
  8
0
  6
PHANTOM
 62
     7
100
AcDbLine
 10
672.1615696082271
 20
-42.24900535396519
 30
0.0
 11
682.1615696082272
 21
-42.24900535396519
 31
0.0
  0
LWPOLYLINE
  5
58E
330
A
100
AcDbEntity
  8
0
  6
PHANTOM
 62
     7
100
AcDbPolyline
 90
        9
 70
   128
 43
0.0
 10
683.7263533491181
 20
-37.95176970046266
 10
684.9600292172238
 20
-38.2416147765166
 10
686.2876225531448
 20
-38.50996336923265
 10
687.6106718324909
 20
-38.73691329110213
 10
688.8310525427611
 20
-38.90563270464681
 10
689.8582546295446
 20
-39.00360846280404
 10
690.6160952132018
 20
-39.02357415180058
 10
691.0483687245325
 20
-38.96404900782047
 10
691.138001578938
 20
-38.88756437158764
  0
LWPOLYLINE
  5
599
330
A
100
AcDbEntity
  8
0
  6
PHANTOM
 62
     7
100
AcDbPolyline
 90
        5
 70
   128
 43
0.0
 10
681.3147051192982
 20
-37.01597502933767
 10
681.4292691496521
 20
-37.16662610982321
 10
681.8929871223591
 20
-37.39357603169269
 10
682.6780910442735
 20
-37.66192462440873
 10
683.7263533491181
 20
-37.95176970046266
  0
LINE
  5
5A0
330
A
100
AcDbEntity
  8
0
  6
PHANTOM
 62
     7
100
AcDbLine
 10
683.3218236460716
 20
-42.24900535396519
 30
0.0
 11
690.8218203107324
 21
-42.24900535396519
 31
0.0
  0
LINE
  5
5A1
330
A
100
AcDbEntity
  8
0
  6
PHANTOM
 62
     7
100
AcDbLine
 10
680.8218238623033
 20
-42.24900535396519
 30
0.0
 11
683.3218236460716
 21
-42.24900535396519
 31
0.0
  0
LWPOLYLINE
  5
5A2
330
A
100
AcDbEntity
  8
0
  6
PHANTOM
 62
     7
100
AcDbPolyline
 90
       14
 70
   128
 43
0.0
 10
663.1851376375163
 20
-38.88756437158764
 10
663.1917614850375
 20
-38.90563270464681
 10
663.4476045216466
 20
-39.00360846280404
 10
664.048256070076
 20
-39.02357415180058
 10
664.9491685527769
 20
-38.96404900782047
 10
666.0835254123074
 20
-38.82944773848332
 10
667.3671965897337
 20
-38.62975310417605
 10
668.7049780662309
 20
-38.37977554238303
 10
669.9976527096303
 20
-38.09805474529126
 10
671.1493487552241
 20
-37.80548465563408
 10
672.074650175969
 20
-37.52376385854228
 10
672.704931598461
 20
-37.27378629674927
 10
672.9934479329395
 20
-37.07409166244203
 10
673.0084340971562
 20
-37.01597502933771
  0
LINE
  5
5B2
330
A
100
AcDbEntity
  8
0
  6
PHANTOM
 62
     7
100
AcDbLine
 10
663.5013161263116
 20
-42.24900535396519
 30
0.0
 11
673.5013155287316
 21
-42.24900535396519
 31
0.0
  0
LWPOLYLINE
  5
5B3
330
A
100
AcDbEntity
  8
0
  6
PHANTOM
 62
     7
100
AcDbPolyline
 90
       34
 70
   128
 43
0.0
 10
739.9035331403825
 20
468.0899688529532
 10
739.9035199827217
 20
468.0899705725495
 10
738.8699502216293
 20
468.2326116810489
 10
738.2643055526001
 20
468.3144788428343
 10
737.2339198997442
 20
468.387650940103
 10
735.4026171058213
 20
468.4604395122501
 10
733.0883771017554
 20
468.5340189890133
 10
729.8122408743065
 20
468.6058186641714
 10
725.7635361501314
 20
468.6610929590544
 10
720.8031838065477
 20
468.7348930775224
 10
710.1076638124541
 20
468.9391215204484
 10
699.1062590684927
 20
469.0316975922739
 10
687.7960266936487
 20
468.8201944440778
 10
681.4403534767238
 20
468.6307372566232
 10
674.7912609033527
 20
468.5284104360973
 10
667.9283362532268
 20
468.5204389407002
 10
661.6844273280928
 20
468.5828213734804
 10
655.3212469143665
 20
468.6939814375381
 10
648.9558941753832
 20
468.8504321038207
 10
642.0227757666736
 20
469.0785856884886
 10
635.2674781835823
 20
469.3189417857183
 10
628.7849205165348
 20
469.4950757443317
 10
618.9933113196978
 20
469.5743294172769
 10
609.4551534000981
 20
469.4633883741154
 10
603.748659470049
 20
469.3307821295139
 10
598.2747451719635
 20
469.199136497471
 10
593.3007777186814
 20
469.1200597919931
 10
590.2437029746157
 20
469.1132923043316
 10
587.6707439039773
 20
469.1216713245193
 10
585.6151351717594
 20
469.1124758048612
 10
583.889045456563
 20
469.047118136902
 10
582.7585490710617
 20
468.9363254538216
 10
582.1387829167986
 20
468.8084240951254
 10
581.9217833967395
 20
468.6651774197818
  0
LWPOLYLINE
  5
5D7
330
A
100
AcDbEntity
  8
0
  6
PHANTOM
 62
     7
100
AcDbPolyline
 90
       10
 70
   128
 43
0.0
 10
582.6198887838046
 20
468.2337845430197
 10
582.5080793650044
 20
468.1514856553538
 10
581.695199453484
 20
468.1071651225068
 10
580.2454613871908
 20
468.1497549699476
 10
578.0464665277528
 20
468.255444216271
 10
575.192933678154
 20
468.3853667105022
 10
571.0544492558073
 20
468.5406776711672
 10
566.2617905643375
 20
468.6899896421789
 10
566.2617499579702
 20
468.6899907810846
 10
566.2617499579702
 20
468.6899907810846
  0
LWPOLYLINE
  5
5E3
330
A
100
AcDbEntity
  8
0
  6
PHANTOM
 62
     7
100
AcDbPolyline
 90
        7
 70
   128
 43
0.0
 10
771.6829849510355
 20
470.2633758582764
 10
771.6829589078707
 20
470.2633774019524
 10
769.4348638113658
 20
470.4109707658413
 10
767.5968121124194
 20
470.5630994029838
 10
766.3225915378022
 20
470.7108872068031
 10
765.7759886398515
 20
470.836110944558
 10
765.8211328455307
 20
470.8514683793981
  0
LWPOLYLINE
  5
5EC
330
A
100
AcDbEntity
  8
0
  6
PHANTOM
 62
     7
100
AcDbPolyline
 90
       29
 70
   128
 43
0.0
 10
845.184844422029
 20
468.3701772738944
 10
845.1582493573937
 20
468.2789322700331
 10
844.8593931497834
 20
468.1439932314383
 10
844.2848921875018
 20
467.9834099119593
 10
843.0344131898104
 20
467.7442038398565
 10
840.9035775293336
 20
467.4659060360511
 10
839.1082836243951
 20
467.2978919372944
 10
836.843622491337
 20
467.1605661807478
 10
834.1496055334713
 20
467.0874413684596
 10
831.1340439509955
 20
467.0669245982021
 10
826.8414616786962
 20
467.0796040615858
 10
822.3712713283532
 20
467.1104754552246
 10
817.0789158139518
 20
467.1496489586506
 10
811.7401742235347
 20
467.187393347253
 10
799.354868783759
 20
467.258299592409
 10
791.0065959884716
 20
467.308788664091
 10
782.6353001074893
 20
467.3584053472946
 10
774.2765258315366
 20
467.4047996314505
 10
765.9658178513382
 20
467.4456215059891
 10
757.7387208576183
 20
467.4785209603411
 10
753.0937184561102
 20
467.4979289101852
 10
748.6984613378254
 20
467.5412799334203
 10
746.3869105831588
 20
467.5911900255978
 10
744.3578715250719
 20
467.6754410595988
 10
742.7271887184826
 20
467.791159971073
 10
741.4739053687758
 20
467.9099993438711
 10
739.9034466296529
 20
468.0883487746563
 10
739.9034333581671
 20
468.0883504018149
 10
739.9034333581671
 20
468.0883504018149
  0
LWPOLYLINE
  5
60B
330
A
100
AcDbEntity
  8
0
  6
PHANTOM
 62
     7
100
AcDbPolyline
 90
       18
 70
   128
 43
0.0
 10
566.2617510569453
 20
468.68993809379
 10
566.2617104953337
 20
468.68993917592
 10
560.7241615066905
 20
468.8102605283594
 10
554.6643655781828
 20
468.8817793861018
 10
548.2108075777993
 20
468.8892038913112
 10
541.4919723735294
 20
468.8172421861509
 10
534.6363448333618
 20
468.6506024127847
 10
529.0021756522398
 20
468.4874710953965
 10
523.3023539238651
 20
468.3633976632738
 10
517.7320978917811
 20
468.2975894647505
 10
512.4866257995312
 20
468.3092538481604
 10
507.7611558906587
 20
468.4175981618371
 10
505.317059494749
 20
468.5262600900073
 10
503.2703922257928
 20
468.6440269855744
 10
501.6211047429215
 20
468.75738081964
 10
500.503854041017
 20
468.8574975198638
 10
500.0749993908717
 20
468.9244877666671
 10
500.0399680053353
 20
468.966461051215
  0
ENDSEC
  0
SECTION
  2
OBJECTS
  0
DICTIONARY
  5
19
330
0
100
AcDbDictionary
281
     1
  3
ACAD_COLOR
350
623
  3
ACAD_GROUP
350
1A
  3
ACAD_LAYOUT
350
624
  3
ACAD_MATERIAL
350
622
  3
ACAD_MLINESTYLE
350
1B
  3
ACAD_PLOTSETTINGS
350
625
  3
ACAD_PLOTSTYLENAME
350
620
  3
ACDBHEADERROUNDTRIPXREC
350
63D
  3
AcDbVariableDictionary
350
636
  3
ASE_INDEX_DICTIONARY
350
62B
  0
DICTIONARY
  5
623
102
{ACAD_REACTORS
330
19
102
}
330
19
100
AcDbDictionary
281
     1
  0
DICTIONARY
  5
1A
102
{ACAD_REACTORS
330
19
102
}
330
19
100
AcDbDictionary
281
     1
  0
DICTIONARY
  5
624
102
{ACAD_REACTORS
330
19
102
}
330
19
100
AcDbDictionary
281
     1
  3
Layout1
350
627
  3
Model
350
626
  0
DICTIONARY
  5
622
102
{ACAD_REACTORS
330
19
102
}
330
19
100
AcDbDictionary
281
     1
  0
DICTIONARY
  5
1B
102
{ACAD_REACTORS
330
19
102
}
330
19
100
AcDbDictionary
281
     1
  3
STANDARD
350
1C
  0
DICTIONARY
  5
625
102
{ACAD_REACTORS
330
19
102
}
330
19
100
AcDbDictionary
281
     1
  0
ACDBDICTIONARYWDFLT
  5
620
102
{ACAD_REACTORS
330
19
102
}
330
19
100
AcDbDictionary
281
     1
  3
Normal
350
621
100
AcDbDictionaryWithDefault
340
621
  0
DICTIONARY
  5
63D
102
{ACAD_REACTORS
330
19
102
}
330
19
100
AcDbDictionary
281
     1
  3
COLORDICT
350
63F
  3
MATERIALDICT
350
63E
  0
DICTIONARY
  5
636
102
{ACAD_REACTORS
330
19
102
}
330
19
100
AcDbDictionary
281
     1
  3
DIMASSOC
350
637
  3
PROJECTNAME
350
638
  0
DICTIONARY
  5
62B
102
{ACAD_REACTORS
330
19
102
}
330
19
100
AcDbDictionary
281
     1
  3
ASEBlockHierarchyIndexRecord
350
62D
1001
DCO15
1040
1521898702.265
  0
LAYOUT
  5
627
102
{ACAD_XDICTIONARY
360
642
102
}
102
{ACAD_REACTORS
330
624
102
}
330
624
100
AcDbPlotSettings
  1

  2
ProgeSOFT PDF Wizard
  4

  6

 40
0.0
 41
0.0
 42
0.0
 43
0.0
 44
0.0
 45
0.0
 46
0.0
 47
0.0
 48
0.0
 49
0.0
140
0.0
141
0.0
142
1.0
143
1.0
 70
   688
 72
     0
 73
     0
 74
     5
  7

 75
    16
147
1.0
148
0.0
149
0.0
100
AcDbLayout
  1
Layout1
 70
     1
 71
     1
 10
0.0
 20
0.0
 11
12.0
 21
9.0
 12
0.0
 22
0.0
 32
0.0
 14
1.000000000000000E+20
 24
1.000000000000000E+20
 34
1.000000000000000E+20
 15
-1.000000000000000E+20
 25
-1.000000000000000E+20
 35
-1.000000000000000E+20
146
0.0
 13
0.0
 23
0.0
 33
0.0
 16
1.0
 26
0.0
 36
0.0
 17
0.0
 27
1.0
 37
0.0
 76
     0
330
B
  0
LAYOUT
  5
626
102
{ACAD_XDICTIONARY
360
640
102
}
102
{ACAD_REACTORS
330
624
102
}
330
624
100
AcDbPlotSettings
  1

  2
ProgeSOFT PDF Wizard
  4

  6

 40
0.0
 41
0.0
 42
0.0
 43
0.0
 44
0.0
 45
0.0
 46
0.0
 47
0.0
 48
0.0
 49
0.0
140
0.0
141
0.0
142
1.0
143
1.0
 70
  1712
 72
     0
 73
     0
 74
     0
  7

 75
     0
147
1.0
148
0.0
149
0.0
100
AcDbLayout
  1
Model
 70
     1
 71
     0
 10
0.0
 20
0.0
 11
12.0
 21
9.0
 12
0.0
 22
0.0
 32
0.0
 14
0.0
 24
0.0
 34
0.0
 15
0.0
 25
0.0
 35
0.0
146
0.0
 13
0.0
 23
0.0
 33
0.0
 16
1.0
 26
0.0
 36
0.0
 17
0.0
 27
1.0
 37
0.0
 76
     0
330
A
  0
MLINESTYLE
  5
1C
102
{ACAD_REACTORS
330
1B
102
}
330
1B
100
AcDbMlineStyle
  2
STANDARD
 70
     0
  3

 62
     0
 51
90.0
 52
90.0
 71
     2
 49
0.5
 62
   256
  6
BYLAYER
 49
-0.5
 62
   256
  6
BYLAYER
  0
ACDBPLACEHOLDER
  5
621
102
{ACAD_REACTORS
330
620
102
}
330
620
  0
XRECORD
  5
63F
102
{ACAD_REACTORS
330
63D
102
}
330
63D
100
AcDbXrecord
280
     1
340
623
  0
XRECORD
  5
63E
102
{ACAD_REACTORS
330
63D
102
}
330
63D
100
AcDbXrecord
280
     1
340
622
  0
DICTIONARYVAR
  5
637
102
{ACAD_REACTORS
330
636
102
}
330
636
100
DictionaryVariables
280
     0
  1
1
  0
DICTIONARYVAR
  5
638
102
{ACAD_REACTORS
330
636
102
}
330
636
100
DictionaryVariables
280
     0
  1

  0
XRECORD
  5
62D
102
{ACAD_REACTORS
330
62B
102
}
330
62B
100
AcDbXrecord
280
     1
  0
DICTIONARY
  5
642
330
627
100
AcDbDictionary
280
     1
281
     1
  3
ACAD_XREC_ROUNDTRIP
360
643
  0
DICTIONARY
  5
640
330
626
100
AcDbDictionary
280
     1
281
     1
  3
ACAD_XREC_ROUNDTRIP
360
641
  0
XRECORD
  5
643
102
{ACAD_REACTORS
330
642
102
}
330
642
100
AcDbXrecord
280
     1
102
SHADEPLOT
 70
     0
102
SHADEPLOTRESLEVEL
 70
     2
102
SHADEPLOTCUSTOMDPI
 70
   300
  0
XRECORD
  5
641
102
{ACAD_REACTORS
330
640
102
}
330
640
100
AcDbXrecord
280
     1
102
SHADEPLOT
 70
     0
102
SHADEPLOTRESLEVEL
 70
     2
102
SHADEPLOTCUSTOMDPI
 70
   300
  0
ENDSEC
  0
EOF
