  0
SECTION
  2
HEADER
  9
$ACADVER
  1
AC1018
  9
$ACADMAINTVER
 70
     0
  9
$DWGCODEPAGE
  3
ANSI_1252
  9
$INSBASE
 10
0.0
 20
0.0
 30
0.0
  9
$EXTMIN
 10
2772.323974953065
 20
522.3908290862462
 30
0.0
  9
$EXTMAX
 10
3404.135956973049
 20
1447.2606580927
 30
0.0
  9
$LIMMIN
 10
0.0
 20
0.0
  9
$LIMMAX
 10
12.0
 20
9.0
  9
$ORTHOMODE
 70
     0
  9
$REGENMODE
 70
     1
  9
$FILLMODE
 70
     1
  9
$QTEXTMODE
 70
     0
  9
$MIRRTEXT
 70
     1
  9
$LTSCALE
 40
1.0
  9
$ATTMODE
 70
     1
  9
$TEXTSIZE
 40
0.2
  9
$TRACEWID
 40
0.05
  9
$TEXTSTYLE
  7
Standard
  9
$CLAYER
  8
testa
  9
$CELTYPE
  6
ByLayer
  9
$CECOLOR
 62
   256
  9
$CELTSCALE
 40
1.0
  9
$DISPSILH
 70
     0
  9
$DIMSCALE
 40
1.0
  9
$DIMASZ
 40
0.18
  9
$DIMEXO
 40
0.0625
  9
$DIMDLI
 40
0.38
  9
$DIMRND
 40
0.0
  9
$DIMDLE
 40
0.0
  9
$DIMEXE
 40
0.18
  9
$DIMTP
 40
0.0
  9
$DIMTM
 40
0.0
  9
$DIMTXT
 40
0.18
  9
$DIMCEN
 40
0.09
  9
$DIMTSZ
 40
0.0
  9
$DIMTOL
 70
     0
  9
$DIMLIM
 70
     0
  9
$DIMTIH
 70
     1
  9
$DIMTOH
 70
     1
  9
$DIMSE1
 70
     0
  9
$DIMSE2
 70
     0
  9
$DIMTAD
 70
     0
  9
$DIMZIN
 70
     0
  9
$DIMBLK
  1

  9
$DIMASO
 70
     1
  9
$DIMSHO
 70
     1
  9
$DIMPOST
  1

  9
$DIMAPOST
  1

  9
$DIMALT
 70
     0
  9
$DIMALTD
 70
     2
  9
$DIMALTF
 40
25.4
  9
$DIMLFAC
 40
1.0
  9
$DIMTOFL
 70
     0
  9
$DIMTVP
 40
0.0
  9
$DIMTIX
 70
     0
  9
$DIMSOXD
 70
     0
  9
$DIMSAH
 70
     0
  9
$DIMBLK1
  1

  9
$DIMBLK2
  1

  9
$DIMSTYLE
  2
Standard
  9
$DIMCLRD
 70
     0
  9
$DIMCLRE
 70
     0
  9
$DIMCLRT
 70
     0
  9
$DIMTFAC
 40
1.0
  9
$DIMGAP
 40
0.09
  9
$DIMJUST
 70
     0
  9
$DIMSD1
 70
     0
  9
$DIMSD2
 70
     0
  9
$DIMTOLJ
 70
     1
  9
$DIMTZIN
 70
     0
  9
$DIMALTZ
 70
     0
  9
$DIMALTTZ
 70
     0
  9
$DIMUPT
 70
     0
  9
$DIMDEC
 70
     4
  9
$DIMTDEC
 70
     4
  9
$DIMALTU
 70
     2
  9
$DIMALTTD
 70
     2
  9
$DIMTXSTY
  7
Standard
  9
$DIMAUNIT
 70
     0
  9
$DIMADEC
 70
     0
  9
$DIMALTRND
 40
0.0
  9
$DIMAZIN
 70
     0
  9
$DIMDSEP
 70
    46
  9
$DIMATFIT
 70
     3
  9
$DIMFRAC
 70
     0
  9
$DIMLDRBLK
  1

  9
$DIMLUNIT
 70
     2
  9
$DIMLWD
 70
    -2
  9
$DIMLWE
 70
    -2
  9
$DIMTMOVE
 70
     2
  9
$LUNITS
 70
     2
  9
$LUPREC
 70
     3
  9
$SKETCHINC
 40
0.1
  9
$FILLETRAD
 40
0.5
  9
$AUNITS
 70
     0
  9
$AUPREC
 70
     0
  9
$MENU
  1
.
  9
$ELEVATION
 40
0.0
  9
$PELEVATION
 40
0.0
  9
$THICKNESS
 40
0.0
  9
$LIMCHECK
 70
     0
  9
$CHAMFERA
 40
0.5
  9
$CHAMFERB
 40
0.5
  9
$CHAMFERC
 40
1.0
  9
$CHAMFERD
 40
0.0
  9
$SKPOLY
 70
     0
  9
$TDCREATE
 40
2456595.462763218
  9
$TDUCREATE
 40
2456595.421096551
  9
$TDUPDATE
 40
2456595.462763229
  9
$TDUUPDATE
 40
2456595.421096562
  9
$TDINDWG
 40
0.0000000116
  9
$TDUSRTIMER
 40
0.0000000116
  9
$USRTIMER
 70
     1
  9
$ANGBASE
 50
0.0
  9
$ANGDIR
 70
     0
  9
$PDMODE
 70
     0
  9
$PDSIZE
 40
0.0
  9
$PLINEWID
 40
0.0
  9
$SPLFRAME
 70
     0
  9
$SPLINETYPE
 70
     6
  9
$SPLINESEGS
 70
     8
  9
$HANDSEED
  5
CE
  9
$SURFTAB1
 70
     6
  9
$SURFTAB2
 70
     6
  9
$SURFTYPE
 70
     6
  9
$SURFU
 70
     6
  9
$SURFV
 70
     6
  9
$UCSBASE
  2

  9
$UCSNAME
  2

  9
$UCSORG
 10
0.0
 20
0.0
 30
0.0
  9
$UCSXDIR
 10
1.0
 20
0.0
 30
0.0
  9
$UCSYDIR
 10
0.0
 20
1.0
 30
0.0
  9
$UCSORTHOREF
  2

  9
$UCSORTHOVIEW
 70
     0
  9
$UCSORGTOP
 10
0.0
 20
0.0
 30
0.0
  9
$UCSORGBOTTOM
 10
0.0
 20
0.0
 30
0.0
  9
$UCSORGLEFT
 10
0.0
 20
0.0
 30
0.0
  9
$UCSORGRIGHT
 10
0.0
 20
0.0
 30
0.0
  9
$UCSORGFRONT
 10
0.0
 20
0.0
 30
0.0
  9
$UCSORGBACK
 10
0.0
 20
0.0
 30
0.0
  9
$PUCSBASE
  2

  9
$PUCSNAME
  2

  9
$PUCSORG
 10
0.0
 20
0.0
 30
0.0
  9
$PUCSXDIR
 10
1.0
 20
0.0
 30
0.0
  9
$PUCSYDIR
 10
0.0
 20
1.0
 30
0.0
  9
$PUCSORTHOREF
  2

  9
$PUCSORTHOVIEW
 70
     0
  9
$PUCSORGTOP
 10
0.0
 20
0.0
 30
0.0
  9
$PUCSORGBOTTOM
 10
0.0
 20
0.0
 30
0.0
  9
$PUCSORGLEFT
 10
0.0
 20
0.0
 30
0.0
  9
$PUCSORGRIGHT
 10
0.0
 20
0.0
 30
0.0
  9
$PUCSORGFRONT
 10
0.0
 20
0.0
 30
0.0
  9
$PUCSORGBACK
 10
0.0
 20
0.0
 30
0.0
  9
$USERI1
 70
     0
  9
$USERI2
 70
     0
  9
$USERI3
 70
     0
  9
$USERI4
 70
     0
  9
$USERI5
 70
     0
  9
$USERR1
 40
0.0
  9
$USERR2
 40
0.0
  9
$USERR3
 40
0.0
  9
$USERR4
 40
0.0
  9
$USERR5
 40
0.0
  9
$WORLDVIEW
 70
     1
  9
$SHADEDGE
 70
     3
  9
$SHADEDIF
 70
    70
  9
$TILEMODE
 70
     1
  9
$MAXACTVP
 70
    64
  9
$PINSBASE
 10
0.0
 20
0.0
 30
0.0
  9
$PLIMCHECK
 70
     0
  9
$PEXTMIN
 10
1.000000000000000E+20
 20
1.000000000000000E+20
 30
1.000000000000000E+20
  9
$PEXTMAX
 10
-1.000000000000000E+20
 20
-1.000000000000000E+20
 30
-1.000000000000000E+20
  9
$PLIMMIN
 10
0.0
 20
0.0
  9
$PLIMMAX
 10
12.0
 20
9.0
  9
$UNITMODE
 70
     0
  9
$VISRETAIN
 70
     1
  9
$PLINEGEN
 70
     0
  9
$PSLTSCALE
 70
     1
  9
$TREEDEPTH
 70
  3020
  9
$CMLSTYLE
  2
Standard
  9
$CMLJUST
 70
     0
  9
$CMLSCALE
 40
1.0
  9
$PROXYGRAPHICS
 70
     1
  9
$MEASUREMENT
 70
     0
  9
$CELWEIGHT
370
    -1
  9
$ENDCAPS
280
     0
  9
$JOINSTYLE
280
     0
  9
$LWDISPLAY
290
     0
  9
$INSUNITS
 70
     4
  9
$HYPERLINKBASE
  1

  9
$STYLESHEET
  1

  9
$XEDIT
290
     1
  9
$CEPSNTYPE
380
     0
  9
$PSTYLEMODE
290
     1
  9
$FINGERPRINTGUID
  2
{404C8903-CE02-40A2-94DC-A2639BF11A14}
  9
$VERSIONGUID
  2
{FAEB1C32-E019-11D5-929B-00C0DF256EC4}
  9
$EXTNAMES
290
     1
  9
$PSVPSCALE
 40
0.0
  9
$OLESTARTUP
290
     0
  9
$SORTENTS
280
   127
  9
$INDEXCTL
280
     0
  9
$HIDETEXT
280
     1
  9
$XCLIPFRAME
290
     0
  9
$HALOGAP
280
     0
  9
$OBSCOLOR
 70
   257
  9
$OBSLTYPE
280
     0
  9
$INTERSECTIONDISPLAY
280
     0
  9
$INTERSECTIONCOLOR
 70
   257
  9
$DIMASSOC
280
     2
  9
$PROJECTNAME
  1

  0
ENDSEC
  0
SECTION
  2
CLASSES
  0
CLASS
  1
ACDBDICTIONARYWDFLT
  2
AcDbDictionaryWithDefault
  3
ObjectDBX Classes
 90
        0
 91
        4
280
     0
281
     0
  0
CLASS
  1
VISUALSTYLE
  2
AcDbVisualStyle
  3
ObjectDBX Classes
 90
     4095
 91
        4
280
     0
281
     0
  0
ENDSEC
  0
SECTION
  2
TABLES
  0
TABLE
  2
VPORT
  5
8
330
0
100
AcDbSymbolTable
 70
     1
  0
VPORT
  5
29
330
8
100
AcDbSymbolTableRecord
100
AcDbViewportTableRecord
  2
*Active
 70
     0
 10
0.0
 20
0.0
 11
1.0
 21
1.0
 12
3088.229965963057
 22
984.825743589473
 13
0.0
 23
0.0
 14
0.5
 24
0.5
 15
0.5
 25
0.5
 16
0.0
 26
0.0
 36
1.0
 17
0.0
 27
0.0
 37
0.0
 40
943.3672255865827
 41
0.6831361151641329
 42
50.0
 43
0.0
 44
0.0
 50
0.0
 51
0.0
 71
     0
 72
   100
 73
     1
 74
     3
 75
     0
 76
     0
 77
     0
 78
     0
281
     0
 65
     1
110
0.0
120
0.0
130
0.0
111
1.0
121
0.0
131
0.0
112
0.0
122
1.0
132
0.0
 79
     0
146
0.0
  0
ENDTAB
  0
TABLE
  2
LTYPE
  5
5
330
0
100
AcDbSymbolTable
 70
     1
  0
LTYPE
  5
14
330
5
100
AcDbSymbolTableRecord
100
AcDbLinetypeTableRecord
  2
ByBlock
 70
     0
  3

 72
    65
 73
     0
 40
0.0
  0
LTYPE
  5
15
330
5
100
AcDbSymbolTableRecord
100
AcDbLinetypeTableRecord
  2
ByLayer
 70
     0
  3

 72
    65
 73
     0
 40
0.0
  0
LTYPE
  5
16
330
5
100
AcDbSymbolTableRecord
100
AcDbLinetypeTableRecord
  2
Continuous
 70
     0
  3
Solid line
 72
    65
 73
     0
 40
0.0
  0
ENDTAB
  0
TABLE
  2
LAYER
  5
2
330
0
100
AcDbSymbolTable
 70
     4
  0
LAYER
  5
10
330
2
100
AcDbSymbolTableRecord
100
AcDbLayerTableRecord
  2
0
 70
     0
 62
     7
  6
Continuous
370
    -3
390
F
  0
LAYER
  5
3B
330
2
100
AcDbSymbolTableRecord
100
AcDbLayerTableRecord
  2
Linee visibili 2D
 70
     0
 62
     7
  6
Continuous
370
    -3
390
F
  0
LAYER
  5
44
330
2
100
AcDbSymbolTableRecord
100
AcDbLayerTableRecord
  2
testa
 70
     0
 62
     7
  6
Continuous
370
    -3
390
F
  0
LAYER
  5
52
330
2
100
AcDbSymbolTableRecord
100
AcDbLayerTableRecord
  2
Linee visibili 2D - Tangent
 70
     0
 62
     7
  6
Continuous
370
    -3
390
F
  0
ENDTAB
  0
TABLE
  2
STYLE
  5
3
330
0
100
AcDbSymbolTable
 70
     1
  0
STYLE
  5
11
330
3
100
AcDbSymbolTableRecord
100
AcDbTextStyleTableRecord
  2
Standard
 70
     0
 40
0.0
 41
1.0
 50
0.0
 71
     0
 42
0.2
  3
txt
  4

  0
ENDTAB
  0
TABLE
  2
VIEW
  5
6
330
0
100
AcDbSymbolTable
 70
     0
  0
ENDTAB
  0
TABLE
  2
UCS
  5
7
330
0
100
AcDbSymbolTable
 70
     0
  0
ENDTAB
  0
TABLE
  2
APPID
  5
9
330
0
100
AcDbSymbolTable
 70
     1
  0
APPID
  5
12
330
9
100
AcDbSymbolTableRecord
100
AcDbRegAppTableRecord
  2
ACAD
 70
     0
  0
ENDTAB
  0
TABLE
  2
DIMSTYLE
  5
A
330
0
100
AcDbSymbolTable
 70
     1
100
AcDbDimStyleTable
  0
DIMSTYLE
105
27
330
A
100
AcDbSymbolTableRecord
100
AcDbDimStyleTableRecord
  2
Standard
 70
     0
340
11
  0
ENDTAB
  0
TABLE
  2
BLOCK_RECORD
  5
1
330
0
100
AcDbSymbolTable
 70
     1
  0
BLOCK_RECORD
  5
1F
330
1
100
AcDbSymbolTableRecord
100
AcDbBlockTableRecord
  2
*Model_Space
340
22
  0
BLOCK_RECORD
  5
1B
330
1
100
AcDbSymbolTableRecord
100
AcDbBlockTableRecord
  2
*Paper_Space
340
1E
  0
BLOCK_RECORD
  5
23
330
1
100
AcDbSymbolTableRecord
100
AcDbBlockTableRecord
  2
*Paper_Space0
340
26
  0
ENDTAB
  0
ENDSEC
  0
SECTION
  2
BLOCKS
  0
BLOCK
  5
20
330
1F
100
AcDbEntity
  8
0
100
AcDbBlockBegin
  2
*Model_Space
 70
     0
 10
0.0
 20
0.0
 30
0.0
  3
*Model_Space
  1

  0
ENDBLK
  5
21
330
1F
100
AcDbEntity
  8
0
100
AcDbBlockEnd
  0
BLOCK
  5
1C
330
1B
100
AcDbEntity
 67
     1
  8
0
100
AcDbBlockBegin
  2
*Paper_Space
 70
     0
 10
0.0
 20
0.0
 30
0.0
  3
*Paper_Space
  1

  0
ENDBLK
  5
1D
330
1B
100
AcDbEntity
 67
     1
  8
0
100
AcDbBlockEnd
  0
BLOCK
  5
24
330
23
100
AcDbEntity
  8
0
100
AcDbBlockBegin
  2
*Paper_Space0
 70
     0
 10
0.0
 20
0.0
 30
0.0
  3
*Paper_Space0
  1

  0
ENDBLK
  5
25
330
23
100
AcDbEntity
  8
0
100
AcDbBlockEnd
  0
ENDSEC
  0
SECTION
  2
ENTITIES
  0
SPLINE
  5
3C
330
1F
100
AcDbEntity
  8
Linee visibili 2D
100
AcDbSpline
210
0.0
220
0.0
230
1.0
 70
     8
 71
     3
 72
    19
 73
    15
 74
     0
 42
0.0000000001
 43
0.0000000001
 40
0.0
 40
0.0
 40
0.0
 40
0.0
 40
4.1740077609399
 40
6.623332269843596
 40
10.44614045887637
 40
17.13768058227155
 40
25.89378290855984
 40
70.00571028114162
 40
86.56138815918126
 40
103.4486800164522
 40
144.7245162596092
 40
164.238516207236
 40
232.0977034212515
 40
284.5935782662335
 40
284.5935782662335
 40
284.5935782662335
 40
284.5935782662335
 10
3244.821034280915
 20
1342.683491767662
 30
0.0
 10
3244.54599017663
 20
1341.312543485413
 30
0.0
 10
3243.852265500834
 20
1339.229888900056
 30
0.0
 10
3243.362351722608
 20
1335.741196579697
 30
0.0
 10
3243.758688543636
 20
1331.439991392892
 30
0.0
 10
3244.371225654434
 20
1325.03851496031
 30
0.0
 10
3243.726504049592
 20
1305.174270969276
 30
0.0
 10
3241.516565347109
 20
1282.140372774892
 30
0.0
 10
3240.216662514783
 20
1256.313072208163
 30
0.0
 10
3240.041795677077
 20
1231.402342935372
 30
0.0
 10
3241.017730839366
 20
1205.522947542193
 30
0.0
 10
3240.922585681081
 20
1162.631178574038
 30
0.0
 10
3237.880756990783
 20
1116.07945476344
 30
0.0
 10
3237.563120513541
 20
1075.954595757684
 30
0.0
 10
3237.070387563779
 20
1058.463049568975
 30
0.0
  0
SPLINE
  5
3D
330
1F
100
AcDbEntity
  8
Linee visibili 2D
100
AcDbSpline
210
0.0
220
0.0
230
1.0
 70
     8
 71
     3
 72
    12
 73
     8
 74
     0
 42
0.0000000001
 43
0.0000000001
 40
-100.1116160921497
 40
-100.1116160921497
 40
-100.1116160921497
 40
-100.1116160921497
 40
-61.86598102682124
 40
-38.64470483828386
 40
-18.22790282288825
 40
-8.998914944183987
 40
0.0
 40
0.0
 40
0.0
 40
0.0
 10
3237.070387563779
 20
1058.463049568975
 30
0.0
 10
3236.7415332709
 20
1045.721441622092
 30
0.0
 10
3236.72286100772
 20
1025.211913623121
 30
0.0
 10
3233.496178966041
 20
998.0476883036443
 30
0.0
 10
3228.168809710551
 20
981.1238319981833
 30
0.0
 10
3221.746373311588
 20
969.8972802767339
 30
0.0
 10
3217.955188272237
 20
965.1357538693296
 30
0.0
 10
3215.902620813726
 20
962.9445664103624
 30
0.0
  0
SPLINE
  5
3E
330
1F
100
AcDbEntity
  8
Linee visibili 2D
100
AcDbSpline
210
0.0
220
0.0
230
1.0
 70
     8
 71
     3
 72
    19
 73
    15
 74
     0
 42
0.0000000001
 43
0.0000000001
 40
0.0
 40
0.0
 40
0.0
 40
0.0
 40
4.1740077609399
 40
6.623332269843596
 40
10.44614045887637
 40
17.13768058227155
 40
25.89378290855984
 40
70.00571028114162
 40
86.56138815918126
 40
103.4486800164522
 40
144.7245162596092
 40
164.238516207236
 40
232.0977034212515
 40
284.5935782662335
 40
284.5935782662335
 40
284.5935782662335
 40
284.5935782662335
 10
3241.823557496829
 20
1342.760658092667
 30
0.0
 10
3241.548513392544
 20
1341.389709810417
 30
0.0
 10
3240.854788716748
 20
1339.30705522506
 30
0.0
 10
3240.364874938522
 20
1335.818362904702
 30
0.0
 10
3240.76121175955
 20
1331.517157717897
 30
0.0
 10
3241.373748870348
 20
1325.115681285315
 30
0.0
 10
3240.729027265506
 20
1305.25143729428
 30
0.0
 10
3238.519088563023
 20
1282.217539099896
 30
0.0
 10
3237.219185730698
 20
1256.390238533168
 30
0.0
 10
3237.044318892991
 20
1231.479509260377
 30
0.0
 10
3238.02025405528
 20
1205.600113867198
 30
0.0
 10
3237.925108896995
 20
1162.708344899042
 30
0.0
 10
3234.883280206697
 20
1116.156621088444
 30
0.0
 10
3234.565643729456
 20
1076.031762082689
 30
0.0
 10
3234.072145954295
 20
1058.540235463274
 30
0.0
  0
SPLINE
  5
3F
330
1F
100
AcDbEntity
  8
Linee visibili 2D
100
AcDbSpline
210
0.0
220
0.0
230
1.0
 70
     8
 71
     3
 72
    12
 73
     8
 74
     0
 42
0.0000000001
 43
0.0000000001
 40
0.0
 40
0.0
 40
0.0
 40
0.0
 40
23.66420555091763
 40
36.26476579794338
 40
58.48213055509965
 40
77.65568569035639
 40
94.61626107254233
 40
94.61626107254233
 40
94.61626107254233
 40
94.61626107254233
 10
3234.072145954295
 20
1058.540235463274
 30
0.0
 10
3233.866185939341
 20
1050.655630385052
 30
0.0
 10
3233.744882788867
 20
1038.564383243537
 30
0.0
 10
3232.878008168439
 20
1019.09074975466
 30
0.0
 10
3230.959868396848
 20
1001.165674353697
 30
0.0
 10
3225.660096900633
 20
982.3344035851148
 30
0.0
 10
3219.515979439469
 20
971.8364344824349
 30
0.0
 10
3215.902620813005
 20
967.4828793249891
 30
0.0
  0
SPLINE
  5
40
330
1F
100
AcDbEntity
  8
Linee visibili 2D
100
AcDbSpline
210
0.0
220
0.0
230
1.0
 70
    24
 71
     2
 72
     6
 73
     3
 74
     0
 42
0.0000000001
 43
0.0000000001
 40
20.22222123228932
 40
20.22222123228932
 40
20.22222123228932
 40
395.4316936795124
 40
395.4316936795124
 40
395.4316936795124
 10
3215.902620813727
 20
967.4828793249891
 30
0.0
 10
3215.902620813727
 20
1155.087615548601
 30
0.0
 10
3215.902620813727
 20
1342.692351772212
 30
0.0
  0
SPLINE
  5
41
330
1F
100
AcDbEntity
  8
Linee visibili 2D
100
AcDbSpline
210
0.0
220
0.0
230
1.0
 70
    24
 71
     2
 72
     6
 73
     3
 74
     0
 42
0.0000000001
 43
0.0000000001
 40
0.0
 40
0.0
 40
0.0
 40
15.68390831766376
 40
15.68390831766376
 40
15.68390831766376
 10
3215.902620813727
 20
947.2606580926997
 30
0.0
 10
3215.902620813727
 20
955.1026122515316
 30
0.0
 10
3215.902620813727
 20
962.9445664103634
 30
0.0
  0
SPLINE
  5
42
330
1F
100
AcDbEntity
  8
Linee visibili 2D
100
AcDbSpline
210
0.0
220
0.0
230
1.0
 70
    24
 71
     2
 72
     6
 73
     3
 74
     0
 42
0.0000000001
 43
0.0000000001
 40
498.2598990002798
 40
498.2598990002798
 40
498.2598990002798
 40
500.0
 40
500.0
 40
500.0
 10
3195.902620813727
 20
949.0007590924199
 30
0.0
 10
3195.902620813727
 20
948.1307085925598
 30
0.0
 10
3195.902620813727
 20
947.2606580926997
 30
0.0
  0
SPLINE
  5
43
330
1F
100
AcDbEntity
  8
Linee visibili 2D
100
AcDbSpline
210
0.0
220
0.0
230
1.0
 70
    24
 71
     2
 72
     6
 73
     3
 74
     0
 42
0.0000000001
 43
0.0000000001
 40
0.0
 40
0.0
 40
0.0
 40
494.9653501770492
 40
494.9653501770492
 40
494.9653501770492
 10
3195.902620813727
 20
1447.2606580927
 30
0.0
 10
3195.902620813727
 20
1199.777983004175
 30
0.0
 10
3195.902620813727
 20
952.2953079156505
 30
0.0
  0
SPLINE
  5
45
330
1F
100
AcDbEntity
  8
testa
100
AcDbSpline
210
0.0
220
0.0
230
1.0
 70
     8
 71
     2
 72
     6
 73
     3
 74
     0
 42
0.0000000001
 43
0.0000000001
 40
0.0
 40
0.0
 40
0.0
 40
1.0
 40
1.0
 40
1.0
 10
3195.902620813727
 20
949.0007590924199
 30
0.0
 10
3207.369781820695
 20
956.2917930590448
 30
0.0
 10
3215.902620813726
 20
962.9445664103624
 30
0.0
  0
SPLINE
  5
46
330
1F
100
AcDbEntity
  8
testa
100
AcDbSpline
210
0.0
220
0.0
230
1.0
 70
     8
 71
     2
 72
     6
 73
     3
 74
     0
 42
0.0000000001
 43
0.0000000001
 40
0.0
 40
0.0
 40
0.0
 40
1.0
 40
1.0
 40
1.0
 10
3195.902620813731
 20
952.2953079156521
 30
0.0
 10
3206.242228969324
 20
958.8690567193223
 30
0.0
 10
3215.902620813005
 20
967.4828793249891
 30
0.0
  0
SPLINE
  5
47
330
1F
100
AcDbEntity
  8
Linee visibili 2D
100
AcDbSpline
210
0.0
220
0.0
230
1.0
 70
     8
 71
     3
 72
    12
 73
     8
 74
     0
 42
0.0000000001
 43
0.0000000001
 40
0.0
 40
0.0
 40
0.0
 40
0.0
 40
19.19569636334631
 40
36.89833999935361
 40
68.4286694658491
 40
94.55610939523515
 40
115.0415748144675
 40
115.0415748144675
 40
115.0415748144675
 40
115.0415748144675
 10
2787.993811687597
 20
778.4283870354437
 30
0.0
 10
2791.5969644259
 20
773.1412743757147
 30
0.0
 10
2798.668202396734
 20
763.0744106110515
 30
0.0
 10
2812.42678833305
 20
744.8792969175341
 30
0.0
 10
2828.697365200914
 20
725.7085854920809
 30
0.0
 10
2847.639343007269
 20
707.7497154758205
 30
0.0
 10
2860.561958212304
 20
698.9881543027766
 30
0.0
 10
2866.754929236856
 20
696.0792002522356
 30
0.0
  0
SPLINE
  5
48
330
1F
100
AcDbEntity
  8
Linee visibili 2D
100
AcDbSpline
210
0.0
220
0.0
230
1.0
 70
     8
 71
     3
 72
    12
 73
     8
 74
     0
 42
0.0000000001
 43
0.0000000001
 40
0.0
 40
0.0
 40
0.0
 40
0.0
 40
9.811590048594503
 40
20.92600827383482
 40
47.54803295985003
 40
79.68787153724855
 40
117.2518272739205
 40
117.2518272739205
 40
117.2518272739205
 40
117.2518272739205
 10
2866.032003395472
 20
693.1106130319696
 30
0.0
 10
2863.05333418317
 20
694.4656128350723
 30
0.0
 10
2856.937025143922
 20
697.8397846629646
 30
0.0
 10
2844.029754531935
 20
707.0904658443192
 30
0.0
 10
2827.022376361894
 20
723.082743317307
 30
0.0
 10
2806.183283907588
 20
747.5501380720822
 30
0.0
 10
2792.564296342762
 20
766.3942878364564
 30
0.0
 10
2785.513619843379
 20
776.7406279354396
 30
0.0
  0
SPLINE
  5
49
330
1F
100
AcDbEntity
  8
Linee visibili 2D
100
AcDbSpline
210
0.0
220
0.0
230
1.0
 70
     8
 71
     3
 72
    14
 73
    10
 74
     0
 42
0.0000000001
 43
0.0000000001
 40
0.0
 40
0.0
 40
0.0
 40
0.0
 40
7.749797524123826
 40
13.74944413723111
 40
24.01858766032808
 40
28.94071570245404
 40
33.13563662598942
 40
36.21350713045325
 40
39.79658641704263
 40
39.79658641704263
 40
39.79658641704263
 40
39.79658641704263
 10
2817.258157808678
 20
793.7057436890605
 30
0.0
 10
2814.691750432364
 20
793.7987147744967
 30
0.0
 10
2810.069443612205
 20
794.0364866279159
 30
0.0
 10
2802.138225863414
 20
793.3507975439253
 30
0.0
 10
2795.046918614293
 20
792.0940501501692
 30
0.0
 10
2789.709126063564
 20
788.2691677993947
 30
0.0
 10
2786.97088585689
 20
785.1917982916619
 30
0.0
 10
2786.221233827255
 20
781.4864849462268
 30
0.0
 10
2787.356530671624
 20
779.3994246031323
 30
0.0
 10
2787.993707865235
 20
778.4285411309619
 30
0.0
  0
SPLINE
  5
4A
330
1F
100
AcDbEntity
  8
Linee visibili 2D
100
AcDbSpline
210
0.0
220
0.0
230
1.0
 70
     8
 71
     3
 72
    15
 73
    11
 74
     0
 42
0.0000000001
 43
0.0000000001
 40
0.0
 40
0.0
 40
0.0
 40
0.0
 40
4.584888657139043
 40
8.703075262754941
 40
13.36095163677466
 40
19.09253023597404
 40
24.16378933466403
 40
30.15809514518447
 40
37.61336021244735
 40
46.43546217870344
 40
46.43546217870344
 40
46.43546217870344
 40
46.43546217870344
 10
2785.513498622425
 20
776.7408081411996
 30
0.0
 10
2784.665878113216
 20
778.0009000827699
 30
0.0
 10
2783.336554467905
 20
780.6755049571426
 30
0.0
 10
2783.656630423066
 20
785.2933730894971
 30
0.0
 10
2786.454379735287
 20
789.3710476584264
 30
0.0
 10
2790.434661086931
 20
792.6730900996082
 30
0.0
 10
2795.553815009866
 20
795.0913862149657
 30
0.0
 10
2801.628280803573
 20
796.2760041818002
 30
0.0
 10
2809.020586129407
 20
797.0482978126134
 30
0.0
 10
2814.460273617241
 20
796.8266602497444
 30
0.0
 10
2817.393633999664
 20
796.7026831615351
 30
0.0
  0
SPLINE
  5
4B
330
1F
100
AcDbEntity
  8
Linee visibili 2D
100
AcDbSpline
210
0.0
220
0.0
230
1.0
 70
    24
 71
     2
 72
     6
 73
     3
 74
     0
 42
0.0000000001
 43
0.0000000001
 40
0.0
 40
0.0
 40
0.0
 40
0.3832782220864885
 40
0.3832782220864885
 40
0.3832782220864885
 10
2886.508262783203
 20
694.8241652859084
 30
0.0
 10
2886.508262783203
 20
694.6325261748652
 30
0.0
 10
2886.508262783203
 20
694.440887063822
 30
0.0
  0
SPLINE
  5
4C
330
1F
100
AcDbEntity
  8
Linee visibili 2D
100
AcDbSpline
210
0.0
220
0.0
230
1.0
 70
    24
 71
     2
 72
     6
 73
     3
 74
     0
 42
0.0000000001
 43
0.0000000001
 40
0.0
 40
0.0
 40
0.0
 40
0.3832782329823488
 40
0.3832782329823488
 40
0.3832782329823488
 10
2868.139687122927
 20
694.440887063822
 30
0.0
 10
2868.139687122927
 20
694.6325261803131
 30
0.0
 10
2868.139687122927
 20
694.8241652968043
 30
0.0
  0
SPLINE
  5
4D
330
1F
100
AcDbEntity
  8
Linee visibili 2D
100
AcDbSpline
210
0.0
220
0.0
230
1.0
 70
    24
 71
     2
 72
     6
 73
     3
 74
     0
 42
0.0000000001
 43
0.0000000001
 40
0.0
 40
0.0
 40
0.0
 40
19.29999997538852
 40
19.29999997538852
 40
19.29999997538852
 10
2866.754929236897
 20
694.8241652900792
 30
0.0
 10
2866.754929236899
 20
704.4741652777735
 30
0.0
 10
2866.754929236902
 20
714.1241652654678
 30
0.0
  0
SPLINE
  5
4E
330
1F
100
AcDbEntity
  8
Linee visibili 2D
100
AcDbSpline
210
0.0
220
0.0
230
1.0
 70
    24
 71
     2
 72
     6
 73
     3
 74
     0
 42
0.0000000001
 43
0.0000000001
 40
0.0
 40
0.0
 40
0.0
 40
19.29999997538852
 40
19.29999997538852
 40
19.29999997538852
 10
2887.891786369664
 20
714.1241652654626
 30
0.0
 10
2887.891786369662
 20
704.4741652777683
 30
0.0
 10
2887.891786369659
 20
694.824165290074
 30
0.0
  0
SPLINE
  5
4F
330
1F
100
AcDbEntity
  8
Linee visibili 2D
100
AcDbSpline
210
0.0
220
0.0
230
1.0
 70
    12
 71
     2
 72
     8
 73
     5
 74
     0
 42
0.0000000001
 43
0.0000000001
 40
0.0
 40
0.0
 40
0.0
 40
55.57913777252661
 40
55.57913777252661
 40
220.5127520859905
 40
220.5127520859905
 40
220.5127520859905
 10
2824.304126641211
 20
731.2547102344844
 30
0.0
 41
1.0
 10
2848.866843818279
 20
745.6241652456446
 30
0.0
 41
0.9651808243826997
 10
2877.323974953345
 20
745.6241652455683
 30
0.0
 41
1.0
 10
2982.323974953345
 20
745.6241652452877
 30
0.0
 41
0.7071067811865477
 10
2982.323974953065
 20
640.6241652452879
 30
0.0
 41
1.0
  0
SPLINE
  5
50
330
1F
100
AcDbEntity
  8
Linee visibili 2D
100
AcDbSpline
210
0.0
220
0.0
230
1.0
 70
    12
 71
     2
 72
     8
 73
     5
 74
     0
 42
0.0000000001
 43
0.0000000001
 40
0.0
 40
0.0
 40
0.0
 40
80.42058603045828
 40
80.42058603045828
 40
186.7221148625867
 40
186.7221148625867
 40
186.7221148625867
 10
2801.645055661455
 20
567.8388564610757
 30
0.0
 41
1.0
 10
2772.323974952952
 20
598.3256090425847
 30
0.0
 41
0.9275644485153562
 10
2772.323974953065
 20
640.6241652458491
 30
0.0
 41
1.0
 10
2772.323974953221
 20
698.8337909968056
 30
0.0
 41
0.8745943633626507
 10
2821.691761863901
 20
729.6750319836405
 30
0.0
 41
1.0
  0
SPLINE
  5
51
330
1F
100
AcDbEntity
  8
Linee visibili 2D
100
AcDbSpline
210
0.0
220
0.0
230
1.0
 70
    12
 71
     2
 72
     6
 73
     3
 74
     0
 42
0.0000000001
 43
0.0000000001
 40
0.0
 40
0.0
 40
0.0
 40
80.42058602989825
 40
80.42058602989825
 40
80.42058602989825
 10
2982.323974953065
 20
640.6241652452879
 30
0.0
 41
1.0
 10
2982.323974952952
 20
598.3256090423492
 30
0.0
 41
0.927564448516354
 10
2953.002894244674
 20
567.8388564610748
 30
0.0
 41
1.0
  0
SPLINE
  5
53
330
1F
100
AcDbEntity
  8
Linee visibili 2D - Tangent
100
AcDbSpline
210
0.0
220
0.0
230
1.0
 70
    12
 71
     4
 72
    18
 73
    13
 74
     0
 42
0.0000000001
 43
0.0000000001
 40
0.375
 40
0.375
 40
0.375
 40
0.375
 40
0.375
 40
0.5
 40
0.5
 40
0.5
 40
0.5
 40
2.56764975649679
 40
2.56764975649679
 40
2.56764975649679
 40
2.56764975649679
 40
3.23234863425245
 40
3.23234863425245
 40
3.23234863425245
 40
3.23234863425245
 40
3.23234863425245
 10
2787.962346218659
 20
778.4071869277691
 30
0.0
 41
0.9948088394419344
 10
2788.019739873007
 20
778.446257192662
 30
0.0
 41
0.9948088394419344
 10
2788.007676660746
 20
778.4380565189003
 30
0.0
 41
1.002076464223223
 10
2787.920730704373
 20
778.3788908013771
 30
0.0
 41
1.0166117137858
 10
2787.804285543509
 20
778.2996464929038
 30
0.0
 41
1.0166117137858
 10
2787.376945544344
 20
778.0088218122833
 30
0.0
 41
1.016611713668385
 10
2786.949609712512
 20
777.7179910082259
 30
0.0
 41
1.016611713629246
 10
2786.522278048111
 20
777.4271540807982
 30
0.0
 41
1.016611713668385
 10
2786.094950551239
 20
777.1363110300668
 30
0.0
 41
1.0166117137858
 10
2785.957574075063
 20
777.0428137510781
 30
0.0
 41
1.01661171355013
 10
2785.820199496976
 20
776.9493136832536
 30
0.0
 41
1.016611713471575
 10
2785.682826817044
 20
776.8558108266349
 30
0.0
 41
1.016611713550129
 10
2785.545456035329
 20
776.762305181265
 30
0.0
 41
1.0166117137858
  0
SPLINE
  5
54
330
1F
100
AcDbEntity
  8
Linee visibili 2D
100
AcDbSpline
210
0.0
220
0.0
230
1.0
 70
    24
 71
     2
 72
     6
 73
     3
 74
     0
 42
0.0000000001
 43
0.0000000001
 40
0.0
 40
0.0
 40
0.0
 40
3.000000000000123
 40
3.000000000000123
 40
3.000000000000123
 10
2817.393633999664
 20
796.7026831615351
 30
0.0
 10
2817.325895904171
 20
795.2042134252978
 30
0.0
 10
2817.258157808678
 20
793.7057436890605
 30
0.0
  0
SPLINE
  5
55
330
1F
100
AcDbEntity
  8
Linee visibili 2D
100
AcDbSpline
210
0.0
220
0.0
230
1.0
 70
    12
 71
     2
 72
     6
 73
     3
 74
     0
 42
0.0000000001
 43
0.0000000001
 40
0.0
 40
0.0
 40
0.0
 40
15.70796326794903
 40
15.70796326794903
 40
15.70796326794903
 10
2877.323974953065
 20
730.6241652455686
 30
0.0
 41
1.0
 10
2887.323974953064
 20
730.6241652455686
 30
0.0
 41
0.7071067811865516
 10
2887.323974953065
 20
720.6241652455686
 30
0.0
 41
1.0
  0
SPLINE
  5
56
330
1F
100
AcDbEntity
  8
Linee visibili 2D
100
AcDbSpline
210
0.0
220
0.0
230
1.0
 70
    12
 71
     2
 72
     6
 73
     3
 74
     0
 42
0.0000000001
 43
0.0000000001
 40
0.0
 40
0.0
 40
0.0
 40
15.70796326794902
 40
15.70796326794902
 40
15.70796326794902
 10
2877.323974953065
 20
730.6241652455686
 30
0.0
 41
1.0
 10
2867.323974953065
 20
730.6241652455685
 30
0.0
 41
0.7071067811865506
 10
2867.323974953065
 20
720.6241652455686
 30
0.0
 41
1.0
  0
SPLINE
  5
57
330
1F
100
AcDbEntity
  8
Linee visibili 2D
100
AcDbSpline
210
0.0
220
0.0
230
1.0
 70
    12
 71
     2
 72
     8
 73
     5
 74
     0
 42
0.0000000001
 43
0.0000000001
 40
0.0
 40
0.0
 40
0.0
 40
15.70796326794892
 40
15.70796326794892
 40
31.41592653589793
 40
31.41592653589793
 40
31.41592653589793
 10
2867.323974953065
 20
720.6241652455686
 30
0.0
 41
1.0
 10
2867.323974953065
 20
710.6241652455686
 30
0.0
 41
0.7071067811865556
 10
2877.323974953065
 20
710.6241652455686
 30
0.0
 41
1.0
 10
2887.323974953064
 20
710.6241652455685
 30
0.0
 41
0.7071067811865395
 10
2887.323974953065
 20
720.6241652455686
 30
0.0
 41
1.0
  0
SPLINE
  5
58
330
1F
100
AcDbEntity
  8
Linee visibili 2D
100
AcDbSpline
210
0.0
220
0.0
230
1.0
 70
    12
 71
     2
 72
    12
 73
     9
 74
     0
 42
0.0000000001
 43
0.0000000001
 40
0.0
 40
0.0
 40
0.0
 40
101.7549966302468
 40
101.7549966302468
 40
203.5099932604935
 40
203.5099932604935
 40
305.2649898907401
 40
305.2649898907401
 40
407.0199865209869
 40
407.0199865209869
 40
407.0199865209869
 10
2867.589829499668
 20
675.515060709422
 30
0.0
 41
1.0
 10
2805.069713905504
 20
666.4568286762164
 30
0.0
 41
0.7320662232666578
 10
2809.61297520378
 20
603.4475023962867
 30
0.0
 41
1.0
 10
2814.156236502056
 20
540.4381761163572
 30
0.0
 41
0.7320662232666588
 10
2877.32914523932
 20
540.4429873915535
 30
0.0
 41
1.0
 10
2940.502053976583
 20
540.4477986667499
 30
0.0
 41
0.7320662232666604
 10
2945.035717588834
 20
603.4578162490834
 30
0.0
 41
1.0
 10
2949.569381201085
 20
666.4678338314169
 30
0.0
 41
0.7320662232666602
 10
2887.04788657472
 20
675.5165426432009
 30
0.0
 41
1.0
  0
SPLINE
  5
59
330
1F
100
AcDbEntity
  8
Linee visibili 2D
100
AcDbSpline
210
0.0
220
0.0
230
1.0
 70
    12
 71
     2
 72
     8
 73
     5
 74
     0
 42
0.0000000001
 43
0.0000000001
 40
0.0
 40
0.0
 40
0.0
 40
15.258198974781
 40
15.258198974781
 40
123.2255701987085
 40
123.2255701987085
 40
123.2255701987085
 10
2808.40822290793
 20
588.5833652944583
 30
0.0
 41
1.0
 10
2806.315064995798
 20
595.9498080815504
 30
0.0
 41
0.994338274295034
 10
2805.825843715259
 20
603.5922194758218
 30
0.0
 41
1.0
 10
2801.532553352276
 20
670.6602168720768
 30
0.0
 41
0.729416718053548
 10
2868.187445709943
 20
679.2435694614105
 30
0.0
 41
1.0
  0
SPLINE
  5
5A
330
1F
100
AcDbEntity
  8
Linee visibili 2D
100
AcDbSpline
210
0.0
220
0.0
230
1.0
 70
    12
 71
     2
 72
     8
 73
     5
 74
     0
 42
0.0000000001
 43
0.0000000001
 40
0.0
 40
0.0
 40
0.0
 40
107.9764003112502
 40
107.9764003112502
 40
119.7826409995076
 40
119.7826409995076
 40
119.7826409995076
 10
2886.451053782699
 20
679.244787204837
 30
0.0
 41
1.0
 10
2953.116282469238
 20
670.6740281040076
 30
0.0
 41
0.7293712299764241
 10
2948.827301777406
 20
603.5970926342194
 30
0.0
 41
1.0
 10
2948.449763967827
 20
597.6926410134747
 30
0.0
 41
0.996608949932961
 10
2947.108953694353
 20
591.9300624630404
 30
0.0
 41
1.0
  0
SPLINE
  5
5B
330
1F
100
AcDbEntity
  8
Linee visibili 2D
100
AcDbSpline
210
0.0
220
0.0
230
1.0
 70
    12
 71
     2
 72
     6
 73
     3
 74
     0
 42
0.0000000001
 43
0.0000000001
 40
0.0
 40
0.0
 40
0.0
 40
5.05818360882524
 40
5.05818360882524
 40
5.05818360882524
 10
2866.823974953065
 20
692.8426285167081
 30
0.0
 41
1.0
 10
2869.355120127103
 20
692.7697893422913
 30
0.0
 41
0.9981639452645191
 10
2871.876500635179
 20
693.0035451355566
 30
0.0
 41
1.0
  0
SPLINE
  5
5C
330
1F
100
AcDbEntity
  8
Linee visibili 2D
100
AcDbSpline
210
0.0
220
0.0
230
1.0
 70
    12
 71
     2
 72
     6
 73
     3
 74
     0
 42
0.0000000001
 43
0.0000000001
 40
0.0
 40
0.0
 40
0.0
 40
2.863041206868326
 40
2.863041206868326
 40
2.863041206868326
 10
2884.966500485109
 20
692.9008076276327
 30
0.0
 41
1.0
 10
2886.392256446278
 20
692.7252924771717
 30
0.0
 41
0.9947893192871793
 10
2887.823974953065
 20
692.8426285167081
 30
0.0
 41
1.0
  0
SPLINE
  5
5D
330
1F
100
AcDbEntity
  8
Linee visibili 2D
100
AcDbSpline
210
0.0
220
0.0
230
1.0
 70
    24
 71
     2
 72
     6
 73
     3
 74
     0
 42
0.0000000001
 43
0.0000000001
 40
0.0
 40
0.0
 40
0.0
 40
1.598258547114142
 40
1.598258547114142
 40
1.598258547114142
 10
2887.823974953065
 20
692.8426285167081
 30
0.0
 10
2887.823974953065
 20
693.6417577902653
 30
0.0
 10
2887.823974953065
 20
694.4408870638223
 30
0.0
  0
SPLINE
  5
5E
330
1F
100
AcDbEntity
  8
Linee visibili 2D
100
AcDbSpline
210
0.0
220
0.0
230
1.0
 70
    12
 71
     2
 72
     6
 73
     3
 74
     0
 42
0.0000000001
 43
0.0000000001
 40
0.0
 40
0.0
 40
0.0
 40
0.4889176917646831
 40
0.4889176917646831
 40
0.4889176917646831
 10
2888.190643032728
 20
693.1660399535886
 30
0.0
 41
1.0
 10
2888.007156164741
 20
693.004507504241
 30
0.0
 41
0.9999995533928212
 10
2887.823974953065
 20
692.8426285167081
 30
0.0
 41
1.0
  0
SPLINE
  5
5F
330
1F
100
AcDbEntity
  8
Linee visibili 2D
100
AcDbSpline
210
0.0
220
0.0
230
1.0
 70
    24
 71
     2
 72
     6
 73
     3
 74
     0
 42
0.0000000001
 43
0.0000000001
 40
0.0
 40
0.0
 40
0.0
 40
1.598258547114142
 40
1.598258547114142
 40
1.598258547114142
 10
2866.823974953065
 20
692.8426285167081
 30
0.0
 10
2866.823974953065
 20
693.6417577902653
 30
0.0
 10
2866.823974953065
 20
694.4408870638223
 30
0.0
  0
SPLINE
  5
60
330
1F
100
AcDbEntity
  8
Linee visibili 2D
100
AcDbSpline
210
0.0
220
0.0
230
1.0
 70
    12
 71
     2
 72
     6
 73
     3
 74
     0
 42
0.0000000001
 43
0.0000000001
 40
0.0
 40
0.0
 40
0.0
 40
0.4889176917646918
 40
0.4889176917646918
 40
0.4889176917646918
 10
2866.823974953065
 20
692.8426285167081
 30
0.0
 41
1.0
 10
2866.640793741388
 20
693.0045075042411
 30
0.0
 41
0.9999995533928212
 10
2866.457306873401
 20
693.1660399535886
 30
0.0
 41
1.0
  0
SPLINE
  5
61
330
1F
100
AcDbEntity
  8
Linee visibili 2D
100
AcDbSpline
210
0.0
220
0.0
230
1.0
 70
    12
 71
     3
 72
    10
 73
     6
 74
     0
 42
0.0000000001
 43
0.0000000001
 40
0.8611305205234542
 40
0.8611305205234542
 40
0.8611305205234542
 40
0.8611305205234542
 40
2.410479240815017
 40
2.410479240815017
 40
3.990760153518383
 40
3.990760153518383
 40
3.990760153518383
 40
3.990760153518383
 10
2874.175982134437
 20
693.0547032824896
 30
0.0
 41
1.0
 10
2874.691349137823
 20
692.9923582893214
 30
0.0
 41
1.0
 10
2875.200969315349
 20
692.8846315036675
 30
0.0
 41
1.0
 10
2876.255887030658
 20
692.6234392066256
 30
0.0
 41
1.0
 10
2876.748644731376
 20
692.3740376265469
 30
0.0
 41
1.0
 10
2877.323974953065
 20
692.3516142257231
 30
0.0
 41
1.0
  0
SPLINE
  5
62
330
1F
100
AcDbEntity
  8
Linee visibili 2D
100
AcDbSpline
210
0.0
220
0.0
230
1.0
 70
    12
 71
     2
 72
     6
 73
     3
 74
     0
 42
0.0000000001
 43
0.0000000001
 40
0.0
 40
0.0
 40
0.0
 40
0.8247457377361043
 40
0.8247457377361043
 40
0.8247457377361043
 10
2873.351851044537
 20
693.0583137089895
 30
0.0
 41
1.0
 10
2873.764036714359
 20
693.0839287027185
 30
0.0
 41
0.9977933193846855
 10
2874.175982134437
 20
693.0547032824896
 30
0.0
 41
1.0
  0
SPLINE
  5
63
330
1F
100
AcDbEntity
  8
Linee visibili 2D - Tangent
100
AcDbSpline
210
0.0
220
0.0
230
1.0
 70
    12
 71
     2
 72
    36
 73
    33
 74
     0
 42
0.0000000001
 43
0.0000000001
 40
0.0
 40
0.0
 40
0.0
 40
14.80128065716077
 40
14.80128065716077
 40
31.26312813602611
 40
31.26312813602611
 40
48.39093017746495
 40
48.39093017746495
 40
66.34033162532805
 40
66.34033162532805
 40
84.30157989505399
 40
84.30157989505399
 40
101.452120010942
 40
101.452120010942
 40
117.9459809998448
 40
117.9459809998448
 40
133.5591548449719
 40
133.5591548449719
 40
149.1728557429082
 40
149.1728557429082
 40
165.6670301320341
 40
165.6670301320341
 40
182.8176537373439
 40
182.8176537373439
 40
200.7788166690175
 40
200.7788166690175
 40
218.7287595343311
 40
218.7287595343311
 40
235.8567244965246
 40
235.8567244965246
 40
252.3185536655214
 40
252.3185536655214
 40
263.1436801380745
 40
263.1436801380745
 40
263.1436801380745
 10
2877.32375610502
 20
523.0972036040806
 30
0.0
 41
1.0
 10
2869.904386075197
 20
523.0974194350032
 30
0.0
 41
0.996217648179306
 10
2862.597091797106
 20
524.382138088786
 30
0.0
 41
1.0
 10
2854.465307749792
 20
525.8128665300051
 30
0.0
 41
0.9953259607695304
 10
2846.760247703616
 20
528.780179346259
 30
0.0
 41
1.0
 10
2838.741924336806
 20
531.8696691954815
 30
0.0
 41
0.9949402223832338
 10
2831.503126943009
 20
536.4998170802434
 30
0.0
 41
1.0
 10
2823.915454748854
 20
541.3550607380731
 30
0.0
 41
0.9944450227161449
 10
2817.512333489654
 20
547.6911635183976
 30
0.0
 41
1.0
 10
2811.106299248067
 20
554.032835960416
 30
0.0
 41
0.9944379330602784
 10
2806.170825412671
 20
561.5757254655291
 30
0.0
 41
1.0
 10
2801.460971432843
 20
568.7766450525799
 30
0.0
 41
0.9949268241750037
 10
2798.287943690314
 20
576.774636197587
 30
0.0
 41
1.0
 10
2795.238471743515
 20
584.464937837335
 30
0.0
 41
0.9953073104504089
 10
2793.727417817423
 20
592.5986168632783
 30
0.0
 41
1.0
 10
2792.298585838756
 20
600.2956862343896
 30
0.0
 41
0.9957940891978786
 10
2792.298212660281
 20
608.1242517216101
 30
0.0
 41
1.0
 10
2792.298779904791
 20
615.9530842661817
 30
0.0
 41
0.9957935554473137
 10
2793.727941102791
 20
623.6503641495457
 30
0.0
 41
1.0
 10
2795.239357644995
 20
631.7841348645685
 30
0.0
 41
0.9953074557781331
 10
2798.289179978579
 20
639.4744657899698
 30
0.0
 41
1.0
 10
2801.462472308939
 20
647.4723940119335
 30
0.0
 41
0.9949273090492604
 10
2806.172503510747
 20
654.6732443877986
 30
0.0
 41
1.0
 10
2811.10815945892
 20
662.2159610865581
 30
0.0
 41
0.9944382732593444
 10
2817.514294607088
 20
668.55746779237
 30
0.0
 41
1.0
 10
2823.917716124878
 20
674.8936512731683
 30
0.0
 41
0.9944452746300959
 10
2831.505675578
 20
679.7489473068445
 30
0.0
 41
1.0
 10
2838.744606777285
 20
684.3790352027686
 30
0.0
 41
0.9949404548058969
 10
2846.763034961116
 20
687.4684766235952
 30
0.0
 41
1.0
 10
2854.468110292475
 20
690.4357206313648
 30
0.0
 41
0.9953261920643636
 10
2862.599889258837
 20
691.8664175614659
 30
0.0
 41
1.0
 10
2867.937898708136
 20
692.8049017788812
 30
0.0
 41
0.9979762936512931
 10
2873.351851044537
 20
693.0583137089895
 30
0.0
 41
1.0
  0
SPLINE
  5
64
330
1F
100
AcDbEntity
  8
Linee visibili 2D - Tangent
100
AcDbSpline
210
0.0
220
0.0
230
1.0
 70
    12
 71
     2
 72
     6
 73
     3
 74
     0
 42
0.0000000001
 43
0.0000000001
 40
0.0
 40
0.0
 40
0.0
 40
0.7995126616143865
 40
0.7995126616143865
 40
0.7995126616143865
 10
2877.323756105196
 20
523.0972036040806
 30
0.0
 41
1.0
 10
2877.323757090026
 20
523.4969599348866
 30
0.0
 41
0.9999999999999987
 10
2877.323758116633
 20
523.8967162656925
 30
0.0
 41
1.0
  0
SPLINE
  5
65
330
1F
100
AcDbEntity
  8
Linee visibili 2D - Tangent
100
AcDbSpline
210
0.0
220
0.0
230
1.0
 70
    12
 71
     2
 72
     8
 73
     5
 74
     0
 42
0.0000000001
 43
0.0000000001
 40
0.0
 40
0.0
 40
0.0
 40
131.5744376219868
 40
131.5744376219868
 40
263.1488752439736
 40
263.1488752439736
 40
263.1488752439736
 10
2881.296270537697
 20
693.0584958734865
 30
0.0
 41
1.0
 10
2964.269767512445
 20
689.1789127771831
 30
0.0
 41
0.7153152956788557
 10
2962.328834847897
 20
606.1374463546106
 30
0.0
 41
1.0
 10
2960.387902183351
 20
523.095979932038
 30
0.0
 41
0.7153152956788557
 10
2877.32375610502
 20
523.0972036040805
 30
0.0
 41
1.0
  0
SPLINE
  5
66
330
1F
100
AcDbEntity
  8
Linee visibili 2D
100
AcDbSpline
210
0.0
220
0.0
230
1.0
 70
    12
 71
     2
 72
     6
 73
     3
 74
     0
 42
0.0000000001
 43
0.0000000001
 40
0.0
 40
0.0
 40
0.0
 40
0.8234602561740276
 40
0.8234602561740276
 40
0.8234602561740276
 10
2880.47342469021
 20
693.0550490581819
 30
0.0
 41
1.0
 10
2880.884732800236
 20
693.0841815325258
 30
0.0
 41
0.9977882357713337
 10
2881.296270537697
 20
693.0584958734865
 30
0.0
 41
1.0
  0
SPLINE
  5
67
330
1F
100
AcDbEntity
  8
Linee visibili 2D
100
AcDbSpline
210
0.0
220
0.0
230
1.0
 70
    12
 71
     3
 72
    10
 73
     6
 74
     0
 42
0.0000000001
 43
0.0000000001
 40
0.1309920666516749
 40
0.1309920666516749
 40
0.1309920666516749
 40
0.1309920666516749
 40
1.71247924106106
 40
1.71247924106106
 40
3.263095370864349
 40
3.263095370864349
 40
3.263095370864349
 40
3.263095370864349
 10
2877.323974953065
 20
692.3516142257231
 30
0.0
 41
1.0
 10
2877.904150587818
 20
692.363034487506
 30
0.0
 41
1.0
 10
2878.392502008008
 20
692.6238771666174
 30
0.0
 41
1.0
 10
2879.447941414977
 20
692.8851921811115
 30
0.0
 41
1.0
 10
2879.957793102763
 20
692.9929126200626
 30
0.0
 41
1.0
 10
2880.47342469021
 20
693.0550490581819
 30
0.0
 41
1.0
  0
SPLINE
  5
68
330
1F
100
AcDbEntity
  8
Linee visibili 2D
100
AcDbSpline
210
0.0
220
0.0
230
1.0
 70
    24
 71
     2
 72
     6
 73
     3
 74
     0
 42
0.0000000001
 43
0.0000000001
 40
0.0
 40
0.0
 40
0.0
 40
1.274847110233736
 40
1.274847110233736
 40
1.274847110233736
 10
2888.190643032728
 20
694.4408870638223
 30
0.0
 10
2888.190643032728
 20
693.8034635087054
 30
0.0
 10
2888.190643032728
 20
693.1660399535886
 30
0.0
  0
SPLINE
  5
69
330
1F
100
AcDbEntity
  8
Linee visibili 2D
100
AcDbSpline
210
0.0
220
0.0
230
1.0
 70
    12
 71
     2
 72
    12
 73
     9
 74
     0
 42
0.0000000001
 43
0.0000000001
 40
0.0
 40
0.0
 40
0.0
 40
129.221621115921
 40
129.221621115921
 40
258.4432422318419
 40
258.4432422318419
 40
387.6648633477628
 40
387.6648633477628
 40
516.8864844636836
 40
516.8864844636836
 40
516.8864844636836
 10
2866.457306873401
 20
693.1660399535886
 30
0.0
 41
1.0
 10
2786.654775352652
 20
682.9688562140452
 30
0.0
 41
0.7292129260644377
 10
2791.763678784312
 20
602.6798426501456
 30
0.0
 41
1.0
 10
2796.872582215971
 20
522.3908290862458
 30
0.0
 41
0.7292129260644378
 10
2877.323974953065
 20
522.3908290862462
 30
0.0
 41
1.0
 10
2957.775367690158
 20
522.3908290862463
 30
0.0
 41
0.7292129260644397
 10
2962.884271121818
 20
602.679842650146
 30
0.0
 41
1.0
 10
2967.993174553477
 20
682.9688562140457
 30
0.0
 41
0.7292129260644377
 10
2888.190643032728
 20
693.1660399535886
 30
0.0
 41
1.0
  0
SPLINE
  5
6A
330
1F
100
AcDbEntity
  8
Linee visibili 2D
100
AcDbSpline
210
0.0
220
0.0
230
1.0
 70
    24
 71
     2
 72
     6
 73
     3
 74
     0
 42
0.0000000001
 43
0.0000000001
 40
0.0
 40
0.0
 40
0.0
 40
1.274847110233736
 40
1.274847110233736
 40
1.274847110233736
 10
2866.457306873401
 20
693.1660399535886
 30
0.0
 10
2866.457306873401
 20
693.8034635087054
 30
0.0
 10
2866.457306873401
 20
694.4408870638223
 30
0.0
  0
SPLINE
  5
6B
330
1F
100
AcDbEntity
  8
Linee visibili 2D
100
AcDbSpline
210
0.0
220
0.0
230
1.0
 70
    24
 71
     2
 72
     6
 73
     3
 74
     0
 42
0.0000000001
 43
0.0000000001
 40
0.0
 40
0.0
 40
0.0
 40
0.2756089743588631
 40
0.2756089743588631
 40
0.2756089743588631
 10
2867.590586976171
 20
679.4397613126221
 30
0.0
 10
2867.59056037958
 20
679.3019568280092
 30
0.0
 10
2867.590533782988
 20
679.1641523433964
 30
0.0
  0
SPLINE
  5
6C
330
1F
100
AcDbEntity
  8
Linee visibili 2D
100
AcDbSpline
210
0.0
220
0.0
230
1.0
 70
    24
 71
     2
 72
     6
 73
     3
 74
     0
 42
0.0000000001
 43
0.0000000001
 40
0.0
 40
0.0
 40
0.0
 40
0.2754820678466617
 40
0.2754820678466617
 40
0.2754820678466617
 10
2887.046985802296
 20
679.1656293138656
 30
0.0
 10
2887.046951801098
 20
679.3033703435923
 30
0.0
 10
2887.046917799899
 20
679.441111373319
 30
0.0
  0
SPLINE
  5
6D
330
1F
100
AcDbEntity
  8
Linee visibili 2D
100
AcDbSpline
210
0.0
220
0.0
230
1.0
 70
    12
 71
     2
 72
     6
 73
     3
 74
     0
 42
0.0000000001
 43
0.0000000001
 40
0.0
 40
0.0
 40
0.0
 40
3.775714172669772
 40
3.775714172669772
 40
3.775714172669772
 10
2887.04788657472
 20
675.5165426432008
 30
0.0
 41
1.0
 10
2886.750143893488
 20
677.3807727750641
 30
0.0
 41
0.9999999346909576
 10
2886.451053782699
 20
679.2447872048369
 30
0.0
 41
1.0
  0
SPLINE
  5
6E
330
1F
100
AcDbEntity
  8
Linee visibili 2D
100
AcDbSpline
210
0.0
220
0.0
230
1.0
 70
    12
 71
     2
 72
     6
 73
     3
 74
     0
 42
0.0000000001
 43
0.0000000001
 40
0.0
 40
0.0
 40
0.0
 40
9.148585820947622
 40
9.148585820947622
 40
9.148585820947622
 10
2877.323974953065
 20
679.7739389988885
 30
0.0
 41
1.0
 10
2881.904383888779
 20
679.8003371640816
 30
0.0
 41
0.9979734691595337
 10
2886.451053782699
 20
679.244787204837
 30
0.0
 41
1.0
  0
SPLINE
  5
6F
330
1F
100
AcDbEntity
  8
Linee visibili 2D
100
AcDbSpline
210
0.0
220
0.0
230
1.0
 70
    12
 71
     2
 72
     6
 73
     3
 74
     0
 42
0.0000000001
 43
0.0000000001
 40
0.0
 40
0.0
 40
0.0
 40
9.158097323896788
 40
9.158097323896788
 40
9.158097323896788
 10
2868.187445709942
 20
679.2435694614105
 30
0.0
 41
1.0
 10
2872.738801988573
 20
679.8000295744384
 30
0.0
 41
0.9979734691595329
 10
2877.323974953064
 20
679.7739389988885
 30
0.0
 41
1.0
  0
SPLINE
  5
70
330
1F
100
AcDbEntity
  8
Linee visibili 2D
100
AcDbSpline
210
0.0
220
0.0
230
1.0
 70
    12
 71
     2
 72
     6
 73
     3
 74
     0
 42
0.0000000001
 43
0.0000000001
 40
0.0
 40
0.0
 40
0.0
 40
3.776098948987241
 40
3.776098948987241
 40
3.776098948987241
 10
2868.187445709943
 20
679.2435694614105
 30
0.0
 41
1.0
 10
2867.8879620651
 20
677.379423362882
 30
0.0
 41
0.9999999343459715
 10
2867.589829499668
 20
675.515060709422
 30
0.0
 41
1.0
  0
SPLINE
  5
71
330
1F
100
AcDbEntity
  8
Linee visibili 2D
100
AcDbSpline
210
0.0
220
0.0
230
1.0
 70
    12
 71
     2
 72
     6
 73
     3
 74
     0
 42
0.0000000001
 43
0.0000000001
 40
0.0
 40
0.0
 40
0.0
 40
19.52409593736774
 40
19.52409593736774
 40
19.52409593736774
 10
2867.589829499668
 20
675.515060709422
 30
0.0
 41
1.0
 10
2877.318751705169
 20
676.9119602920042
 30
0.0
 41
0.989859594381331
 10
2887.04788657472
 20
675.5165426432009
 30
0.0
 41
1.0
  0
SPLINE
  5
72
330
1F
100
AcDbEntity
  8
Linee visibili 2D - Tangent
100
AcDbSpline
210
0.0
220
0.0
230
1.0
 70
    12
 71
     2
 72
    12
 73
     9
 74
     0
 42
0.0000000001
 43
0.0000000001
 40
0.0
 40
0.0
 40
0.0
 40
66.15283923426777
 40
66.15283923426777
 40
132.3056784685355
 40
132.3056784685355
 40
198.4585177028033
 40
198.4585177028033
 40
264.6113569370711
 40
264.6113569370711
 40
264.6113569370711
 10
2877.32375811638
 20
523.8967162656925
 30
0.0
 41
1.0
 10
2912.212352362053
 20
523.8960454829027
 30
0.0
 41
0.9238778162422345
 10
2936.882566977725
 20
548.5657540281159
 30
0.0
 41
1.0
 10
2961.552781593398
 20
573.235462573329
 30
0.0
 41
0.9238778162422345
 10
2961.552826502315
 20
608.1240568254207
 30
0.0
 41
1.0
 10
2961.552871411232
 20
643.0126510775125
 30
0.0
 41
0.9238778162422345
 10
2936.88272030579
 20
667.6824231340953
 30
0.0
 41
1.0
 10
2912.212569200348
 20
692.3521951906782
 30
0.0
 41
0.9238778162422345
 10
2877.323974953065
 20
692.3516142257231
 30
0.0
 41
1.0
  0
SPLINE
  5
73
330
1F
100
AcDbEntity
  8
Linee visibili 2D
100
AcDbSpline
210
0.0
220
0.0
230
1.0
 70
    15
 71
     2
 72
    12
 73
     9
 74
     0
 42
0.0000000001
 43
0.0000000001
 40
0.0
 40
0.0
 40
0.0
 40
112.777492372208
 40
112.777492372208
 40
225.5549847444157
 40
225.5549847444157
 40
338.3324771166235
 40
338.3324771166235
 40
451.1099694888312
 40
451.1099694888312
 40
451.1099694888312
 10
2877.324404868311
 20
536.5097932299768
 30
0.0
 41
1.0
 10
2805.528023349705
 20
536.5090767045657
 30
0.0
 41
0.7071067811865469
 10
2805.527306824294
 20
608.305458223172
 30
0.0
 41
1.0
 10
2805.526590298883
 20
680.1018397417779
 30
0.0
 41
0.7071067811865495
 10
2877.322971817489
 20
680.1025562671891
 30
0.0
 41
1.0
 10
2949.119353336096
 20
680.1032727926001
 30
0.0
 41
0.7071067811865475
 10
2949.120069861507
 20
608.306891273994
 30
0.0
 41
1.0
 10
2949.120786386917
 20
536.5105097553881
 30
0.0
 41
0.7071067811865492
 10
2877.324404868311
 20
536.5097932299768
 30
0.0
 41
1.0
  0
SPLINE
  5
74
330
1F
100
AcDbEntity
  8
Linee visibili 2D - Tangent
100
AcDbSpline
210
0.0
220
0.0
230
1.0
 70
    12
 71
     2
 72
     8
 73
     5
 74
     0
 42
0.0000000001
 43
0.0000000001
 40
0.0
 40
0.0
 40
0.0
 40
132.3041693223662
 40
132.3041693223662
 40
264.6083386447324
 40
264.6083386447324
 40
264.6083386447324
 10
2877.323974953065
 20
692.3516142257231
 30
0.0
 41
1.0
 10
2793.096524123908
 20
692.3517244932116
 30
0.0
 41
0.7071067734245752
 10
2793.096415705563
 20
608.1242736640522
 30
0.0
 41
1.0
 10
2793.096307287219
 20
523.8968228348929
 30
0.0
 41
0.7071067734245752
 10
2877.32375811638
 20
523.8967162656925
 30
0.0
 41
1.0
  0
SPLINE
  5
75
330
1F
100
AcDbEntity
  8
Linee visibili 2D
100
AcDbSpline
210
0.0
220
0.0
230
1.0
 70
    24
 71
     2
 72
     6
 73
     3
 74
     0
 42
0.0000000001
 43
0.0000000001
 40
0.0
 40
0.0
 40
0.0
 40
0.3666680796633273
 40
0.3666680796633273
 40
0.3666680796633273
 10
2887.823974953065
 20
694.4408870638223
 30
0.0
 10
2888.007308992896
 20
694.4408870638223
 30
0.0
 10
2888.190643032728
 20
694.4408870638223
 30
0.0
  0
SPLINE
  5
76
330
1F
100
AcDbEntity
  8
Linee visibili 2D
100
AcDbSpline
210
0.0
220
0.0
230
1.0
 70
    24
 71
     2
 72
     6
 73
     3
 74
     0
 42
0.0000000001
 43
0.0000000001
 40
0.0
 40
0.0
 40
0.0
 40
20.94601776401203
 40
20.94601776401203
 40
20.94601776401203
 10
2866.823974953065
 20
694.4408870638223
 30
0.0
 10
2877.296983835071
 20
694.4408870638223
 30
0.0
 10
2887.769992717077
 20
694.4408870638223
 30
0.0
  0
SPLINE
  5
77
330
1F
100
AcDbEntity
  8
Linee visibili 2D
100
AcDbSpline
210
0.0
220
0.0
230
1.0
 70
    24
 71
     2
 72
     6
 73
     3
 74
     0
 42
0.0000000001
 43
0.0000000001
 40
0.0
 40
0.0
 40
0.0
 40
0.3666680796634409
 40
0.3666680796634409
 40
0.3666680796634409
 10
2866.457306873401
 20
694.4408870638223
 30
0.0
 10
2866.640640913233
 20
694.4408870638223
 30
0.0
 10
2866.823974953065
 20
694.4408870638223
 30
0.0
  0
SPLINE
  5
78
330
1F
100
AcDbEntity
  8
Linee visibili 2D
100
AcDbSpline
210
0.0
220
0.0
230
1.0
 70
    24
 71
     2
 72
     6
 73
     3
 74
     0
 42
0.0000000001
 43
0.0000000001
 40
0.0
 40
0.0
 40
0.0
 40
2.935084337152716
 40
2.935084337152716
 40
2.935084337152716
 10
2869.744276528209
 20
714.1241652344481
 30
0.0
 10
2868.276734359632
 20
714.1241652477057
 30
0.0
 10
2866.809192191056
 20
714.1241652609633
 30
0.0
  0
SPLINE
  5
79
330
1F
100
AcDbEntity
  8
Linee visibili 2D
100
AcDbSpline
210
0.0
220
0.0
230
1.0
 70
    12
 71
     2
 72
     6
 73
     3
 74
     0
 42
0.0000000001
 43
0.0000000001
 40
0.0
 40
0.0
 40
0.0
 40
10.56904569814787
 40
10.56904569814787
 40
10.56904569814787
 10
2866.754929254917
 20
694.8241653441806
 30
0.0
 41
1.0
 10
2872.039452103991
 20
694.8241652774234
 30
0.0
 41
1.0
 10
2877.323974953065
 20
694.8241653298755
 30
0.0
 41
1.0
  0
SPLINE
  5
7A
330
1F
100
AcDbEntity
  8
Linee visibili 2D
100
AcDbSpline
210
0.0
220
0.0
230
1.0
 70
    12
 71
     2
 72
     6
 73
     3
 74
     0
 42
0.0000000001
 43
0.0000000001
 40
0.0
 40
0.0
 40
0.0
 40
10.56781139857526
 40
10.56781139857526
 40
10.56781139857526
 10
2877.323974953065
 20
694.8241652249714
 30
0.0
 41
1.0
 10
2882.607880652352
 20
694.8241652027127
 30
0.0
 41
1.0
 10
2887.89178635164
 20
694.8241652996633
 30
0.0
 41
1.0
  0
SPLINE
  5
7B
330
1F
100
AcDbEntity
  8
Linee visibili 2D
100
AcDbSpline
210
0.0
220
0.0
230
1.0
 70
    12
 71
     2
 72
     6
 73
     3
 74
     0
 42
0.0000000001
 43
0.0000000001
 40
0.0
 40
0.0
 40
0.0
 40
2.933870428052388
 40
2.933870428052388
 40
2.933870428052388
 10
2887.837549570761
 20
714.1241652666946
 30
0.0
 41
1.0
 10
2886.370614356736
 20
714.1241652062839
 30
0.0
 41
0.9999999999999997
 10
2884.903679142709
 20
714.1241652344729
 30
0.0
 41
1.0
  0
SPLINE
  5
7C
330
1F
100
AcDbEntity
  8
Linee visibili 2D
100
AcDbSpline
210
0.0
220
0.0
230
1.0
 70
    24
 71
     2
 72
     6
 73
     3
 74
     0
 42
0.0000000001
 43
0.0000000001
 40
0.0
 40
0.0
 40
0.0
 40
1.315712169861968
 40
1.315712169861968
 40
1.315712169861968
 10
2868.139687122927
 20
694.6241652455686
 30
0.0
 10
2867.481831037996
 20
694.6241652455686
 30
0.0
 10
2866.823974953065
 20
694.6241652455686
 30
0.0
  0
SPLINE
  5
7D
330
1F
100
AcDbEntity
  8
Linee visibili 2D
100
AcDbSpline
210
0.0
220
0.0
230
1.0
 70
    24
 71
     2
 72
     6
 73
     3
 74
     0
 42
0.0000000001
 43
0.0000000001
 40
0.0
 40
0.0
 40
0.0
 40
1.315712169861968
 40
1.315712169861968
 40
1.315712169861968
 10
2887.823974953065
 20
694.6241652455686
 30
0.0
 10
2887.166118868134
 20
694.6241652455686
 30
0.0
 10
2886.508262783203
 20
694.6241652455686
 30
0.0
  0
SPLINE
  5
7E
330
1F
100
AcDbEntity
  8
Linee visibili 2D
100
AcDbSpline
210
0.0
220
0.0
230
1.0
 70
    24
 71
     2
 72
     6
 73
     3
 74
     0
 42
0.0000000001
 43
0.0000000001
 40
0.0
 40
0.0
 40
0.0
 40
5.0
 40
5.0
 40
5.0
 10
3383.902620813727
 20
938.7606580926997
 30
0.0
 10
3383.902620813727
 20
941.2606580926997
 30
0.0
 10
3383.902620813727
 20
943.7606580926997
 30
0.0
  0
SPLINE
  5
7F
330
1F
100
AcDbEntity
  8
Linee visibili 2D
100
AcDbSpline
210
0.0
220
0.0
230
1.0
 70
    24
 71
     2
 72
     6
 73
     3
 74
     0
 42
0.0000000001
 43
0.0000000001
 40
0.0
 40
0.0
 40
0.0
 40
5.0
 40
5.0
 40
5.0
 10
3187.902620813727
 20
943.7606580926997
 30
0.0
 10
3187.902620813727
 20
941.2606580926997
 30
0.0
 10
3187.902620813727
 20
938.7606580926997
 30
0.0
  0
SPLINE
  5
80
330
1F
100
AcDbEntity
  8
Linee visibili 2D
100
AcDbSpline
210
0.0
220
0.0
230
1.0
 70
    24
 71
     2
 72
     6
 73
     3
 74
     0
 42
0.0000000001
 43
0.0000000001
 40
0.0
 40
0.0
 40
0.0
 40
3.0
 40
3.0
 40
3.0
 10
3180.902620813727
 20
946.7606580926997
 30
0.0
 10
3180.902620813727
 20
945.2606580926997
 30
0.0
 10
3180.902620813727
 20
943.7606580926997
 30
0.0
  0
SPLINE
  5
81
330
1F
100
AcDbEntity
  8
Linee visibili 2D
100
AcDbSpline
210
0.0
220
0.0
230
1.0
 70
    24
 71
     2
 72
     6
 73
     3
 74
     0
 42
0.0000000001
 43
0.0000000001
 40
0.0
 40
0.0
 40
0.0
 40
3.0
 40
3.0
 40
3.0
 10
3390.902620813727
 20
943.7606580926997
 30
0.0
 10
3390.902620813727
 20
945.2606580926997
 30
0.0
 10
3390.902620813727
 20
946.7606580926997
 30
0.0
  0
SPLINE
  5
82
330
1F
100
AcDbEntity
  8
Linee visibili 2D
100
AcDbSpline
210
0.0
220
0.0
230
1.0
 70
    12
 71
     2
 72
     6
 73
     3
 74
     0
 42
0.0000000001
 43
0.0000000001
 40
0.0
 40
0.0
 40
0.0
 40
6.102851297740949
 40
6.102851297740949
 40
6.102851297740949
 10
3190.227480582428
 20
946.7606580926997
 30
0.0
 41
1.0
 10
3193.109496669432
 20
947.7681078124234
 30
0.0
 41
0.999213593549993
 10
3195.902620813727
 20
949.0007590924199
 30
0.0
 41
1.0
  0
SPLINE
  5
83
330
1F
100
AcDbEntity
  8
Linee visibili 2D
100
AcDbSpline
210
0.0
220
0.0
230
1.0
 70
    12
 71
     2
 72
     6
 73
     3
 74
     0
 42
0.0000000001
 43
0.0000000001
 40
0.0
 40
0.0
 40
0.0
 40
32.19669122670258
 40
32.19669122670258
 40
32.19669122670258
 10
3148.942416506815
 20
940.790617955418
 30
0.0
 41
1.0
 10
3165.10946049266
 20
940.6009133579502
 30
0.0
 41
0.9935358233987988
 10
3180.902620813727
 20
944.0629050026029
 30
0.0
 41
1.0
  0
SPLINE
  5
84
330
1F
100
AcDbEntity
  8
Linee visibili 2D
100
AcDbSpline
210
0.0
220
0.0
230
1.0
 70
     8
 71
     3
 72
    11
 73
     7
 74
     0
 42
0.0000000001
 43
0.0000000001
 40
0.0
 40
0.0
 40
0.0
 40
0.0
 40
5.132229591294958
 40
10.46333481908837
 40
21.904802878984
 40
48.09543334701053
 40
48.09543334701053
 40
48.09543334701053
 40
48.09543334701053
 10
3195.902620813731
 20
952.2953079156521
 30
0.0
 10
3194.352233841284
 20
951.5722589412798
 30
0.0
 10
3191.133856588172
 20
950.2216842224263
 30
0.0
 10
3184.220388290521
 20
947.8616239745256
 30
0.0
 10
3170.245686422646
 20
944.5974273017645
 30
0.0
 10
3157.665650840058
 20
943.7987256262843
 30
0.0
 10
3148.942561179438
 20
943.790618156373
 30
0.0
  0
SPLINE
  5
85
330
1F
100
AcDbEntity
  8
Linee visibili 2D
100
AcDbSpline
210
0.0
220
0.0
230
1.0
 70
    12
 71
     2
 72
     6
 73
     3
 74
     0
 42
0.0000000001
 43
0.0000000001
 40
0.0
 40
0.0
 40
0.0
 40
17.08863196834297
 40
17.08863196834297
 40
17.08863196834297
 10
3131.698962801473
 20
940.7906227445626
 30
0.0
 41
1.0
 10
3140.243278785661
 20
940.7906309202241
 30
0.0
 41
0.999999999996414
 10
3148.78759476977
 20
940.7905933314901
 30
0.0
 41
1.0
  0
SPLINE
  5
86
330
1F
100
AcDbEntity
  8
Linee visibili 2D
100
AcDbSpline
210
0.0
220
0.0
230
1.0
 70
    12
 71
     2
 72
     6
 73
     3
 74
     0
 42
0.0000000001
 43
0.0000000001
 40
0.0
 40
0.0
 40
0.0
 40
17.33217430809821
 40
17.33217430809821
 40
17.33217430809821
 10
3148.753556883745
 20
943.7905962605425
 30
0.0
 41
1.0
 10
3140.087469729741
 20
943.7906280982115
 30
0.0
 41
0.9999999999976976
 10
3131.421382575681
 20
943.7906227426303
 30
0.0
 41
1.0
  0
SPLINE
  5
87
330
1F
100
AcDbEntity
  8
Linee visibili 2D
100
AcDbSpline
210
0.0
220
0.0
230
1.0
 70
    12
 71
     2
 72
     8
 73
     5
 74
     0
 42
0.0000000001
 43
0.0000000001
 40
0.0
 40
0.0
 40
0.0
 40
1.399911770814585
 40
1.399911770814585
 40
2.799823541629169
 40
2.799823541629169
 40
2.799823541629169
 10
3130.757120142867
 20
943.7369327708462
 30
0.0
 41
1.0
 10
3130.027332400433
 20
943.5405218994374
 30
0.0
 41
0.8928415367969024
 10
3129.751553684839
 20
942.8368788937598
 30
0.0
 41
1.0
 10
3129.475774969244
 20
942.133235888082
 30
0.0
 41
0.8928415367969024
 10
3129.87775446964
 20
941.4932516221231
 30
0.0
 41
1.0
  0
SPLINE
  5
88
330
1F
100
AcDbEntity
  8
Linee visibili 2D
100
AcDbSpline
210
0.0
220
0.0
230
1.0
 70
    24
 71
     2
 72
     6
 73
     3
 74
     0
 42
0.0000000001
 43
0.0000000001
 40
0.0
 40
0.0
 40
0.0
 40
83.43157138502488
 40
83.43157138502488
 40
83.43157138502488
 10
3215.902620813727
 20
1363.829086707675
 30
0.0
 10
3215.902620813727
 20
1405.544872400187
 30
0.0
 10
3215.902620813727
 20
1447.2606580927
 30
0.0
  0
SPLINE
  5
89
330
1F
100
AcDbEntity
  8
Linee visibili 2D
100
AcDbSpline
210
0.0
220
0.0
230
1.0
 70
    24
 71
     2
 72
     6
 73
     3
 74
     0
 42
0.0000000001
 43
0.0000000001
 40
0.0
 40
0.0
 40
0.0
 40
1.932365605634573
 40
1.932365605634573
 40
1.932365605634573
 10
3234.018264601108
 20
1363.760658402777
 30
0.0
 10
3233.052081798291
 20
1363.760658402777
 30
0.0
 10
3232.085898995473
 20
1363.760658402777
 30
0.0
  0
SPLINE
  5
8A
330
1F
100
AcDbEntity
  8
Linee visibili 2D
100
AcDbSpline
210
0.0
220
0.0
230
1.0
 70
    24
 71
     2
 72
     6
 73
     3
 74
     0
 42
0.0000000001
 43
0.0000000001
 40
0.0
 40
0.0
 40
0.0
 40
20.23746742571722
 40
20.23746742571722
 40
20.23746742571722
 10
3404.135859883187
 20
1342.763438382702
 30
0.0
 10
3403.782721169342
 20
1352.876008036382
 30
0.0
 10
3403.429582455497
 20
1362.988577690061
 30
0.0
  0
SPLINE
  5
8B
330
1F
100
AcDbEntity
  8
Linee visibili 2D
100
AcDbSpline
210
0.0
220
0.0
230
1.0
 70
    12
 71
     2
 72
     6
 73
     3
 74
     0
 42
0.0000000001
 43
0.0000000001
 40
0.0
 40
0.0
 40
0.0
 40
1.227696663542106
 40
1.227696663542106
 40
1.227696663542106
 10
3403.431397071585
 20
1362.988641212597
 30
0.0
 41
1.0
 10
3403.402176637955
 20
1363.758394725517
 30
0.0
 41
0.7214116126075172
 10
3402.631872034851
 20
1363.760658092695
 30
0.0
 41
1.0
  0
SPLINE
  5
8C
330
1F
100
AcDbEntity
  8
Linee visibili 2D
100
AcDbSpline
210
0.0
220
0.0
230
1.0
 70
    24
 71
     2
 72
     6
 73
     3
 74
     0
 42
0.0000000001
 43
0.0000000001
 40
0.0
 40
0.0
 40
0.0
 40
0.3832782645678776
 40
0.3832782645678776
 40
0.3832782645678776
 10
3231.702620730905
 20
1344.138030787293
 30
0.0
 10
3231.894259863189
 20
1344.138030787293
 30
0.0
 10
3232.085898995473
 20
1344.138030787293
 30
0.0
  0
SPLINE
  5
8D
330
1F
100
AcDbEntity
  8
Linee visibili 2D
100
AcDbSpline
210
0.0
220
0.0
230
1.0
 70
    24
 71
     2
 72
     6
 73
     3
 74
     0
 42
0.0000000001
 43
0.0000000001
 40
0.0
 40
0.0
 40
0.0
 40
0.3832781879399363
 40
0.3832781879399363
 40
0.3832781879399363
 10
3232.085898995473
 20
1362.383285398107
 30
0.0
 10
3231.894259901504
 20
1362.383285398107
 30
0.0
 10
3231.702620807534
 20
1362.383285398107
 30
0.0
  0
SPLINE
  5
8E
330
1F
100
AcDbEntity
  8
Linee visibili 2D
100
AcDbSpline
210
0.0
220
0.0
230
1.0
 70
    24
 71
     2
 72
     6
 73
     3
 74
     0
 42
0.0000000001
 43
0.0000000001
 40
0.0
 40
0.0
 40
0.0
 40
15.81730200971543
 40
15.81730200971543
 40
15.81730200971543
 10
3215.885318714995
 20
1342.692229592932
 30
0.0
 10
3223.793969719853
 20
1342.692229559625
 30
0.0
 10
3231.702620724711
 20
1342.692229526318
 30
0.0
  0
SPLINE
  5
8F
330
1F
100
AcDbEntity
  8
Linee visibili 2D
100
AcDbSpline
210
0.0
220
0.0
230
1.0
 70
    28
 71
     2
 72
    10
 73
     7
 74
     0
 42
0.0000000001
 43
0.0000000001
 40
149.1274762750905
 40
149.1274762750905
 40
149.1274762750905
 40
153.9380400258999
 40
153.9380400258999
 40
307.8760800517997
 40
307.8760800517997
 40
457.0035563268901
 40
457.0035563268901
 40
457.0035563268901
 10
3383.805189870882
 20
938.7606580926996
 30
0.0
 41
0.9822662308921543
 10
3383.902620813727
 20
938.7606580926998
 30
0.0
 41
0.9908470869120796
 10
3383.902620813727
 20
938.7606580926997
 30
0.0
 41
1.0
 10
3383.902620813727
 20
938.7606580926996
 30
0.0
 41
0.7071067811865476
 10
3285.902620813727
 20
938.7606580926997
 30
0.0
 41
1.0
 10
3192.178304653653
 20
938.7606580926996
 30
0.0
 41
0.716259694274468
 10
3188.000051756571
 20
938.7606580926996
 30
0.0
 41
0.9822662308921541
  0
SPLINE
  5
90
330
1F
100
AcDbEntity
  8
Linee visibili 2D
100
AcDbSpline
210
0.0
220
0.0
230
1.0
 70
    24
 71
     2
 72
     6
 73
     3
 74
     0
 42
0.0000000001
 43
0.0000000001
 40
0.0
 40
0.0
 40
0.0
 40
105.0000000002804
 40
105.0000000002804
 40
105.0000000002804
 10
3180.902620813727
 20
946.7606580926997
 30
0.0
 10
3233.402620813868
 20
946.7606580926997
 30
0.0
 10
3285.902620814008
 20
946.7606580926997
 30
0.0
  0
SPLINE
  5
91
330
1F
100
AcDbEntity
  8
Linee visibili 2D
100
AcDbSpline
210
0.0
220
0.0
230
1.0
 70
    24
 71
     2
 72
     6
 73
     3
 74
     0
 42
0.0000000001
 43
0.0000000001
 40
0.0
 40
0.0
 40
0.0
 40
104.9999999997193
 40
104.9999999997193
 40
104.9999999997193
 10
3285.902620814008
 20
946.7606580926997
 30
0.0
 10
3338.402620813868
 20
946.7606580926997
 30
0.0
 10
3390.902620813727
 20
946.7606580926997
 30
0.0
  0
SPLINE
  5
92
330
1F
100
AcDbEntity
  8
Linee visibili 2D
100
AcDbSpline
210
0.0
220
0.0
230
1.0
 70
    24
 71
     2
 72
     6
 73
     3
 74
     0
 42
0.0000000001
 43
0.0000000001
 40
0.0
 40
0.0
 40
0.0
 40
104.9999999997193
 40
104.9999999997193
 40
104.9999999997193
 10
3390.902620813727
 20
943.7606580926997
 30
0.0
 10
3338.402620813868
 20
943.7606580926997
 30
0.0
 10
3285.902620814008
 20
943.7606580926997
 30
0.0
  0
SPLINE
  5
93
330
1F
100
AcDbEntity
  8
Linee visibili 2D
100
AcDbSpline
210
0.0
220
0.0
230
1.0
 70
    24
 71
     2
 72
     6
 73
     3
 74
     0
 42
0.0000000001
 43
0.0000000001
 40
0.0
 40
0.0
 40
0.0
 40
105.0000000002804
 40
105.0000000002804
 40
105.0000000002804
 10
3285.902620814008
 20
943.7606580926997
 30
0.0
 10
3233.402620813868
 20
943.7606580926997
 30
0.0
 10
3180.902620813727
 20
943.7606580926997
 30
0.0
  0
SPLINE
  5
94
330
1F
100
AcDbEntity
  8
Linee visibili 2D
100
AcDbSpline
210
0.0
220
0.0
230
1.0
 70
    12
 71
     2
 72
    10
 73
     7
 74
     0
 42
0.0000000001
 43
0.0000000001
 40
0.0
 40
0.0
 40
0.0
 40
1.515762497768533
 40
1.515762497768533
 40
2.692927193329237
 40
2.692927193329237
 40
3.870091888889941
 40
3.870091888889941
 40
3.870091888889941
 10
3132.821042370235
 20
942.2906227407807
 30
0.0
 41
1.0
 10
3132.82118966491
 20
941.4609415215722
 30
0.0
 41
0.8751056256182992
 10
3132.118541944655
 20
941.0197418746733
 30
0.0
 41
1.0
 10
3131.592635469961
 20
940.6897098333162
 30
0.0
 41
0.9237550466916853
 10
3130.98748574361
 20
940.8286075551966
 30
0.0
 41
1.0
 10
3130.382336017258
 20
940.9675052770771
 30
0.0
 41
0.9237550466916853
 10
3130.052988289848
 20
941.4938405722041
 30
0.0
 41
1.0
  0
SPLINE
  5
95
330
1F
100
AcDbEntity
  8
Linee visibili 2D
100
AcDbSpline
210
0.0
220
0.0
230
1.0
 70
    12
 71
     2
 72
     6
 73
     3
 74
     0
 42
0.0000000001
 43
0.0000000001
 40
0.0
 40
0.0
 40
0.0
 40
0.8399192651469582
 40
0.8399192651469582
 40
0.8399192651469582
 10
3130.052988289848
 20
941.4938405722041
 30
0.0
 41
1.0
 10
3129.824088453948
 20
941.8593524476368
 30
0.0
 41
0.9611207288482477
 10
3129.82410289776
 20
942.2906227407807
 30
0.0
 41
1.0
  0
SPLINE
  5
96
330
1F
100
AcDbEntity
  8
Linee visibili 2D - Tangent
100
AcDbSpline
210
0.0
220
0.0
230
1.0
 70
    12
 71
     2
 72
    10
 73
     7
 74
     0
 42
0.0000000001
 43
0.0000000001
 40
0.0
 40
0.0
 40
0.0
 40
0.5184546538398812
 40
0.5184546538398812
 40
2.683869249744933
 40
2.683869249744933
 40
3.749521294610129
 40
3.749521294610129
 40
3.749521294610129
 10
3148.9418653749
 20
940.7906180608965
 30
0.0
 41
1.0
 10
3148.666328771176
 20
940.8043595045292
 30
0.0
 41
0.9118729755952564
 10
3148.493928022958
 20
941.0197364514831
 30
0.0
 41
1.0
 10
3147.828487646882
 20
941.9849184220805
 30
0.0
 41
0.8891613326108722
 10
3148.227139566392
 20
943.0873991600296
 30
0.0
 41
1.0
 10
3148.345132337604
 20
943.6829027171736
 30
0.0
 41
0.8262338568867644
 10
3148.942580446725
 20
943.7906177928947
 30
0.0
 41
1.0
  0
SPLINE
  5
97
330
1F
100
AcDbEntity
  8
Linee visibili 2D
100
AcDbSpline
210
0.0
220
0.0
230
1.0
 70
    12
 71
     2
 72
     8
 73
     5
 74
     0
 42
0.0000000001
 43
0.0000000001
 40
0.0
 40
0.0
 40
0.0
 40
2.354992762931838
 40
2.354992762931838
 40
4.709985525863603
 40
4.709985525863603
 40
4.709985525863603
 10
3129.82410289776
 20
942.2906227407807
 30
0.0
 41
1.0
 10
3129.823338156562
 20
943.7898572186151
 30
0.0
 41
0.7071069653562427
 10
3131.322572633998
 20
943.7906227407808
 30
0.0
 41
1.0
 10
3132.821807111433
 20
943.789857218615
 30
0.0
 41
0.7071069653561891
 10
3132.821042370235
 20
942.2906227407807
 30
0.0
 41
1.0
  0
SPLINE
  5
98
330
1F
100
AcDbEntity
  8
Linee visibili 2D
100
AcDbSpline
210
0.0
220
0.0
230
1.0
 70
    24
 71
     2
 72
     6
 73
     3
 74
     0
 42
0.0000000001
 43
0.0000000001
 40
0.0
 40
0.0
 40
0.0
 40
10.0
 40
10.0
 40
10.0
 10
3195.902620813727
 20
1447.2606580927
 30
0.0
 10
3200.902620813727
 20
1447.2606580927
 30
0.0
 10
3205.902620813727
 20
1447.2606580927
 30
0.0
  0
SPLINE
  5
99
330
1F
100
AcDbEntity
  8
Linee visibili 2D
100
AcDbSpline
210
0.0
220
0.0
230
1.0
 70
    24
 71
     2
 72
     6
 73
     3
 74
     0
 42
0.0000000001
 43
0.0000000001
 40
0.0
 40
0.0
 40
0.0
 40
10.0
 40
10.0
 40
10.0
 10
3205.902620813727
 20
947.2606580926997
 30
0.0
 10
3200.902620813727
 20
947.2606580926997
 30
0.0
 10
3195.902620813727
 20
947.2606580926997
 30
0.0
  0
SPLINE
  5
9A
330
1F
100
AcDbEntity
  8
Linee visibili 2D
100
AcDbSpline
210
0.0
220
0.0
230
1.0
 70
    24
 71
     2
 72
     6
 73
     3
 74
     0
 42
0.0000000001
 43
0.0000000001
 40
0.0
 40
0.0
 40
0.0
 40
10.0
 40
10.0
 40
10.0
 10
3215.902620813727
 20
947.2606580926997
 30
0.0
 10
3210.902620813727
 20
947.2606580926997
 30
0.0
 10
3205.902620813727
 20
947.2606580926997
 30
0.0
  0
SPLINE
  5
9B
330
1F
100
AcDbEntity
  8
Linee visibili 2D
100
AcDbSpline
210
0.0
220
0.0
230
1.0
 70
    24
 71
     2
 72
     6
 73
     3
 74
     0
 42
0.0000000001
 43
0.0000000001
 40
0.0
 40
0.0
 40
0.0
 40
10.0
 40
10.0
 40
10.0
 10
3215.902620813727
 20
1447.2606580927
 30
0.0
 10
3210.902620813727
 20
1447.2606580927
 30
0.0
 10
3205.902620813727
 20
1447.2606580927
 30
0.0
  0
SPLINE
  5
9C
330
1F
100
AcDbEntity
  8
Linee visibili 2D
100
AcDbSpline
210
0.0
220
0.0
230
1.0
 70
    12
 71
     2
 72
     6
 73
     3
 74
     0
 42
0.0000000001
 43
0.0000000001
 40
0.0
 40
0.0
 40
0.0
 40
9.734057748585911
 40
9.734057748585911
 40
9.734057748585911
 10
3233.468290185809
 20
1362.987537682595
 30
0.0
 41
1.0
 10
3233.840577885062
 20
1358.129964661592
 30
0.0
 41
0.9985260127940746
 10
3233.684157542587
 20
1353.2606580927
 30
0.0
 41
1.0
  0
SPLINE
  5
9D
330
1F
100
AcDbEntity
  8
Linee visibili 2D
100
AcDbSpline
210
0.0
220
0.0
230
1.0
 70
    24
 71
     2
 72
     6
 73
     3
 74
     0
 42
0.0000000001
 43
0.0000000001
 40
0.0
 40
0.0
 40
0.0
 40
1.598258547114142
 40
1.598258547114142
 40
1.598258547114142
 10
3233.684157542587
 20
1353.2606580927
 30
0.0
 10
3232.88502826903
 20
1353.2606580927
 30
0.0
 10
3232.085898995473
 20
1353.2606580927
 30
0.0
  0
SPLINE
  5
9E
330
1F
100
AcDbEntity
  8
Linee visibili 2D
100
AcDbSpline
210
0.0
220
0.0
230
1.0
 70
    12
 71
     2
 72
     6
 73
     3
 74
     0
 42
0.0000000001
 43
0.0000000001
 40
0.0
 40
0.0
 40
0.0
 40
10.50497953752998
 40
10.50497953752998
 40
10.50497953752998
 10
3233.360746105719
 20
1342.7606580927
 30
0.0
 41
1.0
 10
3233.522144048496
 20
1348.010667572526
 30
0.0
 41
0.9999999982816171
 10
3233.684157542582
 20
1353.260658092699
 30
0.0
 41
1.0
  0
SPLINE
  5
9F
330
1F
100
AcDbEntity
  8
Linee visibili 2D - Tangent
100
AcDbSpline
210
0.0
220
0.0
230
1.0
 70
     8
 71
     3
 72
     8
 73
     4
 74
     0
 42
0.0000000001
 43
0.0000000001
 40
0.0
 40
0.0
 40
0.0
 40
0.0
 40
169.9649266959184
 40
169.9649266959184
 40
169.9649266959184
 40
169.9649266959184
 10
3233.468290185809
 20
1362.987537682595
 30
0.0
 10
3290.120352782357
 20
1362.987867271154
 30
0.0
 10
3346.783965953591
 20
1362.988212529018
 30
0.0
 10
3403.429582455215
 20
1362.988577690061
 30
0.0
  0
SPLINE
  5
A0
330
1F
100
AcDbEntity
  8
Linee visibili 2D
100
AcDbSpline
210
0.0
220
0.0
230
1.0
 70
    12
 71
     2
 72
     6
 73
     3
 74
     0
 42
0.0000000001
 43
0.0000000001
 40
0.0
 40
0.0
 40
0.0
 40
0.2929443296221059
 40
0.2929443296221059
 40
0.2929443296221059
 10
3233.471737001114
 20
1363.278705461527
 30
0.0
 41
1.0
 10
3233.44204122952
 20
1363.133452706132
 30
0.0
 41
0.9820371296660483
 10
3233.468290185809
 20
1362.987537682595
 30
0.0
 41
1.0
  0
SPLINE
  5
A1
330
1F
100
AcDbEntity
  8
Linee visibili 2D
100
AcDbSpline
210
0.0
220
0.0
230
1.0
 70
    12
 71
     2
 72
     6
 73
     3
 74
     0
 42
0.0000000001
 43
0.0000000001
 40
0.0
 40
0.0
 40
0.0
 40
0.1598896815695732
 40
0.1598896815695732
 40
0.1598896815695732
 10
3234.175171833572
 20
1363.7606580927
 30
0.0
 41
1.0
 10
3234.095869868297
 20
1363.749900276858
 30
0.0
 41
0.9984360182058141
 10
3234.018264601108
 20
1363.730356612851
 30
0.0
 41
1.0
  0
SPLINE
  5
A2
330
1F
100
AcDbEntity
  8
Linee visibili 2D
100
AcDbSpline
210
0.0
220
0.0
230
1.0
 70
    24
 71
     2
 72
     6
 73
     3
 74
     0
 42
0.0000000001
 43
0.0000000001
 40
0.0
 40
0.0
 40
0.0
 40
1.274847110233736
 40
1.274847110233736
 40
1.274847110233736
 10
3232.085898995473
 20
1342.7606580927
 30
0.0
 10
3232.72332255059
 20
1342.7606580927
 30
0.0
 10
3233.360746105707
 20
1342.7606580927
 30
0.0
  0
SPLINE
  5
A3
330
1F
100
AcDbEntity
  8
Linee visibili 2D
100
AcDbSpline
210
0.0
220
0.0
230
1.0
 70
    28
 71
     2
 72
    10
 73
     7
 74
     0
 42
0.0000000001
 43
0.0000000001
 40
-262.4814178917208
 40
-262.4814178917208
 40
-262.4814178917208
 40
-258.4432422318482
 40
-258.4432422318482
 40
-129.2216211159241
 40
-129.2216211159241
 40
0.0
 40
0.0
 40
0.0
 10
3404.056242794483
 20
1342.7606580927
 30
0.0
 41
0.9836046888828079
 10
3404.135956973049
 20
1342.7606580927
 30
0.0
 41
0.9915379039395138
 10
3404.135956973049
 20
1342.7606580927
 30
0.0
 41
1.0
 10
3404.135956973049
 20
1342.7606580927
 30
0.0
 41
0.7292129260644384
 10
3323.846943409149
 20
1342.7606580927
 30
0.0
 41
1.0
 10
3243.55792984525
 20
1342.7606580927
 30
0.0
 41
0.7292129260644384
 10
3233.360746105707
 20
1342.7606580927
 30
0.0
 41
1.0
  0
SPLINE
  5
A4
330
1F
100
AcDbEntity
  8
Linee visibili 2D
100
AcDbSpline
210
0.0
220
0.0
230
1.0
 70
    24
 71
     3
 72
     8
 73
     4
 74
     0
 42
0.0000000001
 43
0.0000000001
 40
0.0
 40
0.0
 40
0.0
 40
0.0
 40
168.458497443893
 40
168.458497443893
 40
168.458497443893
 40
168.458497443893
 10
3402.630069403367
 20
1363.760658092699
 30
0.0
 10
3346.48650789348
 20
1363.760658092701
 30
0.0
 10
3290.325117611567
 20
1363.760658092701
 30
0.0
 10
3234.175171833572
 20
1363.7606580927
 30
0.0
  0
SPLINE
  5
A5
330
1F
100
AcDbEntity
  8
Linee visibili 2D
100
AcDbSpline
210
0.0
220
0.0
230
1.0
 70
    24
 71
     2
 72
     6
 73
     3
 74
     0
 42
0.0000000001
 43
0.0000000001
 40
0.0
 40
0.0
 40
0.0
 40
10.5
 40
10.5
 40
10.5
 10
3232.085898995473
 20
1353.2606580927
 30
0.0
 10
3232.085898995473
 20
1348.0106580927
 30
0.0
 10
3232.085898995473
 20
1342.7606580927
 30
0.0
  0
SPLINE
  5
A6
330
1F
100
AcDbEntity
  8
Linee visibili 2D
100
AcDbSpline
210
0.0
220
0.0
230
1.0
 70
    28
 71
     3
 72
    10
 73
     6
 74
     0
 42
0.0000000001
 43
0.0000000001
 40
47.73131067874253
 40
47.73131067874253
 40
47.73131067874253
 40
47.73131067874253
 40
48.76408229902774
 40
48.76408229902774
 40
65.21565189572826
 40
65.21565189572826
 40
65.21565189572826
 40
65.21565189572826
 10
3232.085898995473
 20
1363.709474496975
 30
0.0
 41
1.0
 10
3232.085898995473
 20
1363.744380902547
 30
0.0
 41
1.0
 10
3232.085898995473
 20
1363.761719778969
 30
0.0
 41
1.0
 10
3232.085898995473
 20
1363.742900373457
 30
0.0
 41
1.0
 10
3232.085898995473
 20
1359.046875138393
 30
0.0
 41
1.0
 10
3232.085898995473
 20
1353.2606580927
 30
0.0
 41
1.0
  0
SPLINE
  5
A7
330
1F
100
AcDbEntity
  8
Linee visibili 2D
100
AcDbSpline
210
0.0
220
0.0
230
1.0
 70
    24
 71
     2
 72
     6
 73
     3
 74
     0
 42
0.0000000001
 43
0.0000000001
 40
0.0
 40
0.0
 40
0.0
 40
21.13685709672291
 40
21.13685709672291
 40
21.13685709672291
 10
3231.702620813727
 20
1363.829086641061
 30
0.0
 10
3231.702620769219
 20
1353.260658092699
 30
0.0
 10
3231.702620724711
 20
1342.692229544338
 30
0.0
  0
SPLINE
  5
A8
330
1F
100
AcDbEntity
  8
Linee visibili 2D
100
AcDbSpline
210
0.0
220
0.0
230
1.0
 70
    24
 71
     2
 72
     6
 73
     3
 74
     0
 42
0.0000000001
 43
0.0000000001
 40
0.0
 40
0.0
 40
0.0
 40
15.81742665918017
 40
15.81742665918017
 40
15.81742665918017
 10
3215.885194154547
 20
1363.829086707675
 30
0.0
 10
3223.793907484137
 20
1363.829086674368
 30
0.0
 10
3231.702620813727
 20
1363.829086641061
 30
0.0
  0
SPLINE
  5
A9
330
1F
100
AcDbEntity
  8
Linee visibili 2D
100
AcDbSpline
210
0.0
220
0.0
230
1.0
 70
    12
 71
     2
 72
     6
 73
     3
 74
     0
 42
0.0000000001
 43
0.0000000001
 40
0.0
 40
0.0
 40
0.0
 40
4.627188605523796
 40
4.627188605523796
 40
4.627188605523796
 10
3212.402620824846
 20
1360.624788235365
 30
0.0
 41
1.0
 10
3214.135281977414
 20
1362.158367444869
 30
0.0
 41
0.9998233177276457
 10
3215.809075026504
 20
1363.755989643721
 30
0.0
 41
1.0
  0
SPLINE
  5
AA
330
1F
100
AcDbEntity
  8
Linee visibili 2D
100
AcDbSpline
210
0.0
220
0.0
230
1.0
 70
    24
 71
     2
 72
     6
 73
     3
 74
     0
 42
0.0000000001
 43
0.0000000001
 40
0.0
 40
0.0
 40
0.0
 40
14.72826006796004
 40
14.72826006796004
 40
14.72826006796004
 10
3212.402620762819
 20
1345.896528167405
 30
0.0
 10
3212.402620793832
 20
1353.260658201385
 30
0.0
 10
3212.402620824845
 20
1360.624788235365
 30
0.0
  0
SPLINE
  5
AB
330
1F
100
AcDbEntity
  8
Linee visibili 2D
100
AcDbSpline
210
0.0
220
0.0
230
1.0
 70
    12
 71
     2
 72
     6
 73
     3
 74
     0
 42
0.0000000001
 43
0.0000000001
 40
0.0
 40
0.0
 40
0.0
 40
4.627132171132025
 40
4.627132171132025
 40
4.627132171132025
 10
3215.809074794924
 20
1342.765408717753
 30
0.0
 41
1.0
 10
3214.135235531291
 20
1344.362940403194
 30
0.0
 41
0.9998238637627473
 10
3212.402620762819
 20
1345.896528167405
 30
0.0
 41
1.0
  0
SPLINE
  5
AC
330
1F
100
AcDbEntity
  8
Linee visibili 2D
100
AcDbSpline
210
0.0
220
0.0
230
1.0
 70
    24
 71
     2
 72
     6
 73
     3
 74
     0
 42
0.0000000001
 43
0.0000000001
 40
0.0
 40
0.0
 40
0.0
 40
5.0
 40
5.0
 40
5.0
 10
2975.323974953065
 20
943.7606580926997
 30
0.0
 10
2975.323974953065
 20
941.2606580926997
 30
0.0
 10
2975.323974953065
 20
938.7606580926997
 30
0.0
  0
SPLINE
  5
AD
330
1F
100
AcDbEntity
  8
Linee visibili 2D
100
AcDbSpline
210
0.0
220
0.0
230
1.0
 70
    24
 71
     2
 72
     6
 73
     3
 74
     0
 42
0.0000000001
 43
0.0000000001
 40
0.0
 40
0.0
 40
0.0
 40
3.0
 40
3.0
 40
3.0
 10
2772.323974953065
 20
943.7606580926997
 30
0.0
 10
2772.323974953065
 20
945.2606580926997
 30
0.0
 10
2772.323974953065
 20
946.7606580926997
 30
0.0
  0
SPLINE
  5
AE
330
1F
100
AcDbEntity
  8
Linee visibili 2D
100
AcDbSpline
210
0.0
220
0.0
230
1.0
 70
    12
 71
     2
 72
     6
 73
     3
 74
     0
 42
0.0000000001
 43
0.0000000001
 40
0.0
 40
0.0
 40
0.0
 40
99.26837725389679
 40
99.26837725389679
 40
99.26837725389679
 10
2878.82397502095
 20
1243.492280838803
 30
0.0
 41
1.0
 10
2878.82397477995
 20
1293.126469465751
 30
0.0
 41
1.0
 10
2878.823975492625
 20
1342.760658092699
 30
0.0
 41
1.0
  0
SPLINE
  5
AF
330
1F
100
AcDbEntity
  8
Linee visibili 2D
100
AcDbSpline
210
0.0
220
0.0
230
1.0
 70
    12
 71
     2
 72
     6
 73
     3
 74
     0
 42
0.0000000001
 43
0.0000000001
 40
0.0
 40
0.0
 40
0.0
 40
184.9909743623532
 40
184.9909743623532
 40
184.9909743623532
 10
2878.823974946444
 20
1243.492280838803
 30
0.0
 41
1.0
 10
2878.823940587476
 20
1150.996793657616
 30
0.0
 41
0.9999999999997262
 10
2878.824043111234
 20
1058.501306476479
 30
0.0
 41
1.0
  0
SPLINE
  5
B0
330
1F
100
AcDbEntity
  8
Linee visibili 2D
100
AcDbSpline
210
0.0
220
0.0
230
1.0
 70
    12
 71
     2
 72
     6
 73
     3
 74
     0
 42
0.0000000001
 43
0.0000000001
 40
0.0
 40
0.0
 40
0.0
 40
99.26837692661458
 40
99.26837692661458
 40
99.26837692661458
 10
2875.82397502095
 20
1243.492281166085
 30
0.0
 41
1.0
 10
2875.823975269259
 20
1293.126469629393
 30
0.0
 41
1.0
 10
2875.823974563894
 20
1342.7606580927
 30
0.0
 41
1.0
  0
SPLINE
  5
B1
330
1F
100
AcDbEntity
  8
Linee visibili 2D
100
AcDbSpline
210
0.0
220
0.0
230
1.0
 70
    12
 71
     2
 72
     6
 73
     3
 74
     0
 42
0.0000000001
 43
0.0000000001
 40
0.0
 40
0.0
 40
0.0
 40
184.9885786033412
 40
184.9885786033412
 40
184.9885786033412
 10
2875.824043059652
 20
1058.503702562773
 30
0.0
 41
1.0
 10
2875.82394062032
 20
1150.997991864404
 30
0.0
 41
0.9999999999997267
 10
2875.823974949645
 20
1243.492281166085
 30
0.0
 41
1.0
  0
SPLINE
  5
B2
330
1F
100
AcDbEntity
  8
Linee visibili 2D
100
AcDbSpline
210
0.0
220
0.0
230
1.0
 70
     8
 71
     3
 72
    12
 73
     8
 74
     0
 42
0.0000000001
 43
0.0000000001
 40
0.0
 40
0.0
 40
0.0
 40
0.0
 40
18.7116792097612
 40
37.62979012902898
 40
73.27464805752959
 40
105.1168983870922
 40
134.5828011894093
 40
134.5828011894093
 40
134.5828011894093
 40
134.5828011894093
 10
2878.82404183093
 20
1058.499562876315
 30
0.0
 10
2878.818864593814
 20
1052.261875224012
 30
0.0
 10
2878.084051134002
 20
1039.720121500164
 30
0.0
 10
2873.749948818656
 20
1015.636460527626
 30
0.0
 10
2863.72923219892
 20
988.4070732646289
 30
0.0
 10
2844.367672331153
 20
962.0185951039211
 30
0.0
 10
2827.079205858649
 20
950.4748812067769
 30
0.0
 10
2817.980847961905
 20
946.760658098281
 30
0.0
  0
SPLINE
  5
B3
330
1F
100
AcDbEntity
  8
Linee visibili 2D
100
AcDbSpline
210
0.0
220
0.0
230
1.0
 70
     8
 71
     3
 72
    12
 73
     8
 74
     0
 42
0.0000000001
 43
0.0000000001
 40
0.0
 40
0.0
 40
0.0
 40
0.0
 40
15.08831030713551
 40
30.4541156028439
 40
63.34435988690881
 40
100.4283551466525
 40
139.5395867005845
 40
139.5395867005845
 40
139.5395867005845
 40
139.5395867005845
 10
2808.814177691997
 20
946.7606580926998
 30
0.0
 10
2813.660126809418
 20
948.1316202436108
 30
0.0
 10
2823.128844263997
 20
951.8827534890532
 30
0.0
 10
2840.884169791502
 20
963.5873858528317
 30
0.0
 10
2859.201795827724
 20
985.923513538441
 30
0.0
 10
2872.630711408638
 20
1020.081036070978
 30
0.0
 10
2875.823105814882
 20
1045.459803190215
 30
0.0
 10
2875.82404179999
 20
1058.501958979738
 30
0.0
  0
SPLINE
  5
B4
330
1F
100
AcDbEntity
  8
Linee visibili 2D
100
AcDbSpline
210
0.0
220
0.0
230
1.0
 70
    24
 71
     2
 72
     6
 73
     3
 74
     0
 42
0.0000000001
 43
0.0000000001
 40
0.0
 40
0.0
 40
0.0
 40
395.5000000000002
 40
395.5000000000002
 40
395.5000000000002
 10
2887.323974953065
 20
1342.7606580927
 30
0.0
 10
2887.323974953065
 20
1145.0106580927
 30
0.0
 10
2887.323974953065
 20
947.2606580926997
 30
0.0
  0
SPLINE
  5
B5
330
1F
100
AcDbEntity
  8
Linee visibili 2D
100
AcDbSpline
210
0.0
220
0.0
230
1.0
 70
    24
 71
     2
 72
     6
 73
     3
 74
     0
 42
0.0000000001
 43
0.0000000001
 40
0.0
 40
0.0
 40
0.0
 40
83.49999999999955
 40
83.49999999999955
 40
83.49999999999955
 10
2887.323974953065
 20
1447.2606580927
 30
0.0
 10
2887.323974953065
 20
1405.5106580927
 30
0.0
 10
2887.323974953065
 20
1363.7606580927
 30
0.0
  0
SPLINE
  5
B6
330
1F
100
AcDbEntity
  8
Linee visibili 2D
100
AcDbSpline
210
0.0
220
0.0
230
1.0
 70
    24
 71
     2
 72
     6
 73
     3
 74
     0
 42
0.0000000001
 43
0.0000000001
 40
0.0
 40
0.0
 40
0.0
 40
83.49999999999977
 40
83.49999999999977
 40
83.49999999999977
 10
2867.323974953065
 20
1363.7606580927
 30
0.0
 10
2867.323974953065
 20
1405.5106580927
 30
0.0
 10
2867.323974953065
 20
1447.2606580927
 30
0.0
  0
SPLINE
  5
B7
330
1F
100
AcDbEntity
  8
Linee visibili 2D
100
AcDbSpline
210
0.0
220
0.0
230
1.0
 70
    24
 71
     2
 72
     6
 73
     3
 74
     0
 42
0.0000000001
 43
0.0000000001
 40
0.0
 40
0.0
 40
0.0
 40
334.7451876536323
 40
334.7451876536323
 40
334.7451876536323
 10
2867.323974953065
 20
1008.015470439067
 30
0.0
 10
2867.323974953065
 20
1175.388064265883
 30
0.0
 10
2867.323974953065
 20
1342.7606580927
 30
0.0
  0
SPLINE
  5
B8
330
1F
100
AcDbEntity
  8
Linee visibili 2D
100
AcDbSpline
210
0.0
220
0.0
230
1.0
 70
    24
 71
     2
 72
     6
 73
     3
 74
     0
 42
0.0000000001
 43
0.0000000001
 40
0.0
 40
0.0
 40
0.0
 40
52.42678400759041
 40
52.42678400759041
 40
52.42678400759041
 10
2867.323974953065
 20
947.2606580926997
 30
0.0
 10
2867.323974953065
 20
973.4740500964949
 30
0.0
 10
2867.323974953065
 20
999.6874421002901
 30
0.0
  0
SPLINE
  5
B9
330
1F
100
AcDbEntity
  8
Linee visibili 2D
100
AcDbSpline
210
0.0
220
0.0
230
1.0
 70
    24
 71
     2
 72
     6
 73
     3
 74
     0
 42
0.0000000001
 43
0.0000000001
 40
0.0
 40
0.0
 40
0.0
 40
20.23937455337835
 40
20.23937455337835
 40
20.23937455337835
 10
2962.350945358165
 20
1362.988326741112
 30
0.0
 10
2962.704117350908
 20
1352.874804104487
 30
0.0
 10
2963.057289343651
 20
1342.761281467862
 30
0.0
  0
SPLINE
  5
BA
330
1F
100
AcDbEntity
  8
Linee visibili 2D
100
AcDbSpline
210
0.0
220
0.0
230
1.0
 70
    24
 71
     2
 72
     6
 73
     3
 74
     0
 42
0.0000000001
 43
0.0000000001
 40
0.0
 40
0.0
 40
0.0
 40
20.23942973572655
 40
20.23942973572655
 40
20.23942973572655
 10
2791.590667399973
 20
1342.761477268079
 30
0.0
 10
2791.943840355634
 20
1352.87502747907
 30
0.0
 10
2792.297013311295
 20
1362.988577690061
 30
0.0
  0
SPLINE
  5
BB
330
1F
100
AcDbEntity
  8
Linee visibili 2D
100
AcDbSpline
210
0.0
220
0.0
230
1.0
 70
    12
 71
     2
 72
     6
 73
     3
 74
     0
 42
0.0000000001
 43
0.0000000001
 40
0.0
 40
0.0
 40
0.0
 40
1.224722698976964
 40
1.224722698976964
 40
1.224722698976964
 10
2792.297013761735
 20
1362.991604594252
 30
0.0
 41
1.0
 10
2792.328962961166
 20
1363.758393469247
 30
0.0
 41
0.7226957148633777
 10
2793.096413807566
 20
1363.760658092697
 30
0.0
 41
1.0
  0
SPLINE
  5
BC
330
1F
100
AcDbEntity
  8
Linee visibili 2D
100
AcDbSpline
210
0.0
220
0.0
230
1.0
 70
    12
 71
     2
 72
     6
 73
     3
 74
     0
 42
0.0000000001
 43
0.0000000001
 40
0.0
 40
0.0
 40
0.0
 40
1.227593355569699
 40
1.227593355569699
 40
1.227593355569699
 10
2961.552837684682
 20
1363.7606580927
 30
0.0
 41
1.0
 10
2962.322826218395
 20
1363.758004069642
 30
0.0
 41
0.7217354387068975
 10
2962.352363183042
 20
1362.988577690053
 30
0.0
 41
1.0
  0
SPLINE
  5
BD
330
1F
100
AcDbEntity
  8
Linee visibili 2D
100
AcDbSpline
210
0.0
220
0.0
230
1.0
 70
    24
 71
     2
 72
     6
 73
     3
 74
     0
 42
0.0000000001
 43
0.0000000001
 40
0.0
 40
0.0
 40
0.0
 40
5.0
 40
5.0
 40
5.0
 10
2779.323974953065
 20
938.7606580926997
 30
0.0
 10
2779.323974953065
 20
941.2606580926997
 30
0.0
 10
2779.323974953065
 20
943.7606580926997
 30
0.0
  0
SPLINE
  5
BE
330
1F
100
AcDbEntity
  8
Linee visibili 2D
100
AcDbSpline
210
0.0
220
0.0
230
1.0
 70
    24
 71
     2
 72
     6
 73
     3
 74
     0
 42
0.0000000001
 43
0.0000000001
 40
0.0
 40
0.0
 40
0.0
 40
195.9025690571556
 40
195.9025690571556
 40
195.9025690571556
 10
2779.323974953065
 20
938.7606580926997
 30
0.0
 10
2877.275259481642
 20
938.7606580926997
 30
0.0
 10
2975.22654401022
 20
938.7606580926997
 30
0.0
  0
SPLINE
  5
BF
330
1F
100
AcDbEntity
  8
Linee visibili 2D
100
AcDbSpline
210
0.0
220
0.0
230
1.0
 70
    24
 71
     2
 72
     6
 73
     3
 74
     0
 42
0.0000000001
 43
0.0000000001
 40
0.0
 40
0.0
 40
0.0
 40
209.9999999999998
 40
209.9999999999998
 40
209.9999999999998
 10
2982.323974953065
 20
946.7606580926997
 30
0.0
 10
2877.323974953065
 20
946.7606580926997
 30
0.0
 10
2772.323974953065
 20
946.7606580926997
 30
0.0
  0
SPLINE
  5
C0
330
1F
100
AcDbEntity
  8
Linee visibili 2D
100
AcDbSpline
210
0.0
220
0.0
230
1.0
 70
    24
 71
     2
 72
     6
 73
     3
 74
     0
 42
0.0000000001
 43
0.0000000001
 40
0.0
 40
0.0
 40
0.0
 40
3.0
 40
3.0
 40
3.0
 10
2982.323974953065
 20
943.7606580926997
 30
0.0
 10
2982.323974953065
 20
945.2606580926997
 30
0.0
 10
2982.323974953065
 20
946.7606580926997
 30
0.0
  0
SPLINE
  5
C1
330
1F
100
AcDbEntity
  8
Linee visibili 2D
100
AcDbSpline
210
0.0
220
0.0
230
1.0
 70
    24
 71
     2
 72
     6
 73
     3
 74
     0
 42
0.0000000001
 43
0.0000000001
 40
0.0
 40
0.0
 40
0.0
 40
209.9999999999998
 40
209.9999999999998
 40
209.9999999999998
 10
2772.323974953065
 20
943.7606580926997
 30
0.0
 10
2877.323974953065
 20
943.7606580926997
 30
0.0
 10
2982.323974953065
 20
943.7606580926997
 30
0.0
  0
SPLINE
  5
C2
330
1F
100
AcDbEntity
  8
Linee visibili 2D - Tangent
100
AcDbSpline
210
0.0
220
0.0
230
1.0
 70
    12
 71
     2
 72
     6
 73
     3
 74
     0
 42
0.0000000001
 43
0.0000000001
 40
0.0
 40
0.0
 40
0.0
 40
1.432143359292752
 40
1.432143359292752
 40
1.432143359292752
 10
2875.825571966732
 20
1058.503701457554
 30
0.0
 41
1.0
 10
2876.539738346061
 20
1058.44109615093
 30
0.0
 41
0.9982569500455711
 10
2877.256306487345
 20
1058.46307661221
 30
0.0
 41
1.0
  0
SPLINE
  5
C3
330
1F
100
AcDbEntity
  8
Linee visibili 2D - Tangent
100
AcDbSpline
210
0.0
220
0.0
230
1.0
 70
    12
 71
     2
 72
     6
 73
     3
 74
     0
 42
0.0000000001
 43
0.0000000001
 40
0.0
 40
0.0
 40
0.0
 40
1.567176814000749
 40
1.567176814000749
 40
1.567176814000749
 10
2877.256306487345
 20
1058.46307661221
 30
0.0
 41
1.0
 10
2878.040243993525
 20
1058.445509351978
 30
0.0
 41
0.9989560412690782
 10
2878.822512947704
 20
1058.499564005389
 30
0.0
 41
1.0
  0
SPLINE
  5
C4
330
1F
100
AcDbEntity
  8
Linee visibili 2D
100
AcDbSpline
210
0.0
220
0.0
230
1.0
 70
    24
 71
     2
 72
     6
 73
     3
 74
     0
 42
0.0000000001
 43
0.0000000001
 40
0.0
 40
0.0
 40
0.0
 40
20.0
 40
20.0
 40
20.0
 10
2867.323974953065
 20
947.2606580926997
 30
0.0
 10
2877.323974953065
 20
947.2606580926997
 30
0.0
 10
2887.323974953065
 20
947.2606580926997
 30
0.0
  0
SPLINE
  5
C5
330
1F
100
AcDbEntity
  8
Linee visibili 2D
100
AcDbSpline
210
0.0
220
0.0
230
1.0
 70
    24
 71
     2
 72
     6
 73
     3
 74
     0
 42
0.0000000001
 43
0.0000000001
 40
0.0
 40
0.0
 40
0.0
 40
20.0
 40
20.0
 40
20.0
 10
2867.323974953065
 20
1447.2606580927
 30
0.0
 10
2877.323974953065
 20
1447.2606580927
 30
0.0
 10
2887.323974953065
 20
1447.2606580927
 30
0.0
  0
SPLINE
  5
C6
330
1F
100
AcDbEntity
  8
Linee visibili 2D - Tangent
100
AcDbSpline
210
0.0
220
0.0
230
1.0
 70
    12
 71
     2
 72
    20
 73
    17
 74
     0
 42
0.0000000001
 43
0.0000000001
 40
0.0
 40
0.0
 40
0.0
 40
14.72666430791837
 40
14.72666430791837
 40
30.5635084014364
 40
30.5635084014364
 40
45.82062916212602
 40
45.82062916212602
 40
59.81142261566361
 40
59.81142261566361
 40
71.15293069298664
 40
71.15293069298664
 40
79.03581241592326
 40
79.03581241592326
 40
83.5963382899177
 40
83.5963382899177
 40
84.93588459191079
 40
84.93588459191079
 40
84.93588459191079
 10
2877.32375610502
 20
1362.98857769076
 30
0.0
 41
1.0
 10
2869.96042395106
 20
1362.988576651552
 30
0.0
 41
0.9999999999998541
 10
2862.597091797106
 20
1362.988567659584
 30
0.0
 41
1.0
 10
2854.678669750352
 20
1362.988558064343
 30
0.0
 41
0.9999999999997939
 10
2846.760247703616
 20
1362.988538300577
 30
0.0
 41
1.0
 10
2839.131687323293
 20
1362.988519385116
 30
0.0
 41
0.9999999999996962
 10
2831.503126943009
 20
1362.988488577021
 30
0.0
 41
1.0
 10
2824.507730216294
 20
1362.988460585516
 30
0.0
 41
0.9999999999994301
 10
2817.512333489654
 20
1362.988417658979
 30
0.0
 41
1.0
 10
2811.841579451091
 20
1362.988383354124
 30
0.0
 41
0.9999999999986688
 10
2806.170825412671
 20
1362.988330543031
 30
0.0
 41
1.0
 10
2802.229384551353
 20
1362.988294843803
 30
0.0
 41
0.9999999999956272
 10
2798.287943690314
 20
1362.988235832276
 30
0.0
 41
1.0
 10
2796.007680753476
 20
1362.988205064398
 30
0.0
 41
0.9999999999678927
 10
2793.727417817423
 20
1362.988137751234
 30
0.0
 41
1.0
 10
2793.057644666255
 20
1362.988125651247
 30
0.0
 41
0.9999999993697848
 10
2792.387871517634
 20
1362.988065993974
 30
0.0
 41
1.0
  0
SPLINE
  5
C7
330
1F
100
AcDbEntity
  8
Linee visibili 2D - Tangent
100
AcDbSpline
210
0.0
220
0.0
230
1.0
 70
    12
 71
     2
 72
     6
 73
     3
 74
     0
 42
0.0000000001
 43
0.0000000001
 40
0.0
 40
0.0
 40
0.0
 40
0.7176090826844607
 40
0.7176090826844607
 40
0.7176090826844607
 10
2877.323756105022
 20
1362.988577690061
 30
0.0
 41
1.0
 10
2877.323755892497
 20
1363.347382231404
 30
0.0
 41
0.9999999999971937
 10
2877.323757380026
 20
1363.706186772744
 30
0.0
 41
1.0
  0
SPLINE
  5
C8
330
1F
100
AcDbEntity
  8
Linee visibili 2D - Tangent
100
AcDbSpline
210
0.0
220
0.0
230
1.0
 70
    12
 71
     2
 72
     6
 73
     3
 74
     0
 42
0.0000000001
 43
0.0000000001
 40
0.0
 40
0.0
 40
0.0
 40
85.01357270892227
 40
85.01357270892227
 40
85.01357270892227
 10
2962.342691241098
 20
1362.98803850109
 30
0.0
 41
1.0
 10
2919.835904892031
 20
1362.988845328824
 30
0.0
 41
0.9999999999201307
 10
2877.329118536149
 20
1362.988577689666
 30
0.0
 41
1.0
  0
SPLINE
  5
C9
330
1F
100
AcDbEntity
  8
Linee visibili 2D
100
AcDbSpline
210
0.0
220
0.0
230
1.0
 70
    28
 71
     2
 72
    12
 73
     9
 74
     0
 42
0.0000000001
 43
0.0000000001
 40
-395.7412146675175
 40
-395.7412146675175
 40
-395.7412146675175
 40
-387.6648633477723
 40
-387.6648633477723
 40
-258.4432422318482
 40
-258.4432422318482
 40
-129.2216211159241
 40
-129.2216211159241
 40
-125.1834454560514
 40
-125.1834454560514
 40
-125.1834454560514
 10
2791.614125513611
 20
1342.7606580927
 30
0.0
 41
0.9682671397731764
 10
2791.526827872706
 20
1342.7606580927
 30
0.0
 41
0.9830758078790274
 10
2791.763678784312
 20
1342.7606580927
 30
0.0
 41
1.0
 10
2796.872582215971
 20
1342.7606580927
 30
0.0
 41
0.7292129260644384
 10
2877.323974953065
 20
1342.7606580927
 30
0.0
 41
1.0
 10
2957.775367690159
 20
1342.7606580927
 30
0.0
 41
0.7292129260644384
 10
2962.884271121818
 20
1342.7606580927
 30
0.0
 41
1.0
 10
2963.001685897566
 20
1342.7606580927
 30
0.0
 41
0.9915379039395137
 10
2963.039438214632
 20
1342.760658092699
 30
0.0
 41
0.9836046888828078
  0
SPLINE
  5
CA
330
1F
100
AcDbEntity
  8
Linee visibili 2D
100
AcDbSpline
210
0.0
220
0.0
230
1.0
 70
    24
 71
     2
 72
     6
 73
     3
 74
     0
 42
0.0000000001
 43
0.0000000001
 40
0.0
 40
0.0
 40
0.0
 40
84.14934949184612
 40
84.14934949184612
 40
84.14934949184612
 10
2877.349075387866
 20
1363.760658092699
 30
0.0
 10
2919.423750133789
 20
1363.760658092699
 30
0.0
 10
2961.498424879712
 20
1363.7606580927
 30
0.0
  0
SPLINE
  5
CB
330
1F
100
AcDbEntity
  8
Linee visibili 2D
100
AcDbSpline
210
0.0
220
0.0
230
1.0
 70
    24
 71
     3
 72
    10
 73
     6
 74
     0
 42
0.0000000001
 43
0.0000000001
 40
0.0
 40
0.0
 40
0.0
 40
0.0
 40
0.0666342211535493
 40
0.0888631614657243
 40
84.31620557211977
 40
84.31620557211977
 40
84.31620557211977
 40
84.31620557211977
 10
2793.185278867192
 20
1363.760658092699
 30
0.0
 10
2793.21981866793
 20
1363.760658092698
 30
0.0
 10
2793.064244929076
 20
1363.760658092701
 30
0.0
 10
2821.156446433752
 20
1363.760658092703
 30
0.0
 10
2849.252657019967
 20
1363.760658092698
 30
0.0
 10
2877.32375811638
 20
1363.7606580927
 30
0.0
  0
ENDSEC
  0
SECTION
  2
OBJECTS
  0
DICTIONARY
  5
C
330
0
100
AcDbDictionary
281
     1
  3
ACAD_GROUP
350
D
  3
ACAD_LAYOUT
350
1A
  3
ACAD_MLEADERSTYLE
350
CD
  3
ACAD_MLINESTYLE
350
17
  3
ACAD_PLOTSETTINGS
350
19
  3
ACAD_PLOTSTYLENAME
350
E
  3
ACAD_TABLESTYLE
350
CC
  3
ACAD_VISUALSTYLE
350
2A
  0
DICTIONARY
  5
D
102
{ACAD_REACTORS
330
C
102
}
330
C
100
AcDbDictionary
281
     1
  0
DICTIONARY
  5
1A
102
{ACAD_REACTORS
330
C
102
}
330
C
100
AcDbDictionary
281
     1
  3
Layout1
350
1E
  3
Layout2
350
26
  3
Model
350
22
  0
DICTIONARY
  5
CD
102
{ACAD_REACTORS
330
C
102
}
330
C
100
AcDbDictionary
281
     1
  0
DICTIONARY
  5
17
102
{ACAD_REACTORS
330
C
102
}
330
C
100
AcDbDictionary
281
     1
  3
Standard
350
18
  0
DICTIONARY
  5
19
102
{ACAD_REACTORS
330
C
102
}
330
C
100
AcDbDictionary
281
     1
  0
ACDBDICTIONARYWDFLT
  5
E
102
{ACAD_REACTORS
330
C
102
}
330
C
100
AcDbDictionary
281
     1
  3
Normal
350
F
100
AcDbDictionaryWithDefault
340
F
  0
DICTIONARY
  5
CC
102
{ACAD_REACTORS
330
C
102
}
330
C
100
AcDbDictionary
281
     1
  0
DICTIONARY
  5
2A
102
{ACAD_REACTORS
330
C
102
}
330
C
100
AcDbDictionary
281
     1
  3
2dWireframe
350
2F
  3
3D Hidden
350
31
  3
3dWireframe
350
30
  3
Basic
350
32
  3
Brighten
350
36
  3
ColorChange
350
3A
  3
Conceptual
350
34
  3
Dim
350
35
  3
Facepattern
350
39
  3
Flat
350
2B
  3
FlatWithEdges
350
2C
  3
Gouraud
350
2D
  3
GouraudWithEdges
350
2E
  3
Linepattern
350
38
  3
Realistic
350
33
  3
Thicken
350
37
  0
LAYOUT
  5
1E
102
{ACAD_REACTORS
330
1A
102
}
330
1A
100
AcDbPlotSettings
  1

  2
none_device
  4

  6

 40
0.0
 41
0.0
 42
0.0
 43
0.0
 44
0.0
 45
0.0
 46
0.0
 47
0.0
 48
0.0
 49
0.0
140
0.0
141
0.0
142
1.0
143
1.0
 70
   688
 72
     0
 73
     0
 74
     5
  7

 75
    16
 76
     0
 77
     2
 78
   300
147
1.0
148
0.0
149
0.0
100
AcDbLayout
  1
Layout1
 70
     1
 71
     1
 10
0.0
 20
0.0
 11
12.0
 21
9.0
 12
0.0
 22
0.0
 32
0.0
 14
1.000000000000000E+20
 24
1.000000000000000E+20
 34
1.000000000000000E+20
 15
-1.000000000000000E+20
 25
-1.000000000000000E+20
 35
-1.000000000000000E+20
146
0.0
 13
0.0
 23
0.0
 33
0.0
 16
1.0
 26
0.0
 36
0.0
 17
0.0
 27
1.0
 37
0.0
 76
     0
330
1B
  0
LAYOUT
  5
26
102
{ACAD_REACTORS
330
1A
102
}
330
1A
100
AcDbPlotSettings
  1

  2
none_device
  4

  6

 40
0.0
 41
0.0
 42
0.0
 43
0.0
 44
0.0
 45
0.0
 46
0.0
 47
0.0
 48
0.0
 49
0.0
140
0.0
141
0.0
142
1.0
143
1.0
 70
   688
 72
     0
 73
     0
 74
     5
  7

 75
    16
 76
     0
 77
     2
 78
   300
147
1.0
148
0.0
149
0.0
100
AcDbLayout
  1
Layout2
 70
     1
 71
     2
 10
0.0
 20
0.0
 11
0.0
 21
0.0
 12
0.0
 22
0.0
 32
0.0
 14
0.0
 24
0.0
 34
0.0
 15
0.0
 25
0.0
 35
0.0
146
0.0
 13
0.0
 23
0.0
 33
0.0
 16
1.0
 26
0.0
 36
0.0
 17
0.0
 27
1.0
 37
0.0
 76
     0
330
23
  0
LAYOUT
  5
22
102
{ACAD_REACTORS
330
1A
102
}
330
1A
100
AcDbPlotSettings
  1

  2
none_device
  4

  6

 40
0.0
 41
0.0
 42
0.0
 43
0.0
 44
0.0
 45
0.0
 46
0.0
 47
0.0
 48
0.0
 49
0.0
140
0.0
141
0.0
142
1.0
143
1.0
 70
  1712
 72
     0
 73
     0
 74
     0
  7

 75
     0
 76
     0
 77
     2
 78
   300
147
1.0
148
0.0
149
0.0
100
AcDbLayout
  1
Model
 70
     1
 71
     0
 10
0.0
 20
0.0
 11
12.0
 21
9.0
 12
0.0
 22
0.0
 32
0.0
 14
2772.323974953065
 24
522.3908290862462
 34
0.0
 15
3404.135956973049
 25
1447.2606580927
 35
0.0
146
0.0
 13
0.0
 23
0.0
 33
0.0
 16
1.0
 26
0.0
 36
0.0
 17
0.0
 27
1.0
 37
0.0
 76
     0
330
1F
331
29
  0
MLINESTYLE
  5
18
102
{ACAD_REACTORS
330
17
102
}
330
17
100
AcDbMlineStyle
  2
Standard
 70
     0
  3

 62
   256
 51
90.0
 52
90.0
 71
     2
 49
0.5
 62
   256
  6
BYLAYER
 49
-0.5
 62
   256
  6
BYLAYER
  0
ACDBPLACEHOLDER
  5
F
102
{ACAD_REACTORS
330
E
102
}
330
E
  0
VISUALSTYLE
  5
2F
102
{ACAD_REACTORS
330
2A
102
}
330
2A
100
AcDbVisualStyle
  2
2dWireframe
 70
     4
 71
     0
 72
     2
 73
     0
 90
        0
 40
-0.6
 41
-30.0
 62
     5
 63
     7
421
 16777215
 74
     1
 91
        4
 64
     7
 65
   257
 75
     1
175
     1
 42
1.0
 92
        0
 66
   257
 43
1.0
 76
     1
 77
     6
 78
     2
 67
     7
 79
     5
170
     0
171
     0
290
     0
174
     0
 93
        1
 44
0.0
173
     0
291
     0
 45
0.0
1001
ACAD
1000
AcDbSavedByObjectVersion
1070
     0
  0
VISUALSTYLE
  5
31
102
{ACAD_REACTORS
330
2A
102
}
330
2A
100
AcDbVisualStyle
  2
3D Hidden
 70
     6
 71
     1
 72
     2
 73
     2
 90
        0
 40
-0.6
 41
-30.0
 62
     5
 63
     7
421
 16777215
 74
     2
 91
        2
 64
     7
 65
   257
 75
     2
175
     1
 42
40.0
 92
        0
 66
   257
 43
1.0
 76
     1
 77
     6
 78
     2
 67
     7
 79
     3
170
     0
171
     0
290
     0
174
     0
 93
        1
 44
0.0
173
     0
291
     0
 45
0.0
1001
ACAD
1000
AcDbSavedByObjectVersion
1070
     0
  0
VISUALSTYLE
  5
30
102
{ACAD_REACTORS
330
2A
102
}
330
2A
100
AcDbVisualStyle
  2
3dWireframe
 70
     5
 71
     0
 72
     2
 73
     0
 90
        0
 40
-0.6
 41
-30.0
 62
     5
 63
     7
421
 16777215
 74
     1
 91
        4
 64
     7
 65
   257
 75
     1
175
     1
 42
1.0
 92
        0
 66
   257
 43
1.0
 76
     1
 77
     6
 78
     2
 67
     7
 79
     5
170
     0
171
     0
290
     0
174
     0
 93
        1
 44
0.0
173
     0
291
     0
 45
0.0
1001
ACAD
1000
AcDbSavedByObjectVersion
1070
     0
  0
VISUALSTYLE
  5
32
102
{ACAD_REACTORS
330
2A
102
}
330
2A
100
AcDbVisualStyle
  2
Basic
 70
     7
 71
     1
 72
     0
 73
     1
 90
        0
 40
-0.6
 41
-30.0
 62
     5
 63
     7
421
 16777215
 74
     0
 91
        4
 64
     7
 65
   257
 75
     1
175
     1
 42
1.0
 92
        8
 66
     7
 43
1.0
 76
     1
 77
     6
 78
     2
 67
     7
 79
     5
170
     0
171
     0
290
     0
174
     0
 93
        1
 44
0.0
173
     0
291
     1
 45
0.0
1001
ACAD
1000
AcDbSavedByObjectVersion
1070
     0
  0
VISUALSTYLE
  5
36
102
{ACAD_REACTORS
330
2A
102
}
330
2A
100
AcDbVisualStyle
  2
Brighten
 70
    12
 71
     2
 72
     2
 73
     0
 90
        0
 40
-0.6
 41
-30.0
 62
     5
 63
     7
421
 16777215
 74
     1
 91
        4
 64
     7
 65
   257
 75
     1
175
     1
 42
1.0
 92
        8
 66
     7
 43
1.0
 76
     1
 77
     6
 78
     2
 67
     7
 79
     5
170
     0
171
     0
290
     0
174
     0
 93
        1
 44
50.0
173
     0
291
     1
 45
0.0
1001
ACAD
1000
AcDbSavedByObjectVersion
1070
     0
  0
VISUALSTYLE
  5
3A
102
{ACAD_REACTORS
330
2A
102
}
330
2A
100
AcDbVisualStyle
  2
ColorChange
 70
    16
 71
     2
 72
     2
 73
     3
 90
        0
 40
-0.6
 41
-30.0
 62
     5
 63
     8
421
  8421504
 74
     1
 91
        4
 64
     7
 65
   257
 75
     1
175
     1
 42
1.0
 92
        8
 66
     8
424
  8421504
 43
1.0
 76
     1
 77
     6
 78
     2
 67
     7
 79
     5
170
     0
171
     0
290
     0
174
     0
 93
        1
 44
0.0
173
     0
291
     1
 45
0.0
1001
ACAD
1000
AcDbSavedByObjectVersion
1070
     0
  0
VISUALSTYLE
  5
34
102
{ACAD_REACTORS
330
2A
102
}
330
2A
100
AcDbVisualStyle
  2
Conceptual
 70
     9
 71
     3
 72
     2
 73
     0
 90
        0
 40
-0.6
 41
-30.0
 62
     5
 63
     7
421
 16777215
 74
     2
 91
        2
 64
     7
 65
   257
 75
     1
175
     1
 42
40.0
 92
        8
 66
     7
 43
1.0
 76
     1
 77
     6
 78
     2
 67
     7
 79
     3
170
     0
171
     0
290
     0
174
     0
 93
        1
 44
0.0
173
     0
291
     0
 45
0.0
1001
ACAD
1000
AcDbSavedByObjectVersion
1070
     0
  0
VISUALSTYLE
  5
35
102
{ACAD_REACTORS
330
2A
102
}
330
2A
100
AcDbVisualStyle
  2
Dim
 70
    11
 71
     2
 72
     2
 73
     0
 90
        0
 40
-0.6
 41
-30.0
 62
     5
 63
     7
421
 16777215
 74
     1
 91
        4
 64
     7
 65
   257
 75
     1
175
     1
 42
1.0
 92
        8
 66
     7
 43
1.0
 76
     1
 77
     6
 78
     2
 67
     7
 79
     5
170
     0
171
     0
290
     0
174
     0
 93
        1
 44
-50.0
173
     0
291
     1
 45
0.0
1001
ACAD
1000
AcDbSavedByObjectVersion
1070
     0
  0
VISUALSTYLE
  5
39
102
{ACAD_REACTORS
330
2A
102
}
330
2A
100
AcDbVisualStyle
  2
Facepattern
 70
    15
 71
     2
 72
     2
 73
     0
 90
        0
 40
-0.6
 41
-30.0
 62
     5
 63
     7
421
 16777215
 74
     1
 91
        4
 64
     7
 65
   257
 75
     1
175
     1
 42
1.0
 92
        8
 66
     7
 43
1.0
 76
     1
 77
     6
 78
     2
 67
     7
 79
     5
170
     0
171
     0
290
     0
174
     0
 93
        1
 44
0.0
173
     0
291
     1
 45
0.0
1001
ACAD
1000
AcDbSavedByObjectVersion
1070
     0
  0
VISUALSTYLE
  5
2B
102
{ACAD_REACTORS
330
2A
102
}
330
2A
100
AcDbVisualStyle
  2
Flat
 70
     0
 71
     2
 72
     1
 73
     1
 90
        2
 40
-0.6
 41
30.0
 62
     5
 63
     7
421
 16777215
 74
     0
 91
        4
 64
     7
 65
   257
 75
     1
175
     1
 42
1.0
 92
        8
 66
     7
 43
1.0
 76
     1
 77
     6
 78
     2
 67
     7
 79
     5
170
     0
171
     0
290
     0
174
     0
 93
       13
 44
0.0
173
     0
291
     1
 45
0.0
1001
ACAD
1000
AcDbSavedByObjectVersion
1070
     0
  0
VISUALSTYLE
  5
2C
102
{ACAD_REACTORS
330
2A
102
}
330
2A
100
AcDbVisualStyle
  2
FlatWithEdges
 70
     1
 71
     2
 72
     1
 73
     1
 90
        2
 40
-0.6
 41
30.0
 62
     5
 63
     7
421
 16777215
 74
     1
 91
        4
 64
     7
 65
   257
 75
     1
175
     1
 42
1.0
 92
        0
 66
   257
 43
1.0
 76
     1
 77
     6
 78
     2
 67
     7
 79
     5
170
     0
171
     0
290
     0
174
     0
 93
       13
 44
0.0
173
     0
291
     1
 45
0.0
1001
ACAD
1000
AcDbSavedByObjectVersion
1070
     0
  0
VISUALSTYLE
  5
2D
102
{ACAD_REACTORS
330
2A
102
}
330
2A
100
AcDbVisualStyle
  2
Gouraud
 70
     2
 71
     2
 72
     2
 73
     1
 90
        2
 40
-0.6
 41
30.0
 62
     5
 63
     7
421
 16777215
 74
     0
 91
        4
 64
     7
 65
   257
 75
     1
175
     1
 42
1.0
 92
        0
 66
     7
 43
1.0
 76
     1
 77
     6
 78
     2
 67
     7
 79
     5
170
     0
171
     0
290
     0
174
     0
 93
       13
 44
0.0
173
     0
291
     1
 45
0.0
1001
ACAD
1000
AcDbSavedByObjectVersion
1070
     0
  0
VISUALSTYLE
  5
2E
102
{ACAD_REACTORS
330
2A
102
}
330
2A
100
AcDbVisualStyle
  2
GouraudWithEdges
 70
     3
 71
     2
 72
     2
 73
     1
 90
        2
 40
-0.6
 41
30.0
 62
     5
 63
     7
421
 16777215
 74
     1
 91
        4
 64
     7
 65
   257
 75
     1
175
     1
 42
1.0
 92
        0
 66
   257
 43
1.0
 76
     1
 77
     6
 78
     2
 67
     7
 79
     5
170
     0
171
     0
290
     0
174
     0
 93
       13
 44
0.0
173
     0
291
     1
 45
0.0
1001
ACAD
1000
AcDbSavedByObjectVersion
1070
     0
  0
VISUALSTYLE
  5
38
102
{ACAD_REACTORS
330
2A
102
}
330
2A
100
AcDbVisualStyle
  2
Linepattern
 70
    14
 71
     2
 72
     2
 73
     0
 90
        0
 40
-0.6
 41
-30.0
 62
     5
 63
     7
421
 16777215
 74
     1
 91
        4
 64
     7
 65
   257
 75
     7
175
     7
 42
1.0
 92
        8
 66
     7
 43
1.0
 76
     1
 77
     6
 78
     2
 67
     7
 79
     5
170
     0
171
     0
290
     0
174
     0
 93
        1
 44
0.0
173
     0
291
     1
 45
0.0
1001
ACAD
1000
AcDbSavedByObjectVersion
1070
     0
  0
VISUALSTYLE
  5
33
102
{ACAD_REACTORS
330
2A
102
}
330
2A
100
AcDbVisualStyle
  2
Realistic
 70
     8
 71
     2
 72
     2
 73
     0
 90
        0
 40
-0.6
 41
-30.0
 62
     5
 63
     7
421
 16777215
 74
     1
 91
        0
 64
     7
 65
   257
 75
     1
175
     1
 42
1.0
 92
        8
 66
     8
424
  7895160
 43
1.0
 76
     1
 77
     6
 78
     2
 67
     7
 79
     5
170
     0
171
     0
290
     0
174
     0
 93
       13
 44
0.0
173
     0
291
     0
 45
0.0
1001
ACAD
1000
AcDbSavedByObjectVersion
1070
     0
  0
VISUALSTYLE
  5
37
102
{ACAD_REACTORS
330
2A
102
}
330
2A
100
AcDbVisualStyle
  2
Thicken
 70
    13
 71
     2
 72
     2
 73
     0
 90
        0
 40
-0.6
 41
-30.0
 62
     5
 63
     7
421
 16777215
 74
     1
 91
        4
 64
     7
 65
   257
 75
     1
175
     1
 42
1.0
 92
       12
 66
     7
 43
1.0
 76
     1
 77
     6
 78
     2
 67
     7
 79
     5
170
     0
171
     0
290
     0
174
     0
 93
        1
 44
0.0
173
     0
291
     1
 45
0.0
1001
ACAD
1000
AcDbSavedByObjectVersion
1070
     0
  0
ENDSEC
  0
EOF
