  0
SECTION
  2
HEADER
  9
$ACADVER
  1
AC1018
  9
$ACADMAINTVER
 70
     0
  9
$DWGCODEPAGE
  3
ANSI_1252
  9
$INSBASE
 10
0.0
 20
0.0
 30
0.0
  9
$EXTMIN
 10
2720.941950115815
 20
272.7090976108642
 30
0.0
  9
$EXTMAX
 10
3720.228357323476
 20
1620.742604008576
 30
0.0
  9
$LIMMIN
 10
0.0
 20
0.0
  9
$LIMMAX
 10
12.0
 20
9.0
  9
$ORTHOMODE
 70
     0
  9
$REGENMODE
 70
     1
  9
$FILLMODE
 70
     1
  9
$QTEXTMODE
 70
     0
  9
$MIRRTEXT
 70
     1
  9
$LTSCALE
 40
1.0
  9
$ATTMODE
 70
     1
  9
$TEXTSIZE
 40
0.2
  9
$TRACEWID
 40
0.05
  9
$TEXTSTYLE
  7
Standard
  9
$CLAYER
  8
0
  9
$CELTYPE
  6
ByLayer
  9
$CECOLOR
 62
   256
  9
$CELTSCALE
 40
1.0
  9
$DISPSILH
 70
     0
  9
$DIMSCALE
 40
1.0
  9
$DIMASZ
 40
0.18
  9
$DIMEXO
 40
0.0625
  9
$DIMDLI
 40
0.38
  9
$DIMRND
 40
0.0
  9
$DIMDLE
 40
0.0
  9
$DIMEXE
 40
0.18
  9
$DIMTP
 40
0.0
  9
$DIMTM
 40
0.0
  9
$DIMTXT
 40
0.18
  9
$DIMCEN
 40
0.09
  9
$DIMTSZ
 40
0.0
  9
$DIMTOL
 70
     0
  9
$DIMLIM
 70
     0
  9
$DIMTIH
 70
     1
  9
$DIMTOH
 70
     1
  9
$DIMSE1
 70
     0
  9
$DIMSE2
 70
     0
  9
$DIMTAD
 70
     0
  9
$DIMZIN
 70
     0
  9
$DIMBLK
  1

  9
$DIMASO
 70
     1
  9
$DIMSHO
 70
     1
  9
$DIMPOST
  1

  9
$DIMAPOST
  1

  9
$DIMALT
 70
     0
  9
$DIMALTD
 70
     2
  9
$DIMALTF
 40
25.4
  9
$DIMLFAC
 40
1.0
  9
$DIMTOFL
 70
     0
  9
$DIMTVP
 40
0.0
  9
$DIMTIX
 70
     0
  9
$DIMSOXD
 70
     0
  9
$DIMSAH
 70
     0
  9
$DIMBLK1
  1

  9
$DIMBLK2
  1

  9
$DIMSTYLE
  2
Standard
  9
$DIMCLRD
 70
     0
  9
$DIMCLRE
 70
     0
  9
$DIMCLRT
 70
     0
  9
$DIMTFAC
 40
1.0
  9
$DIMGAP
 40
0.09
  9
$DIMJUST
 70
     0
  9
$DIMSD1
 70
     0
  9
$DIMSD2
 70
     0
  9
$DIMTOLJ
 70
     1
  9
$DIMTZIN
 70
     0
  9
$DIMALTZ
 70
     0
  9
$DIMALTTZ
 70
     0
  9
$DIMUPT
 70
     0
  9
$DIMDEC
 70
     4
  9
$DIMTDEC
 70
     4
  9
$DIMALTU
 70
     2
  9
$DIMALTTD
 70
     2
  9
$DIMTXSTY
  7
Standard
  9
$DIMAUNIT
 70
     0
  9
$DIMADEC
 70
     0
  9
$DIMALTRND
 40
0.0
  9
$DIMAZIN
 70
     0
  9
$DIMDSEP
 70
    46
  9
$DIMATFIT
 70
     3
  9
$DIMFRAC
 70
     0
  9
$DIMLDRBLK
  1

  9
$DIMLUNIT
 70
     2
  9
$DIMLWD
 70
    -2
  9
$DIMLWE
 70
    -2
  9
$DIMTMOVE
 70
     2
  9
$LUNITS
 70
     2
  9
$LUPREC
 70
     3
  9
$SKETCHINC
 40
0.1
  9
$FILLETRAD
 40
0.5
  9
$AUNITS
 70
     0
  9
$AUPREC
 70
     0
  9
$MENU
  1
.
  9
$ELEVATION
 40
0.0
  9
$PELEVATION
 40
0.0
  9
$THICKNESS
 40
0.0
  9
$LIMCHECK
 70
     0
  9
$CHAMFERA
 40
0.5
  9
$CHAMFERB
 40
0.5
  9
$CHAMFERC
 40
1.0
  9
$CHAMFERD
 40
0.0
  9
$SKPOLY
 70
     0
  9
$TDCREATE
 40
2456595.465377419
  9
$TDUCREATE
 40
2456595.423710752
  9
$TDUPDATE
 40
2456595.46537743
  9
$TDUUPDATE
 40
2456595.423710764
  9
$TDINDWG
 40
0.0000000116
  9
$TDUSRTIMER
 40
0.0000000116
  9
$USRTIMER
 70
     1
  9
$ANGBASE
 50
0.0
  9
$ANGDIR
 70
     0
  9
$PDMODE
 70
     0
  9
$PDSIZE
 40
0.0
  9
$PLINEWID
 40
0.0
  9
$SPLFRAME
 70
     0
  9
$SPLINETYPE
 70
     6
  9
$SPLINESEGS
 70
     8
  9
$HANDSEED
  5
13A
  9
$SURFTAB1
 70
     6
  9
$SURFTAB2
 70
     6
  9
$SURFTYPE
 70
     6
  9
$SURFU
 70
     6
  9
$SURFV
 70
     6
  9
$UCSBASE
  2

  9
$UCSNAME
  2

  9
$UCSORG
 10
0.0
 20
0.0
 30
0.0
  9
$UCSXDIR
 10
1.0
 20
0.0
 30
0.0
  9
$UCSYDIR
 10
0.0
 20
1.0
 30
0.0
  9
$UCSORTHOREF
  2

  9
$UCSORTHOVIEW
 70
     0
  9
$UCSORGTOP
 10
0.0
 20
0.0
 30
0.0
  9
$UCSORGBOTTOM
 10
0.0
 20
0.0
 30
0.0
  9
$UCSORGLEFT
 10
0.0
 20
0.0
 30
0.0
  9
$UCSORGRIGHT
 10
0.0
 20
0.0
 30
0.0
  9
$UCSORGFRONT
 10
0.0
 20
0.0
 30
0.0
  9
$UCSORGBACK
 10
0.0
 20
0.0
 30
0.0
  9
$PUCSBASE
  2

  9
$PUCSNAME
  2

  9
$PUCSORG
 10
0.0
 20
0.0
 30
0.0
  9
$PUCSXDIR
 10
1.0
 20
0.0
 30
0.0
  9
$PUCSYDIR
 10
0.0
 20
1.0
 30
0.0
  9
$PUCSORTHOREF
  2

  9
$PUCSORTHOVIEW
 70
     0
  9
$PUCSORGTOP
 10
0.0
 20
0.0
 30
0.0
  9
$PUCSORGBOTTOM
 10
0.0
 20
0.0
 30
0.0
  9
$PUCSORGLEFT
 10
0.0
 20
0.0
 30
0.0
  9
$PUCSORGRIGHT
 10
0.0
 20
0.0
 30
0.0
  9
$PUCSORGFRONT
 10
0.0
 20
0.0
 30
0.0
  9
$PUCSORGBACK
 10
0.0
 20
0.0
 30
0.0
  9
$USERI1
 70
     0
  9
$USERI2
 70
     0
  9
$USERI3
 70
     0
  9
$USERI4
 70
     0
  9
$USERI5
 70
     0
  9
$USERR1
 40
0.0
  9
$USERR2
 40
0.0
  9
$USERR3
 40
0.0
  9
$USERR4
 40
0.0
  9
$USERR5
 40
0.0
  9
$WORLDVIEW
 70
     1
  9
$SHADEDGE
 70
     3
  9
$SHADEDIF
 70
    70
  9
$TILEMODE
 70
     1
  9
$MAXACTVP
 70
    64
  9
$PINSBASE
 10
0.0
 20
0.0
 30
0.0
  9
$PLIMCHECK
 70
     0
  9
$PEXTMIN
 10
1.000000000000000E+20
 20
1.000000000000000E+20
 30
1.000000000000000E+20
  9
$PEXTMAX
 10
-1.000000000000000E+20
 20
-1.000000000000000E+20
 30
-1.000000000000000E+20
  9
$PLIMMIN
 10
0.0
 20
0.0
  9
$PLIMMAX
 10
12.0
 20
9.0
  9
$UNITMODE
 70
     0
  9
$VISRETAIN
 70
     1
  9
$PLINEGEN
 70
     0
  9
$PSLTSCALE
 70
     1
  9
$TREEDEPTH
 70
  3020
  9
$CMLSTYLE
  2
Standard
  9
$CMLJUST
 70
     0
  9
$CMLSCALE
 40
1.0
  9
$PROXYGRAPHICS
 70
     1
  9
$MEASUREMENT
 70
     0
  9
$CELWEIGHT
370
    -1
  9
$ENDCAPS
280
     0
  9
$JOINSTYLE
280
     0
  9
$LWDISPLAY
290
     0
  9
$INSUNITS
 70
     4
  9
$HYPERLINKBASE
  1

  9
$STYLESHEET
  1

  9
$XEDIT
290
     1
  9
$CEPSNTYPE
380
     0
  9
$PSTYLEMODE
290
     1
  9
$FINGERPRINTGUID
  2
{0A9CA5CE-7D73-47E2-B214-B3F110C1C945}
  9
$VERSIONGUID
  2
{FAEB1C32-E019-11D5-929B-00C0DF256EC4}
  9
$EXTNAMES
290
     1
  9
$PSVPSCALE
 40
0.0
  9
$OLESTARTUP
290
     0
  9
$SORTENTS
280
   127
  9
$INDEXCTL
280
     0
  9
$HIDETEXT
280
     1
  9
$XCLIPFRAME
290
     0
  9
$HALOGAP
280
     0
  9
$OBSCOLOR
 70
   257
  9
$OBSLTYPE
280
     0
  9
$INTERSECTIONDISPLAY
280
     0
  9
$INTERSECTIONCOLOR
 70
   257
  9
$DIMASSOC
280
     2
  9
$PROJECTNAME
  1

  0
ENDSEC
  0
SECTION
  2
CLASSES
  0
CLASS
  1
ACDBDICTIONARYWDFLT
  2
AcDbDictionaryWithDefault
  3
ObjectDBX Classes
 90
        0
 91
        4
280
     0
281
     0
  0
CLASS
  1
VISUALSTYLE
  2
AcDbVisualStyle
  3
ObjectDBX Classes
 90
     4095
 91
        4
280
     0
281
     0
  0
ENDSEC
  0
SECTION
  2
TABLES
  0
TABLE
  2
VPORT
  5
8
330
0
100
AcDbSymbolTable
 70
     1
  0
VPORT
  5
29
330
8
100
AcDbSymbolTableRecord
100
AcDbViewportTableRecord
  2
*Active
 70
     0
 10
0.0
 20
0.0
 11
1.0
 21
1.0
 12
3220.585153719646
 22
946.72585080972
 13
0.0
 23
0.0
 14
0.5
 24
0.5
 15
0.5
 25
0.5
 16
0.0
 26
0.0
 36
1.0
 17
0.0
 27
0.0
 37
0.0
 40
1374.994176525666
 41
0.7412919652702168
 42
50.0
 43
0.0
 44
0.0
 50
0.0
 51
0.0
 71
     0
 72
   100
 73
     1
 74
     3
 75
     0
 76
     0
 77
     0
 78
     0
281
     0
 65
     1
110
0.0
120
0.0
130
0.0
111
1.0
121
0.0
131
0.0
112
0.0
122
1.0
132
0.0
 79
     0
146
0.0
  0
ENDTAB
  0
TABLE
  2
LTYPE
  5
5
330
0
100
AcDbSymbolTable
 70
     1
  0
LTYPE
  5
14
330
5
100
AcDbSymbolTableRecord
100
AcDbLinetypeTableRecord
  2
ByBlock
 70
     0
  3

 72
    65
 73
     0
 40
0.0
  0
LTYPE
  5
15
330
5
100
AcDbSymbolTableRecord
100
AcDbLinetypeTableRecord
  2
ByLayer
 70
     0
  3

 72
    65
 73
     0
 40
0.0
  0
LTYPE
  5
16
330
5
100
AcDbSymbolTableRecord
100
AcDbLinetypeTableRecord
  2
Continuous
 70
     0
  3
Solid line
 72
    65
 73
     0
 40
0.0
  0
ENDTAB
  0
TABLE
  2
LAYER
  5
2
330
0
100
AcDbSymbolTable
 70
     3
  0
LAYER
  5
10
330
2
100
AcDbSymbolTableRecord
100
AcDbLayerTableRecord
  2
0
 70
     0
 62
     7
  6
Continuous
370
    -3
390
F
  0
LAYER
  5
3B
330
2
100
AcDbSymbolTableRecord
100
AcDbLayerTableRecord
  2
Linee visibili 2D
 70
     0
 62
     7
  6
Continuous
370
    -3
390
F
  0
LAYER
  5
6A
330
2
100
AcDbSymbolTableRecord
100
AcDbLayerTableRecord
  2
Linee visibili 2D - Tangent
 70
     0
 62
     7
  6
Continuous
370
    -3
390
F
  0
ENDTAB
  0
TABLE
  2
STYLE
  5
3
330
0
100
AcDbSymbolTable
 70
     1
  0
STYLE
  5
11
330
3
100
AcDbSymbolTableRecord
100
AcDbTextStyleTableRecord
  2
Standard
 70
     0
 40
0.0
 41
1.0
 50
0.0
 71
     0
 42
0.2
  3
txt
  4

  0
ENDTAB
  0
TABLE
  2
VIEW
  5
6
330
0
100
AcDbSymbolTable
 70
     0
  0
ENDTAB
  0
TABLE
  2
UCS
  5
7
330
0
100
AcDbSymbolTable
 70
     0
  0
ENDTAB
  0
TABLE
  2
APPID
  5
9
330
0
100
AcDbSymbolTable
 70
     1
  0
APPID
  5
12
330
9
100
AcDbSymbolTableRecord
100
AcDbRegAppTableRecord
  2
ACAD
 70
     0
  0
ENDTAB
  0
TABLE
  2
DIMSTYLE
  5
A
330
0
100
AcDbSymbolTable
 70
     1
100
AcDbDimStyleTable
  0
DIMSTYLE
105
27
330
A
100
AcDbSymbolTableRecord
100
AcDbDimStyleTableRecord
  2
Standard
 70
     0
340
11
  0
ENDTAB
  0
TABLE
  2
BLOCK_RECORD
  5
1
330
0
100
AcDbSymbolTable
 70
     1
  0
BLOCK_RECORD
  5
1F
330
1
100
AcDbSymbolTableRecord
100
AcDbBlockTableRecord
  2
*Model_Space
340
22
  0
BLOCK_RECORD
  5
1B
330
1
100
AcDbSymbolTableRecord
100
AcDbBlockTableRecord
  2
*Paper_Space
340
1E
  0
BLOCK_RECORD
  5
23
330
1
100
AcDbSymbolTableRecord
100
AcDbBlockTableRecord
  2
*Paper_Space0
340
26
  0
ENDTAB
  0
ENDSEC
  0
SECTION
  2
BLOCKS
  0
BLOCK
  5
20
330
1F
100
AcDbEntity
  8
0
100
AcDbBlockBegin
  2
*Model_Space
 70
     0
 10
0.0
 20
0.0
 30
0.0
  3
*Model_Space
  1

  0
ENDBLK
  5
21
330
1F
100
AcDbEntity
  8
0
100
AcDbBlockEnd
  0
BLOCK
  5
1C
330
1B
100
AcDbEntity
 67
     1
  8
0
100
AcDbBlockBegin
  2
*Paper_Space
 70
     0
 10
0.0
 20
0.0
 30
0.0
  3
*Paper_Space
  1

  0
ENDBLK
  5
1D
330
1B
100
AcDbEntity
 67
     1
  8
0
100
AcDbBlockEnd
  0
BLOCK
  5
24
330
23
100
AcDbEntity
  8
0
100
AcDbBlockBegin
  2
*Paper_Space0
 70
     0
 10
0.0
 20
0.0
 30
0.0
  3
*Paper_Space0
  1

  0
ENDBLK
  5
25
330
23
100
AcDbEntity
  8
0
100
AcDbBlockEnd
  0
ENDSEC
  0
SECTION
  2
ENTITIES
  0
SPLINE
  5
3C
330
1F
100
AcDbEntity
  8
Linee visibili 2D
100
AcDbSpline
210
0.0
220
0.0
230
1.0
 70
    24
 71
     2
 72
     6
 73
     3
 74
     0
 42
0.0000000001
 43
0.0000000001
 40
0.0
 40
0.0
 40
0.0
 40
3.899999565066537
 40
3.899999565066537
 40
3.899999565066537
 10
2822.506442256213
 20
906.8090976108642
 30
0.0
 10
2824.456442038746
 20
906.8090976108642
 30
0.0
 10
2826.406441821279
 20
906.8090976108642
 30
0.0
  0
SPLINE
  5
3D
330
1F
100
AcDbEntity
  8
Linee visibili 2D
100
AcDbSpline
210
0.0
220
0.0
230
1.0
 70
    24
 71
     2
 72
     6
 73
     3
 74
     0
 42
0.0000000001
 43
0.0000000001
 40
0.0
 40
0.0
 40
0.0
 40
4.100000461665331
 40
4.100000461665331
 40
4.100000461665331
 10
2816.406441794547
 20
906.8090976108642
 30
0.0
 10
2818.45644202538
 20
906.8090976108642
 30
0.0
 10
2820.506442256213
 20
906.8090976108642
 30
0.0
  0
SPLINE
  5
3E
330
1F
100
AcDbEntity
  8
Linee visibili 2D
100
AcDbSpline
210
0.0
220
0.0
230
1.0
 70
    24
 71
     2
 72
     6
 73
     3
 74
     0
 42
0.0000000001
 43
0.0000000001
 40
0.0
 40
0.0
 40
0.0
 40
4.540494529006082
 40
4.540494529006082
 40
4.540494529006082
 10
2826.34786361245
 20
846.8091224574687
 30
0.0
 10
2824.077616347947
 20
846.8091224574687
 30
0.0
 10
2821.807369083444
 20
846.8091224574687
 30
0.0
  0
SPLINE
  5
3F
330
1F
100
AcDbEntity
  8
Linee visibili 2D
100
AcDbSpline
210
0.0
220
0.0
230
1.0
 70
    24
 71
     2
 72
     6
 73
     3
 74
     0
 42
0.0000000001
 43
0.0000000001
 40
0.0
 40
0.0
 40
0.0
 40
4.498276139798463
 40
4.498276139798463
 40
4.498276139798463
 10
2821.906467256212
 20
893.6289276108636
 30
0.0
 10
2824.155605326111
 20
893.6289276108636
 30
0.0
 10
2826.40474339601
 20
893.6289276108636
 30
0.0
  0
SPLINE
  5
40
330
1F
100
AcDbEntity
  8
Linee visibili 2D
100
AcDbSpline
210
0.0
220
0.0
230
1.0
 70
    24
 71
     2
 72
     6
 73
     3
 74
     0
 42
0.0000000001
 43
0.0000000001
 40
0.0
 40
0.0
 40
0.0
 40
4.500025454052093
 40
4.500025454052093
 40
4.500025454052093
 10
2816.40644180216
 20
893.6289276108636
 30
0.0
 10
2818.656454529186
 20
893.6289276108636
 30
0.0
 10
2820.906467256212
 20
893.6289276108636
 30
0.0
  0
SPLINE
  5
41
330
1F
100
AcDbEntity
  8
Linee visibili 2D
100
AcDbSpline
210
0.0
220
0.0
230
1.0
 70
    24
 71
     2
 72
     6
 73
     3
 74
     0
 42
0.0000000001
 43
0.0000000001
 40
0.0
 40
0.0
 40
0.0
 40
0.232657159509592
 40
0.232657159509592
 40
0.232657159509592
 10
2826.39178166201
 20
411.8091101108653
 30
0.0
 10
2826.27545309466
 20
411.8091638336555
 30
0.0
 10
2826.15912452731
 20
411.8092175564458
 30
0.0
  0
SPLINE
  5
42
330
1F
100
AcDbEntity
  8
Linee visibili 2D
100
AcDbSpline
210
0.0
220
0.0
230
1.0
 70
    24
 71
     2
 72
     6
 73
     3
 74
     0
 42
0.0000000001
 43
0.0000000001
 40
0.0
 40
0.0
 40
0.0
 40
5.408874001689355
 40
5.408874001689355
 40
5.408874001689355
 10
2821.806467080617
 20
423.3979852483575
 30
0.0
 10
2819.102030079773
 20
423.3979852483575
 30
0.0
 10
2816.397593078928
 20
423.3979852483575
 30
0.0
  0
SPLINE
  5
43
330
1F
100
AcDbEntity
  8
Linee visibili 2D
100
AcDbSpline
210
0.0
220
0.0
230
1.0
 70
    24
 71
     2
 72
     6
 73
     3
 74
     0
 42
0.0000000001
 43
0.0000000001
 40
0.0
 40
0.0
 40
0.0
 40
8.995985847762313
 40
8.995985847762313
 40
8.995985847762313
 10
2826.906467256212
 20
411.3123548212918
 30
0.0
 10
2826.906467256212
 20
406.8143618974107
 30
0.0
 10
2826.906467256212
 20
402.3163689735295
 30
0.0
  0
SPLINE
  5
44
330
1F
100
AcDbEntity
  8
Linee visibili 2D
100
AcDbSpline
210
0.0
220
0.0
230
1.0
 70
    24
 71
     2
 72
     6
 73
     3
 74
     0
 42
0.0000000001
 43
0.0000000001
 40
0.0
 40
0.0
 40
0.0
 40
0.0360509483771239
 40
0.0360509483771239
 40
0.0360509483771239
 10
2822.891378953379
 20
413.2418565075815
 30
0.0
 10
2822.909404427567
 20
413.2418565067269
 30
0.0
 10
2822.927429901756
 20
413.2418565058724
 30
0.0
  0
SPLINE
  5
45
330
1F
100
AcDbEntity
  8
Linee visibili 2D
100
AcDbSpline
210
0.0
220
0.0
230
1.0
 70
    24
 71
     2
 72
     6
 73
     3
 74
     0
 42
0.0000000001
 43
0.0000000001
 40
0.0
 40
0.0
 40
0.0
 40
1.119822924164283
 40
1.119822924164283
 40
1.119822924164283
 10
2821.006467187006
 20
413.2418565969437
 30
0.0
 10
2821.566378649088
 20
413.2418565703988
 30
0.0
 10
2822.12629011117
 20
413.2418565438538
 30
0.0
  0
SPLINE
  5
46
330
1F
100
AcDbEntity
  8
Linee visibili 2D
100
AcDbSpline
210
0.0
220
0.0
230
1.0
 70
    24
 71
     2
 72
     6
 73
     3
 74
     0
 42
0.0000000001
 43
0.0000000001
 40
0.0
 40
0.0
 40
0.0
 40
2.496999869717456
 40
2.496999869717456
 40
2.496999869717456
 10
2816.352905877894
 20
412.3090601108395
 30
0.0
 10
2815.104405943035
 20
412.3090601108395
 30
0.0
 10
2813.855906008176
 20
412.3090601108395
 30
0.0
  0
SPLINE
  5
47
330
1F
100
AcDbEntity
  8
Linee visibili 2D
100
AcDbSpline
210
0.0
220
0.0
230
1.0
 70
    24
 71
     2
 72
     6
 73
     3
 74
     0
 42
0.0000000001
 43
0.0000000001
 40
0.0
 40
0.0
 40
0.0
 40
2.496999869717456
 40
2.496999869717456
 40
2.496999869717456
 10
2828.952930877894
 20
412.3090601108498
 30
0.0
 10
2827.704430943035
 20
412.3090601108498
 30
0.0
 10
2826.455931008176
 20
412.3090601108498
 30
0.0
  0
SPLINE
  5
48
330
1F
100
AcDbEntity
  8
Linee visibili 2D
100
AcDbSpline
210
0.0
220
0.0
230
1.0
 70
    24
 71
     2
 72
     6
 73
     3
 74
     0
 42
0.0000000001
 43
0.0000000001
 40
0.0
 40
0.0
 40
0.0
 40
439.3598330120813
 40
439.3598330120813
 40
439.3598330120813
 10
2821.906467256201
 20
884.907645152086
 30
0.0
 10
2821.906467256206
 20
665.2277286460454
 30
0.0
 10
2821.906467256211
 20
445.5478121400048
 30
0.0
  0
SPLINE
  5
49
330
1F
100
AcDbEntity
  8
Linee visibili 2D
100
AcDbSpline
210
0.0
220
0.0
230
1.0
 70
    24
 71
     2
 72
     6
 73
     3
 74
     0
 42
0.0000000001
 43
0.0000000001
 40
0.0
 40
0.0
 40
0.0
 40
439.3598330120817
 40
439.3598330120817
 40
439.3598330120817
 10
2820.906467256213
 20
445.5478121400043
 30
0.0
 10
2820.906467256218
 20
665.2277286460452
 30
0.0
 10
2820.906467256223
 20
884.907645152086
 30
0.0
  0
SPLINE
  5
4A
330
1F
100
AcDbEntity
  8
Linee visibili 2D
100
AcDbSpline
210
0.0
220
0.0
230
1.0
 70
    24
 71
     2
 72
     6
 73
     3
 74
     0
 42
0.0000000001
 43
0.0000000001
 40
0.0
 40
0.0
 40
0.0
 40
0.5824162538541486
 40
0.5824162538541486
 40
0.5824162538541486
 10
2820.906467256212
 20
884.907645152085
 30
0.0
 10
2820.906467256212
 20
885.1988532790122
 30
0.0
 10
2820.906467256212
 20
885.4900614059392
 30
0.0
  0
SPLINE
  5
4B
330
1F
100
AcDbEntity
  8
Linee visibili 2D
100
AcDbSpline
210
0.0
220
0.0
230
1.0
 70
    24
 71
     2
 72
     6
 73
     3
 74
     0
 42
0.0000000001
 43
0.0000000001
 40
0.0
 40
0.0
 40
0.0
 40
0.5824162538542623
 40
0.5824162538542623
 40
0.5824162538542623
 10
2821.906467256212
 20
885.4900614059392
 30
0.0
 10
2821.906467256212
 20
885.198853279012
 30
0.0
 10
2821.906467256212
 20
884.9076451520849
 30
0.0
  0
SPLINE
  5
4C
330
1F
100
AcDbEntity
  8
Linee visibili 2D
100
AcDbSpline
210
0.0
220
0.0
230
1.0
 70
    24
 71
     2
 72
     6
 73
     3
 74
     0
 42
0.0000000001
 43
0.0000000001
 40
0.0
 40
0.0
 40
0.0
 40
0.172129611813034
 40
0.172129611813034
 40
0.172129611813034
 10
2820.906467256212
 20
893.5171324910027
 30
0.0
 10
2820.906467256212
 20
893.6031972969092
 30
0.0
 10
2820.906467256212
 20
893.6892621028157
 30
0.0
  0
SPLINE
  5
4D
330
1F
100
AcDbEntity
  8
Linee visibili 2D
100
AcDbSpline
210
0.0
220
0.0
230
1.0
 70
    24
 71
     2
 72
     6
 73
     3
 74
     0
 42
0.0000000001
 43
0.0000000001
 40
0.0
 40
0.0
 40
0.0
 40
6.559196647095177
 40
6.559196647095177
 40
6.559196647095177
 10
2820.906467256212
 20
893.6892621027308
 30
0.0
 10
2820.906467256211
 20
896.9688604262784
 30
0.0
 10
2820.906467256209
 20
900.248458749826
 30
0.0
  0
SPLINE
  5
4E
330
1F
100
AcDbEntity
  8
Linee visibili 2D
100
AcDbSpline
210
0.0
220
0.0
230
1.0
 70
    24
 71
     2
 72
     6
 73
     3
 74
     0
 42
0.0000000001
 43
0.0000000001
 40
0.0
 40
0.0
 40
0.0
 40
6.559196647097451
 40
6.559196647097451
 40
6.559196647097451
 10
2821.906467256214
 20
900.2484587499295
 30
0.0
 10
2821.906467256213
 20
896.9688604263807
 30
0.0
 10
2821.906467256212
 20
893.689262102832
 30
0.0
  0
SPLINE
  5
4F
330
1F
100
AcDbEntity
  8
Linee visibili 2D
100
AcDbSpline
210
0.0
220
0.0
230
1.0
 70
    24
 71
     2
 72
     6
 73
     3
 74
     0
 42
0.0000000001
 43
0.0000000001
 40
0.0
 40
0.0
 40
0.0
 40
2.49697490346739
 40
2.49697490346739
 40
2.49697490346739
 10
2816.356417256213
 20
847.3090724574564
 30
0.0
 10
2815.107929804479
 20
847.3090724574564
 30
0.0
 10
2813.859442352746
 20
847.3090724574564
 30
0.0
  0
SPLINE
  5
50
330
1F
100
AcDbEntity
  8
Linee visibili 2D
100
AcDbSpline
210
0.0
220
0.0
230
1.0
 70
    24
 71
     2
 72
     6
 73
     3
 74
     0
 42
0.0000000001
 43
0.0000000001
 40
0.0
 40
0.0
 40
0.0
 40
2.496999869717456
 40
2.496999869717456
 40
2.496999869717456
 10
2828.956442256213
 20
847.3090724574668
 30
0.0
 10
2827.707942321354
 20
847.3090724574668
 30
0.0
 10
2826.459442386496
 20
847.3090724574668
 30
0.0
  0
SPLINE
  5
51
330
1F
100
AcDbEntity
  8
Linee visibili 2D
100
AcDbSpline
210
0.0
220
0.0
230
1.0
 70
    12
 71
     2
 72
     6
 73
     3
 74
     0
 42
0.0000000001
 43
0.0000000001
 40
0.0
 40
0.0
 40
0.0
 40
0.3413286135086024
 40
0.3413286135086024
 40
0.3413286135086024
 10
2827.15646725621
 20
402.3228860839976
 30
0.0
 41
1.0
 10
2826.985933445411
 20
402.3153567481142
 30
0.0
 41
0.9996868559526056
 10
2826.815236500726
 20
402.3163689735295
 30
0.0
 41
1.0
  0
SPLINE
  5
52
330
1F
100
AcDbEntity
  8
Linee visibili 2D
100
AcDbSpline
210
0.0
220
0.0
230
1.0
 70
    12
 71
     2
 72
     6
 73
     3
 74
     0
 42
0.0000000001
 43
0.0000000001
 40
0.0
 40
0.0
 40
0.0
 40
2.083608658089593
 40
2.083608658089593
 40
2.083608658089593
 10
2817.79652142032
 20
402.3988615529597
 30
0.0
 41
1.0
 10
2816.75630303396
 20
402.3402212754948
 30
0.0
 41
0.9999055402384956
 10
2815.714865856738
 20
402.3101949643062
 30
0.0
 41
1.0
  0
SPLINE
  5
53
330
1F
100
AcDbEntity
  8
Linee visibili 2D
100
AcDbSpline
210
0.0
220
0.0
230
1.0
 70
    12
 71
     2
 72
     6
 73
     3
 74
     0
 42
0.0000000001
 43
0.0000000001
 40
0.0
 40
0.0
 40
0.0
 40
2.271437947194548
 40
2.271437947194548
 40
2.271437947194548
 10
2826.815236500726
 20
402.3163689735295
 30
0.0
 41
1.0
 10
2825.680686140061
 20
402.3678951033131
 30
0.0
 41
0.9999989092139387
 10
2824.545988520115
 20
402.4160695179609
 30
0.0
 41
1.0
  0
SPLINE
  5
54
330
1F
100
AcDbEntity
  8
Linee visibili 2D
100
AcDbSpline
210
0.0
220
0.0
230
1.0
 70
    24
 71
     2
 72
     6
 73
     3
 74
     0
 42
0.0000000001
 43
0.0000000001
 40
0.0
 40
0.0
 40
0.0
 40
0.2618259739233508
 40
0.2618259739233508
 40
0.2618259739233508
 10
2756.668293230135
 20
337.7090976108642
 30
0.0
 10
2756.537380243173
 20
337.7090976108642
 30
0.0
 10
2756.406467256212
 20
337.7090976108642
 30
0.0
  0
SPLINE
  5
55
330
1F
100
AcDbEntity
  8
Linee visibili 2D
100
AcDbSpline
210
0.0
220
0.0
230
1.0
 70
    12
 71
     2
 72
     8
 73
     5
 74
     0
 42
0.0000000001
 43
0.0000000001
 40
0.0
 40
0.0
 40
0.0
 40
101.6904859635701
 40
101.6904859635701
 40
203.3809719271401
 40
203.3809719271401
 40
203.3809719271401
 10
2886.144641282288
 20
337.7090976108642
 30
0.0
 41
1.0
 10
2886.144641282288
 20
272.9709235847873
 30
0.0
 41
0.7071067811865449
 10
2821.406467256212
 20
272.9709235847876
 30
0.0
 41
1.0
 10
2756.668293230135
 20
272.9709235847875
 30
0.0
 41
0.7071067811865469
 10
2756.668293230135
 20
337.7090976108642
 30
0.0
 41
1.0
  0
SPLINE
  5
56
330
1F
100
AcDbEntity
  8
Linee visibili 2D
100
AcDbSpline
210
0.0
220
0.0
230
1.0
 70
    12
 71
     2
 72
     8
 73
     5
 74
     0
 42
0.0000000001
 43
0.0000000001
 40
0.0
 40
0.0
 40
0.0
 40
101.6904859635701
 40
101.6904859635701
 40
203.3809719271402
 40
203.3809719271402
 40
203.3809719271402
 10
2756.668293230135
 20
337.7090976108642
 30
0.0
 41
1.0
 10
2756.668293230135
 20
402.447271636941
 30
0.0
 41
0.7071067811865452
 10
2821.406467256212
 20
402.4472716369409
 30
0.0
 41
1.0
 10
2886.144641282289
 20
402.4472716369411
 30
0.0
 41
0.7071067811865448
 10
2886.144641282288
 20
337.7090976108642
 30
0.0
 41
1.0
  0
SPLINE
  5
57
330
1F
100
AcDbEntity
  8
Linee visibili 2D
100
AcDbSpline
210
0.0
220
0.0
230
1.0
 70
    12
 71
     2
 72
     8
 73
     5
 74
     0
 42
0.0000000001
 43
0.0000000001
 40
0.0
 40
0.0
 40
0.0
 40
102.1017612416683
 40
102.1017612416683
 40
204.2035224833365
 40
204.2035224833365
 40
204.2035224833365
 10
2756.406467256212
 20
337.7090976108642
 30
0.0
 41
1.0
 10
2756.406467256212
 20
272.7090976108641
 30
0.0
 41
0.7071067811865474
 10
2821.406467256212
 20
272.7090976108642
 30
0.0
 41
1.0
 10
2886.406467256212
 20
272.7090976108642
 30
0.0
 41
0.7071067811865474
 10
2886.406467256212
 20
337.7090976108642
 30
0.0
 41
1.0
  0
SPLINE
  5
58
330
1F
100
AcDbEntity
  8
Linee visibili 2D
100
AcDbSpline
210
0.0
220
0.0
230
1.0
 70
    12
 71
     2
 72
     6
 73
     3
 74
     0
 42
0.0000000001
 43
0.0000000001
 40
0.0
 40
0.0
 40
0.0
 40
96.59517688907607
 40
96.59517688907607
 40
96.59517688907607
 10
2815.906467256212
 20
402.4759872999638
 30
0.0
 41
1.0
 10
2756.406467256212
 20
397.4232512249273
 30
0.0
 41
0.7364154345936117
 10
2756.406467256212
 20
337.7090976108642
 30
0.0
 41
1.0
  0
SPLINE
  5
59
330
1F
100
AcDbEntity
  8
Linee visibili 2D
100
AcDbSpline
210
0.0
220
0.0
230
1.0
 70
    12
 71
     2
 72
     6
 73
     3
 74
     0
 42
0.0000000001
 43
0.0000000001
 40
0.0
 40
0.0
 40
0.0
 40
0.1563536380072409
 40
0.1563536380072409
 40
0.1563536380072409
 10
2827.062244099364
 20
402.4625700142841
 30
0.0
 41
1.0
 10
2826.984363746551
 20
402.4693723351425
 30
0.0
 41
0.9999992767320358
 10
2826.906467256489
 20
402.4759872999403
 30
0.0
 41
1.0
  0
SPLINE
  5
5A
330
1F
100
AcDbEntity
  8
Linee visibili 2D
100
AcDbSpline
210
0.0
220
0.0
230
1.0
 70
    12
 71
     2
 72
     6
 73
     3
 74
     0
 42
0.0000000001
 43
0.0000000001
 40
0.0
 40
0.0
 40
0.0
 40
96.34822076041834
 40
96.34822076041834
 40
96.34822076041834
 10
2886.406467256212
 20
337.7090976108642
 30
0.0
 41
1.0
 10
2886.406467256212
 20
397.1959575722928
 30
0.0
 41
0.7376992830048664
 10
2827.152497435179
 20
402.454623612144
 30
0.0
 41
1.0
  0
SPLINE
  5
5B
330
1F
100
AcDbEntity
  8
Linee visibili 2D
100
AcDbSpline
210
0.0
220
0.0
230
1.0
 70
    12
 71
     2
 72
     6
 73
     3
 74
     0
 42
0.0000000001
 43
0.0000000001
 40
0.0
 40
0.0
 40
0.0
 40
152.8284933291617
 40
152.8284933291617
 40
152.8284933291617
 10
2816.40555660139
 20
690.9321027769345
 30
0.0
 41
1.0
 10
2720.941942161188
 20
695.7252379491321
 30
0.0
 41
0.7246191330346973
 10
2720.941950115815
 20
791.3091059748948
 30
0.0
 41
1.0
  0
SPLINE
  5
5C
330
1F
100
AcDbEntity
  8
Linee visibili 2D
100
AcDbSpline
210
0.0
220
0.0
230
1.0
 70
    12
 71
     2
 72
     8
 73
     5
 74
     0
 42
0.0000000001
 43
0.0000000001
 40
0.0
 40
0.0
 40
0.0
 40
152.9090687347494
 40
152.9090687347494
 40
305.8170315866872
 40
305.8170315866872
 40
305.8170315866872
 10
2826.40474339601
 20
891.6901007085366
 30
0.0
 41
1.0
 10
2921.948833487732
 20
886.9697143684127
 30
0.0
 41
0.7243428230535405
 10
2921.948825526718
 20
791.3090892468139
 30
0.0
 41
1.0
 10
2921.948817565791
 20
695.6495179987907
 30
0.0
 41
0.7243466161457379
 10
2826.405831223628
 20
690.9281482635523
 30
0.0
 41
1.0
  0
SPLINE
  5
5D
330
1F
100
AcDbEntity
  8
Linee visibili 2D
100
AcDbSpline
210
0.0
220
0.0
230
1.0
 70
    12
 71
     2
 72
     6
 73
     3
 74
     0
 42
0.0000000001
 43
0.0000000001
 40
0.0
 40
0.0
 40
0.0
 40
152.829362916069
 40
152.829362916069
 40
152.829362916069
 10
2720.941950115815
 20
791.3091059748948
 30
0.0
 41
1.0
 10
2720.94195807051
 20
886.8938020671078
 30
0.0
 41
0.7246161516600866
 10
2816.406441801506
 20
891.6861368858977
 30
0.0
 41
1.0
  0
SPLINE
  5
5E
330
1F
100
AcDbEntity
  8
Linee visibili 2D
100
AcDbSpline
210
0.0
220
0.0
230
1.0
 70
    24
 71
     2
 72
     6
 73
     3
 74
     0
 42
0.0000000001
 43
0.0000000001
 40
0.0
 40
0.0
 40
0.0
 40
13.18016137043094
 40
13.18016137043094
 40
13.18016137043094
 10
2816.406441794547
 20
906.8090976108642
 30
0.0
 10
2816.406441794547
 20
900.2190169256487
 30
0.0
 10
2816.406441794547
 20
893.6289362404333
 30
0.0
  0
SPLINE
  5
5F
330
1F
100
AcDbEntity
  8
Linee visibili 2D
100
AcDbSpline
210
0.0
220
0.0
230
1.0
 70
    24
 71
     2
 72
     6
 73
     3
 74
     0
 42
0.0000000001
 43
0.0000000001
 40
0.0
 40
0.0
 40
0.0
 40
0.5999750000016775
 40
0.5999750000016775
 40
0.5999750000016775
 10
2821.906467256211
 20
897.3091226108633
 30
0.0
 10
2822.206454756212
 20
897.3091226108633
 30
0.0
 10
2822.506442256213
 20
897.3091226108633
 30
0.0
  0
SPLINE
  5
60
330
1F
100
AcDbEntity
  8
Linee visibili 2D
100
AcDbSpline
210
0.0
220
0.0
230
1.0
 70
    24
 71
     2
 72
     6
 73
     3
 74
     0
 42
0.0000000001
 43
0.0000000001
 40
0.0
 40
0.0
 40
0.0
 40
0.400024999999232
 40
0.400024999999232
 40
0.400024999999232
 10
2820.506442256213
 20
897.3091226108633
 30
0.0
 10
2820.706454756212
 20
897.3091226108633
 30
0.0
 10
2820.906467256212
 20
897.3091226108633
 30
0.0
  0
SPLINE
  5
61
330
1F
100
AcDbEntity
  8
Linee visibili 2D
100
AcDbSpline
210
0.0
220
0.0
230
1.0
 70
    24
 71
     2
 72
     6
 73
     3
 74
     0
 42
0.0000000001
 43
0.0000000001
 40
0.0
 40
0.0
 40
0.0
 40
9.49997499999904
 40
9.49997499999904
 40
9.49997499999904
 10
2822.506442256213
 20
897.3091226108633
 30
0.0
 10
2822.506442256213
 20
902.0591101108628
 30
0.0
 10
2822.506442256213
 20
906.8090976108623
 30
0.0
  0
SPLINE
  5
62
330
1F
100
AcDbEntity
  8
Linee visibili 2D
100
AcDbSpline
210
0.0
220
0.0
230
1.0
 70
    24
 71
     2
 72
     6
 73
     3
 74
     0
 42
0.0000000001
 43
0.0000000001
 40
0.0
 40
0.0
 40
0.0
 40
9.49997499999904
 40
9.49997499999904
 40
9.49997499999904
 10
2820.506442256213
 20
906.8090976108623
 30
0.0
 10
2820.506442256213
 20
902.0591101108628
 30
0.0
 10
2820.506442256213
 20
897.3091226108633
 30
0.0
  0
SPLINE
  5
63
330
1F
100
AcDbEntity
  8
Linee visibili 2D
100
AcDbSpline
210
0.0
220
0.0
230
1.0
 70
    24
 71
     2
 72
     6
 73
     3
 74
     0
 42
0.0000000001
 43
0.0000000001
 40
0.0
 40
0.0
 40
0.0
 40
2.138120497325872
 40
2.138120497325872
 40
2.138120497325872
 10
2826.40474339601
 20
849.0057967519494
 30
0.0
 10
2826.40474339601
 20
847.9367365032865
 30
0.0
 10
2826.40474339601
 20
846.8676762546236
 30
0.0
  0
SPLINE
  5
64
330
1F
100
AcDbEntity
  8
Linee visibili 2D
100
AcDbSpline
210
0.0
220
0.0
230
1.0
 70
    28
 71
     3
 72
    14
 73
    10
 74
     0
 42
0.0000000001
 43
0.0000000001
 40
89.31607723306212
 40
89.31607723306212
 40
89.31607723306212
 40
89.31607723306212
 40
95.20718978839064
 40
95.20718978839064
 40
95.20718978839064
 40
106.9881622393523
 40
106.9881622393523
 40
106.9881622393523
 40
151.9881622393582
 40
151.9881622393582
 40
151.9881622393582
 40
151.9881622393582
 10
2826.40474339601
 20
893.628927581767
 30
0.0
 41
0.853553392248965
 10
2826.40474339601
 20
893.6291100352043
 30
0.0
 41
0.8535430101252077
 10
2826.40474339601
 20
892.8176344337277
 30
0.0
 41
0.9023585460422194
 10
2826.40474339601
 20
891.4322284697627
 30
0.0
 41
1.0
 10
2826.40474339601
 20
888.3256267519644
 30
0.0
 41
0.8047378541243452
 10
2826.40474339601
 20
883.9322284697622
 30
0.0
 41
0.8047378541243452
 10
2826.40474339601
 20
880.825626751964
 30
0.0
 41
1.0
 10
2826.40474339601
 20
870.2190250341645
 30
0.0
 41
1.0
 10
2826.40474339601
 20
859.612423316365
 30
0.0
 41
1.0
 10
2826.40474339601
 20
849.0058215985656
 30
0.0
 41
1.0
  0
SPLINE
  5
65
330
1F
100
AcDbEntity
  8
Linee visibili 2D
100
AcDbSpline
210
0.0
220
0.0
230
1.0
 70
    12
 71
     3
 72
    14
 73
    10
 74
     0
 42
0.0000000001
 43
0.0000000001
 40
0.0
 40
0.0
 40
0.0
 40
0.0
 40
2.196698279121279
 40
2.196698279121279
 40
2.196698279121279
 40
12.80329972092795
 40
12.80329972092795
 40
12.80329972092795
 40
49.75789881400534
 40
49.75789881400534
 40
49.75789881400534
 40
49.75789881400534
 10
2816.406442229234
 20
893.6289362404348
 30
0.0
 41
1.0
 10
2816.406442229189
 20
892.8967034807278
 30
0.0
 41
0.9999999999999998
 10
2816.406442229143
 20
892.1644707210202
 30
0.0
 41
1.0
 10
2816.406442229098
 20
891.4322379613135
 30
0.0
 41
1.0
 10
2816.406454944809
 20
887.8967041473779
 30
0.0
 41
0.9999999999999998
 10
2816.406461302646
 20
884.3611703334423
 30
0.0
 41
1.0
 10
2816.406461302609
 20
880.8256365195068
 30
0.0
 41
1.0
 10
2816.406441801559
 20
872.1153528860492
 30
0.0
 41
1.0
 10
2816.406441801635
 20
863.4050692525915
 30
0.0
 41
1.0
 10
2816.406441801711
 20
854.6947856191339
 30
0.0
 41
1.0
  0
SPLINE
  5
66
330
1F
100
AcDbEntity
  8
Linee visibili 2D
100
AcDbSpline
210
0.0
220
0.0
230
1.0
 70
    12
 71
     2
 72
     6
 73
     3
 74
     0
 42
0.0000000001
 43
0.0000000001
 40
0.0
 40
0.0
 40
0.0
 40
4.500025454773807
 40
4.500025454773807
 40
4.500025454773807
 10
2820.906467256224
 20
854.694739216667
 30
0.0
 41
1.0
 10
2818.656454528847
 20
854.6947506041345
 30
0.0
 41
0.999999999986216
 10
2816.406441801711
 20
854.6947856191415
 30
0.0
 41
1.0
  0
SPLINE
  5
67
330
1F
100
AcDbEntity
  8
Linee visibili 2D
100
AcDbSpline
210
0.0
220
0.0
230
1.0
 70
    24
 71
     2
 72
     6
 73
     3
 74
     0
 42
0.0000000001
 43
0.0000000001
 40
0.0
 40
0.0
 40
0.0
 40
0.9882041995928716
 40
0.9882041995928716
 40
0.9882041995928716
 10
2826.39178166201
 20
418.3209059112724
 30
0.0
 10
2826.39178166201
 20
418.8150080110688
 30
0.0
 10
2826.39178166201
 20
419.3091101108653
 30
0.0
  0
SPLINE
  5
68
330
1F
100
AcDbEntity
  8
Linee visibili 2D
100
AcDbSpline
210
0.0
220
0.0
230
1.0
 70
    24
 71
     2
 72
     6
 73
     3
 74
     0
 42
0.0000000001
 43
0.0000000001
 40
0.0
 40
0.0
 40
0.0
 40
0.6182096460466084
 40
0.6182096460466084
 40
0.6182096460466084
 10
2826.39178166201
 20
414.5868273144301
 30
0.0
 10
2826.39178166201
 20
414.8959321374534
 30
0.0
 10
2826.39178166201
 20
415.2050369604767
 30
0.0
  0
SPLINE
  5
69
330
1F
100
AcDbEntity
  8
Linee visibili 2D
100
AcDbSpline
210
0.0
220
0.0
230
1.0
 70
    12
 71
     2
 72
     8
 73
     5
 74
     0
 42
0.0000000001
 43
0.0000000001
 40
63.46488713180532
 40
63.46488713180532
 40
63.46488713180532
 40
74.81816279694678
 40
74.81816279694678
 40
79.40136728720708
 40
79.40136728720708
 40
79.40136728720708
 10
2816.392243244114
 20
423.7979852483572
 30
0.0
 41
1.0
 10
2816.392243244114
 20
429.4746230809279
 30
0.0
 41
1.0
 10
2816.392243244114
 20
435.1512609134987
 30
0.0
 41
1.0
 10
2816.398690413323
 20
437.4428631586278
 30
0.0
 41
1.0
 10
2816.405137582533
 20
439.7344654037569
 30
0.0
 41
1.0
  0
SPLINE
  5
6B
330
1F
100
AcDbEntity
  8
Linee visibili 2D - Tangent
100
AcDbSpline
210
0.0
220
0.0
230
1.0
 70
    24
 71
     2
 72
     6
 73
     3
 74
     0
 42
0.0000000001
 43
0.0000000001
 40
0.0
 40
0.0
 40
0.0
 40
5.414223836503652
 40
5.414223836503652
 40
5.414223836503652
 10
2821.806467080617
 20
423.7979852483572
 30
0.0
 10
2819.099355162366
 20
423.7979852483572
 30
0.0
 10
2816.392243244114
 20
423.7979852483572
 30
0.0
  0
SPLINE
  5
6C
330
1F
100
AcDbEntity
  8
Linee visibili 2D
100
AcDbSpline
210
0.0
220
0.0
230
1.0
 70
    12
 71
     2
 72
     6
 73
     3
 74
     0
 42
0.0000000001
 43
0.0000000001
 40
0.0
 40
0.0
 40
0.0
 40
0.3002823893166774
 40
0.3002823893166774
 40
0.3002823893166774
 10
2816.396908549722
 20
423.4137730840886
 30
0.0
 41
1.0
 10
2816.395124597819
 20
423.5639036800959
 30
0.0
 41
0.9999999997191068
 10
2816.393333529115
 20
423.7140341913678
 30
0.0
 41
1.0
  0
SPLINE
  5
6D
330
1F
100
AcDbEntity
  8
Linee visibili 2D
100
AcDbSpline
210
0.0
220
0.0
230
1.0
 70
    24
 71
     2
 72
     6
 73
     3
 74
     0
 42
0.0000000001
 43
0.0000000001
 40
0.0
 40
0.0
 40
0.0
 40
10.55612868933756
 40
10.55612868933756
 40
10.55612868933756
 10
2821.806467080617
 20
423.7979852483572
 30
0.0
 10
2821.806467080617
 20
418.5199209036884
 30
0.0
 10
2821.806467080617
 20
413.2418565590197
 30
0.0
  0
SPLINE
  5
6E
330
1F
100
AcDbEntity
  8
Linee visibili 2D
100
AcDbSpline
210
0.0
220
0.0
230
1.0
 70
    24
 71
     2
 72
     6
 73
     3
 74
     0
 42
0.0000000001
 43
0.0000000001
 40
0.0
 40
0.0
 40
0.0
 40
0.5098724862199902
 40
0.5098724862199902
 40
0.5098724862199902
 10
2816.406467256212
 20
413.351779675019
 30
0.0
 10
2816.406467256212
 20
413.0968434319091
 30
0.0
 10
2816.406467256212
 20
412.841907188799
 30
0.0
  0
SPLINE
  5
6F
330
1F
100
AcDbEntity
  8
Linee visibili 2D
100
AcDbSpline
210
0.0
220
0.0
230
1.0
 70
    24
 71
     2
 72
     6
 73
     3
 74
     0
 42
0.0000000001
 43
0.0000000001
 40
0.0
 40
0.0
 40
0.0
 40
0.7858586851372138
 40
0.7858586851372138
 40
0.7858586851372138
 10
2816.406467256212
 20
415.372686011411
 30
0.0
 10
2816.406467256212
 20
414.9797566688424
 30
0.0
 10
2816.406467256212
 20
414.5868273262738
 30
0.0
  0
SPLINE
  5
70
330
1F
100
AcDbEntity
  8
Linee visibili 2D
100
AcDbSpline
210
0.0
220
0.0
230
1.0
 70
    24
 71
     2
 72
     6
 73
     3
 74
     0
 42
0.0000000001
 43
0.0000000001
 40
0.0
 40
0.0
 40
0.0
 40
0.8986293739722271
 40
0.8986293739722271
 40
0.8986293739722271
 10
2816.406467256211
 20
419.2195353032181
 30
0.0
 10
2816.406467256212
 20
418.770220616232
 30
0.0
 10
2816.406467256212
 20
418.3209059292459
 30
0.0
  0
SPLINE
  5
71
330
1F
100
AcDbEntity
  8
Linee visibili 2D
100
AcDbSpline
210
0.0
220
0.0
230
1.0
 70
    24
 71
     2
 72
     6
 73
     3
 74
     0
 42
0.0000000001
 43
0.0000000001
 40
0.0
 40
0.0
 40
0.0
 40
8.996010519859908
 40
8.996010519859908
 40
8.996010519859908
 10
2815.906467256212
 20
411.3091101108643
 30
0.0
 10
2815.906467256212
 20
406.8111048509343
 30
0.0
 10
2815.906467256212
 20
402.3130995910043
 30
0.0
  0
SPLINE
  5
72
330
1F
100
AcDbEntity
  8
Linee visibili 2D
100
AcDbSpline
210
0.0
220
0.0
230
1.0
 70
    12
 71
     2
 72
     6
 73
     3
 74
     0
 42
0.0000000001
 43
0.0000000001
 40
0.0
 40
0.0
 40
0.0
 40
0.6019592999755885
 40
0.6019592999755885
 40
0.6019592999755885
 10
2816.406467256212
 20
411.6442552524863
 30
0.0
 41
1.0
 10
2816.153708358604
 20
411.4807986560186
 30
0.0
 41
0.9998644975879799
 10
2815.906467256212
 20
411.3091101108643
 30
0.0
 41
1.0
  0
SPLINE
  5
73
330
1F
100
AcDbEntity
  8
Linee visibili 2D
100
AcDbSpline
210
0.0
220
0.0
230
1.0
 70
    24
 71
     2
 72
     6
 73
     3
 74
     0
 42
0.0000000001
 43
0.0000000001
 40
0.0
 40
0.0
 40
0.0
 40
1.152058115627489
 40
1.152058115627489
 40
1.152058115627489
 10
2821.006467227111
 20
414.1944253680937
 30
0.0
 10
2821.00646716616
 20
413.61839631028
 30
0.0
 10
2821.00646710521
 20
413.0423672524662
 30
0.0
  0
SPLINE
  5
74
330
1F
100
AcDbEntity
  8
Linee visibili 2D
100
AcDbSpline
210
0.0
220
0.0
230
1.0
 70
    24
 71
     2
 72
     6
 73
     3
 74
     0
 42
0.0000000001
 43
0.0000000001
 40
0.0
 40
0.0
 40
0.0
 40
0.8001281721490168
 40
0.8001281721490168
 40
0.8001281721490168
 10
2821.80659543603
 20
413.0423672145329
 30
0.0
 10
2821.406531349955
 20
413.0423672334996
 30
0.0
 10
2821.006467263881
 20
413.0423672524662
 30
0.0
  0
SPLINE
  5
75
330
1F
100
AcDbEntity
  8
Linee visibili 2D
100
AcDbSpline
210
0.0
220
0.0
230
1.0
 70
    12
 71
     2
 72
     6
 73
     3
 74
     0
 42
0.0000000001
 43
0.0000000001
 40
0.0
 40
0.0
 40
0.0
 40
0.3991471606487417
 40
0.3991471606487417
 40
0.3991471606487417
 10
2822.927411057013
 20
413.2444237877596
 30
0.0
 41
1.0
 10
2823.128731196847
 20
413.2531582261712
 30
0.0
 41
0.9856512795162956
 10
2823.32148582847
 20
413.1944067061526
 30
0.0
 41
1.0
  0
SPLINE
  5
76
330
1F
100
AcDbEntity
  8
Linee visibili 2D
100
AcDbSpline
210
0.0
220
0.0
230
1.0
 70
    12
 71
     2
 72
     6
 73
     3
 74
     0
 42
0.0000000001
 43
0.0000000001
 40
0.0
 40
0.0
 40
0.0
 40
1.109566073050878
 40
1.109566073050878
 40
1.109566073050878
 10
2821.806804282188
 20
413.042367214523
 30
0.0
 41
1.0
 10
2822.329248510162
 20
413.2487615453035
 30
0.0
 41
0.9815382652279564
 10
2822.890962751745
 20
413.2438930830789
 30
0.0
 41
1.0
  0
SPLINE
  5
77
330
1F
100
AcDbEntity
  8
Linee visibili 2D
100
AcDbSpline
210
0.0
220
0.0
230
1.0
 70
    12
 71
     2
 72
     6
 73
     3
 74
     0
 42
0.0000000001
 43
0.0000000001
 40
0.0
 40
0.0
 40
0.0
 40
4.044420343581966
 40
4.044420343581966
 40
4.044420343581966
 10
2823.32148582847
 20
413.1944067061526
 30
0.0
 41
1.0
 10
2825.236874469505
 20
412.506612998393
 30
0.0
 41
0.9905010138512027
 10
2826.892477773414
 20
411.3230795046881
 30
0.0
 41
1.0
  0
SPLINE
  5
78
330
1F
100
AcDbEntity
  8
Linee visibili 2D
100
AcDbSpline
210
0.0
220
0.0
230
1.0
 70
    12
 71
     3
 72
    10
 73
     6
 74
     0
 42
0.0000000001
 43
0.0000000001
 40
0.0000000617993596
 40
0.0000000617993596
 40
0.0000000617993596
 40
0.0000000617993596
 40
3.18771072679161
 40
3.18771072679161
 40
6.24843172150372
 40
6.24843172150372
 40
6.24843172150372
 40
6.24843172150372
 10
2821.006467227111
 20
414.1944253680937
 30
0.0
 41
1.0
 10
2819.85660618789
 20
414.1044991130992
 30
0.0
 41
1.0
 10
2819.040200915269
 20
413.7323477239375
 30
0.0
 41
1.0
 10
2817.405708018005
 20
412.8634712348074
 30
0.0
 41
1.0
 10
2816.839503146013
 20
412.4708674484
 30
0.0
 41
1.0
 10
2816.406467256212
 20
412.1676816823214
 30
0.0
 41
1.0
  0
SPLINE
  5
79
330
1F
100
AcDbEntity
  8
Linee visibili 2D
100
AcDbSpline
210
0.0
220
0.0
230
1.0
 70
    12
 71
     2
 72
     8
 73
     5
 74
     0
 42
0.0000000001
 43
0.0000000001
 40
0.0
 40
0.0
 40
0.0
 40
2.929287536941615
 40
2.929287536941615
 40
9.203559878934925
 40
9.203559878934925
 40
9.203559878934925
 10
2821.006467227422
 20
423.3979852470287
 30
0.0
 41
1.0
 10
2821.006467209118
 20
421.9333414785578
 30
0.0
 41
1.0
 10
2821.006467190814
 20
420.468697710087
 30
0.0
 41
1.0
 10
2821.006467155289
 20
417.3315615390904
 30
0.0
 41
1.0
 10
2821.006467202365
 20
414.1944253680937
 30
0.0
 41
1.0
  0
SPLINE
  5
7A
330
1F
100
AcDbEntity
  8
Linee visibili 2D
100
AcDbSpline
210
0.0
220
0.0
230
1.0
 70
    24
 71
     2
 72
     6
 73
     3
 74
     0
 42
0.0000000001
 43
0.0000000001
 40
0.0
 40
0.0
 40
0.0
 40
9.99953948423212
 40
9.99953948423212
 40
9.99953948423212
 10
2826.404676000429
 20
439.729847422829
 30
0.0
 10
2821.404906791481
 20
439.732156413293
 30
0.0
 10
2816.405137582533
 20
439.7344654037569
 30
0.0
  0
SPLINE
  5
7B
330
1F
100
AcDbEntity
  8
Linee visibili 2D
100
AcDbSpline
210
0.0
220
0.0
230
1.0
 70
    24
 71
     2
 72
     6
 73
     3
 74
     0
 42
0.0000000001
 43
0.0000000001
 40
0.0
 40
0.0
 40
0.0
 40
22.49999999999761
 40
22.49999999999761
 40
22.49999999999761
 10
2826.406442323239
 20
846.3091226108614
 30
0.0
 10
2826.406442323239
 20
835.0591226108627
 30
0.0
 10
2826.406442323239
 20
823.8091226108638
 30
0.0
  0
SPLINE
  5
7C
330
1F
100
AcDbEntity
  8
Linee visibili 2D
100
AcDbSpline
210
0.0
220
0.0
230
1.0
 70
    24
 71
     2
 72
     6
 73
     3
 74
     0
 42
0.0000000001
 43
0.0000000001
 40
0.0
 40
0.0
 40
0.0
 40
4.499975067032437
 40
4.499975067032437
 40
4.499975067032437
 10
2821.906467256207
 20
846.3091226108614
 30
0.0
 10
2824.156454789723
 20
846.3091226108614
 30
0.0
 10
2826.406442323239
 20
846.3091226108614
 30
0.0
  0
SPLINE
  5
7D
330
1F
100
AcDbEntity
  8
Linee visibili 2D
100
AcDbSpline
210
0.0
220
0.0
230
1.0
 70
    24
 71
     2
 72
     6
 73
     3
 74
     0
 42
0.0000000001
 43
0.0000000001
 40
0.0
 40
0.0
 40
0.0
 40
4.499975067032437
 40
4.499975067032437
 40
4.499975067032437
 10
2821.906467256207
 20
823.8091226108638
 30
0.0
 10
2824.156454789723
 20
823.8091226108638
 30
0.0
 10
2826.406442323239
 20
823.8091226108638
 30
0.0
  0
SPLINE
  5
7E
330
1F
100
AcDbEntity
  8
Linee visibili 2D
100
AcDbSpline
210
0.0
220
0.0
230
1.0
 70
    24
 71
     2
 72
     6
 73
     3
 74
     0
 42
0.0000000001
 43
0.0000000001
 40
0.0
 40
0.0
 40
0.0
 40
4.500689004744572
 40
4.500689004744572
 40
4.500689004744572
 10
2816.405778251472
 20
823.8091226108638
 30
0.0
 10
2818.656122753844
 20
823.8091226108638
 30
0.0
 10
2820.906467256216
 20
823.8091226108638
 30
0.0
  0
SPLINE
  5
7F
330
1F
100
AcDbEntity
  8
Linee visibili 2D
100
AcDbSpline
210
0.0
220
0.0
230
1.0
 70
    24
 71
     2
 72
     6
 73
     3
 74
     0
 42
0.0000000001
 43
0.0000000001
 40
0.0
 40
0.0
 40
0.0
 40
0.3852898006381338
 40
0.3852898006381338
 40
0.3852898006381338
 10
2816.405778251472
 20
854.6944124114995
 30
0.0
 10
2816.405778251472
 20
854.5017675111803
 30
0.0
 10
2816.405778251472
 20
854.3091226108613
 30
0.0
  0
SPLINE
  5
80
330
1F
100
AcDbEntity
  8
Linee visibili 2D
100
AcDbSpline
210
0.0
220
0.0
230
1.0
 70
    15
 71
     2
 72
    12
 73
     9
 74
     0
 42
0.0000000001
 43
0.0000000001
 40
0.0
 40
0.0
 40
0.0
 40
15.71070510313624
 40
15.71070510313624
 40
31.42141020627237
 40
31.42141020627237
 40
47.13211530940856
 40
47.13211530940856
 40
62.8428204125448
 40
62.8428204125448
 40
62.8428204125448
 10
2811.404721749719
 20
337.7090976108642
 30
0.0
 41
1.0
 10
2811.404721749719
 20
347.7108431173568
 30
0.0
 41
0.7071067811865636
 10
2821.406467256212
 20
347.7108431173571
 30
0.0
 41
1.0
 10
2831.408212762704
 20
347.7108431173568
 30
0.0
 41
0.7071067811865627
 10
2831.408212762704
 20
337.7090976108642
 30
0.0
 41
1.0
 10
2831.408212762704
 20
327.7073521043715
 30
0.0
 41
0.7071067811865526
 10
2821.406467256212
 20
327.7073521043715
 30
0.0
 41
1.0
 10
2811.404721749719
 20
327.7073521043716
 30
0.0
 41
0.7071067811865631
 10
2811.404721749719
 20
337.7090976108642
 30
0.0
 41
1.0
  0
SPLINE
  5
81
330
1F
100
AcDbEntity
  8
Linee visibili 2D
100
AcDbSpline
210
0.0
220
0.0
230
1.0
 70
    24
 71
     2
 72
     6
 73
     3
 74
     0
 42
0.0000000001
 43
0.0000000001
 40
0.0
 40
0.0
 40
0.0
 40
2.496999869717456
 40
2.496999869717456
 40
2.496999869717456
 10
2813.855906008176
 20
426.3091601108404
 30
0.0
 10
2815.104405943035
 20
426.3091601108404
 30
0.0
 10
2816.352905877894
 20
426.3091601108404
 30
0.0
  0
SPLINE
  5
82
330
1F
100
AcDbEntity
  8
Linee visibili 2D
100
AcDbSpline
210
0.0
220
0.0
230
1.0
 70
    24
 71
     2
 72
     6
 73
     3
 74
     0
 42
0.0000000001
 43
0.0000000001
 40
0.0
 40
0.0
 40
0.0
 40
13.9617655536203
 40
13.9617655536203
 40
13.9617655536203
 10
2813.855906008176
 20
426.3091601108404
 30
0.0
 10
2813.855906008176
 20
419.3282773340303
 30
0.0
 10
2813.855906008176
 20
412.3473945572201
 30
0.0
  0
SPLINE
  5
83
330
1F
100
AcDbEntity
  8
Linee visibili 2D
100
AcDbSpline
210
0.0
220
0.0
230
1.0
 70
    24
 71
     2
 72
     6
 73
     3
 74
     0
 42
0.0000000001
 43
0.0000000001
 40
0.0
 40
0.0
 40
0.0
 40
13.96176555362035
 40
13.96176555362035
 40
13.96176555362035
 10
2828.952930877894
 20
426.3091601108508
 30
0.0
 10
2828.952930877894
 20
419.3282773340406
 30
0.0
 10
2828.952930877894
 20
412.3473945572305
 30
0.0
  0
SPLINE
  5
84
330
1F
100
AcDbEntity
  8
Linee visibili 2D
100
AcDbSpline
210
0.0
220
0.0
230
1.0
 70
    24
 71
     2
 72
     6
 73
     3
 74
     0
 42
0.0000000001
 43
0.0000000001
 40
0.0
 40
0.0
 40
0.0
 40
2.496999869717456
 40
2.496999869717456
 40
2.496999869717456
 10
2826.455931008176
 20
426.3091601108508
 30
0.0
 10
2827.704430943035
 20
426.3091601108508
 30
0.0
 10
2828.952930877894
 20
426.3091601108508
 30
0.0
  0
SPLINE
  5
85
330
1F
100
AcDbEntity
  8
Linee visibili 2D - Tangent
100
AcDbSpline
210
0.0
220
0.0
230
1.0
 70
    12
 71
     2
 72
     6
 73
     3
 74
     0
 42
0.0000000001
 43
0.0000000001
 40
0.0
 40
0.0
 40
0.0
 40
0.5029104410390426
 40
0.5029104410390426
 40
0.5029104410390426
 10
2820.906467256212
 20
445.5478121400052
 30
0.0
 41
1.0
 10
2821.153957544281
 20
445.4947206164248
 30
0.0
 41
0.9901587468865206
 10
2821.406467256212
 20
445.5122989537954
 30
0.0
 41
1.0
  0
SPLINE
  5
86
330
1F
100
AcDbEntity
  8
Linee visibili 2D - Tangent
100
AcDbSpline
210
0.0
220
0.0
230
1.0
 70
    12
 71
     2
 72
     6
 73
     3
 74
     0
 42
0.0000000001
 43
0.0000000001
 40
0.0
 40
0.0
 40
0.0
 40
0.5029104410390379
 40
0.5029104410390379
 40
0.5029104410390379
 10
2821.406467256212
 20
445.5122989537954
 30
0.0
 41
1.0
 10
2821.658976968143
 20
445.4947206164248
 30
0.0
 41
0.9901587468865636
 10
2821.906467256211
 20
445.5478121400052
 30
0.0
 41
1.0
  0
SPLINE
  5
87
330
1F
100
AcDbEntity
  8
Linee visibili 2D - Tangent
100
AcDbSpline
210
0.0
220
0.0
230
1.0
 70
    12
 71
     2
 72
     6
 73
     3
 74
     0
 42
0.0000000001
 43
0.0000000001
 40
0.0
 40
0.0
 40
0.0
 40
0.5029104410340377
 40
0.5029104410340377
 40
0.5029104410340377
 10
2820.906467256217
 20
884.9076451520854
 30
0.0
 41
1.0
 10
2821.153957544283
 20
884.8545536285052
 30
0.0
 41
0.9901587468864486
 10
2821.406467256212
 20
884.8721319658756
 30
0.0
 41
1.0
  0
SPLINE
  5
88
330
1F
100
AcDbEntity
  8
Linee visibili 2D - Tangent
100
AcDbSpline
210
0.0
220
0.0
230
1.0
 70
    12
 71
     2
 72
     6
 73
     3
 74
     0
 42
0.0000000001
 43
0.0000000001
 40
0.0
 40
0.0
 40
0.0
 40
0.5029104410340283
 40
0.5029104410340283
 40
0.5029104410340283
 10
2821.406467256212
 20
884.8721319658757
 30
0.0
 41
1.0
 10
2821.65897696814
 20
884.8545536285053
 30
0.0
 41
0.9901587468864548
 10
2821.906467256206
 20
884.9076451520854
 30
0.0
 41
1.0
  0
SPLINE
  5
89
330
1F
100
AcDbEntity
  8
Linee visibili 2D - Tangent
100
AcDbSpline
210
0.0
220
0.0
230
1.0
 70
    24
 71
     2
 72
     6
 73
     3
 74
     0
 42
0.0000000001
 43
0.0000000001
 40
0.0
 40
0.0
 40
0.0
 40
0.5
 40
0.5
 40
0.5
 10
2821.906467256212
 20
885.4900614059392
 30
0.0
 10
2821.656467256212
 20
885.4900614059392
 30
0.0
 10
2821.406467256212
 20
885.4900614059392
 30
0.0
  0
SPLINE
  5
8A
330
1F
100
AcDbEntity
  8
Linee visibili 2D - Tangent
100
AcDbSpline
210
0.0
220
0.0
230
1.0
 70
    24
 71
     2
 72
     6
 73
     3
 74
     0
 42
0.0000000001
 43
0.0000000001
 40
0.0
 40
0.0
 40
0.0
 40
0.5
 40
0.5
 40
0.5
 10
2821.406467256212
 20
885.4900614059392
 30
0.0
 10
2821.156467256212
 20
885.4900614059392
 30
0.0
 10
2820.906467256212
 20
885.4900614059392
 30
0.0
  0
SPLINE
  5
8B
330
1F
100
AcDbEntity
  8
Linee visibili 2D
100
AcDbSpline
210
0.0
220
0.0
230
1.0
 70
    12
 71
     2
 72
     6
 73
     3
 74
     0
 42
0.0000000001
 43
0.0000000001
 40
0.0
 40
0.0
 40
0.0
 40
0.7853598850886121
 40
0.7853598850886121
 40
0.7853598850886121
 10
2820.906467256212
 20
893.6892621028156
 30
0.0
 41
1.0
 10
2820.906491626396
 20
894.1892377326303
 30
0.0
 41
0.7071067828661911
 10
2821.406467256212
 20
894.1892133648204
 30
0.0
 41
1.0
  0
SPLINE
  5
8C
330
1F
100
AcDbEntity
  8
Linee visibili 2D
100
AcDbSpline
210
0.0
220
0.0
230
1.0
 70
    12
 71
     2
 72
     6
 73
     3
 74
     0
 42
0.0000000001
 43
0.0000000001
 40
0.0
 40
0.0
 40
0.0
 40
0.7853598850873427
 40
0.7853598850873427
 40
0.7853598850873427
 10
2821.406467256212
 20
900.7484100119301
 30
0.0
 41
1.0
 10
2820.906491626397
 20
900.7484343797402
 30
0.0
 41
0.70710678286595
 10
2820.906467256213
 20
900.2484587499263
 30
0.0
 41
1.0
  0
SPLINE
  5
8D
330
1F
100
AcDbEntity
  8
Linee visibili 2D
100
AcDbSpline
210
0.0
220
0.0
230
1.0
 70
    12
 71
     2
 72
     6
 73
     3
 74
     0
 42
0.0000000001
 43
0.0000000001
 40
0.0
 40
0.0
 40
0.0
 40
0.7853598850871835
 40
0.7853598850871835
 40
0.7853598850871835
 10
2821.906467256211
 20
900.2484587499263
 30
0.0
 41
1.0
 10
2821.906442886026
 20
900.7484343797399
 30
0.0
 41
0.7071067828661911
 10
2821.406467256212
 20
900.7484100119301
 30
0.0
 41
1.0
  0
SPLINE
  5
8E
330
1F
100
AcDbEntity
  8
Linee visibili 2D
100
AcDbSpline
210
0.0
220
0.0
230
1.0
 70
    12
 71
     2
 72
     6
 73
     3
 74
     0
 42
0.0000000001
 43
0.0000000001
 40
0.0
 40
0.0
 40
0.0
 40
0.7853598850884302
 40
0.7853598850884302
 40
0.7853598850884302
 10
2821.406467256212
 20
894.1892133648203
 30
0.0
 41
1.0
 10
2821.906442886027
 20
894.1892377326302
 30
0.0
 41
0.7071067828661911
 10
2821.906467256212
 20
893.6892621028156
 30
0.0
 41
1.0
  0
SPLINE
  5
8F
330
1F
100
AcDbEntity
  8
Linee visibili 2D
100
AcDbSpline
210
0.0
220
0.0
230
1.0
 70
    24
 71
     2
 72
     6
 73
     3
 74
     0
 42
0.0000000001
 43
0.0000000001
 40
0.0
 40
0.0
 40
0.0
 40
2.473584345313611
 40
2.473584345313611
 40
2.473584345313611
 10
2813.859442352746
 20
861.3091724574574
 30
0.0
 10
2815.096234525402
 20
861.3091724574574
 30
0.0
 10
2816.333026698059
 20
861.3091724574574
 30
0.0
  0
SPLINE
  5
90
330
1F
100
AcDbEntity
  8
Linee visibili 2D
100
AcDbSpline
210
0.0
220
0.0
230
1.0
 70
    24
 71
     2
 72
     6
 73
     3
 74
     0
 42
0.0000000001
 43
0.0000000001
 40
0.0
 40
0.0
 40
0.0
 40
13.96176555364468
 40
13.96176555364468
 40
13.96176555364468
 10
2813.859417386495
 20
861.3091476108704
 30
0.0
 10
2813.859417386495
 20
854.328264834048
 30
0.0
 10
2813.859417386495
 20
847.3473820572257
 30
0.0
  0
SPLINE
  5
91
330
1F
100
AcDbEntity
  8
Linee visibili 2D
100
AcDbSpline
210
0.0
220
0.0
230
1.0
 70
    24
 71
     2
 72
     6
 73
     3
 74
     0
 42
0.0000000001
 43
0.0000000001
 40
0.0
 40
0.0
 40
0.0
 40
13.96176555364457
 40
13.96176555364457
 40
13.96176555364457
 10
2828.956442256213
 20
861.3091476108806
 30
0.0
 10
2828.956442256213
 20
854.3282648340582
 30
0.0
 10
2828.956442256213
 20
847.347382057236
 30
0.0
  0
SPLINE
  5
92
330
1F
100
AcDbEntity
  8
Linee visibili 2D
100
AcDbSpline
210
0.0
220
0.0
230
1.0
 70
    24
 71
     2
 72
     6
 73
     3
 74
     0
 42
0.0000000001
 43
0.0000000001
 40
0.0
 40
0.0
 40
0.0
 40
2.496999869717456
 40
2.496999869717456
 40
2.496999869717456
 10
2826.459442386496
 20
861.3091724574678
 30
0.0
 10
2827.707942321354
 20
861.3091724574678
 30
0.0
 10
2828.956442256213
 20
861.3091724574678
 30
0.0
  0
SPLINE
  5
93
330
1F
100
AcDbEntity
  8
Linee visibili 2D
100
AcDbSpline
210
0.0
220
0.0
230
1.0
 70
    24
 71
     2
 72
     6
 73
     3
 74
     0
 42
0.0000000001
 43
0.0000000001
 40
0.0
 40
0.0
 40
0.0
 40
384.0792751920964
 40
384.0792751920964
 40
384.0792751920964
 10
2826.404676000429
 20
439.729847422829
 30
0.0
 10
2826.405559161834
 20
631.7694850168464
 30
0.0
 10
2826.406442323239
 20
823.8091226108638
 30
0.0
  0
SPLINE
  5
94
330
1F
100
AcDbEntity
  8
Linee visibili 2D
100
AcDbSpline
210
0.0
220
0.0
230
1.0
 70
    24
 71
     2
 72
     6
 73
     3
 74
     0
 42
0.0000000001
 43
0.0000000001
 40
0.0
 40
0.0
 40
0.0
 40
384.0746572076413
 40
384.0746572076413
 40
384.0746572076413
 10
2816.405778251472
 20
823.8091226108638
 30
0.0
 10
2816.405457917002
 20
631.7717940073103
 30
0.0
 10
2816.405137582533
 20
439.7344654037569
 30
0.0
  0
SPLINE
  5
95
330
1F
100
AcDbEntity
  8
Linee visibili 2D
100
AcDbSpline
210
0.0
220
0.0
230
1.0
 70
    24
 71
     2
 72
     6
 73
     3
 74
     0
 42
0.0000000001
 43
0.0000000001
 40
0.0
 40
0.0
 40
0.0
 40
1.197651936312724
 40
1.197651936312724
 40
1.197651936312724
 10
2816.406467256212
 20
412.841907188799
 30
0.0
 10
2816.406467256212
 20
412.2430812206427
 30
0.0
 10
2816.406467256212
 20
411.6442552524863
 30
0.0
  0
SPLINE
  5
96
330
1F
100
AcDbEntity
  8
Linee visibili 2D
100
AcDbSpline
210
0.0
220
0.0
230
1.0
 70
    24
 71
     2
 72
     6
 73
     3
 74
     0
 42
0.0000000001
 43
0.0000000001
 40
0.0
 40
0.0
 40
0.0
 40
1.23504765125486
 40
1.23504765125486
 40
1.23504765125486
 10
2816.406467256212
 20
414.5868273262738
 30
0.0
 10
2816.406467256212
 20
413.9693035006464
 30
0.0
 10
2816.406467256212
 20
413.351779675019
 30
0.0
  0
SPLINE
  5
97
330
1F
100
AcDbEntity
  8
Linee visibili 2D
100
AcDbSpline
210
0.0
220
0.0
230
1.0
 70
    24
 71
     2
 72
     6
 73
     3
 74
     0
 42
0.0000000001
 43
0.0000000001
 40
0.0
 40
0.0
 40
0.0
 40
2.948219917834905
 40
2.948219917834905
 40
2.948219917834905
 10
2816.406467256212
 20
418.3209059292459
 30
0.0
 10
2816.406467256212
 20
416.8467959703285
 30
0.0
 10
2816.406467256212
 20
415.372686011411
 30
0.0
  0
SPLINE
  5
98
330
1F
100
AcDbEntity
  8
Linee visibili 2D
100
AcDbSpline
210
0.0
220
0.0
230
1.0
 70
    24
 71
     2
 72
     6
 73
     3
 74
     0
 42
0.0000000001
 43
0.0000000001
 40
0.0
 40
0.0
 40
0.0
 40
4.194336583475803
 40
4.194336583475803
 40
4.194336583475803
 10
2816.406467256211
 20
423.4138718866939
 30
0.0
 10
2816.406467256211
 20
421.316703594956
 30
0.0
 10
2816.406467256211
 20
419.2195353032181
 30
0.0
  0
SPLINE
  5
99
330
1F
100
AcDbEntity
  8
Linee visibili 2D
100
AcDbSpline
210
0.0
220
0.0
230
1.0
 70
    12
 71
     2
 72
     8
 73
     5
 74
     0
 42
0.0000000001
 43
0.0000000001
 40
58.98062997524126
 40
58.98062997524126
 40
58.98062997524126
 40
74.81816279694678
 40
74.81816279694678
 40
79.40136728720708
 40
79.40136728720708
 40
79.40136728720708
 10
2826.39178166201
 20
419.3091101108653
 30
0.0
 41
1.0
 10
2826.39178166201
 20
427.227876521718
 30
0.0
 41
1.0
 10
2826.39178166201
 20
435.1466429325708
 30
0.0
 41
1.0
 10
2826.398228831219
 20
437.4382451776999
 30
0.0
 41
1.0
 10
2826.404676000429
 20
439.729847422829
 30
0.0
 41
1.0
  0
SPLINE
  5
9A
330
1F
100
AcDbEntity
  8
Linee visibili 2D
100
AcDbSpline
210
0.0
220
0.0
230
1.0
 70
    24
 71
     2
 72
     6
 73
     3
 74
     0
 42
0.0000000001
 43
0.0000000001
 40
0.0
 40
0.0
 40
0.0
 40
3.115868950795686
 40
3.115868950795686
 40
3.115868950795686
 10
2826.39178166201
 20
415.2050369604767
 30
0.0
 10
2826.39178166201
 20
416.7629714358745
 30
0.0
 10
2826.39178166201
 20
418.3209059112723
 30
0.0
  0
SPLINE
  5
9B
330
1F
100
AcDbEntity
  8
Linee visibili 2D
100
AcDbSpline
210
0.0
220
0.0
230
1.0
 70
    24
 71
     2
 72
     6
 73
     3
 74
     0
 42
0.0000000001
 43
0.0000000001
 40
0.0
 40
0.0
 40
0.0
 40
2.777717203564833
 40
2.777717203564833
 40
2.777717203564833
 10
2826.39178166201
 20
411.8091101108653
 30
0.0
 10
2826.39178166201
 20
413.1979687126477
 30
0.0
 10
2826.39178166201
 20
414.5868273144301
 30
0.0
  0
SPLINE
  5
9C
330
1F
100
AcDbEntity
  8
Linee visibili 2D
100
AcDbSpline
210
0.0
220
0.0
230
1.0
 70
    24
 71
     2
 72
     6
 73
     3
 74
     0
 42
0.0000000001
 43
0.0000000001
 40
0.0
 40
0.0
 40
0.0
 40
30.49997499999938
 40
30.49997499999938
 40
30.49997499999938
 10
2816.405778251472
 20
854.3090976108632
 30
0.0
 10
2816.405778251472
 20
839.0591101108635
 30
0.0
 10
2816.405778251472
 20
823.8091226108638
 30
0.0
  0
SPLINE
  5
9D
330
1F
100
AcDbEntity
  8
Linee visibili 2D
100
AcDbSpline
210
0.0
220
0.0
230
1.0
 70
    24
 71
     2
 72
     6
 73
     3
 74
     0
 42
0.0000000001
 43
0.0000000001
 40
0.0
 40
0.0
 40
0.0
 40
13.18016987478939
 40
13.18016987478939
 40
13.18016987478939
 10
2826.406441821279
 20
906.8090976108642
 30
0.0
 10
2826.406441821279
 20
900.2190126734695
 30
0.0
 10
2826.406441821279
 20
893.6289277360748
 30
0.0
  0
SPLINE
  5
9E
330
1F
100
AcDbEntity
  8
Linee visibili 2D
100
AcDbSpline
210
0.0
220
0.0
230
1.0
 70
    24
 71
     2
 72
     6
 73
     3
 74
     0
 42
0.0000000001
 43
0.0000000001
 40
0.0
 40
0.0
 40
0.0
 40
0.5000249999990274
 40
0.5000249999990274
 40
0.5000249999990274
 10
2826.406441821279
 20
906.8090976108642
 30
0.0
 10
2826.406441821279
 20
907.0591101108637
 30
0.0
 10
2826.406441821279
 20
907.3091226108633
 30
0.0
  0
SPLINE
  5
9F
330
1F
100
AcDbEntity
  8
Linee visibili 2D
100
AcDbSpline
210
0.0
220
0.0
230
1.0
 70
    24
 71
     2
 72
     6
 73
     3
 74
     0
 42
0.0000000001
 43
0.0000000001
 40
0.0
 40
0.0
 40
0.0
 40
4.300025434933104
 40
4.300025434933104
 40
4.300025434933104
 10
2820.906467256213
 20
899.3090976108632
 30
0.0
 10
2818.756454538746
 20
899.3090976108632
 30
0.0
 10
2816.606441821279
 20
899.3090976108632
 30
0.0
  0
SPLINE
  5
A0
330
1F
100
AcDbEntity
  8
Linee visibili 2D
100
AcDbSpline
210
0.0
220
0.0
230
1.0
 70
    24
 71
     2
 72
     6
 73
     3
 74
     0
 42
0.0000000001
 43
0.0000000001
 40
0.0
 40
0.0
 40
0.0
 40
4.299974565068396
 40
4.299974565068396
 40
4.299974565068396
 10
2826.206441821279
 20
899.3090976108632
 30
0.0
 10
2824.056454538745
 20
899.3090976108632
 30
0.0
 10
2821.906467256211
 20
899.3090976108632
 30
0.0
  0
SPLINE
  5
A1
330
1F
100
AcDbEntity
  8
Linee visibili 2D
100
AcDbSpline
210
0.0
220
0.0
230
1.0
 70
    24
 71
     2
 72
     6
 73
     3
 74
     0
 42
0.0000000001
 43
0.0000000001
 40
0.0
 40
0.0
 40
0.0
 40
2.699999999999818
 40
2.699999999999818
 40
2.699999999999818
 10
2820.056467256212
 20
445.8095719984658
 30
0.0
 10
2821.406467256212
 20
445.8095719984658
 30
0.0
 10
2822.756467256212
 20
445.8095719984658
 30
0.0
  0
SPLINE
  5
A2
330
1F
100
AcDbEntity
  8
Linee visibili 2D
100
AcDbSpline
210
0.0
220
0.0
230
1.0
 70
    24
 71
     2
 72
     6
 73
     3
 74
     0
 42
0.0000000001
 43
0.0000000001
 40
0.0
 40
0.0
 40
0.0
 40
1.848864037659471
 40
1.848864037659471
 40
1.848864037659471
 10
3590.260644133269
 20
1575.095163420729
 30
0.0
 10
3590.244510569953
 20
1574.170872197373
 30
0.0
 10
3590.228377006636
 20
1573.246580974017
 30
0.0
  0
SPLINE
  5
A3
330
1F
100
AcDbEntity
  8
Linee visibili 2D
100
AcDbSpline
210
0.0
220
0.0
230
1.0
 70
    24
 71
     2
 72
     6
 73
     3
 74
     0
 42
0.0000000001
 43
0.0000000001
 40
0.0
 40
0.0
 40
0.0
 40
1.656994021729131
 40
1.656994021729131
 40
1.656994021729131
 10
3590.490183297399
 20
1588.245453326535
 30
0.0
 10
3590.475724030834
 20
1587.417082499779
 30
0.0
 10
3590.461264764268
 20
1586.588711673022
 30
0.0
  0
SPLINE
  5
A4
330
1F
100
AcDbEntity
  8
Linee visibili 2D
100
AcDbSpline
210
0.0
220
0.0
230
1.0
 70
    24
 71
     2
 72
     6
 73
     3
 74
     0
 42
0.0000000001
 43
0.0000000001
 40
0.0
 40
0.0
 40
0.0
 40
15.0011571014045
 40
15.0011571014045
 40
15.0011571014045
 10
3720.228337640316
 20
1573.246580974017
 30
0.0
 10
3720.097434494935
 20
1580.746017150276
 30
0.0
 10
3719.966531349553
 20
1588.245453326535
 30
0.0
  0
SPLINE
  5
A5
330
1F
100
AcDbEntity
  8
Linee visibili 2D
100
AcDbSpline
210
0.0
220
0.0
230
1.0
 70
    24
 71
     2
 72
     6
 73
     3
 74
     0
 42
0.0000000001
 43
0.0000000001
 40
0.0
 40
0.0
 40
0.0
 40
16.80261786096594
 40
16.80261786096594
 40
16.80261786096594
 10
3302.131795028938
 20
1051.145466326535
 30
0.0
 10
3302.131795028938
 20
1059.546775257018
 30
0.0
 10
3302.131795028938
 20
1067.948084187502
 30
0.0
  0
SPLINE
  5
A6
330
1F
100
AcDbEntity
  8
Linee visibili 2D
100
AcDbSpline
210
0.0
220
0.0
230
1.0
 70
    24
 71
     2
 72
     6
 73
     3
 74
     0
 42
0.0000000001
 43
0.0000000001
 40
0.0
 40
0.0
 40
0.0
 40
16.80261786096594
 40
16.80261786096594
 40
16.80261786096594
 10
3101.124919618034
 20
1067.948084187502
 30
0.0
 10
3101.124919618034
 20
1059.546775257018
 30
0.0
 10
3101.124919618034
 20
1051.145466326535
 30
0.0
  0
SPLINE
  5
A7
330
1F
100
AcDbEntity
  8
Linee visibili 2D
100
AcDbSpline
210
0.0
220
0.0
230
1.0
 70
    24
 71
     2
 72
     6
 73
     3
 74
     0
 42
0.0000000001
 43
0.0000000001
 40
0.0
 40
0.0
 40
0.0
 40
10.39219383720354
 40
10.39219383720354
 40
10.39219383720354
 10
3579.89509314822
 20
1575.345453826536
 30
0.0
 10
3585.091190066822
 20
1575.345453826536
 30
0.0
 10
3590.287286985424
 20
1575.345453826536
 30
0.0
  0
SPLINE
  5
A8
330
1F
100
AcDbEntity
  8
Linee visibili 2D
100
AcDbSpline
210
0.0
220
0.0
230
1.0
 70
    24
 71
     2
 72
     6
 73
     3
 74
     0
 42
0.0000000001
 43
0.0000000001
 40
0.0
 40
0.0
 40
0.0
 40
10.5835720991405
 40
10.5835720991405
 40
10.5835720991405
 10
3590.478659799978
 20
1586.345453826536
 30
0.0
 10
3585.186873750408
 20
1586.345453826536
 30
0.0
 10
3579.895087700838
 20
1586.345453826536
 30
0.0
  0
SPLINE
  5
A9
330
1F
100
AcDbEntity
  8
Linee visibili 2D
100
AcDbSpline
210
0.0
220
0.0
230
1.0
 70
    24
 71
     2
 72
     6
 73
     3
 74
     0
 42
0.0000000001
 43
0.0000000001
 40
0.0
 40
0.0
 40
0.0
 40
438.8096923520669
 40
438.8096923520669
 40
438.8096923520669
 10
3109.652678349728
 20
1619.605070104742
 30
0.0
 10
3328.503403978927
 20
1604.021539788982
 30
0.0
 10
3547.354129608125
 20
1588.438009473221
 30
0.0
  0
SPLINE
  5
AA
330
1F
100
AcDbEntity
  8
Linee visibili 2D
100
AcDbSpline
210
0.0
220
0.0
230
1.0
 70
    24
 71
     2
 72
     6
 73
     3
 74
     0
 42
0.0000000001
 43
0.0000000001
 40
0.0
 40
0.0
 40
0.0
 40
458.9748422918688
 40
458.9748422918688
 40
458.9748422918688
 10
3098.748241569519
 20
1612.164074977518
 30
0.0
 10
3095.544096809912
 20
1382.699023345312
 30
0.0
 10
3092.339952050305
 20
1153.233971713106
 30
0.0
  0
SPLINE
  5
AB
330
1F
100
AcDbEntity
  8
Linee visibili 2D
100
AcDbSpline
210
0.0
220
0.0
230
1.0
 70
    12
 71
     2
 72
     6
 73
     3
 74
     0
 42
0.0000000001
 43
0.0000000001
 40
0.0
 40
0.0
 40
0.0
 40
1.951338515000636
 40
1.951338515000636
 40
1.951338515000636
 10
3590.614568865411
 20
1580.845462985658
 30
0.0
 41
1.0
 10
3590.61772874396
 20
1581.821127129556
 30
0.0
 41
0.9999999948863336
 10
3590.62108596081
 20
1582.796790614379
 30
0.0
 41
1.0
  0
SPLINE
  5
AC
330
1F
100
AcDbEntity
  8
Linee visibili 2D
100
AcDbSpline
210
0.0
220
0.0
230
1.0
 70
    12
 71
     3
 72
    10
 73
     6
 74
     0
 42
0.0000000001
 43
0.0000000001
 40
-0.3222959746808148
 40
-0.3222959746808148
 40
-0.3222959746808148
 40
-0.3222959746808148
 40
-0.2924475152408424
 40
-0.2924475152408424
 40
-0.0548854240630897
 40
-0.0548854240630897
 40
-0.0548854240630897
 40
-0.0548854240630897
 10
3590.26541424493
 20
1575.116926329881
 30
0.0
 41
1.0
 10
3590.26190506382
 20
1575.085537127273
 30
0.0
 41
1.0
 10
3590.261709943976
 20
1575.087682807705
 30
0.0
 41
1.0
 10
3590.294488248032
 20
1575.42953211527
 30
0.0
 41
1.0
 10
3590.562012875869
 20
1577.908244857565
 30
0.0
 41
1.0
 10
3590.614568827522
 20
1580.845457107328
 30
0.0
 41
1.0
  0
SPLINE
  5
AD
330
1F
100
AcDbEntity
  8
Linee visibili 2D
100
AcDbSpline
210
0.0
220
0.0
230
1.0
 70
    12
 71
     2
 72
     6
 73
     3
 74
     0
 42
0.0000000001
 43
0.0000000001
 40
0.0
 40
0.0
 40
0.0
 40
3.757540720004503
 40
3.757540720004503
 40
3.757540720004503
 10
3590.621085960811
 20
1582.796790614379
 30
0.0
 41
1.0
 10
3590.597221883847
 20
1584.675935027785
 30
0.0
 41
0.9995805519590033
 10
3590.46460094573
 20
1586.550545629317
 30
0.0
 41
1.0
  0
SPLINE
  5
AE
330
1F
100
AcDbEntity
  8
Linee visibili 2D
100
AcDbSpline
210
0.0
220
0.0
230
1.0
 70
    24
 71
     2
 72
     6
 73
     3
 74
     0
 42
0.0000000001
 43
0.0000000001
 40
0.0
 40
0.0
 40
0.0
 40
64.6738117675728
 40
64.6738117675728
 40
64.6738117675728
 10
3655.228357323476
 20
1588.245453326535
 30
0.0
 10
3687.565263207262
 20
1588.245453326536
 30
0.0
 10
3719.902169091049
 20
1588.245453326536
 30
0.0
  0
SPLINE
  5
AF
330
1F
100
AcDbEntity
  8
Linee visibili 2D
100
AcDbSpline
210
0.0
220
0.0
230
1.0
 70
    12
 71
     2
 72
     8
 73
     5
 74
     0
 42
0.0000000001
 43
0.0000000001
 40
0.0
 40
0.0
 40
0.0
 40
0.0643622585039054
 40
0.0643622585039054
 40
101.754848222074
 40
101.754848222074
 40
101.754848222074
 10
3590.554545555903
 20
1588.245453387389
 30
0.0
 41
1.0
 10
3590.522364426652
 20
1588.245453387389
 30
0.0
 41
1.0
 10
3590.490183297399
 20
1588.24545338739
 30
0.0
 41
1.0
 10
3590.490183297399
 20
1588.245453326536
 30
0.0
 41
0.7071067811865476
 10
3655.228357323476
 20
1588.245453326535
 30
0.0
 41
1.0
  0
SPLINE
  5
B0
330
1F
100
AcDbEntity
  8
Linee visibili 2D
100
AcDbSpline
210
0.0
220
0.0
230
1.0
 70
    12
 71
     2
 72
     8
 73
     5
 74
     0
 42
0.0000000001
 43
0.0000000001
 40
0.0
 40
0.0
 40
0.0
 40
0.0646225641314661
 40
0.0646225641314661
 40
102.1663838057997
 40
102.1663838057997
 40
102.1663838057997
 10
3720.163734759345
 20
1573.24545314897
 30
0.0
 41
1.0
 10
3720.19604604141
 20
1573.24545314897
 30
0.0
 41
1.0
 10
3720.228357323476
 20
1573.245453148969
 30
0.0
 41
1.0
 10
3720.228357323476
 20
1573.245453326536
 30
0.0
 41
0.7071067811865476
 10
3655.228357323476
 20
1573.245453326535
 30
0.0
 41
1.0
  0
SPLINE
  5
B1
330
1F
100
AcDbEntity
  8
Linee visibili 2D
100
AcDbSpline
210
0.0
220
0.0
230
1.0
 70
    24
 71
     2
 72
     6
 73
     3
 74
     0
 42
0.0000000001
 43
0.0000000001
 40
0.0
 40
0.0
 40
0.0
 40
64.93537743586853
 40
64.93537743586853
 40
64.93537743586853
 10
3655.228357323476
 20
1573.245453326535
 30
0.0
 10
3622.760668605542
 20
1573.245453326535
 30
0.0
 10
3590.292979887608
 20
1573.245453326535
 30
0.0
  0
SPLINE
  5
B2
330
1F
100
AcDbEntity
  8
Linee visibili 2D
100
AcDbSpline
210
0.0
220
0.0
230
1.0
 70
    28
 71
     2
 72
    10
 73
     7
 74
     0
 42
0.0000000001
 43
0.0000000001
 40
152.9369798161715
 40
152.9369798161715
 40
152.9369798161715
 40
157.8704307779834
 40
157.8704307779834
 40
315.7408615559669
 40
315.7408615559669
 40
468.6778413721383
 40
468.6778413721383
 40
468.6778413721383
 10
3302.031874812243
 20
1051.145466326536
 30
0.0
 41
0.9822662308921541
 10
3302.131794842409
 20
1051.145466326536
 30
0.0
 41
0.9908470869120796
 10
3302.131795028938
 20
1051.145466326535
 30
0.0
 41
1.0
 10
3302.131803392978
 20
1051.145466326535
 30
0.0
 41
0.7071067811865476
 10
3201.628365687527
 20
1051.145466326535
 30
0.0
 41
1.0
 10
3105.509835374465
 20
1051.145466326536
 30
0.0
 41
0.716259694274468
 10
3101.22483983473
 20
1051.145466326536
 30
0.0
 41
0.9822662308921541
  0
SPLINE
  5
B3
330
1F
100
AcDbEntity
  8
Linee visibili 2D
100
AcDbSpline
210
0.0
220
0.0
230
1.0
 70
    12
 71
     2
 72
    10
 73
     7
 74
     0
 42
0.0000000001
 43
0.0000000001
 40
0.0
 40
0.0
 40
0.0
 40
0.0999194709529547
 40
0.0999194709529547
 40
157.9703502489364
 40
157.9703502489364
 40
310.9073300651079
 40
310.9073300651079
 40
310.9073300651079
 10
3101.224839088987
 20
1067.948084145674
 30
0.0
 41
1.0
 10
3101.174879353511
 20
1067.948084145673
 30
0.0
 41
1.0
 10
3101.124919618034
 20
1067.948084145673
 30
0.0
 41
1.0
 10
3101.124927982074
 20
1067.948084187501
 30
0.0
 41
0.7071067811865476
 10
3201.628365687527
 20
1067.948084187502
 30
0.0
 41
1.0
 10
3297.746896000587
 20
1067.948084187501
 30
0.0
 41
0.716259694274468
 10
3302.031875557985
 20
1067.948084187501
 30
0.0
 41
0.9822662308921541
  0
SPLINE
  5
B4
330
1F
100
AcDbEntity
  8
Linee visibili 2D
100
AcDbSpline
210
0.0
220
0.0
230
1.0
 70
    24
 71
     2
 72
     6
 73
     3
 74
     0
 42
0.0000000001
 43
0.0000000001
 40
0.0
 40
0.0
 40
0.0
 40
384.2
 40
384.2
 40
384.2
 10
3146.128332476871
 20
1166.145466326536
 30
0.0
 10
3146.128332476871
 20
1358.245466326536
 30
0.0
 10
3146.128332476871
 20
1550.345466326536
 30
0.0
  0
SPLINE
  5
B5
330
1F
100
AcDbEntity
  8
Linee visibili 2D
100
AcDbSpline
210
0.0
220
0.0
230
1.0
 70
    24
 71
     2
 72
     6
 73
     3
 74
     0
 42
0.0000000001
 43
0.0000000001
 40
0.0
 40
0.0
 40
0.0
 40
384.2
 40
384.2
 40
384.2
 10
3131.128332476872
 20
1166.145466326536
 30
0.0
 10
3131.128332476872
 20
1358.245466326536
 30
0.0
 10
3131.128332476872
 20
1550.345466326536
 30
0.0
  0
SPLINE
  5
B6
330
1F
100
AcDbEntity
  8
Linee visibili 2D
100
AcDbSpline
210
0.0
220
0.0
230
1.0
 70
    24
 71
     2
 72
     6
 73
     3
 74
     0
 42
0.0000000001
 43
0.0000000001
 40
0.0
 40
0.0
 40
0.0
 40
5.628718707889902
 40
5.628718707889902
 40
5.628718707889902
 10
3135.813997969532
 20
1068.345466326536
 30
0.0
 10
3138.628357323477
 20
1068.345466326536
 30
0.0
 10
3141.442716677422
 20
1068.345466326536
 30
0.0
  0
SPLINE
  5
B7
330
1F
100
AcDbEntity
  8
Linee visibili 2D
100
AcDbSpline
210
0.0
220
0.0
230
1.0
 70
    12
 71
     2
 72
    12
 73
     9
 74
     0
 42
0.0000000001
 43
0.0000000001
 40
5.628718707889829
 40
5.628718707889829
 40
5.628718707889829
 40
37.92871870788983
 40
37.92871870788983
 40
42.34950404334698
 40
42.34950404334698
 40
46.77028937880476
 40
46.77028937880476
 40
79.07028937880474
 40
79.07028937880474
 40
79.07028937880474
 10
3141.442716677422
 20
1068.345466326536
 30
0.0
 41
1.0
 10
3141.442716677422
 20
1084.495466326536
 30
0.0
 41
1.0
 10
3141.442716677422
 20
1100.645466326535
 30
0.0
 41
1.0
 10
3141.442716677422
 20
1103.45982568048
 30
0.0
 41
0.7071067811866475
 10
3138.628357323477
 20
1103.45982568048
 30
0.0
 41
1.0
 10
3135.813997969532
 20
1103.459825680481
 30
0.0
 41
0.7071067811865903
 10
3135.813997969532
 20
1100.645466326535
 30
0.0
 41
1.0
 10
3135.813997969532
 20
1084.495466326536
 30
0.0
 41
1.0
 10
3135.813997969532
 20
1068.345466326536
 30
0.0
 41
1.0
  0
SPLINE
  5
B8
330
1F
100
AcDbEntity
  8
Linee visibili 2D
100
AcDbSpline
210
0.0
220
0.0
230
1.0
 70
    24
 71
     2
 72
     6
 73
     3
 74
     0
 42
0.0000000001
 43
0.0000000001
 40
0.0
 40
0.0
 40
0.0
 40
4.685640646055163
 40
4.685640646055163
 40
4.685640646055163
 10
3146.128357323477
 20
1068.345466326536
 30
0.0
 10
3143.785537000449
 20
1068.345466326536
 30
0.0
 10
3141.442716677422
 20
1068.345466326536
 30
0.0
  0
SPLINE
  5
B9
330
1F
100
AcDbEntity
  8
Linee visibili 2D
100
AcDbSpline
210
0.0
220
0.0
230
1.0
 70
    24
 71
     2
 72
     6
 73
     3
 74
     0
 42
0.0000000001
 43
0.0000000001
 40
0.0
 40
0.0
 40
0.0
 40
4.685640646054935
 40
4.685640646054935
 40
4.685640646054935
 10
3135.813997969532
 20
1068.345466326536
 30
0.0
 10
3133.471177646505
 20
1068.345466326536
 30
0.0
 10
3131.128357323477
 20
1068.345466326536
 30
0.0
  0
SPLINE
  5
BA
330
1F
100
AcDbEntity
  8
Linee visibili 2D
100
AcDbSpline
210
0.0
220
0.0
230
1.0
 70
    12
 71
     3
 72
    29
 73
    25
 74
     0
 42
0.0000000001
 43
0.0000000001
 40
0.0
 40
0.0
 40
0.0
 40
0.0
 40
15.70796326794899
 40
15.70796326794899
 40
15.70796326794899
 40
49.31709030268908
 40
49.31709030268908
 40
49.31709030268908
 40
61.09806275365146
 40
61.09806275365146
 40
61.09806275365146
 40
72.87903520461364
 40
72.87903520461364
 40
72.87903520461364
 40
117.8790352046195
 40
117.8790352046195
 40
117.8790352046195
 40
123.7695214300949
 40
123.7695214300949
 40
123.7695214300949
 40
150.0455093672257
 40
150.0455093672257
 40
150.0455093672257
 40
154.2695214300948
 40
154.2695214300948
 40
154.2695214300948
 40
154.2695214300948
 10
3131.128332476872
 20
1569.454593361276
 30
0.0
 41
1.0
 10
3131.128332476872
 20
1574.829815402569
 30
0.0
 41
0.949253021674184
 10
3129.071324056385
 20
1579.795873029225
 30
0.0
 41
0.9492530216741839
 10
3125.270468100603
 20
1583.596728985007
 30
0.0
 41
1.0
 10
3117.348720888594
 20
1591.518476197015
 30
0.0
 41
1.0
 10
3109.426973676586
 20
1599.440223409023
 30
0.0
 41
1.0
 10
3101.505226464578
 20
1607.361970621032
 30
0.0
 41
1.0
 10
3098.398624746779
 20
1610.46857233883
 30
0.0
 41
0.8047378541243471
 10
3098.39862474678
 20
1614.861970621032
 30
0.0
 41
0.8047378541243471
 10
3101.505226464577
 20
1617.96857233883
 30
0.0
 41
1.0
 10
3104.611828182376
 20
1621.075174056627
 30
0.0
 41
0.8047378541243851
 10
3109.005226464578
 20
1621.075174056628
 30
0.0
 41
0.804737854124385
 10
3112.111828182376
 20
1617.96857233883
 30
0.0
 41
1.0
 10
3122.718429900176
 20
1607.36197062103
 30
0.0
 41
1.0
 10
3133.325031617975
 20
1596.75536890323
 30
0.0
 41
1.0
 10
3143.931633335775
 20
1586.148767185431
 30
0.0
 41
1.0
 10
3145.356954319191
 20
1584.723446202012
 30
0.0
 41
0.9492530216742803
 10
3146.128332476871
 20
1582.861174592019
 30
0.0
 41
0.9492530216742798
 10
3146.128332476871
 20
1580.845466326536
 30
0.0
 41
1.0
 10
3146.128332476871
 20
1572.086803680825
 30
0.0
 41
1.0
 10
3146.128332476871
 20
1563.328141035115
 30
0.0
 41
1.0
 10
3146.128332476871
 20
1554.569478389405
 30
0.0
 41
1.0
 10
3146.128332476871
 20
1553.161474368449
 30
0.0
 41
1.0
 10
3146.128332476871
 20
1551.753470347492
 30
0.0
 41
1.0
 10
3146.128332476871
 20
1550.345466326536
 30
0.0
 41
1.0
  0
SPLINE
  5
BB
330
1F
100
AcDbEntity
  8
Linee visibili 2D
100
AcDbSpline
210
0.0
220
0.0
230
1.0
 70
    24
 71
     2
 72
     6
 73
     3
 74
     0
 42
0.0000000001
 43
0.0000000001
 40
0.0
 40
0.0
 40
0.0
 40
19.10912413477126
 40
19.10912413477126
 40
19.10912413477126
 10
3131.128332476872
 20
1550.345466326536
 30
0.0
 10
3131.128332476872
 20
1559.900028393921
 30
0.0
 10
3131.128332476872
 20
1569.454590461307
 30
0.0
  0
SPLINE
  5
BC
330
1F
100
AcDbEntity
  8
Linee visibili 2D
100
AcDbSpline
210
0.0
220
0.0
230
1.0
 70
    24
 71
     2
 72
     6
 73
     3
 74
     0
 42
0.0000000001
 43
0.0000000001
 40
0.0
 40
0.0
 40
0.0
 40
1.152058115627483
 40
1.152058115627483
 40
1.152058115627483
 10
3578.743029566247
 20
1586.330889082148
 30
0.0
 10
3579.31905862406
 20
1586.330889079217
 30
0.0
 10
3579.895087681874
 20
1586.330889076286
 30
0.0
  0
SPLINE
  5
BD
330
1F
100
AcDbEntity
  8
Linee visibili 2D
100
AcDbSpline
210
0.0
220
0.0
230
1.0
 70
    12
 71
     2
 72
     8
 73
     5
 74
     0
 42
0.0000000001
 43
0.0000000001
 40
0.0
 40
0.0
 40
0.0
 40
0.2281210047119453
 40
0.2281210047119453
 40
0.4562420094238906
 40
0.4562420094238906
 40
0.4562420094238906
 10
3579.895087719817
 20
1586.330864500827
 30
0.0
 41
1.0
 10
3579.766696457082
 20
1586.331638159989
 30
0.0
 41
0.8406609957268059
 10
3579.712912260319
 20
1586.215052676015
 30
0.0
 41
1.0
 10
3579.659128063555
 20
1586.09846719204
 30
0.0
 41
0.8406609957268059
 10
3579.743048205321
 20
1586.00129556706
 30
0.0
 41
1.0
  0
SPLINE
  5
BE
330
1F
100
AcDbEntity
  8
Linee visibili 2D
100
AcDbSpline
210
0.0
220
0.0
230
1.0
 70
    12
 71
     2
 72
    20
 73
    17
 74
     0
 42
0.0000000001
 43
0.0000000001
 40
0.0
 40
0.0
 40
0.0
 40
11.20368035589241
 40
11.20368035589241
 40
11.27168718406499
 40
11.27168718406499
 40
11.33969021571975
 40
11.33969021571975
 40
11.40758075807276
 40
11.40758075807276
 40
11.47522218640582
 40
11.47522218640582
 40
11.54261938505718
 40
11.54261938505718
 40
11.60992010171777
 40
11.60992010171777
 40
11.65854496117023
 40
11.65854496117023
 40
11.65854496117023
 10
3579.743048228188
 20
1586.001295549078
 30
0.0
 41
1.0
 10
3584.082873588272
 20
1580.845453917178
 30
0.0
 41
0.7650527220298181
 10
3579.743048216455
 20
1575.689612295153
 30
0.0
 41
1.0
 10
3579.720793285587
 20
1575.663451368477
 30
0.0
 41
0.9850874475508618
 10
3579.708723927571
 20
1575.631295395011
 30
0.0
 41
1.0
 10
3579.696441334051
 20
1575.599229079934
 30
0.0
 41
0.9853580856997183
 10
3579.69564719704
 20
1575.564900083261
 30
0.0
 41
1.0
 10
3579.694708905599
 20
1575.530632039462
 30
0.0
 41
0.9853792276101694
 10
3579.705331225939
 20
1575.498038397027
 30
0.0
 41
1.0
 10
3579.715790914657
 20
1575.465523967769
 30
0.0
 41
0.9853650665689297
 10
3579.736565196104
 20
1575.438412670708
 30
0.0
 41
1.0
 10
3579.7571342546
 20
1575.411296254873
 30
0.0
 41
0.9852366395437154
 10
3579.785645088241
 20
1575.392708125859
 30
0.0
 41
1.0
 10
3579.81379905209
 20
1575.373576898618
 30
0.0
 41
0.9829638767813228
 10
3579.846963607514
 20
1575.365911274071
 30
0.0
 41
1.0
 10
3579.870643423615
 20
1575.359820557504
 30
0.0
 41
0.9915466596029051
 10
3579.895093117315
 20
1575.360027914141
 30
0.0
 41
1.0
  0
SPLINE
  5
BF
330
1F
100
AcDbEntity
  8
Linee visibili 2D
100
AcDbSpline
210
0.0
220
0.0
230
1.0
 70
    24
 71
     2
 72
     6
 73
     3
 74
     0
 42
0.0000000001
 43
0.0000000001
 40
0.0
 40
0.0
 40
0.0
 40
1.042558604413983
 40
1.042558604413983
 40
1.042558604413983
 10
3579.785588162689
 20
1575.360018545076
 30
0.0
 10
3579.264308860482
 20
1575.360018546292
 30
0.0
 10
3578.743029558275
 20
1575.360018547508
 30
0.0
  0
SPLINE
  5
C0
330
1F
100
AcDbEntity
  8
Linee visibili 2D - Tangent
100
AcDbSpline
210
0.0
220
0.0
230
1.0
 70
    24
 71
     2
 72
     6
 73
     3
 74
     0
 42
0.0000000001
 43
0.0000000001
 40
0.0
 40
0.0
 40
0.0
 40
0.5234264298350126
 40
0.5234264298350126
 40
0.5234264298350126
 10
3580.769773252019
 20
1578.554165979058
 30
0.0
 10
3581.031486466936
 20
1578.554165979058
 30
0.0
 10
3581.293199681854
 20
1578.554165979058
 30
0.0
  0
SPLINE
  5
C1
330
1F
100
AcDbEntity
  8
Linee visibili 2D - Tangent
100
AcDbSpline
210
0.0
220
0.0
230
1.0
 70
    24
 71
     2
 72
     6
 73
     3
 74
     0
 42
0.0000000001
 43
0.0000000001
 40
0.0
 40
0.0
 40
0.0
 40
0.5234264298351263
 40
0.5234264298351263
 40
0.5234264298351263
 10
3581.293199681853
 20
1583.136741674014
 30
0.0
 10
3581.031486466936
 20
1583.136741674014
 30
0.0
 10
3580.769773252018
 20
1583.136741674014
 30
0.0
  0
SPLINE
  5
C2
330
1F
100
AcDbEntity
  8
Linee visibili 2D
100
AcDbSpline
210
0.0
220
0.0
230
1.0
 70
    24
 71
     2
 72
     6
 73
     3
 74
     0
 42
0.0000000001
 43
0.0000000001
 40
0.0
 40
0.0
 40
0.0
 40
14.99999999999989
 40
14.99999999999989
 40
14.99999999999989
 10
3146.128332476871
 20
1550.345466326536
 30
0.0
 10
3138.628332476872
 20
1550.345466326536
 30
0.0
 10
3131.128332476872
 20
1550.345466326536
 30
0.0
  0
SPLINE
  5
C3
330
1F
100
AcDbEntity
  8
Linee visibili 2D
100
AcDbSpline
210
0.0
220
0.0
230
1.0
 70
    12
 71
     3
 72
    11
 73
     7
 74
     0
 42
0.0000000001
 43
0.0000000001
 40
-7.499999999999833
 40
-7.499999999999833
 40
-7.499999999999833
 40
-7.499999999999833
 40
0.0
 40
0.0
 40
0.0
 40
8.056084315463648
 40
8.056084315463648
 40
8.056084315463648
 40
8.056084315463648
 10
3131.128357323477
 20
1153.845466326536
 30
0.0
 41
1.0
 10
3133.628357323477
 20
1153.845466326536
 30
0.0
 41
1.0
 10
3136.128357323477
 20
1153.845466326536
 30
0.0
 41
1.0
 10
3138.628357323477
 20
1153.845466326536
 30
0.0
 41
1.0
 10
3141.433793269582
 20
1153.845466054253
 30
0.0
 41
0.9172644672848305
 10
3143.89106522806
 20
1152.491846694993
 30
0.0
 41
0.9172644672848297
 10
3145.390262085382
 20
1150.1205855051
 30
0.0
 41
1.0
  0
SPLINE
  5
C4
330
1F
100
AcDbEntity
  8
Linee visibili 2D
100
AcDbSpline
210
0.0
220
0.0
230
1.0
 70
    12
 71
     2
 72
     8
 73
     5
 74
     0
 42
0.0000000001
 43
0.0000000001
 40
0.0
 40
0.0
 40
0.0
 40
0.5154817483373056
 40
0.5154817483373056
 40
1.030963496674611
 40
1.030963496674611
 40
1.030963496674611
 10
3145.390262085382
 20
1150.1205855051
 30
0.0
 41
1.0
 10
3145.550863532289
 20
1149.866564221144
 30
0.0
 41
0.7994890863808518
 10
3145.83955059154
 20
1149.950107139889
 30
0.0
 41
1.0
 10
3146.128237650791
 20
1150.033650058634
 30
0.0
 41
0.7994890863808518
 10
3146.12835729593
 20
1150.334182291741
 30
0.0
 41
1.0
  0
SPLINE
  5
C5
330
1F
100
AcDbEntity
  8
Linee visibili 2D
100
AcDbSpline
210
0.0
220
0.0
230
1.0
 70
    24
 71
     2
 72
     6
 73
     3
 74
     0
 42
0.0000000001
 43
0.0000000001
 40
0.0
 40
0.0
 40
0.0
 40
15.81112486250754
 40
15.81112486250754
 40
15.81112486250754
 10
3146.128357323477
 20
1166.145466326536
 30
0.0
 10
3146.128357323477
 20
1158.239903895282
 30
0.0
 10
3146.128357323477
 20
1150.334341464028
 30
0.0
  0
SPLINE
  5
C6
330
1F
100
AcDbEntity
  8
Linee visibili 2D
100
AcDbSpline
210
0.0
220
0.0
230
1.0
 70
    24
 71
     2
 72
     6
 73
     3
 74
     0
 42
0.0000000001
 43
0.0000000001
 40
0.0
 40
0.0
 40
0.0
 40
12.30000000000018
 40
12.30000000000018
 40
12.30000000000018
 10
3131.128357323477
 20
1153.845466326536
 30
0.0
 10
3131.128357323477
 20
1159.995466326536
 30
0.0
 10
3131.128357323477
 20
1166.145466326536
 30
0.0
  0
SPLINE
  5
C7
330
1F
100
AcDbEntity
  8
Linee visibili 2D
100
AcDbSpline
210
0.0
220
0.0
230
1.0
 70
    24
 71
     2
 72
     6
 73
     3
 74
     0
 42
0.0000000001
 43
0.0000000001
 40
0.0
 40
0.0
 40
0.0
 40
0.5000000000002274
 40
0.5000000000002274
 40
0.5000000000002274
 10
3131.128357323477
 20
1153.345466326535
 30
0.0
 10
3131.128357323477
 20
1153.595466326535
 30
0.0
 10
3131.128357323477
 20
1153.845466326536
 30
0.0
  0
SPLINE
  5
C8
330
1F
100
AcDbEntity
  8
Linee visibili 2D
100
AcDbSpline
210
0.0
220
0.0
230
1.0
 70
    24
 71
     2
 72
     6
 73
     3
 74
     0
 42
0.0000000001
 43
0.0000000001
 40
0.0
 40
0.0
 40
0.0
 40
4.273096457532347
 40
4.273096457532347
 40
4.273096457532347
 10
3146.128357323477
 20
1150.118562784068
 30
0.0
 10
3146.128357323477
 20
1147.982014555302
 30
0.0
 10
3146.128357323477
 20
1145.845466326536
 30
0.0
  0
SPLINE
  5
C9
330
1F
100
AcDbEntity
  8
Linee visibili 2D
100
AcDbSpline
210
0.0
220
0.0
230
1.0
 70
    24
 71
     2
 72
     6
 73
     3
 74
     0
 42
0.0000000001
 43
0.0000000001
 40
0.0
 40
0.0
 40
0.0
 40
0.1414213562374016
 40
0.1414213562374016
 40
0.1414213562374016
 10
3145.928357323477
 20
1166.145466326536
 30
0.0
 10
3145.999068001596
 20
1166.145466326536
 30
0.0
 10
3146.069778679715
 20
1166.145466326536
 30
0.0
  0
SPLINE
  5
CA
330
1F
100
AcDbEntity
  8
Linee visibili 2D
100
AcDbSpline
210
0.0
220
0.0
230
1.0
 70
    24
 71
     2
 72
     6
 73
     3
 74
     0
 42
0.0000000001
 43
0.0000000001
 40
0.0
 40
0.0
 40
0.0
 40
0.1999999999998181
 40
0.1999999999998181
 40
0.1999999999998181
 10
3131.128357323477
 20
1166.145466326536
 30
0.0
 10
3131.228357323477
 20
1166.145466326536
 30
0.0
 10
3131.328357323477
 20
1166.145466326536
 30
0.0
  0
SPLINE
  5
CB
330
1F
100
AcDbEntity
  8
Linee visibili 2D
100
AcDbSpline
210
0.0
220
0.0
230
1.0
 70
    24
 71
     2
 72
     6
 73
     3
 74
     0
 42
0.0000000001
 43
0.0000000001
 40
0.0
 40
0.0
 40
0.0
 40
4.588238125870703
 40
4.588238125870703
 40
4.588238125870703
 10
3146.628332323479
 20
1583.757228200665
 30
0.0
 10
3146.628332323479
 20
1586.0513472636
 30
0.0
 10
3146.628332323479
 20
1588.345466326536
 30
0.0
  0
SPLINE
  5
CC
330
1F
100
AcDbEntity
  8
Linee visibili 2D
100
AcDbSpline
210
0.0
220
0.0
230
1.0
 70
    24
 71
     2
 72
     6
 73
     3
 74
     0
 42
0.0000000001
 43
0.0000000001
 40
0.0
 40
0.0
 40
0.0
 40
13.59158984528045
 40
13.59158984528045
 40
13.59158984528045
 10
3155.364837871967
 20
1573.345466326536
 30
0.0
 10
3150.996585097723
 20
1578.5513472636
 30
0.0
 10
3146.628332323479
 20
1583.757228200665
 30
0.0
  0
SPLINE
  5
CD
330
1F
100
AcDbEntity
  8
Linee visibili 2D
100
AcDbSpline
210
0.0
220
0.0
230
1.0
 70
    24
 71
     2
 72
     6
 73
     3
 74
     0
 42
0.0000000001
 43
0.0000000001
 40
0.0
 40
0.0
 40
0.0
 40
9.23650539509515
 40
9.23650539509515
 40
9.23650539509515
 10
3146.128332476871
 20
1573.345466326536
 30
0.0
 10
3150.746585174419
 20
1573.345466326536
 30
0.0
 10
3155.364837871967
 20
1573.345466326536
 30
0.0
  0
SPLINE
  5
CE
330
1F
100
AcDbEntity
  8
Linee visibili 2D
100
AcDbSpline
210
0.0
220
0.0
230
1.0
 70
    24
 71
     2
 72
     6
 73
     3
 74
     0
 42
0.0000000001
 43
0.0000000001
 40
0.0
 40
0.0
 40
0.0
 40
4.89339812880894
 40
4.89339812880894
 40
4.89339812880894
 10
3146.628332323479
 20
1588.345466326536
 30
0.0
 10
3144.181633259074
 20
1588.345466326536
 30
0.0
 10
3141.73493419467
 20
1588.345466326536
 30
0.0
  0
SPLINE
  5
CF
330
1F
100
AcDbEntity
  8
Linee visibili 2D
100
AcDbSpline
210
0.0
220
0.0
230
1.0
 70
    24
 71
     2
 72
     6
 73
     3
 74
     0
 42
0.0000000001
 43
0.0000000001
 40
0.0
 40
0.0
 40
0.0
 40
13.76349445151004
 40
13.76349445151004
 40
13.76349445151004
 10
3169.128332323477
 20
1573.345466326536
 30
0.0
 10
3162.246585097721
 20
1573.345466326536
 30
0.0
 10
3155.364837871967
 20
1573.345466326536
 30
0.0
  0
SPLINE
  5
D0
330
1F
100
AcDbEntity
  8
Linee visibili 2D
100
AcDbSpline
210
0.0
220
0.0
230
1.0
 70
    24
 71
     2
 72
     6
 73
     3
 74
     0
 42
0.0000000001
 43
0.0000000001
 40
0.0
 40
0.0
 40
0.0
 40
22.49999999999761
 40
22.49999999999761
 40
22.49999999999761
 10
3146.628332323479
 20
1588.345466326536
 30
0.0
 10
3157.878332323477
 20
1588.345466326536
 30
0.0
 10
3169.128332323477
 20
1588.345466326536
 30
0.0
  0
SPLINE
  5
D1
330
1F
100
AcDbEntity
  8
Linee visibili 2D
100
AcDbSpline
210
0.0
220
0.0
230
1.0
 70
    24
 71
     2
 72
     6
 73
     3
 74
     0
 42
0.0000000001
 43
0.0000000001
 40
0.0
 40
0.0
 40
0.0
 40
15.0
 40
15.0
 40
15.0
 10
3169.128332323477
 20
1588.345466326536
 30
0.0
 10
3169.128332323477
 20
1580.845466326536
 30
0.0
 10
3169.128332323477
 20
1573.345466326536
 30
0.0
  0
SPLINE
  5
D2
330
1F
100
AcDbEntity
  8
Linee visibili 2D
100
AcDbSpline
210
0.0
220
0.0
230
1.0
 70
    15
 71
     2
 72
    14
 73
    11
 74
     0
 42
0.0000000001
 43
0.0000000001
 40
0.0
 40
0.0
 40
0.0
 40
10.99565282738155
 40
10.99565282738155
 40
19.24239244791743
 40
19.24239244791743
 40
27.48913206845337
 40
27.48913206845337
 40
35.73587168898933
 40
35.73587168898933
 40
43.9826113095253
 40
43.9826113095253
 40
43.9826113095253
 10
3566.628294823489
 20
1580.845453826536
 30
0.0
 41
1.0
 10
3566.62829482349
 20
1587.845503826536
 30
0.0
 41
0.7071067811865288
 10
3573.62834482349
 20
1587.845503826536
 30
0.0
 41
1.0
 10
3578.305628697857
 20
1587.845503826535
 30
0.0
 41
0.8314696123025971
 10
3580.095547745046
 20
1583.524256987263
 30
0.0
 41
1.0
 10
3581.885466792235
 20
1579.20301014799
 30
0.0
 41
0.8314696123025408
 10
3578.578127647135
 20
1575.89567100289
 30
0.0
 41
1.0
 10
3575.270788502035
 20
1572.588331857791
 30
0.0
 41
0.8314696123025577
 10
3570.949541662762
 20
1574.378250904979
 30
0.0
 41
1.0
 10
3566.628294823489
 20
1576.168169952168
 30
0.0
 41
0.8314696123025153
 10
3566.628294823489
 20
1580.845453826536
 30
0.0
 41
1.0
  0
SPLINE
  5
D3
330
1F
100
AcDbEntity
  8
Linee visibili 2D
100
AcDbSpline
210
0.0
220
0.0
230
1.0
 70
    12
 71
     2
 72
     6
 73
     3
 74
     0
 42
0.0000000001
 43
0.0000000001
 40
0.0
 40
0.0
 40
0.0
 40
2.870229026480567
 40
2.870229026480567
 40
2.870229026480567
 10
3550.025199017707
 20
1588.344626042831
 30
0.0
 41
1.0
 10
3548.909664812871
 20
1589.329777666335
 30
0.0
 41
0.947278925150497
 10
3547.425155980545
 20
1589.435483911198
 30
0.0
 41
1.0
  0
SPLINE
  5
D4
330
1F
100
AcDbEntity
  8
Linee visibili 2D
100
AcDbSpline
210
0.0
220
0.0
230
1.0
 70
    24
 71
     2
 72
     6
 73
     3
 74
     0
 42
0.0000000001
 43
0.0000000001
 40
0.0
 40
0.0
 40
0.0
 40
440.4722730564338
 40
440.4722730564338
 40
440.4722730564338
 10
3547.425155980545
 20
1589.435483911198
 30
0.0
 10
3327.745239474505
 20
1605.078057765094
 30
0.0
 10
3108.065322968464
 20
1620.72063161899
 30
0.0
  0
SPLINE
  5
D5
330
1F
100
AcDbEntity
  8
Linee visibili 2D - Tangent
100
AcDbSpline
210
0.0
220
0.0
230
1.0
 70
    24
 71
     2
 72
     6
 73
     3
 74
     0
 42
0.0000000001
 43
0.0000000001
 40
0.0
 40
0.0
 40
0.0
 40
0.9999999999989619
 40
0.9999999999989619
 40
0.9999999999989619
 10
3547.425155980545
 20
1589.435483911198
 30
0.0
 10
3547.389642794335
 20
1588.936746692209
 30
0.0
 10
3547.354129608125
 20
1588.43800947322
 30
0.0
  0
SPLINE
  5
D6
330
1F
100
AcDbEntity
  8
Linee visibili 2D
100
AcDbSpline
210
0.0
220
0.0
230
1.0
 70
    12
 71
     2
 72
     6
 73
     3
 74
     0
 42
0.0000000001
 43
0.0000000001
 40
0.0
 40
0.0
 40
0.0
 40
0.6184501725336548
 40
0.6184501725336548
 40
0.6184501725336548
 10
3108.065322968464
 20
1620.72063161899
 30
0.0
 41
1.0
 10
3107.756748896517
 20
1620.742604008576
 30
0.0
 41
0.9993684100416813
 10
3107.447393528401
 20
1620.742604008576
 30
0.0
 41
1.0
  0
SPLINE
  5
D7
330
1F
100
AcDbEntity
  8
Linee visibili 2D - Tangent
100
AcDbSpline
210
0.0
220
0.0
230
1.0
 70
    24
 71
     2
 72
     6
 73
     3
 74
     0
 42
0.0000000001
 43
0.0000000001
 40
0.0
 40
0.0
 40
0.0
 40
0.6553064980667386
 40
0.6553064980667386
 40
0.6553064980667386
 10
3108.065322968464
 20
1620.72063161899
 30
0.0
 10
3108.042050946774
 20
1620.393805878558
 30
0.0
 10
3108.018778925084
 20
1620.066980138126
 30
0.0
  0
SPLINE
  5
D8
330
1F
100
AcDbEntity
  8
Linee visibili 2D - Tangent
100
AcDbSpline
210
0.0
220
0.0
230
1.0
 70
    24
 71
     2
 72
     6
 73
     3
 74
     0
 42
0.0000000001
 43
0.0000000001
 40
0.0
 40
0.0
 40
0.0
 40
0.6045920693347853
 40
0.6045920693347853
 40
0.6045920693347853
 10
3107.447393528401
 20
1620.138011939241
 30
0.0
 10
3107.447393528401
 20
1620.440307973908
 30
0.0
 10
3107.447393528401
 20
1620.742604008576
 30
0.0
  0
SPLINE
  5
D9
330
1F
100
AcDbEntity
  8
Linee visibili 2D
100
AcDbSpline
210
0.0
220
0.0
230
1.0
 70
    12
 71
     2
 72
     6
 73
     3
 74
     0
 42
0.0000000001
 43
0.0000000001
 40
0.0
 40
0.0
 40
0.0
 40
13.54445312718707
 40
13.54445312718707
 40
13.54445312718707
 10
3107.447393528401
 20
1620.742604008576
 30
0.0
 41
1.0
 10
3098.868028215208
 20
1620.742604008576
 30
0.0
 41
0.7120260459905704
 10
3098.74824156952
 20
1612.164074977516
 30
0.0
 41
1.0
  0
SPLINE
  5
DA
330
1F
100
AcDbEntity
  8
Linee visibili 2D
100
AcDbSpline
210
0.0
220
0.0
230
1.0
 70
    24
 71
     2
 72
     6
 73
     3
 74
     0
 42
0.0000000001
 43
0.0000000001
 40
0.0
 40
0.0
 40
0.0
 40
456.9166437490481
 40
456.9166437490481
 40
456.9166437490481
 10
3099.721082362011
 20
1610.212084996949
 30
0.0
 10
3096.53130607202
 20
1381.776032323683
 30
0.0
 10
3093.34152978203
 20
1153.339979650416
 30
0.0
  0
SPLINE
  5
DB
330
1F
100
AcDbEntity
  8
Linee visibili 2D - Tangent
100
AcDbSpline
210
0.0
220
0.0
230
1.0
 70
    24
 71
     2
 72
     6
 73
     3
 74
     0
 42
0.0000000001
 43
0.0000000001
 40
0.0
 40
0.0
 40
0.0
 40
0.5776518739638036
 40
0.5776518739638036
 40
0.5776518739638036
 10
3098.74824156952
 20
1612.164074977516
 30
0.0
 10
3099.037039352907
 20
1612.160042337698
 30
0.0
 10
3099.325837136295
 20
1612.15600969788
 30
0.0
  0
SPLINE
  5
DC
330
1F
100
AcDbEntity
  8
Linee visibili 2D
100
AcDbSpline
210
0.0
220
0.0
230
1.0
 70
    15
 71
     2
 72
    14
 73
    11
 74
     0
 42
0.0000000001
 43
0.0000000001
 40
0.0
 40
0.0
 40
0.0
 40
10.99565282738134
 40
10.99565282738134
 40
19.24239244791724
 40
19.24239244791724
 40
27.48913206845333
 40
27.48913206845333
 40
35.73587168898936
 40
35.73587168898936
 40
43.98261130952525
 40
43.98261130952525
 40
43.98261130952525
 10
3131.628282476872
 20
1580.845466326536
 30
0.0
 41
1.0
 10
3131.628282476872
 20
1587.845516326536
 30
0.0
 41
0.707106781186582
 10
3138.628332476873
 20
1587.845516326536
 30
0.0
 41
1.0
 10
3143.30561635124
 20
1587.845516326536
 30
0.0
 41
0.8314696123025753
 10
3145.095535398429
 20
1583.524269487263
 30
0.0
 41
1.0
 10
3146.885454445618
 20
1579.20302264799
 30
0.0
 41
0.831469612302551
 10
3143.578115300518
 20
1575.89568350289
 30
0.0
 41
1.0
 10
3140.270776155419
 20
1572.588344357791
 30
0.0
 41
0.8314696123025315
 10
3135.949529316145
 20
1574.37826340498
 30
0.0
 41
1.0
 10
3131.628282476873
 20
1576.168182452168
 30
0.0
 41
0.8314696123025354
 10
3131.628282476873
 20
1580.845466326536
 30
0.0
 41
1.0
  0
SPLINE
  5
DD
330
1F
100
AcDbEntity
  8
Linee visibili 2D
100
AcDbSpline
210
0.0
220
0.0
230
1.0
 70
    15
 71
     2
 72
    14
 73
    11
 74
     0
 42
0.0000000001
 43
0.0000000001
 40
0.0
 40
0.0
 40
0.0
 40
10.99565282738134
 40
10.99565282738134
 40
19.24239244791737
 40
19.24239244791737
 40
27.48913206845338
 40
27.48913206845338
 40
35.73587168898948
 40
35.73587168898948
 40
43.98261130952548
 40
43.98261130952548
 40
43.98261130952548
 10
3131.628307323459
 20
1145.845466326536
 30
0.0
 41
1.0
 10
3131.628307323459
 20
1152.845516326536
 30
0.0
 41
0.707106781186582
 10
3138.62835732346
 20
1152.845516326536
 30
0.0
 41
1.0
 10
3143.305641197827
 20
1152.845516326536
 30
0.0
 41
0.8314696123025381
 10
3145.095560245016
 20
1148.524269487263
 30
0.0
 41
1.0
 10
3146.885479292205
 20
1144.20302264799
 30
0.0
 41
0.8314696123025542
 10
3143.578140147105
 20
1140.89568350289
 30
0.0
 41
1.0
 10
3140.270801002006
 20
1137.588344357791
 30
0.0
 41
0.8314696123025324
 10
3135.949554162733
 20
1139.378263404979
 30
0.0
 41
1.0
 10
3131.62830732346
 20
1141.168182452168
 30
0.0
 41
0.8314696123025409
 10
3131.628307323459
 20
1145.845466326536
 30
0.0
 41
1.0
  0
SPLINE
  5
DE
330
1F
100
AcDbEntity
  8
Linee visibili 2D
100
AcDbSpline
210
0.0
220
0.0
230
1.0
 70
    24
 71
     2
 72
     6
 73
     3
 74
     0
 42
0.0000000001
 43
0.0000000001
 40
0.0
 40
0.0
 40
0.0
 40
384.0792751899253
 40
384.0792751899253
 40
384.0792751899253
 10
3169.128332323477
 20
1573.345466326536
 30
0.0
 10
3361.167969917494
 20
1573.346068911974
 30
0.0
 10
3553.207607511511
 20
1573.346671497412
 30
0.0
  0
SPLINE
  5
DF
330
1F
100
AcDbEntity
  8
Linee visibili 2D
100
AcDbSpline
210
0.0
220
0.0
230
1.0
 70
    24
 71
     2
 72
     6
 73
     3
 74
     0
 42
0.0000000001
 43
0.0000000001
 40
0.0
 40
0.0
 40
0.0
 40
384.0792751889695
 40
384.0792751889695
 40
384.0792751889695
 10
3553.207607511511
 20
1588.344619022228
 30
0.0
 10
3361.167969917494
 20
1588.345042674382
 30
0.0
 10
3169.128332323477
 20
1588.345466326536
 30
0.0
  0
SPLINE
  5
E0
330
1F
100
AcDbEntity
  8
Linee visibili 2D
100
AcDbSpline
210
0.0
220
0.0
230
1.0
 70
    15
 71
     2
 72
    18
 73
    15
 74
     0
 42
0.0000000001
 43
0.0000000001
 40
0.0
 40
0.0
 40
0.0
 40
14.99794776135183
 40
14.99794776135183
 40
19.58115225161231
 40
19.58115225161231
 40
35.41868507331782
 40
35.41868507331782
 40
47.19965752427954
 40
47.19965752427954
 40
58.98062997524126
 40
58.98062997524126
 40
74.81816279694678
 40
74.81816279694678
 40
79.40136728720708
 40
79.40136728720708
 40
79.40136728720708
 10
3553.207607511511
 20
1588.344619022228
 30
0.0
 41
1.0
 10
3553.207607511511
 20
1580.84564525982
 30
0.0
 41
1.0
 10
3553.207607511511
 20
1573.346671497412
 30
0.0
 41
1.0
 10
3555.49920975664
 20
1573.346062661974
 30
0.0
 41
1.0
 10
3557.79081200177
 20
1573.345453826536
 30
0.0
 41
1.0
 10
3565.709578412622
 20
1573.345453826536
 30
0.0
 41
1.0
 10
3573.628344823475
 20
1573.345453826536
 30
0.0
 41
1.0
 10
3581.128344823475
 20
1573.345453826536
 30
0.0
 41
0.7071067811865476
 10
3581.128344823475
 20
1580.845453826536
 30
0.0
 41
1.0
 10
3581.128344823475
 20
1588.345453826536
 30
0.0
 41
0.7071067811865476
 10
3573.628344823475
 20
1588.345453826536
 30
0.0
 41
1.0
 10
3565.709578412622
 20
1588.345453826536
 30
0.0
 41
1.0
 10
3557.790812001769
 20
1588.345453826536
 30
0.0
 41
1.0
 10
3555.49920975664
 20
1588.345036424382
 30
0.0
 41
1.0
 10
3553.207607511511
 20
1588.344619022228
 30
0.0
 41
1.0
  0
SPLINE
  5
E1
330
1F
100
AcDbEntity
  8
Linee visibili 2D
100
AcDbSpline
210
0.0
220
0.0
230
1.0
 70
    12
 71
     2
 72
    20
 73
    17
 74
     0
 42
0.0000000001
 43
0.0000000001
 40
15.00000000000001
 40
15.00000000000001
 40
15.00000000000001
 40
82.00000000000001
 40
82.00000000000001
 40
86.7123889803847
 40
86.7123889803847
 40
121.2123889803847
 40
121.2123889803847
 40
132.9933614313464
 40
132.9933614313464
 40
144.7743338823081
 40
144.7743338823081
 40
189.7743338823081
 40
189.7743338823081
 40
201.5553063332698
 40
201.5553063332698
 40
279.0553063332699
 40
279.0553063332699
 40
279.0553063332699
 10
3131.128357323477
 20
1068.345466326536
 30
0.0
 41
1.0
 10
3131.128357323477
 20
1101.845466326536
 30
0.0
 41
1.0
 10
3131.128357323477
 20
1135.345466326536
 30
0.0
 41
1.0
 10
3131.128357323477
 20
1138.345466326536
 30
0.0
 41
0.7071067811865467
 10
3128.128357323477
 20
1138.345466326536
 30
0.0
 41
1.0
 10
3110.878357323476
 20
1138.345466326536
 30
0.0
 41
1.0
 10
3093.628357323475
 20
1138.345466326536
 30
0.0
 41
1.0
 10
3086.128357323475
 20
1138.345466326535
 30
0.0
 41
0.7071067811865476
 10
3086.128357323476
 20
1145.845466326536
 30
0.0
 41
1.0
 10
3086.128357323476
 20
1153.345466326535
 30
0.0
 41
0.7071067811865476
 10
3093.628357323477
 20
1153.345466326536
 30
0.0
 41
1.0
 10
3116.128357323477
 20
1153.345466326536
 30
0.0
 41
1.0
 10
3138.628357323477
 20
1153.345466326536
 30
0.0
 41
1.0
 10
3146.128357323477
 20
1153.345466326536
 30
0.0
 41
0.707106781186549
 10
3146.128357323477
 20
1145.845466326536
 30
0.0
 41
1.0
 10
3146.128357323477
 20
1107.095466326536
 30
0.0
 41
1.0
 10
3146.128357323477
 20
1068.345466326536
 30
0.0
 41
1.0
  0
SPLINE
  5
E2
330
1F
100
AcDbEntity
  8
Linee visibili 2D
100
AcDbSpline
210
0.0
220
0.0
230
1.0
 70
    24
 71
     2
 72
     6
 73
     3
 74
     0
 42
0.0000000001
 43
0.0000000001
 40
0.0
 40
0.0
 40
0.0
 40
0.3828355864091009
 40
0.3828355864091009
 40
0.3828355864091009
 10
3547.127882935874
 20
1588.654419432552
 30
0.0
 10
3547.127882935874
 20
1588.845837225757
 30
0.0
 10
3547.127882935874
 20
1589.037255018962
 30
0.0
  0
SPLINE
  5
E3
330
1F
100
AcDbEntity
  8
Linee visibili 2D
100
AcDbSpline
210
0.0
220
0.0
230
1.0
 70
    24
 71
     2
 72
     6
 73
     3
 74
     0
 42
0.0000000001
 43
0.0000000001
 40
0.0
 40
0.0
 40
0.0
 40
14.59999999999991
 40
14.59999999999991
 40
14.59999999999991
 10
3145.928357323477
 20
1166.145466326536
 30
0.0
 10
3138.628357323477
 20
1166.145466326536
 30
0.0
 10
3131.328357323477
 20
1166.145466326536
 30
0.0
  0
SPLINE
  5
E4
330
1F
100
AcDbEntity
  8
Linee visibili 2D
100
AcDbSpline
210
0.0
220
0.0
230
1.0
 70
    24
 71
     2
 72
     6
 73
     3
 74
     0
 42
0.0000000001
 43
0.0000000001
 40
0.0
 40
0.0
 40
0.0
 40
0.7000249999999824
 40
0.7000249999999824
 40
0.7000249999999824
 10
2925.923997513651
 20
1145.845466326548
 30
0.0
 10
2925.573985013651
 20
1145.845466326548
 30
0.0
 10
2925.223972513651
 20
1145.845466326548
 30
0.0
  0
SPLINE
  5
E5
330
1F
100
AcDbEntity
  8
Linee visibili 2D
100
AcDbSpline
210
0.0
220
0.0
230
1.0
 70
    24
 71
     2
 72
     6
 73
     3
 74
     0
 42
0.0000000001
 43
0.0000000001
 40
0.0
 40
0.0
 40
0.0
 40
15.00228492065862
 40
15.00228492065862
 40
15.00228492065862
 10
2886.144641282288
 20
1588.245453326535
 30
0.0
 10
2886.27555426925
 20
1580.745453326535
 30
0.0
 10
2886.406467256212
 20
1573.245453326535
 30
0.0
  0
SPLINE
  5
E6
330
1F
100
AcDbEntity
  8
Linee visibili 2D
100
AcDbSpline
210
0.0
220
0.0
230
1.0
 70
    24
 71
     2
 72
     6
 73
     3
 74
     0
 42
0.0000000001
 43
0.0000000001
 40
0.0
 40
0.0
 40
0.0
 40
16.80261786096594
 40
16.80261786096594
 40
16.80261786096594
 10
2921.948825526718
 20
1067.948084187502
 30
0.0
 10
2921.948825526718
 20
1059.546775257018
 30
0.0
 10
2921.948825526718
 20
1051.145466326535
 30
0.0
  0
SPLINE
  5
E7
330
1F
100
AcDbEntity
  8
Linee visibili 2D
100
AcDbSpline
210
0.0
220
0.0
230
1.0
 70
    24
 71
     2
 72
     6
 73
     3
 74
     0
 42
0.0000000001
 43
0.0000000001
 40
0.0
 40
0.0
 40
0.0
 40
5.400000079950814
 40
5.400000079950814
 40
5.400000079950814
 10
2816.406441794547
 20
1141.756591189043
 30
0.0
 10
2819.106441834523
 20
1141.756591189043
 30
0.0
 10
2821.806441874498
 20
1141.756591189043
 30
0.0
  0
SPLINE
  5
E8
330
1F
100
AcDbEntity
  8
Linee visibili 2D
100
AcDbSpline
210
0.0
220
0.0
230
1.0
 70
    24
 71
     2
 72
     6
 73
     3
 74
     0
 42
0.0000000001
 43
0.0000000001
 40
0.0
 40
0.0
 40
0.0
 40
0.9732050316993082
 40
0.9732050316993082
 40
0.9732050316993082
 10
2826.406441843605
 20
1103.459825680481
 30
0.0
 10
2826.893044359455
 20
1103.459825680481
 30
0.0
 10
2827.379646875304
 20
1103.459825680481
 30
0.0
  0
SPLINE
  5
E9
330
1F
100
AcDbEntity
  8
Linee visibili 2D
100
AcDbSpline
210
0.0
220
0.0
230
1.0
 70
    24
 71
     2
 72
     6
 73
     3
 74
     0
 42
0.0000000001
 43
0.0000000001
 40
0.0
 40
0.0
 40
0.0
 40
0.9732050316993082
 40
0.9732050316993082
 40
0.9732050316993082
 10
2815.433236740522
 20
1103.459825680481
 30
0.0
 10
2815.919839256372
 20
1103.459825680481
 30
0.0
 10
2816.406441772222
 20
1103.459825680481
 30
0.0
  0
SPLINE
  5
EA
330
1F
100
AcDbEntity
  8
Linee visibili 2D
100
AcDbSpline
210
0.0
220
0.0
230
1.0
 70
    24
 71
     2
 72
     6
 73
     3
 74
     0
 42
0.0000000001
 43
0.0000000001
 40
0.0
 40
0.0
 40
0.0
 40
4.498276139798463
 40
4.498276139798463
 40
4.498276139798463
 10
2821.906467256212
 20
1620.165271479931
 30
0.0
 10
2824.155605326111
 20
1620.165271479931
 30
0.0
 10
2826.40474339601
 20
1620.165271479931
 30
0.0
  0
SPLINE
  5
EB
330
1F
100
AcDbEntity
  8
Linee visibili 2D
100
AcDbSpline
210
0.0
220
0.0
230
1.0
 70
    24
 71
     2
 72
     6
 73
     3
 74
     0
 42
0.0000000001
 43
0.0000000001
 40
0.0
 40
0.0
 40
0.0
 40
4.500025454051638
 40
4.500025454051638
 40
4.500025454051638
 10
2816.40644180216
 20
1620.165271479931
 30
0.0
 10
2818.656454529186
 20
1620.165271479931
 30
0.0
 10
2820.906467256212
 20
1620.165271479931
 30
0.0
  0
SPLINE
  5
EC
330
1F
100
AcDbEntity
  8
Linee visibili 2D
100
AcDbSpline
210
0.0
220
0.0
230
1.0
 70
    24
 71
     2
 72
     6
 73
     3
 74
     0
 42
0.0000000001
 43
0.0000000001
 40
0.0
 40
0.0
 40
0.0
 40
4.597347639061127
 40
4.597347639061127
 40
4.597347639061127
 10
2816.406467256212
 20
1588.345453826535
 30
0.0
 10
2818.705141075742
 20
1588.345453826535
 30
0.0
 10
2821.003814895273
 20
1588.345453826535
 30
0.0
  0
SPLINE
  5
ED
330
1F
100
AcDbEntity
  8
Linee visibili 2D
100
AcDbSpline
210
0.0
220
0.0
230
1.0
 70
    24
 71
     2
 72
     6
 73
     3
 74
     0
 42
0.0000000001
 43
0.0000000001
 40
0.0
 40
0.0
 40
0.0
 40
5.399999405350854
 40
5.399999405350854
 40
5.399999405350854
 10
2826.406441821279
 20
1149.934341464028
 30
0.0
 10
2823.706442118604
 20
1149.934341464028
 30
0.0
 10
2821.006442415928
 20
1149.934341464028
 30
0.0
  0
SPLINE
  5
EE
330
1F
100
AcDbEntity
  8
Linee visibili 2D
100
AcDbSpline
210
0.0
220
0.0
230
1.0
 70
    24
 71
     2
 72
     6
 73
     3
 74
     0
 42
0.0000000001
 43
0.0000000001
 40
0.0
 40
0.0
 40
0.0
 40
0.5670591394309668
 40
0.5670591394309668
 40
0.5670591394309668
 10
2820.906467256212
 20
1588.369687552778
 30
0.0
 10
2820.906467256212
 20
1588.653217122493
 30
0.0
 10
2820.906467256212
 20
1588.936746692209
 30
0.0
  0
SPLINE
  5
EF
330
1F
100
AcDbEntity
  8
Linee visibili 2D
100
AcDbSpline
210
0.0
220
0.0
230
1.0
 70
    24
 71
     2
 72
     6
 73
     3
 74
     0
 42
0.0000000001
 43
0.0000000001
 40
0.0
 40
0.0
 40
0.0
 40
0.5912803656729011
 40
0.5912803656729011
 40
0.5912803656729011
 10
2821.906467256212
 20
1588.936746692209
 30
0.0
 10
2821.906467256212
 20
1588.641106509372
 30
0.0
 10
2821.906467256212
 20
1588.345466326536
 30
0.0
  0
SPLINE
  5
F0
330
1F
100
AcDbEntity
  8
Linee visibili 2D
100
AcDbSpline
210
0.0
220
0.0
230
1.0
 70
    24
 71
     2
 72
     6
 73
     3
 74
     0
 42
0.0000000001
 43
0.0000000001
 40
0.0
 40
0.0
 40
0.0
 40
31.18463938104946
 40
31.18463938104946
 40
31.18463938104946
 10
2821.906467256201
 20
1620.221894400011
 30
0.0
 10
2821.906467256206
 20
1604.629574709486
 30
0.0
 10
2821.906467256211
 20
1589.037255018962
 30
0.0
  0
SPLINE
  5
F1
330
1F
100
AcDbEntity
  8
Linee visibili 2D
100
AcDbSpline
210
0.0
220
0.0
230
1.0
 70
    24
 71
     2
 72
     6
 73
     3
 74
     0
 42
0.0000000001
 43
0.0000000001
 40
0.0
 40
0.0
 40
0.0
 40
31.18463938098375
 40
31.18463938098375
 40
31.18463938098375
 10
2820.906467256213
 20
1589.037255018961
 30
0.0
 10
2820.906467256218
 20
1604.629574709453
 30
0.0
 10
2820.906467256223
 20
1620.221894399945
 30
0.0
  0
SPLINE
  5
F2
330
1F
100
AcDbEntity
  8
Linee visibili 2D
100
AcDbSpline
210
0.0
220
0.0
230
1.0
 70
    24
 71
     2
 72
     6
 73
     3
 74
     0
 42
0.0000000001
 43
0.0000000001
 40
0.0
 40
0.0
 40
0.0
 40
2.496999869717456
 40
2.496999869717456
 40
2.496999869717456
 10
2816.356442222464
 20
1138.845416326535
 30
0.0
 10
2815.107942287605
 20
1138.845416326535
 30
0.0
 10
2813.859442352746
 20
1138.845416326535
 30
0.0
  0
SPLINE
  5
F3
330
1F
100
AcDbEntity
  8
Linee visibili 2D
100
AcDbSpline
210
0.0
220
0.0
230
1.0
 70
    24
 71
     2
 72
     6
 73
     3
 74
     0
 42
0.0000000001
 43
0.0000000001
 40
0.0
 40
0.0
 40
0.0
 40
2.496999869717456
 40
2.496999869717456
 40
2.496999869717456
 10
2813.859442352746
 20
1152.845516326536
 30
0.0
 10
2815.107942287605
 20
1152.845516326536
 30
0.0
 10
2816.356442222464
 20
1152.845516326536
 30
0.0
  0
SPLINE
  5
F4
330
1F
100
AcDbEntity
  8
Linee visibili 2D
100
AcDbSpline
210
0.0
220
0.0
230
1.0
 70
    24
 71
     2
 72
     6
 73
     3
 74
     0
 42
0.0000000001
 43
0.0000000001
 40
0.0
 40
0.0
 40
0.0
 40
2.496999869717456
 40
2.496999869717456
 40
2.496999869717456
 10
2828.956467222463
 20
1138.845416326535
 30
0.0
 10
2827.707967287604
 20
1138.845416326535
 30
0.0
 10
2826.459467352746
 20
1138.845416326535
 30
0.0
  0
SPLINE
  5
F5
330
1F
100
AcDbEntity
  8
Linee visibili 2D
100
AcDbSpline
210
0.0
220
0.0
230
1.0
 70
    24
 71
     2
 72
     6
 73
     3
 74
     0
 42
0.0000000001
 43
0.0000000001
 40
0.0
 40
0.0
 40
0.0
 40
2.469382722044884
 40
2.469382722044884
 40
2.469382722044884
 10
2826.487084500418
 20
1152.845516326536
 30
0.0
 10
2827.721775861441
 20
1152.845516326536
 30
0.0
 10
2828.956467222463
 20
1152.845516326536
 30
0.0
  0
SPLINE
  5
F6
330
1F
100
AcDbEntity
  8
Linee visibili 2D
100
AcDbSpline
210
0.0
220
0.0
230
1.0
 70
    24
 71
     2
 72
     6
 73
     3
 74
     0
 42
0.0000000001
 43
0.0000000001
 40
0.0
 40
0.0
 40
0.0
 40
15.00115710140427
 40
15.00115710140427
 40
15.00115710140427
 10
2756.668293230135
 20
1588.245453326535
 30
0.0
 10
2756.537390084753
 20
1580.746017150276
 30
0.0
 10
2756.406486939371
 20
1573.246580974017
 30
0.0
  0
SPLINE
  5
F7
330
1F
100
AcDbEntity
  8
Linee visibili 2D
100
AcDbSpline
210
0.0
220
0.0
230
1.0
 70
    24
 71
     2
 72
     6
 73
     3
 74
     0
 42
0.0000000001
 43
0.0000000001
 40
0.0
 40
0.0
 40
0.0
 40
129.4119857936494
 40
129.4119857936494
 40
129.4119857936494
 10
2886.080279023784
 20
1588.245453326535
 30
0.0
 10
2821.37428612696
 20
1588.245453326535
 30
0.0
 10
2756.668293230135
 20
1588.245453326535
 30
0.0
  0
SPLINE
  5
F8
330
1F
100
AcDbEntity
  8
Linee visibili 2D
100
AcDbSpline
210
0.0
220
0.0
230
1.0
 70
    24
 71
     2
 72
     6
 73
     3
 74
     0
 42
0.0000000001
 43
0.0000000001
 40
0.0
 40
0.0
 40
0.0
 40
129.9353774358685
 40
129.9353774358685
 40
129.9353774358685
 10
2756.471089820343
 20
1573.245453326535
 30
0.0
 10
2821.438778538277
 20
1573.245453326535
 30
0.0
 10
2886.406467256212
 20
1573.245453326535
 30
0.0
  0
SPLINE
  5
F9
330
1F
100
AcDbEntity
  8
Linee visibili 2D
100
AcDbSpline
210
0.0
220
0.0
230
1.0
 70
    24
 71
     2
 72
     6
 73
     3
 74
     0
 42
0.0000000001
 43
0.0000000001
 40
0.0
 40
0.0
 40
0.0
 40
16.80261786096594
 40
16.80261786096594
 40
16.80261786096594
 10
2720.941950115815
 20
1051.145466326535
 30
0.0
 10
2720.941950115815
 20
1059.546775257018
 30
0.0
 10
2720.941950115815
 20
1067.948084187502
 30
0.0
  0
SPLINE
  5
FA
330
1F
100
AcDbEntity
  8
Linee visibili 2D
100
AcDbSpline
210
0.0
220
0.0
230
1.0
 70
    28
 71
     2
 72
     8
 73
     5
 74
     0
 42
0.0000000001
 43
0.0000000001
 40
0.0
 40
0.0
 40
0.0
 40
157.8704307779834
 40
157.8704307779834
 40
310.8074105941549
 40
310.8074105941549
 40
310.8074105941549
 10
2720.941950115815
 20
1051.145466326535
 30
0.0
 41
1.0
 10
2720.941941751775
 20
1051.145466326535
 30
0.0
 41
0.7071067811865476
 10
2821.445379457226
 20
1051.145466326535
 30
0.0
 41
1.0
 10
2917.563909770287
 20
1051.145466326536
 30
0.0
 41
0.7162596942744679
 10
2921.848905310023
 20
1051.145466326536
 30
0.0
 41
0.9822662308921544
  0
SPLINE
  5
FB
330
1F
100
AcDbEntity
  8
Linee visibili 2D
100
AcDbSpline
210
0.0
220
0.0
230
1.0
 70
    12
 71
     2
 72
    10
 73
     7
 74
     0
 42
0.0000000001
 43
0.0000000001
 40
0.0
 40
0.0
 40
0.0
 40
0.0999194709529547
 40
0.0999194709529547
 40
157.9703502489364
 40
157.9703502489364
 40
315.8407810269198
 40
315.8407810269198
 40
315.8407810269198
 10
2921.848906055765
 20
1067.948083668837
 30
0.0
 41
1.0
 10
2921.898865791241
 20
1067.948083668837
 30
0.0
 41
1.0
 10
2921.948825526718
 20
1067.948083668837
 30
0.0
 41
1.0
 10
2921.948817162677
 20
1067.948084187501
 30
0.0
 41
0.7071067811865476
 10
2821.445379457226
 20
1067.948084187502
 30
0.0
 41
1.0
 10
2720.941941751775
 20
1067.948084187501
 30
0.0
 41
0.7071067811865476
 10
2720.941950115815
 20
1067.948084187502
 30
0.0
 41
1.0
  0
SPLINE
  5
FC
330
1F
100
AcDbEntity
  8
Linee visibili 2D
100
AcDbSpline
210
0.0
220
0.0
230
1.0
 70
    24
 71
     2
 72
     6
 73
     3
 74
     0
 42
0.0000000001
 43
0.0000000001
 40
0.0
 40
0.0
 40
0.0
 40
384.2
 40
384.2
 40
384.2
 10
2826.40474339601
 20
1166.145466326536
 30
0.0
 10
2826.40474339601
 20
1358.245466326536
 30
0.0
 10
2826.40474339601
 20
1550.345466326536
 30
0.0
  0
SPLINE
  5
FD
330
1F
100
AcDbEntity
  8
Linee visibili 2D
100
AcDbSpline
210
0.0
220
0.0
230
1.0
 70
    24
 71
     2
 72
     6
 73
     3
 74
     0
 42
0.0000000001
 43
0.0000000001
 40
0.0
 40
0.0
 40
0.0
 40
384.2
 40
384.2
 40
384.2
 10
2816.40644180216
 20
1550.345466326536
 30
0.0
 10
2816.40644180216
 20
1358.245466326536
 30
0.0
 10
2816.40644180216
 20
1166.145466326536
 30
0.0
  0
SPLINE
  5
FE
330
1F
100
AcDbEntity
  8
Linee visibili 2D
100
AcDbSpline
210
0.0
220
0.0
230
1.0
 70
    24
 71
     2
 72
     6
 73
     3
 74
     0
 42
0.0000000001
 43
0.0000000001
 40
0.0
 40
0.0
 40
0.0
 40
10.00000002673164
 40
10.00000002673164
 40
10.00000002673164
 10
2826.406441821279
 20
1068.345466326536
 30
0.0
 10
2821.406441807913
 20
1068.345466326536
 30
0.0
 10
2816.406441794547
 20
1068.345466326536
 30
0.0
  0
SPLINE
  5
FF
330
1F
100
AcDbEntity
  8
Linee visibili 2D
100
AcDbSpline
210
0.0
220
0.0
230
1.0
 70
    24
 71
     2
 72
     6
 73
     3
 74
     0
 42
0.0000000001
 43
0.0000000001
 40
0.0
 40
0.0
 40
0.0
 40
4.488875137492641
 40
4.488875137492641
 40
4.488875137492641
 10
2821.806441889915
 20
1145.845466326536
 30
0.0
 10
2821.806441889915
 20
1143.601028757789
 30
0.0
 10
2821.806441889915
 20
1141.356591189043
 30
0.0
  0
SPLINE
  5
100
330
1F
100
AcDbEntity
  8
Linee visibili 2D
100
AcDbSpline
210
0.0
220
0.0
230
1.0
 70
    24
 71
     2
 72
     6
 73
     3
 74
     0
 42
0.0000000001
 43
0.0000000001
 40
0.0
 40
0.0
 40
0.0
 40
4.056492449242114
 40
4.056492449242114
 40
4.056492449242114
 10
2821.806441889915
 20
1149.934341463908
 30
0.0
 10
2821.806441889915
 20
1147.906095239287
 30
0.0
 10
2821.806441889915
 20
1145.877849014666
 30
0.0
  0
SPLINE
  5
101
330
1F
100
AcDbEntity
  8
Linee visibili 2D
100
AcDbSpline
210
0.0
220
0.0
230
1.0
 70
    24
 71
     2
 72
     6
 73
     3
 74
     0
 42
0.0000000001
 43
0.0000000001
 40
0.0
 40
0.0
 40
0.0
 40
73.01112486250736
 40
73.01112486250736
 40
73.01112486250736
 10
2816.406441794547
 20
1141.356591189043
 30
0.0
 10
2816.406441794547
 20
1104.851028757789
 30
0.0
 10
2816.406441794547
 20
1068.345466326536
 30
0.0
  0
SPLINE
  5
102
330
1F
100
AcDbEntity
  8
Linee visibili 2D
100
AcDbSpline
210
0.0
220
0.0
230
1.0
 70
    24
 71
     2
 72
     6
 73
     3
 74
     0
 42
0.0000000001
 43
0.0000000001
 40
0.0
 40
0.0
 40
0.0
 40
0.3843691318754736
 40
0.3843691318754736
 40
0.3843691318754736
 10
2816.406441794547
 20
1141.357024044285
 30
0.0
 10
2816.406441794547
 20
1141.549208610223
 30
0.0
 10
2816.406441794547
 20
1141.74139317616
 30
0.0
  0
SPLINE
  5
103
330
1F
100
AcDbEntity
  8
Linee visibili 2D - Tangent
100
AcDbSpline
210
0.0
220
0.0
230
1.0
 70
    24
 71
     2
 72
     6
 73
     3
 74
     0
 42
0.0000000001
 43
0.0000000001
 40
0.0
 40
0.0
 40
0.0
 40
5.400000061049695
 40
5.400000061049695
 40
5.400000061049695
 10
2816.406441794547
 20
1141.356591189043
 30
0.0
 10
2819.106441825073
 20
1141.356591189043
 30
0.0
 10
2821.806441855597
 20
1141.356591189043
 30
0.0
  0
SPLINE
  5
104
330
1F
100
AcDbEntity
  8
Linee visibili 2D
100
AcDbSpline
210
0.0
220
0.0
230
1.0
 70
    24
 71
     2
 72
     6
 73
     3
 74
     0
 42
0.0000000001
 43
0.0000000001
 40
0.0
 40
0.0
 40
0.0
 40
0.9732050484435604
 40
0.9732050484435604
 40
0.9732050484435604
 10
2826.406441826861
 20
1068.345466326536
 30
0.0
 10
2826.893044351083
 20
1068.345466326536
 30
0.0
 10
2827.379646875304
 20
1068.345466326536
 30
0.0
  0
SPLINE
  5
105
330
1F
100
AcDbEntity
  8
Linee visibili 2D
100
AcDbSpline
210
0.0
220
0.0
230
1.0
 70
    24
 71
     2
 72
     6
 73
     3
 74
     0
 42
0.0000000001
 43
0.0000000001
 40
0.0
 40
0.0
 40
0.0
 40
35.11435935394502
 40
35.11435935394502
 40
35.11435935394502
 10
2827.379646875304
 20
1068.345466326536
 30
0.0
 10
2827.379646875304
 20
1085.902646003508
 30
0.0
 10
2827.379646875304
 20
1103.459825680481
 30
0.0
  0
SPLINE
  5
106
330
1F
100
AcDbEntity
  8
Linee visibili 2D
100
AcDbSpline
210
0.0
220
0.0
230
1.0
 70
    24
 71
     2
 72
     6
 73
     3
 74
     0
 42
0.0000000001
 43
0.0000000001
 40
0.0
 40
0.0
 40
0.0
 40
0.9732050428622188
 40
0.9732050428622188
 40
0.9732050428622188
 10
2816.406441783385
 20
1068.345466326536
 30
0.0
 10
2815.919839261954
 20
1068.345466326536
 30
0.0
 10
2815.433236740522
 20
1068.345466326536
 30
0.0
  0
SPLINE
  5
107
330
1F
100
AcDbEntity
  8
Linee visibili 2D
100
AcDbSpline
210
0.0
220
0.0
230
1.0
 70
    24
 71
     2
 72
     6
 73
     3
 74
     0
 42
0.0000000001
 43
0.0000000001
 40
0.0
 40
0.0
 40
0.0
 40
1.273750462108183
 40
1.273750462108183
 40
1.273750462108183
 10
2826.406441821279
 20
1147.119216788644
 30
0.0
 10
2826.406441821279
 20
1146.48234155759
 30
0.0
 10
2826.406441821279
 20
1145.845466326536
 30
0.0
  0
SPLINE
  5
108
330
1F
100
AcDbEntity
  8
Linee visibili 2D
100
AcDbSpline
210
0.0
220
0.0
230
1.0
 70
    24
 71
     2
 72
     6
 73
     3
 74
     0
 42
0.0000000001
 43
0.0000000001
 40
0.0
 40
0.0
 40
0.0
 40
1.211958478577571
 40
1.211958478577571
 40
1.211958478577571
 10
2826.406441821279
 20
1148.422147698204
 30
0.0
 10
2826.406441821279
 20
1147.816168458915
 30
0.0
 10
2826.406441821279
 20
1147.210189219626
 30
0.0
  0
SPLINE
  5
109
330
1F
100
AcDbEntity
  8
Linee visibili 2D
100
AcDbSpline
210
0.0
220
0.0
230
1.0
 70
    24
 71
     2
 72
     6
 73
     3
 74
     0
 42
0.0000000001
 43
0.0000000001
 40
0.0
 40
0.0
 40
0.0
 40
1.069785311594615
 40
1.069785311594615
 40
1.069785311594615
 10
2826.406441821279
 20
1149.675961959844
 30
0.0
 10
2826.406441821279
 20
1149.141069304047
 30
0.0
 10
2826.406441821279
 20
1148.60617664825
 30
0.0
  0
SPLINE
  5
10A
330
1F
100
AcDbEntity
  8
Linee visibili 2D
100
AcDbSpline
210
0.0
220
0.0
230
1.0
 70
    24
 71
     2
 72
     6
 73
     3
 74
     0
 42
0.0000000001
 43
0.0000000001
 40
0.0
 40
0.0
 40
0.0
 40
22.89998699999956
 40
22.89998699999956
 40
22.89998699999956
 10
2826.40474339601
 20
1573.245453326535
 30
0.0
 10
2826.40474339601
 20
1561.795459826536
 30
0.0
 10
2826.40474339601
 20
1550.345466326536
 30
0.0
  0
SPLINE
  5
10B
330
1F
100
AcDbEntity
  8
Linee visibili 2D
100
AcDbSpline
210
0.0
220
0.0
230
1.0
 70
    24
 71
     2
 72
     6
 73
     3
 74
     0
 42
0.0000000001
 43
0.0000000001
 40
0.0
 40
0.0
 40
0.0
 40
31.82065245770286
 40
31.82065245770286
 40
31.82065245770286
 10
2826.40474339601
 20
1620.165271479931
 30
0.0
 10
2826.40474339601
 20
1604.25494525108
 30
0.0
 10
2826.40474339601
 20
1588.344619022228
 30
0.0
  0
SPLINE
  5
10C
330
1F
100
AcDbEntity
  8
Linee visibili 2D
100
AcDbSpline
210
0.0
220
0.0
230
1.0
 70
    24
 71
     2
 72
     6
 73
     3
 74
     0
 42
0.0000000001
 43
0.0000000001
 40
0.0
 40
0.0
 40
0.0
 40
26.13084432911728
 40
26.13084432911728
 40
26.13084432911728
 10
2816.406441801483
 20
1617.968562571287
 30
0.0
 10
2816.406441801597
 20
1604.903140406728
 30
0.0
 10
2816.406441801711
 20
1591.83771824217
 30
0.0
  0
SPLINE
  5
10D
330
1F
100
AcDbEntity
  8
Linee visibili 2D
100
AcDbSpline
210
0.0
220
0.0
230
1.0
 70
    24
 71
     2
 72
     6
 73
     3
 74
     0
 42
0.0000000001
 43
0.0000000001
 40
0.0
 40
0.0
 40
0.0
 40
2.196698669759371
 40
2.196698669759371
 40
2.196698669759371
 10
2816.40644180147
 20
1620.165261517017
 30
0.0
 10
2816.406441801476
 20
1619.066912182137
 30
0.0
 10
2816.406441801483
 20
1617.968562847258
 30
0.0
  0
SPLINE
  5
10E
330
1F
100
AcDbEntity
  8
Linee visibili 2D
100
AcDbSpline
210
0.0
220
0.0
230
1.0
 70
    24
 71
     2
 72
     6
 73
     3
 74
     0
 42
0.0000000001
 43
0.0000000001
 40
0.0
 40
0.0
 40
0.0
 40
13.70424455175475
 40
13.70424455175475
 40
13.70424455175475
 10
2816.406441801429
 20
1564.049710878291
 30
0.0
 10
2816.406441801794
 20
1557.197588602413
 30
0.0
 10
2816.40644180216
 20
1550.345466326536
 30
0.0
  0
SPLINE
  5
10F
330
1F
100
AcDbEntity
  8
Linee visibili 2D
100
AcDbSpline
210
0.0
220
0.0
230
1.0
 70
    24
 71
     2
 72
     6
 73
     3
 74
     0
 42
0.0000000001
 43
0.0000000001
 40
0.0
 40
0.0
 40
0.0
 40
9.195774904626509
 40
9.195774904626509
 40
9.195774904626509
 10
2821.807268116779
 20
1564.049678417569
 30
0.0
 10
2821.807295748637
 20
1568.647565869799
 30
0.0
 10
2821.807323380493
 20
1573.245453322029
 30
0.0
  0
SPLINE
  5
110
330
1F
100
AcDbEntity
  8
Linee visibili 2D
100
AcDbSpline
210
0.0
220
0.0
230
1.0
 70
    24
 71
     2
 72
     6
 73
     3
 74
     0
 42
0.0000000001
 43
0.0000000001
 40
0.0
 40
0.0
 40
0.0
 40
9.195742445758242
 40
9.195742445758242
 40
9.195742445758242
 10
2816.406441802158
 20
1573.245453324049
 30
0.0
 10
2816.406441801793
 20
1568.64758210117
 30
0.0
 10
2816.406441801429
 20
1564.049710878291
 30
0.0
  0
SPLINE
  5
111
330
1F
100
AcDbEntity
  8
Linee visibili 2D
100
AcDbSpline
210
0.0
220
0.0
230
1.0
 70
    24
 71
     2
 72
     6
 73
     3
 74
     0
 42
0.0000000001
 43
0.0000000001
 40
0.0
 40
0.0
 40
0.0
 40
3.492251915637326
 40
3.492251915637326
 40
3.492251915637326
 10
2816.406441801711
 20
1591.83771824217
 30
0.0
 10
2816.406441801926
 20
1590.091592284351
 30
0.0
 10
2816.406441802142
 20
1588.345466326532
 30
0.0
  0
SPLINE
  5
112
330
1F
100
AcDbEntity
  8
Linee visibili 2D
100
AcDbSpline
210
0.0
220
0.0
230
1.0
 70
    24
 71
     2
 72
     6
 73
     3
 74
     0
 42
0.0000000001
 43
0.0000000001
 40
0.0
 40
0.0
 40
0.0
 40
5.400826315448291
 40
5.400826315448291
 40
5.400826315448291
 10
2816.406441801429
 20
1564.049710878291
 30
0.0
 10
2819.106854959104
 20
1564.04969464793
 30
0.0
 10
2821.807268116779
 20
1564.049678417569
 30
0.0
  0
SPLINE
  5
113
330
1F
100
AcDbEntity
  8
Linee visibili 2D
100
AcDbSpline
210
0.0
220
0.0
230
1.0
 70
    12
 71
     2
 72
     6
 73
     3
 74
     0
 42
0.0000000001
 43
0.0000000001
 40
0.0
 40
0.0
 40
0.0
 40
4.500025454629957
 40
4.500025454629957
 40
4.500025454629957
 10
2820.906467256214
 20
1591.837684743462
 30
0.0
 41
1.0
 10
2818.656454528933
 20
1591.837697555023
 30
0.0
 41
0.9999999999984684
 10
2816.406441801711
 20
1591.837718242117
 30
0.0
 41
1.0
  0
SPLINE
  5
114
330
1F
100
AcDbEntity
  8
Linee visibili 2D
100
AcDbSpline
210
0.0
220
0.0
230
1.0
 70
    24
 71
     2
 72
     6
 73
     3
 74
     0
 42
0.0000000001
 43
0.0000000001
 40
0.0
 40
0.0
 40
0.0
 40
0.8026521853450959
 40
0.8026521853450959
 40
0.8026521853450959
 10
2821.806467080617
 20
1588.345453826536
 30
0.0
 10
2821.405140987945
 20
1588.345453826536
 30
0.0
 10
2821.003814895273
 20
1588.345453826536
 30
0.0
  0
SPLINE
  5
115
330
1F
100
AcDbEntity
  8
Linee visibili 2D
100
AcDbSpline
210
0.0
220
0.0
230
1.0
 70
    24
 71
     2
 72
     6
 73
     3
 74
     0
 42
0.0000000001
 43
0.0000000001
 40
0.0
 40
0.0
 40
0.0
 40
0.1000005000003057
 40
0.1000005000003057
 40
0.1000005000003057
 10
2821.806467080617
 20
1588.345453826536
 30
0.0
 10
2821.806467080617
 20
1588.295453576535
 30
0.0
 10
2821.806467080617
 20
1588.245453326535
 30
0.0
  0
SPLINE
  5
116
330
1F
100
AcDbEntity
  8
Linee visibili 2D
100
AcDbSpline
210
0.0
220
0.0
230
1.0
 70
    24
 71
     2
 72
     6
 73
     3
 74
     0
 42
0.0000000001
 43
0.0000000001
 40
0.0
 40
0.0
 40
0.0
 40
0.1983011397976497
 40
0.1983011397976497
 40
0.1983011397976497
 10
2826.206442256213
 20
1550.345466326536
 30
0.0
 10
2826.305592826111
 20
1550.345466326536
 30
0.0
 10
2826.40474339601
 20
1550.345466326536
 30
0.0
  0
SPLINE
  5
117
330
1F
100
AcDbEntity
  8
Linee visibili 2D
100
AcDbSpline
210
0.0
220
0.0
230
1.0
 70
    24
 71
     2
 72
     6
 73
     3
 74
     0
 42
0.0000000001
 43
0.0000000001
 40
0.0
 40
0.0
 40
0.0
 40
0.2000004540527698
 40
0.2000004540527698
 40
0.2000004540527698
 10
2816.40644180216
 20
1550.345466326536
 30
0.0
 10
2816.506442029186
 20
1550.345466326536
 30
0.0
 10
2816.606442256213
 20
1550.345466326536
 30
0.0
  0
SPLINE
  5
118
330
1F
100
AcDbEntity
  8
Linee visibili 2D
100
AcDbSpline
210
0.0
220
0.0
230
1.0
 70
    24
 71
     2
 72
     6
 73
     3
 74
     0
 42
0.0000000001
 43
0.0000000001
 40
0.0
 40
0.0
 40
0.0
 40
0.3019768807055243
 40
0.3019768807055243
 40
0.3019768807055243
 10
2826.406442159025
 20
1149.949539476925
 30
0.0
 10
2826.406442159025
 20
1150.100527917277
 30
0.0
 10
2826.406442159025
 20
1150.25151635763
 30
0.0
  0
SPLINE
  5
119
330
1F
100
AcDbEntity
  8
Linee visibili 2D - Tangent
100
AcDbSpline
210
0.0
220
0.0
230
1.0
 70
    24
 71
     2
 72
     6
 73
     3
 74
     0
 42
0.0000000001
 43
0.0000000001
 40
0.0
 40
0.0
 40
0.0
 40
5.399999743096259
 40
5.399999743096259
 40
5.399999743096259
 10
2821.006442415928
 20
1150.334341464028
 30
0.0
 10
2823.706442287476
 20
1150.334341464028
 30
0.0
 10
2826.406442159025
 20
1150.334341464028
 30
0.0
  0
SPLINE
  5
11A
330
1F
100
AcDbEntity
  8
Linee visibili 2D
100
AcDbSpline
210
0.0
220
0.0
230
1.0
 70
    24
 71
     2
 72
     6
 73
     3
 74
     0
 42
0.0000000001
 43
0.0000000001
 40
0.0
 40
0.0
 40
0.0
 40
15.81112486250754
 40
15.81112486250754
 40
15.81112486250754
 10
2826.406442159025
 20
1166.145466326536
 30
0.0
 10
2826.406442159025
 20
1158.239903895282
 30
0.0
 10
2826.406442159025
 20
1150.334341464028
 30
0.0
  0
SPLINE
  5
11B
330
1F
100
AcDbEntity
  8
Linee visibili 2D
100
AcDbSpline
210
0.0
220
0.0
230
1.0
 70
    24
 71
     2
 72
     6
 73
     3
 74
     0
 42
0.0000000001
 43
0.0000000001
 40
0.0
 40
0.0
 40
0.0
 40
8.577750274865139
 40
8.577750274865139
 40
8.577750274865139
 10
2821.006442415928
 20
1150.334341464028
 30
0.0
 10
2821.006442415928
 20
1146.045466326595
 30
0.0
 10
2821.006442415929
 20
1141.756591189163
 30
0.0
  0
SPLINE
  5
11C
330
1F
100
AcDbEntity
  8
Linee visibili 2D
100
AcDbSpline
210
0.0
220
0.0
230
1.0
 70
    24
 71
     2
 72
     6
 73
     3
 74
     0
 42
0.0000000001
 43
0.0000000001
 40
0.0
 40
0.0
 40
0.0
 40
0.1414213562372879
 40
0.1414213562372879
 40
0.1414213562372879
 10
2816.606442256213
 20
1166.145466326536
 30
0.0
 10
2816.535731578094
 20
1166.145466326536
 30
0.0
 10
2816.465020899976
 20
1166.145466326536
 30
0.0
  0
SPLINE
  5
11D
330
1F
100
AcDbEntity
  8
Linee visibili 2D
100
AcDbSpline
210
0.0
220
0.0
230
1.0
 70
    24
 71
     2
 72
     6
 73
     3
 74
     0
 42
0.0000000001
 43
0.0000000001
 40
0.0
 40
0.0
 40
0.0
 40
0.1414213562372879
 40
0.1414213562372879
 40
0.1414213562372879
 10
2826.34786361245
 20
1166.145466326536
 30
0.0
 10
2826.277152934331
 20
1166.145466326536
 30
0.0
 10
2826.206442256213
 20
1166.145466326536
 30
0.0
  0
SPLINE
  5
11E
330
1F
100
AcDbEntity
  8
Linee visibili 2D
100
AcDbSpline
210
0.0
220
0.0
230
1.0
 70
    24
 71
     2
 72
     6
 73
     3
 74
     0
 42
0.0000000001
 43
0.0000000001
 40
0.0
 40
0.0
 40
0.0
 40
0.5793192518185606
 40
0.5793192518185606
 40
0.5793192518185606
 10
2816.405779353554
 20
1143.084756004821
 30
0.0
 10
2816.405779353554
 20
1142.795096378912
 30
0.0
 10
2816.405779353554
 20
1142.505436753003
 30
0.0
  0
SPLINE
  5
11F
330
1F
100
AcDbEntity
  8
Linee visibili 2D
100
AcDbSpline
210
0.0
220
0.0
230
1.0
 70
    24
 71
     2
 72
     6
 73
     3
 74
     0
 42
0.0000000001
 43
0.0000000001
 40
0.0
 40
0.0
 40
0.0
 40
1.020666525449542
 40
1.020666525449542
 40
1.020666525449542
 10
2816.405779353554
 20
1144.480743433445
 30
0.0
 10
2816.405779353554
 20
1143.97041017072
 30
0.0
 10
2816.405779353554
 20
1143.460076907995
 30
0.0
  0
SPLINE
  5
120
330
1F
100
AcDbEntity
  8
Linee visibili 2D - Tangent
100
AcDbSpline
210
0.0
220
0.0
230
1.0
 70
    12
 71
     2
 72
     6
 73
     3
 74
     0
 42
0.0000000001
 43
0.0000000001
 40
0.0
 40
0.0
 40
0.0
 40
0.7844066618658703
 40
0.7844066618658703
 40
0.7844066618658703
 10
2820.906467256212
 20
1588.936746692209
 30
0.0
 41
1.0
 10
2820.907099444023
 20
1589.436114502379
 30
0.0
 41
0.7071079116024235
 10
2821.406467256212
 20
1589.435483911198
 30
0.0
 41
1.0
  0
SPLINE
  5
121
330
1F
100
AcDbEntity
  8
Linee visibili 2D - Tangent
100
AcDbSpline
210
0.0
220
0.0
230
1.0
 70
    12
 71
     2
 72
     6
 73
     3
 74
     0
 42
0.0000000001
 43
0.0000000001
 40
0.0
 40
0.0
 40
0.0
 40
0.7844066618825976
 40
0.7844066618825976
 40
0.7844066618825976
 10
2821.406467256212
 20
1589.435483911198
 30
0.0
 41
1.0
 10
2821.905835068417
 20
1589.43611450238
 30
0.0
 41
0.7071079115901887
 10
2821.906467256212
 20
1588.936746692193
 30
0.0
 41
1.0
  0
SPLINE
  5
122
330
1F
100
AcDbEntity
  8
Linee visibili 2D - Tangent
100
AcDbSpline
210
0.0
220
0.0
230
1.0
 70
    12
 71
     2
 72
     6
 73
     3
 74
     0
 42
0.0000000001
 43
0.0000000001
 40
0.0
 40
0.0
 40
0.0
 40
0.7637069841936753
 40
0.7637069841936753
 40
0.7637069841936753
 10
2820.906897758298
 20
1620.242586086992
 30
0.0
 41
1.0
 10
2820.927415681551
 20
1620.721198401138
 30
0.0
 41
0.7216814373122804
 10
2821.406467256212
 20
1620.72063161899
 30
0.0
 41
1.0
  0
SPLINE
  5
123
330
1F
100
AcDbEntity
  8
Linee visibili 2D - Tangent
100
AcDbSpline
210
0.0
220
0.0
230
1.0
 70
    12
 71
     2
 72
     6
 73
     3
 74
     0
 42
0.0000000001
 43
0.0000000001
 40
0.0
 40
0.0
 40
0.0
 40
0.7637069841938101
 40
0.7637069841938101
 40
0.7637069841938101
 10
2821.406467256212
 20
1620.72063161899
 30
0.0
 41
1.0
 10
2821.885518830873
 20
1620.721198401138
 30
0.0
 41
0.7216814373119721
 10
2821.906036754125
 20
1620.242586086992
 30
0.0
 41
1.0
  0
SPLINE
  5
124
330
1F
100
AcDbEntity
  8
Linee visibili 2D
100
AcDbSpline
210
0.0
220
0.0
230
1.0
 70
    24
 71
     2
 72
     6
 73
     3
 74
     0
 42
0.0000000001
 43
0.0000000001
 40
0.0
 40
0.0
 40
0.0
 40
13.99302435789332
 40
13.99302435789332
 40
13.99302435789332
 10
2813.859442352746
 20
1152.845516326536
 30
0.0
 10
2813.859442352746
 20
1145.84900414759
 30
0.0
 10
2813.859442352746
 20
1138.852491968643
 30
0.0
  0
SPLINE
  5
125
330
1F
100
AcDbEntity
  8
Linee visibili 2D
100
AcDbSpline
210
0.0
220
0.0
230
1.0
 70
    24
 71
     2
 72
     6
 73
     3
 74
     0
 42
0.0000000001
 43
0.0000000001
 40
0.0
 40
0.0
 40
0.0
 40
13.99302435789332
 40
13.99302435789332
 40
13.99302435789332
 10
2828.956467222463
 20
1152.845516326536
 30
0.0
 10
2828.956467222463
 20
1145.84900414759
 30
0.0
 10
2828.956467222463
 20
1138.852491968643
 30
0.0
  0
SPLINE
  5
126
330
1F
100
AcDbEntity
  8
Linee visibili 2D
100
AcDbSpline
210
0.0
220
0.0
230
1.0
 70
    24
 71
     2
 72
     6
 73
     3
 74
     0
 42
0.0000000001
 43
0.0000000001
 40
0.0
 40
0.0
 40
0.0
 40
0.1000004999998509
 40
0.1000004999998509
 40
0.1000004999998509
 10
2816.406467256212
 20
1588.345453826535
 30
0.0
 10
2816.406467256212
 20
1588.295453576535
 30
0.0
 10
2816.406467256212
 20
1588.245453326535
 30
0.0
  0
SPLINE
  5
127
330
1F
100
AcDbEntity
  8
Linee visibili 2D
100
AcDbSpline
210
0.0
220
0.0
230
1.0
 70
    24
 71
     2
 72
     6
 73
     3
 74
     0
 42
0.0000000001
 43
0.0000000001
 40
0.0
 40
0.0
 40
0.0
 40
0.764043576856011
 40
0.764043576856011
 40
0.764043576856011
 10
2816.405779353554
 20
1142.505436753003
 30
0.0
 10
2816.405779353554
 20
1142.123414964575
 30
0.0
 10
2816.405779353554
 20
1141.741393176147
 30
0.0
  0
SPLINE
  5
128
330
1F
100
AcDbEntity
  8
Linee visibili 2D
100
AcDbSpline
210
0.0
220
0.0
230
1.0
 70
    24
 71
     2
 72
     6
 73
     3
 74
     0
 42
0.0000000001
 43
0.0000000001
 40
0.0
 40
0.0
 40
0.0
 40
0.3753209031735878
 40
0.3753209031735878
 40
0.3753209031735878
 10
2816.405779353554
 20
1143.460076907995
 30
0.0
 10
2816.405779353554
 20
1143.272416456408
 30
0.0
 10
2816.405779353554
 20
1143.084756004821
 30
0.0
  0
SPLINE
  5
129
330
1F
100
AcDbEntity
  8
Linee visibili 2D
100
AcDbSpline
210
0.0
220
0.0
230
1.0
 70
    24
 71
     2
 72
     6
 73
     3
 74
     0
 42
0.0000000001
 43
0.0000000001
 40
0.0
 40
0.0
 40
0.0
 40
21.66472289309127
 40
21.66472289309127
 40
21.66472289309127
 10
2816.405779353554
 20
1166.145466326536
 30
0.0
 10
2816.405779353554
 20
1155.31310487999
 30
0.0
 10
2816.405779353554
 20
1144.480743433444
 30
0.0
  0
SPLINE
  5
12A
330
1F
100
AcDbEntity
  8
Linee visibili 2D
100
AcDbSpline
210
0.0
220
0.0
230
1.0
 70
    24
 71
     2
 72
     6
 73
     3
 74
     0
 42
0.0000000001
 43
0.0000000001
 40
0.0
 40
0.0
 40
0.0
 40
35.11435935394502
 40
35.11435935394502
 40
35.11435935394502
 10
2815.433236740522
 20
1068.345466326536
 30
0.0
 10
2815.433236740522
 20
1085.902646003508
 30
0.0
 10
2815.433236740522
 20
1103.459825680481
 30
0.0
  0
SPLINE
  5
12B
330
1F
100
AcDbEntity
  8
Linee visibili 2D
100
AcDbSpline
210
0.0
220
0.0
230
1.0
 70
    24
 71
     2
 72
     6
 73
     3
 74
     0
 42
0.0000000001
 43
0.0000000001
 40
0.0
 40
0.0
 40
0.0
 40
77.50000000000023
 40
77.50000000000023
 40
77.50000000000023
 10
2826.406441821279
 20
1145.845466326536
 30
0.0
 10
2826.406441821279
 20
1107.095466326536
 30
0.0
 10
2826.406441821279
 20
1068.345466326536
 30
0.0
  0
SPLINE
  5
12C
330
1F
100
AcDbEntity
  8
Linee visibili 2D
100
AcDbSpline
210
0.0
220
0.0
230
1.0
 70
    24
 71
     2
 72
     6
 73
     3
 74
     0
 42
0.0000000001
 43
0.0000000001
 40
0.0
 40
0.0
 40
0.0
 40
0.0909724309829016
 40
0.0909724309829016
 40
0.0909724309829016
 10
2826.406441821279
 20
1147.210189219626
 30
0.0
 10
2826.406441821279
 20
1147.164703004135
 30
0.0
 10
2826.406441821279
 20
1147.119216788644
 30
0.0
  0
SPLINE
  5
12D
330
1F
100
AcDbEntity
  8
Linee visibili 2D
100
AcDbSpline
210
0.0
220
0.0
230
1.0
 70
    24
 71
     2
 72
     6
 73
     3
 74
     0
 42
0.0000000001
 43
0.0000000001
 40
0.0
 40
0.0
 40
0.0
 40
0.1840289500455583
 40
0.1840289500455583
 40
0.1840289500455583
 10
2826.406441821279
 20
1148.60617664825
 30
0.0
 10
2826.406441821279
 20
1148.514162173227
 30
0.0
 10
2826.406441821279
 20
1148.422147698204
 30
0.0
  0
SPLINE
  5
12E
330
1F
100
AcDbEntity
  8
Linee visibili 2D
100
AcDbSpline
210
0.0
220
0.0
230
1.0
 70
    24
 71
     2
 72
     6
 73
     3
 74
     0
 42
0.0000000001
 43
0.0000000001
 40
0.0
 40
0.0
 40
0.0
 40
0.273577517079957
 40
0.273577517079957
 40
0.273577517079957
 10
2826.406441821279
 20
1149.949539476924
 30
0.0
 10
2826.406441821279
 20
1149.812750718384
 30
0.0
 10
2826.406441821279
 20
1149.675961959844
 30
0.0
  0
SPLINE
  5
12F
330
1F
100
AcDbEntity
  8
Linee visibili 2D
100
AcDbSpline
210
0.0
220
0.0
230
1.0
 70
    24
 71
     2
 72
     6
 73
     3
 74
     0
 42
0.0000000001
 43
0.0000000001
 40
0.0
 40
0.0
 40
0.0
 40
81.58887513737227
 40
81.58887513737227
 40
81.58887513737227
 10
2821.506442256213
 20
1068.345466326536
 30
0.0
 10
2821.506442256213
 20
1109.139903895222
 30
0.0
 10
2821.506442256213
 20
1149.934341463908
 30
0.0
  0
SPLINE
  5
130
330
1F
100
AcDbEntity
  8
Linee visibili 2D
100
AcDbSpline
210
0.0
220
0.0
230
1.0
 70
    24
 71
     2
 72
     6
 73
     3
 74
     0
 42
0.0000000001
 43
0.0000000001
 40
0.0
 40
0.0
 40
0.0
 40
9.600000000000136
 40
9.600000000000136
 40
9.600000000000136
 10
2816.606442256213
 20
1550.345466326536
 30
0.0
 10
2821.406442256212
 20
1550.345466326536
 30
0.0
 10
2826.206442256213
 20
1550.345466326536
 30
0.0
  0
SPLINE
  5
131
330
1F
100
AcDbEntity
  8
Linee visibili 2D
100
AcDbSpline
210
0.0
220
0.0
230
1.0
 70
    24
 71
     2
 72
     6
 73
     3
 74
     0
 42
0.0000000001
 43
0.0000000001
 40
0.0
 40
0.0
 40
0.0
 40
4.600000000000136
 40
4.600000000000136
 40
4.600000000000136
 10
2819.106442256213
 20
1166.145466326536
 30
0.0
 10
2821.406442256212
 20
1166.145466326536
 30
0.0
 10
2823.706442256213
 20
1166.145466326536
 30
0.0
  0
SPLINE
  5
132
330
1F
100
AcDbEntity
  8
Linee visibili 2D
100
AcDbSpline
210
0.0
220
0.0
230
1.0
 70
    24
 71
     2
 72
     6
 73
     3
 74
     0
 42
0.0000000001
 43
0.0000000001
 40
0.0
 40
0.0
 40
0.0
 40
0.7960701826784771
 40
0.7960701826784771
 40
0.7960701826784771
 10
2821.960397073533
 20
1589.037255018962
 30
0.0
 10
2822.358432164872
 20
1589.037255018962
 30
0.0
 10
2822.756467256212
 20
1589.037255018962
 30
0.0
  0
SPLINE
  5
133
330
1F
100
AcDbEntity
  8
Linee visibili 2D
100
AcDbSpline
210
0.0
220
0.0
230
1.0
 70
    24
 71
     2
 72
     6
 73
     3
 74
     0
 42
0.0000000001
 43
0.0000000001
 40
0.0
 40
0.0
 40
0.0
 40
0.7960701826784771
 40
0.7960701826784771
 40
0.7960701826784771
 10
2820.056467256212
 20
1589.037255018962
 30
0.0
 10
2820.454502347551
 20
1589.037255018962
 30
0.0
 10
2820.85253743889
 20
1589.037255018962
 30
0.0
  0
SPLINE
  5
134
330
1F
100
AcDbEntity
  8
Linee visibili 2D
100
AcDbSpline
210
0.0
220
0.0
230
1.0
 70
    12
 71
     3
 72
    14
 73
    10
 74
     0
 42
0.0000000001
 43
0.0000000001
 40
13.93384627978535
 40
13.93384627978535
 40
13.93384627978535
 40
13.93384627978535
 40
14.73384627978535
 40
14.73384627978535
 40
14.73384627978535
 40
15.36216481050331
 40
15.36216481050331
 40
15.36216481050331
 40
16.96216481050336
 40
16.96216481050336
 40
16.96216481050336
 40
16.96216481050336
 10
2823.706442256213
 20
1164.145466326536
 30
0.0
 41
1.0
 10
2823.973108922879
 20
1164.145466326536
 30
0.0
 41
1.0
 10
2824.239775589546
 20
1164.145466326536
 30
0.0
 41
1.0
 10
2824.506442256213
 20
1164.145466326536
 30
0.0
 41
1.0
 10
2824.740756831263
 20
1164.145466326536
 30
0.0
 41
0.8047378541243649
 10
2824.906442256213
 20
1164.311151751485
 30
0.0
 41
0.8047378541243649
 10
2824.906442256213
 20
1164.545466326535
 30
0.0
 41
1.0
 10
2824.906442256213
 20
1165.078799659869
 30
0.0
 41
1.0
 10
2824.906442256213
 20
1165.612132993203
 30
0.0
 41
1.0
 10
2824.906442256213
 20
1166.145466326536
 30
0.0
 41
1.0
  0
SPLINE
  5
135
330
1F
100
AcDbEntity
  8
Linee visibili 2D
100
AcDbSpline
210
0.0
220
0.0
230
1.0
 70
    12
 71
     3
 72
    14
 73
    10
 74
     0
 42
0.0000000001
 43
0.0000000001
 40
-1.600000000000049
 40
-1.600000000000049
 40
-1.600000000000049
 40
-1.600000000000049
 40
0.0
 40
0.0
 40
0.0
 40
0.6283185307179586
 40
0.6283185307179586
 40
0.6283185307179586
 40
1.428318530717959
 40
1.428318530717959
 40
1.428318530717959
 40
1.428318530717959
 10
2817.906442256213
 20
1166.145466326536
 30
0.0
 41
1.0
 10
2817.906442256213
 20
1165.612132993203
 30
0.0
 41
1.0
 10
2817.906442256213
 20
1165.078799659869
 30
0.0
 41
1.0
 10
2817.906442256213
 20
1164.545466326535
 30
0.0
 41
1.0
 10
2817.906442256212
 20
1164.311151751485
 30
0.0
 41
0.8047378541243649
 10
2818.072127681162
 20
1164.145466326536
 30
0.0
 41
0.8047378541243649
 10
2818.306442256213
 20
1164.145466326536
 30
0.0
 41
1.0
 10
2818.573108922879
 20
1164.145466326536
 30
0.0
 41
1.0
 10
2818.839775589546
 20
1164.145466326536
 30
0.0
 41
1.0
 10
2819.106442256213
 20
1164.145466326536
 30
0.0
 41
1.0
  0
SPLINE
  5
136
330
1F
100
AcDbEntity
  8
Linee visibili 2D
100
AcDbSpline
210
0.0
220
0.0
230
1.0
 70
    24
 71
     2
 72
     6
 73
     3
 74
     0
 42
0.0000000001
 43
0.0000000001
 40
0.0
 40
0.0
 40
0.0
 40
2.5
 40
2.5
 40
2.5
 10
2823.706442256213
 20
1166.145466326536
 30
0.0
 10
2824.956442256213
 20
1166.145466326536
 30
0.0
 10
2826.206442256213
 20
1166.145466326536
 30
0.0
  0
SPLINE
  5
137
330
1F
100
AcDbEntity
  8
Linee visibili 2D
100
AcDbSpline
210
0.0
220
0.0
230
1.0
 70
    24
 71
     2
 72
     6
 73
     3
 74
     0
 42
0.0000000001
 43
0.0000000001
 40
0.0
 40
0.0
 40
0.0
 40
2.5
 40
2.5
 40
2.5
 10
2816.606442256213
 20
1166.145466326536
 30
0.0
 10
2817.856442256213
 20
1166.145466326536
 30
0.0
 10
2819.106442256213
 20
1166.145466326536
 30
0.0
  0
ENDSEC
  0
SECTION
  2
OBJECTS
  0
DICTIONARY
  5
C
330
0
100
AcDbDictionary
281
     1
  3
ACAD_GROUP
350
D
  3
ACAD_LAYOUT
350
1A
  3
ACAD_MLEADERSTYLE
350
139
  3
ACAD_MLINESTYLE
350
17
  3
ACAD_PLOTSETTINGS
350
19
  3
ACAD_PLOTSTYLENAME
350
E
  3
ACAD_TABLESTYLE
350
138
  3
ACAD_VISUALSTYLE
350
2A
  0
DICTIONARY
  5
D
102
{ACAD_REACTORS
330
C
102
}
330
C
100
AcDbDictionary
281
     1
  0
DICTIONARY
  5
1A
102
{ACAD_REACTORS
330
C
102
}
330
C
100
AcDbDictionary
281
     1
  3
Layout1
350
1E
  3
Layout2
350
26
  3
Model
350
22
  0
DICTIONARY
  5
139
102
{ACAD_REACTORS
330
C
102
}
330
C
100
AcDbDictionary
281
     1
  0
DICTIONARY
  5
17
102
{ACAD_REACTORS
330
C
102
}
330
C
100
AcDbDictionary
281
     1
  3
Standard
350
18
  0
DICTIONARY
  5
19
102
{ACAD_REACTORS
330
C
102
}
330
C
100
AcDbDictionary
281
     1
  0
ACDBDICTIONARYWDFLT
  5
E
102
{ACAD_REACTORS
330
C
102
}
330
C
100
AcDbDictionary
281
     1
  3
Normal
350
F
100
AcDbDictionaryWithDefault
340
F
  0
DICTIONARY
  5
138
102
{ACAD_REACTORS
330
C
102
}
330
C
100
AcDbDictionary
281
     1
  0
DICTIONARY
  5
2A
102
{ACAD_REACTORS
330
C
102
}
330
C
100
AcDbDictionary
281
     1
  3
2dWireframe
350
2F
  3
3D Hidden
350
31
  3
3dWireframe
350
30
  3
Basic
350
32
  3
Brighten
350
36
  3
ColorChange
350
3A
  3
Conceptual
350
34
  3
Dim
350
35
  3
Facepattern
350
39
  3
Flat
350
2B
  3
FlatWithEdges
350
2C
  3
Gouraud
350
2D
  3
GouraudWithEdges
350
2E
  3
Linepattern
350
38
  3
Realistic
350
33
  3
Thicken
350
37
  0
LAYOUT
  5
1E
102
{ACAD_REACTORS
330
1A
102
}
330
1A
100
AcDbPlotSettings
  1

  2
none_device
  4

  6

 40
0.0
 41
0.0
 42
0.0
 43
0.0
 44
0.0
 45
0.0
 46
0.0
 47
0.0
 48
0.0
 49
0.0
140
0.0
141
0.0
142
1.0
143
1.0
 70
   688
 72
     0
 73
     0
 74
     5
  7

 75
    16
 76
     0
 77
     2
 78
   300
147
1.0
148
0.0
149
0.0
100
AcDbLayout
  1
Layout1
 70
     1
 71
     1
 10
0.0
 20
0.0
 11
12.0
 21
9.0
 12
0.0
 22
0.0
 32
0.0
 14
1.000000000000000E+20
 24
1.000000000000000E+20
 34
1.000000000000000E+20
 15
-1.000000000000000E+20
 25
-1.000000000000000E+20
 35
-1.000000000000000E+20
146
0.0
 13
0.0
 23
0.0
 33
0.0
 16
1.0
 26
0.0
 36
0.0
 17
0.0
 27
1.0
 37
0.0
 76
     0
330
1B
  0
LAYOUT
  5
26
102
{ACAD_REACTORS
330
1A
102
}
330
1A
100
AcDbPlotSettings
  1

  2
none_device
  4

  6

 40
0.0
 41
0.0
 42
0.0
 43
0.0
 44
0.0
 45
0.0
 46
0.0
 47
0.0
 48
0.0
 49
0.0
140
0.0
141
0.0
142
1.0
143
1.0
 70
   688
 72
     0
 73
     0
 74
     5
  7

 75
    16
 76
     0
 77
     2
 78
   300
147
1.0
148
0.0
149
0.0
100
AcDbLayout
  1
Layout2
 70
     1
 71
     2
 10
0.0
 20
0.0
 11
0.0
 21
0.0
 12
0.0
 22
0.0
 32
0.0
 14
0.0
 24
0.0
 34
0.0
 15
0.0
 25
0.0
 35
0.0
146
0.0
 13
0.0
 23
0.0
 33
0.0
 16
1.0
 26
0.0
 36
0.0
 17
0.0
 27
1.0
 37
0.0
 76
     0
330
23
  0
LAYOUT
  5
22
102
{ACAD_REACTORS
330
1A
102
}
330
1A
100
AcDbPlotSettings
  1

  2
none_device
  4

  6

 40
0.0
 41
0.0
 42
0.0
 43
0.0
 44
0.0
 45
0.0
 46
0.0
 47
0.0
 48
0.0
 49
0.0
140
0.0
141
0.0
142
1.0
143
1.0
 70
  1712
 72
     0
 73
     0
 74
     0
  7

 75
     0
 76
     0
 77
     2
 78
   300
147
1.0
148
0.0
149
0.0
100
AcDbLayout
  1
Model
 70
     1
 71
     0
 10
0.0
 20
0.0
 11
12.0
 21
9.0
 12
0.0
 22
0.0
 32
0.0
 14
2720.941950115815
 24
272.7090976108642
 34
0.0
 15
3720.228357323476
 25
1620.742604008576
 35
0.0
146
0.0
 13
0.0
 23
0.0
 33
0.0
 16
1.0
 26
0.0
 36
0.0
 17
0.0
 27
1.0
 37
0.0
 76
     0
330
1F
331
29
  0
MLINESTYLE
  5
18
102
{ACAD_REACTORS
330
17
102
}
330
17
100
AcDbMlineStyle
  2
Standard
 70
     0
  3

 62
   256
 51
90.0
 52
90.0
 71
     2
 49
0.5
 62
   256
  6
BYLAYER
 49
-0.5
 62
   256
  6
BYLAYER
  0
ACDBPLACEHOLDER
  5
F
102
{ACAD_REACTORS
330
E
102
}
330
E
  0
VISUALSTYLE
  5
2F
102
{ACAD_REACTORS
330
2A
102
}
330
2A
100
AcDbVisualStyle
  2
2dWireframe
 70
     4
 71
     0
 72
     2
 73
     0
 90
        0
 40
-0.6
 41
-30.0
 62
     5
 63
     7
421
 16777215
 74
     1
 91
        4
 64
     7
 65
   257
 75
     1
175
     1
 42
1.0
 92
        0
 66
   257
 43
1.0
 76
     1
 77
     6
 78
     2
 67
     7
 79
     5
170
     0
171
     0
290
     0
174
     0
 93
        1
 44
0.0
173
     0
291
     0
 45
0.0
1001
ACAD
1000
AcDbSavedByObjectVersion
1070
     0
  0
VISUALSTYLE
  5
31
102
{ACAD_REACTORS
330
2A
102
}
330
2A
100
AcDbVisualStyle
  2
3D Hidden
 70
     6
 71
     1
 72
     2
 73
     2
 90
        0
 40
-0.6
 41
-30.0
 62
     5
 63
     7
421
 16777215
 74
     2
 91
        2
 64
     7
 65
   257
 75
     2
175
     1
 42
40.0
 92
        0
 66
   257
 43
1.0
 76
     1
 77
     6
 78
     2
 67
     7
 79
     3
170
     0
171
     0
290
     0
174
     0
 93
        1
 44
0.0
173
     0
291
     0
 45
0.0
1001
ACAD
1000
AcDbSavedByObjectVersion
1070
     0
  0
VISUALSTYLE
  5
30
102
{ACAD_REACTORS
330
2A
102
}
330
2A
100
AcDbVisualStyle
  2
3dWireframe
 70
     5
 71
     0
 72
     2
 73
     0
 90
        0
 40
-0.6
 41
-30.0
 62
     5
 63
     7
421
 16777215
 74
     1
 91
        4
 64
     7
 65
   257
 75
     1
175
     1
 42
1.0
 92
        0
 66
   257
 43
1.0
 76
     1
 77
     6
 78
     2
 67
     7
 79
     5
170
     0
171
     0
290
     0
174
     0
 93
        1
 44
0.0
173
     0
291
     0
 45
0.0
1001
ACAD
1000
AcDbSavedByObjectVersion
1070
     0
  0
VISUALSTYLE
  5
32
102
{ACAD_REACTORS
330
2A
102
}
330
2A
100
AcDbVisualStyle
  2
Basic
 70
     7
 71
     1
 72
     0
 73
     1
 90
        0
 40
-0.6
 41
-30.0
 62
     5
 63
     7
421
 16777215
 74
     0
 91
        4
 64
     7
 65
   257
 75
     1
175
     1
 42
1.0
 92
        8
 66
     7
 43
1.0
 76
     1
 77
     6
 78
     2
 67
     7
 79
     5
170
     0
171
     0
290
     0
174
     0
 93
        1
 44
0.0
173
     0
291
     1
 45
0.0
1001
ACAD
1000
AcDbSavedByObjectVersion
1070
     0
  0
VISUALSTYLE
  5
36
102
{ACAD_REACTORS
330
2A
102
}
330
2A
100
AcDbVisualStyle
  2
Brighten
 70
    12
 71
     2
 72
     2
 73
     0
 90
        0
 40
-0.6
 41
-30.0
 62
     5
 63
     7
421
 16777215
 74
     1
 91
        4
 64
     7
 65
   257
 75
     1
175
     1
 42
1.0
 92
        8
 66
     7
 43
1.0
 76
     1
 77
     6
 78
     2
 67
     7
 79
     5
170
     0
171
     0
290
     0
174
     0
 93
        1
 44
50.0
173
     0
291
     1
 45
0.0
1001
ACAD
1000
AcDbSavedByObjectVersion
1070
     0
  0
VISUALSTYLE
  5
3A
102
{ACAD_REACTORS
330
2A
102
}
330
2A
100
AcDbVisualStyle
  2
ColorChange
 70
    16
 71
     2
 72
     2
 73
     3
 90
        0
 40
-0.6
 41
-30.0
 62
     5
 63
     8
421
  8421504
 74
     1
 91
        4
 64
     7
 65
   257
 75
     1
175
     1
 42
1.0
 92
        8
 66
     8
424
  8421504
 43
1.0
 76
     1
 77
     6
 78
     2
 67
     7
 79
     5
170
     0
171
     0
290
     0
174
     0
 93
        1
 44
0.0
173
     0
291
     1
 45
0.0
1001
ACAD
1000
AcDbSavedByObjectVersion
1070
     0
  0
VISUALSTYLE
  5
34
102
{ACAD_REACTORS
330
2A
102
}
330
2A
100
AcDbVisualStyle
  2
Conceptual
 70
     9
 71
     3
 72
     2
 73
     0
 90
        0
 40
-0.6
 41
-30.0
 62
     5
 63
     7
421
 16777215
 74
     2
 91
        2
 64
     7
 65
   257
 75
     1
175
     1
 42
40.0
 92
        8
 66
     7
 43
1.0
 76
     1
 77
     6
 78
     2
 67
     7
 79
     3
170
     0
171
     0
290
     0
174
     0
 93
        1
 44
0.0
173
     0
291
     0
 45
0.0
1001
ACAD
1000
AcDbSavedByObjectVersion
1070
     0
  0
VISUALSTYLE
  5
35
102
{ACAD_REACTORS
330
2A
102
}
330
2A
100
AcDbVisualStyle
  2
Dim
 70
    11
 71
     2
 72
     2
 73
     0
 90
        0
 40
-0.6
 41
-30.0
 62
     5
 63
     7
421
 16777215
 74
     1
 91
        4
 64
     7
 65
   257
 75
     1
175
     1
 42
1.0
 92
        8
 66
     7
 43
1.0
 76
     1
 77
     6
 78
     2
 67
     7
 79
     5
170
     0
171
     0
290
     0
174
     0
 93
        1
 44
-50.0
173
     0
291
     1
 45
0.0
1001
ACAD
1000
AcDbSavedByObjectVersion
1070
     0
  0
VISUALSTYLE
  5
39
102
{ACAD_REACTORS
330
2A
102
}
330
2A
100
AcDbVisualStyle
  2
Facepattern
 70
    15
 71
     2
 72
     2
 73
     0
 90
        0
 40
-0.6
 41
-30.0
 62
     5
 63
     7
421
 16777215
 74
     1
 91
        4
 64
     7
 65
   257
 75
     1
175
     1
 42
1.0
 92
        8
 66
     7
 43
1.0
 76
     1
 77
     6
 78
     2
 67
     7
 79
     5
170
     0
171
     0
290
     0
174
     0
 93
        1
 44
0.0
173
     0
291
     1
 45
0.0
1001
ACAD
1000
AcDbSavedByObjectVersion
1070
     0
  0
VISUALSTYLE
  5
2B
102
{ACAD_REACTORS
330
2A
102
}
330
2A
100
AcDbVisualStyle
  2
Flat
 70
     0
 71
     2
 72
     1
 73
     1
 90
        2
 40
-0.6
 41
30.0
 62
     5
 63
     7
421
 16777215
 74
     0
 91
        4
 64
     7
 65
   257
 75
     1
175
     1
 42
1.0
 92
        8
 66
     7
 43
1.0
 76
     1
 77
     6
 78
     2
 67
     7
 79
     5
170
     0
171
     0
290
     0
174
     0
 93
       13
 44
0.0
173
     0
291
     1
 45
0.0
1001
ACAD
1000
AcDbSavedByObjectVersion
1070
     0
  0
VISUALSTYLE
  5
2C
102
{ACAD_REACTORS
330
2A
102
}
330
2A
100
AcDbVisualStyle
  2
FlatWithEdges
 70
     1
 71
     2
 72
     1
 73
     1
 90
        2
 40
-0.6
 41
30.0
 62
     5
 63
     7
421
 16777215
 74
     1
 91
        4
 64
     7
 65
   257
 75
     1
175
     1
 42
1.0
 92
        0
 66
   257
 43
1.0
 76
     1
 77
     6
 78
     2
 67
     7
 79
     5
170
     0
171
     0
290
     0
174
     0
 93
       13
 44
0.0
173
     0
291
     1
 45
0.0
1001
ACAD
1000
AcDbSavedByObjectVersion
1070
     0
  0
VISUALSTYLE
  5
2D
102
{ACAD_REACTORS
330
2A
102
}
330
2A
100
AcDbVisualStyle
  2
Gouraud
 70
     2
 71
     2
 72
     2
 73
     1
 90
        2
 40
-0.6
 41
30.0
 62
     5
 63
     7
421
 16777215
 74
     0
 91
        4
 64
     7
 65
   257
 75
     1
175
     1
 42
1.0
 92
        0
 66
     7
 43
1.0
 76
     1
 77
     6
 78
     2
 67
     7
 79
     5
170
     0
171
     0
290
     0
174
     0
 93
       13
 44
0.0
173
     0
291
     1
 45
0.0
1001
ACAD
1000
AcDbSavedByObjectVersion
1070
     0
  0
VISUALSTYLE
  5
2E
102
{ACAD_REACTORS
330
2A
102
}
330
2A
100
AcDbVisualStyle
  2
GouraudWithEdges
 70
     3
 71
     2
 72
     2
 73
     1
 90
        2
 40
-0.6
 41
30.0
 62
     5
 63
     7
421
 16777215
 74
     1
 91
        4
 64
     7
 65
   257
 75
     1
175
     1
 42
1.0
 92
        0
 66
   257
 43
1.0
 76
     1
 77
     6
 78
     2
 67
     7
 79
     5
170
     0
171
     0
290
     0
174
     0
 93
       13
 44
0.0
173
     0
291
     1
 45
0.0
1001
ACAD
1000
AcDbSavedByObjectVersion
1070
     0
  0
VISUALSTYLE
  5
38
102
{ACAD_REACTORS
330
2A
102
}
330
2A
100
AcDbVisualStyle
  2
Linepattern
 70
    14
 71
     2
 72
     2
 73
     0
 90
        0
 40
-0.6
 41
-30.0
 62
     5
 63
     7
421
 16777215
 74
     1
 91
        4
 64
     7
 65
   257
 75
     7
175
     7
 42
1.0
 92
        8
 66
     7
 43
1.0
 76
     1
 77
     6
 78
     2
 67
     7
 79
     5
170
     0
171
     0
290
     0
174
     0
 93
        1
 44
0.0
173
     0
291
     1
 45
0.0
1001
ACAD
1000
AcDbSavedByObjectVersion
1070
     0
  0
VISUALSTYLE
  5
33
102
{ACAD_REACTORS
330
2A
102
}
330
2A
100
AcDbVisualStyle
  2
Realistic
 70
     8
 71
     2
 72
     2
 73
     0
 90
        0
 40
-0.6
 41
-30.0
 62
     5
 63
     7
421
 16777215
 74
     1
 91
        0
 64
     7
 65
   257
 75
     1
175
     1
 42
1.0
 92
        8
 66
     8
424
  7895160
 43
1.0
 76
     1
 77
     6
 78
     2
 67
     7
 79
     5
170
     0
171
     0
290
     0
174
     0
 93
       13
 44
0.0
173
     0
291
     0
 45
0.0
1001
ACAD
1000
AcDbSavedByObjectVersion
1070
     0
  0
VISUALSTYLE
  5
37
102
{ACAD_REACTORS
330
2A
102
}
330
2A
100
AcDbVisualStyle
  2
Thicken
 70
    13
 71
     2
 72
     2
 73
     0
 90
        0
 40
-0.6
 41
-30.0
 62
     5
 63
     7
421
 16777215
 74
     1
 91
        4
 64
     7
 65
   257
 75
     1
175
     1
 42
1.0
 92
       12
 66
     7
 43
1.0
 76
     1
 77
     6
 78
     2
 67
     7
 79
     5
170
     0
171
     0
290
     0
174
     0
 93
        1
 44
0.0
173
     0
291
     1
 45
0.0
1001
ACAD
1000
AcDbSavedByObjectVersion
1070
     0
  0
ENDSEC
  0
EOF
