  0
SECTION
  2
HEADER
  9
$ACADVER
  1
AC1015
  9
$ACADMAINTVER
 70
    20
  9
$DWGCODEPAGE
  3
ANSI_1252
  9
$INSBASE
 10
0.0
 20
0.0
 30
0.0
  9
$EXTMIN
 10
-673.1269916879575
 20
-723.3412621489423
 30
0.0
  9
$EXTMAX
 10
1292.276138468296
 20
655.8380196837971
 30
0.0
  9
$LIMMIN
 10
0.0
 20
0.0
  9
$LIMMAX
 10
0.0
 20
0.0
  9
$ORTHOMODE
 70
     0
  9
$REGENMODE
 70
     1
  9
$FILLMODE
 70
     1
  9
$QTEXTMODE
 70
     0
  9
$MIRRTEXT
 70
     1
  9
$LTSCALE
 40
1.0
  9
$ATTMODE
 70
     1
  9
$TEXTSIZE
 40
0.0
  9
$TRACEWID
 40
0.05
  9
$TEXTSTYLE
  7
STANDARD
  9
$CLAYER
  8
0
  9
$CELTYPE
  6
CONTINUOUS
  9
$CECOLOR
 62
   256
  9
$CELTSCALE
 40
1.0
  9
$DISPSILH
 70
     0
  9
$DIMSCALE
 40
1.0
  9
$DIMASZ
 40
6.0
  9
$DIMEXO
 40
1.0
  9
$DIMDLI
 40
0.38
  9
$DIMRND
 40
0.0
  9
$DIMDLE
 40
1.0
  9
$DIMEXE
 40
0.18
  9
$DIMTP
 40
0.0
  9
$DIMTM
 40
0.0
  9
$DIMTXT
 40
3.5
  9
$DIMCEN
 40
0.09
  9
$DIMTSZ
 40
0.0
  9
$DIMTOL
 70
     0
  9
$DIMLIM
 70
     0
  9
$DIMTIH
 70
     1
  9
$DIMTOH
 70
     1
  9
$DIMSE1
 70
     0
  9
$DIMSE2
 70
     0
  9
$DIMTAD
 70
     1
  9
$DIMZIN
 70
     0
  9
$DIMBLK
  1

  9
$DIMASO
 70
     1
  9
$DIMSHO
 70
     1
  9
$DIMPOST
  1

  9
$DIMAPOST
  1

  9
$DIMALT
 70
     0
  9
$DIMALTD
 70
     2
  9
$DIMALTF
 40
0.0394
  9
$DIMLFAC
 40
20.0
  9
$DIMTOFL
 70
     0
  9
$DIMTVP
 40
0.0
  9
$DIMTIX
 70
     0
  9
$DIMSOXD
 70
     0
  9
$DIMSAH
 70
     0
  9
$DIMBLK1
  1

  9
$DIMBLK2
  1

  9
$DIMSTYLE
  2
STANDARD
  9
$DIMCLRD
 70
     0
  9
$DIMCLRE
 70
     0
  9
$DIMCLRT
 70
     0
  9
$DIMTFAC
 40
1.0
  9
$DIMGAP
 40
1.0
  9
$DIMJUST
 70
     0
  9
$DIMSD1
 70
     0
  9
$DIMSD2
 70
     0
  9
$DIMTOLJ
 70
     1
  9
$DIMTZIN
 70
     0
  9
$DIMALTZ
 70
     0
  9
$DIMALTTZ
 70
     0
  9
$DIMUPT
 70
     0
  9
$DIMDEC
 70
     4
  9
$DIMTDEC
 70
     4
  9
$DIMALTU
 70
     2
  9
$DIMALTTD
 70
     2
  9
$DIMTXSTY
  7
STANDARD
  9
$DIMAUNIT
 70
     0
  9
$DIMADEC
 70
     0
  9
$DIMALTRND
 40
0.0
  9
$DIMAZIN
 70
     0
  9
$DIMDSEP
 70
    46
  9
$DIMATFIT
 70
     3
  9
$DIMFRAC
 70
     0
  9
$DIMLDRBLK
  1

  9
$DIMLUNIT
 70
     2
  9
$DIMLWD
 70
    -2
  9
$DIMLWE
 70
    -2
  9
$DIMTMOVE
 70
     0
  9
$LUNITS
 70
     2
  9
$LUPREC
 70
     2
  9
$SKETCHINC
 40
0.1
  9
$FILLETRAD
 40
0.0
  9
$AUNITS
 70
     0
  9
$AUPREC
 70
     2
  9
$MENU
  1
acad
  9
$ELEVATION
 40
0.0
  9
$PELEVATION
 40
0.0
  9
$THICKNESS
 40
0.0
  9
$LIMCHECK
 70
     0
  9
$CHAMFERA
 40
0.0
  9
$CHAMFERB
 40
0.0
  9
$CHAMFERC
 40
0.0
  9
$CHAMFERD
 40
0.0
  9
$SKPOLY
 70
     0
  9
$TDCREATE
 40
2444972.041666667
  9
$TDUCREATE
 40
2444972.000000000
  9
$TDUPDATE
 40
2453768.828143264
  9
$TDUUPDATE
 40
2453768.786476597
  9
$TDINDWG
 40
0.0023312616
  9
$TDUSRTIMER
 40
0.0023312616
  9
$USRTIMER
 70
     1
  9
$ANGBASE
 50
0.0
  9
$ANGDIR
 70
     0
  9
$PDMODE
 70
     0
  9
$PDSIZE
 40
-1.0
  9
$PLINEWID
 40
0.0
  9
$SPLFRAME
 70
     0
  9
$SPLINETYPE
 70
     6
  9
$SPLINESEGS
 70
     8
  9
$HANDSEED
  5
94A
  9
$SURFTAB1
 70
     6
  9
$SURFTAB2
 70
     6
  9
$SURFTYPE
 70
     6
  9
$SURFU
 70
     6
  9
$SURFV
 70
     6
  9
$UCSBASE
  2

  9
$UCSNAME
  2

  9
$UCSORG
 10
0.0
 20
0.0
 30
0.0
  9
$UCSXDIR
 10
1.0
 20
0.0
 30
0.0
  9
$UCSYDIR
 10
0.0
 20
1.0
 30
0.0
  9
$UCSORTHOREF
  2

  9
$UCSORTHOVIEW
 70
     1
  9
$UCSORGTOP
 10
0.0
 20
0.0
 30
0.0
  9
$UCSORGBOTTOM
 10
0.0
 20
0.0
 30
0.0
  9
$UCSORGLEFT
 10
0.0
 20
0.0
 30
0.0
  9
$UCSORGRIGHT
 10
0.0
 20
0.0
 30
0.0
  9
$UCSORGFRONT
 10
0.0
 20
0.0
 30
0.0
  9
$UCSORGBACK
 10
0.0
 20
0.0
 30
0.0
  9
$PUCSBASE
  2

  9
$PUCSNAME
  2

  9
$PUCSORG
 10
0.0
 20
0.0
 30
0.0
  9
$PUCSXDIR
 10
1.0
 20
0.0
 30
0.0
  9
$PUCSYDIR
 10
0.0
 20
1.0
 30
0.0
  9
$PUCSORTHOREF
  2

  9
$PUCSORTHOVIEW
 70
     0
  9
$PUCSORGTOP
 10
0.0
 20
0.0
 30
0.0
  9
$PUCSORGBOTTOM
 10
0.0
 20
0.0
 30
0.0
  9
$PUCSORGLEFT
 10
0.0
 20
0.0
 30
0.0
  9
$PUCSORGRIGHT
 10
0.0
 20
0.0
 30
0.0
  9
$PUCSORGFRONT
 10
0.0
 20
0.0
 30
0.0
  9
$PUCSORGBACK
 10
0.0
 20
0.0
 30
0.0
  9
$USERI1
 70
     0
  9
$USERI2
 70
     0
  9
$USERI3
 70
     0
  9
$USERI4
 70
     0
  9
$USERI5
 70
     0
  9
$USERR1
 40
0.0
  9
$USERR2
 40
0.0
  9
$USERR3
 40
0.0
  9
$USERR4
 40
0.0
  9
$USERR5
 40
0.0
  9
$WORLDVIEW
 70
     1
  9
$SHADEDGE
 70
     3
  9
$SHADEDIF
 70
    70
  9
$TILEMODE
 70
     1
  9
$MAXACTVP
 70
    16
  9
$PINSBASE
 10
0.0
 20
0.0
 30
0.0
  9
$PLIMCHECK
 70
     0
  9
$PEXTMIN
 10
1.000000000000000E+20
 20
1.000000000000000E+20
 30
1.000000000000000E+20
  9
$PEXTMAX
 10
-1.000000000000000E+20
 20
-1.000000000000000E+20
 30
-1.000000000000000E+20
  9
$PLIMMIN
 10
0.0
 20
0.0
  9
$PLIMMAX
 10
12.0
 20
9.0
  9
$UNITMODE
 70
     0
  9
$VISRETAIN
 70
     0
  9
$PLINEGEN
 70
     1
  9
$PSLTSCALE
 70
     1
  9
$TREEDEPTH
 70
  3020
  9
$CMLSTYLE
  2
STANDARD
  9
$CMLJUST
 70
     0
  9
$CMLSCALE
 40
1.0
  9
$PROXYGRAPHICS
 70
     0
  9
$MEASUREMENT
 70
     0
  9
$CELWEIGHT
370
    -1
  9
$ENDCAPS
280
     0
  9
$JOINSTYLE
280
     0
  9
$LWDISPLAY
290
     0
  9
$INSUNITS
 70
     0
  9
$HYPERLINKBASE
  1

  9
$STYLESHEET
  1

  9
$XEDIT
290
     1
  9
$CEPSNTYPE
380
     0
  9
$PSTYLEMODE
290
     1
  9
$FINGERPRINTGUID
  2
{66F07562-2176-40E4-946A-4D36983754A9}
  9
$VERSIONGUID
  2
{E7AD09C3-8B20-45D6-AC5B-DE6C4BD8BBA6}
  9
$EXTNAMES
290
     1
  9
$PSVPSCALE
 40
0.0
  9
$OLESTARTUP
290
     0
  0
ENDSEC
  0
SECTION
  2
CLASSES
  0
CLASS
  1
IMAGE
  2
AcDbRasterImage
  3
ISM
 90
    32895
280
     0
281
     1
  0
CLASS
  1
DICTIONARYVAR
  2
AcDbDictionaryVar
  3
ObjectDBX Classes
 90
        0
280
     0
281
     0
  0
CLASS
  1
RASTERVARIABLES
  2
AcDbRasterVariables
  3
ISM
 90
    32768
280
     0
281
     0
  0
CLASS
  1
IMAGEDEF
  2
AcDbRasterImageDef
  3
ISM
 90
    32768
280
     0
281
     0
  0
CLASS
  1
IMAGEDEF_REACTOR
  2
AcDbRasterImageDefReactor
  3
ISM
 90
    32769
280
     0
281
     0
  0
CLASS
  1
IDBUFFER
  2
AcDbIdBuffer
  3
ObjectDBX Classes
 90
    32768
280
     0
281
     0
  0
CLASS
  1
SPATIAL_FILTER
  2
AcDbSpatialFilter
  3
ObjectDBX Classes
 90
    32768
280
     0
281
     0
  0
CLASS
  1
SORTENTSTABLE
  2
AcDbSortentsTable
  3
ObjectDBX Classes
 90
    32768
280
     0
281
     0
  0
CLASS
  1
LAYER_INDEX
  2
AcDbLayerIndex
  3
ObjectDBX Classes
 90
    32768
280
     0
281
     0
  0
CLASS
  1
SPATIAL_INDEX
  2
AcDbSpatialIndex
  3
ObjectDBX Classes
 90
    32768
280
     0
281
     0
  0
CLASS
  1
OBJECT_PTR
  2
CAseDLPNTableRecord
  3
ASE-LPNTableRecord
 90
    32769
280
     0
281
     0
  0
CLASS
  1
LAYOUT
  2
AcDbLayout
  3
ObjectDBX Classes
 90
        0
280
     0
281
     0
  0
CLASS
  1
PLOTSETTINGS
  2
AcDbPlotSettings
  3
ObjectDBX Classes
 90
    32768
280
     0
281
     0
  0
CLASS
  1
ACDBDICTIONARYWDFLT
  2
AcDbDictionaryWithDefault
  3
ObjectDBX Classes
 90
        0
280
     0
281
     0
  0
CLASS
  1
ACDBPLACEHOLDER
  2
AcDbPlaceHolder
  3
ObjectDBX Classes
 90
        0
280
     0
281
     0
  0
CLASS
  1
VBA_PROJECT
  2
AcDbVbaProject
  3
acad
 90
    32768
280
     0
281
     0
  0
CLASS
  1
WIPEOUT
  2
AcDbWipeout
  3
"WipeOut|Product Desc: Object Enabler for WipeOut entity^I^I^I^I^I^I|Company: Autodesk, Inc.^I^I^I^I^I^I|WEB Address: www.autodesk.com"
 90
    32895
280
     0
281
     1
  0
CLASS
  1
WIPEOUTVARIABLES
  2
AcDbWipeoutVariables
  3
"WipeOut|Product Desc:     WipeOut Dbx Application|Company:          Autodesk, Inc.|WEB Address:      www.autodesk.com"
 90
    32768
280
     0
281
     0
  0
CLASS
  1
RTEXT
  2
RText
  3
RText|AutoCAD Express Tool|expresstools@autodesk.com
 90
    32768
280
     0
281
     1
  0
CLASS
  1
ARCALIGNEDTEXT
  2
AcDbArcAlignedText
  3
ATEXT|AutoCAD Express Tool|expresstools@autodesk.com
 90
    32768
280
     0
281
     1
  0
ENDSEC
  0
SECTION
  2
TABLES
  0
TABLE
  2
VPORT
  5
7
330
0
100
AcDbSymbolTable
 70
     2
  0
VPORT
  5
942
330
7
100
AcDbSymbolTableRecord
100
AcDbViewportTableRecord
  2
*Active
 70
     0
 10
0.0
 20
0.0
 11
1.0
 21
1.0
 12
384.5037796214729
 22
-33.75162123257269
 13
0.0
 23
0.0
 14
1.0
 24
1.0
 15
0.0
 25
0.0
 16
0.0
 26
0.0
 36
1.0
 17
0.0
 27
0.0
 37
0.0
 40
1390.66914168531
 41
1.569570871261378
 42
50.0
 43
0.0
 44
0.0
 50
0.0
 51
0.0
 71
     0
 72
  2000
 73
     1
 74
     1
 75
     0
 76
     0
 77
     0
 78
     0
281
     0
 65
     1
110
0.0
120
0.0
130
0.0
111
1.0
121
0.0
131
0.0
112
0.0
122
1.0
132
0.0
 79
     1
146
0.0
  0
ENDTAB
  0
TABLE
  2
LTYPE
  5
4
330
0
100
AcDbSymbolTable
 70
     6
  0
LTYPE
  5
11
330
4
100
AcDbSymbolTableRecord
100
AcDbLinetypeTableRecord
  2
BYBLOCK
 70
     0
  3

 72
    65
 73
     0
 40
0.0
  0
LTYPE
  5
12
330
4
100
AcDbSymbolTableRecord
100
AcDbLinetypeTableRecord
  2
BYLAYER
 70
     0
  3

 72
    65
 73
     0
 40
0.0
  0
LTYPE
  5
13
330
4
100
AcDbSymbolTableRecord
100
AcDbLinetypeTableRecord
  2
CONTINUOUS
 70
     0
  3
Solid line
 72
    65
 73
     0
 40
0.0
  0
LTYPE
  5
1E
330
4
100
AcDbSymbolTableRecord
100
AcDbLinetypeTableRecord
  2
HIDDEN
 70
     0
  3
Hidden __ __ __ __ __ __ __ __ __ __ __ __ __ __
 72
    65
 73
     2
 40
1.905
 49
1.27
 74
     0
 49
-0.635
 74
     0
  0
LTYPE
  5
1F
330
4
100
AcDbSymbolTableRecord
100
AcDbLinetypeTableRecord
  2
PHANTOM
 70
     0
  3
Phantom ______  __  __  ______  __  __  ______
 72
    65
 73
     6
 40
12.7
 49
6.349999999999999
 74
     0
 49
-1.27
 74
     0
 49
1.27
 74
     0
 49
-1.27
 74
     0
 49
1.27
 74
     0
 49
-1.27
 74
     0
  0
LTYPE
  5
20
330
4
100
AcDbSymbolTableRecord
100
AcDbLinetypeTableRecord
  2
CENTER
 70
     0
  3
Center ____ _ ____ _ ____ _ ____ _ ____ _ ____
 72
    65
 73
     4
 40
10.16
 49
6.349999999999999
 74
     0
 49
-1.27
 74
     0
 49
1.27
 74
     0
 49
-1.27
 74
     0
  0
LTYPE
  5
21
330
4
100
AcDbSymbolTableRecord
100
AcDbLinetypeTableRecord
  2
CENTERX2
 70
     0
  3
Center (2x) ________  __  ________  __  _____
 72
    65
 73
     4
 40
20.32
 49
12.7
 74
     0
 49
-2.54
 74
     0
 49
2.54
 74
     0
 49
-2.54
 74
     0
  0
LTYPE
  5
22
330
4
100
AcDbSymbolTableRecord
100
AcDbLinetypeTableRecord
  2
DOT2
 70
     0
  3
Dot (.5x) ........................................
 72
    65
 73
     2
 40
0.635
 49
0.0
 74
     0
 49
-0.635
 74
     0
  0
ENDTAB
  0
TABLE
  2
LAYER
  5
2
330
0
100
AcDbSymbolTable
 70
     2
  0
LAYER
  5
14
330
2
100
AcDbSymbolTableRecord
100
AcDbLayerTableRecord
  2
0
 70
     0
 62
     7
  6
CONTINUOUS
370
    -3
390
927
  0
LAYER
  5
26
330
2
100
AcDbSymbolTableRecord
100
AcDbLayerTableRecord
  2
DEFPOINTS
 70
     0
 62
     7
  6
CONTINUOUS
290
     0
370
    -3
390
927
  0
ENDTAB
  0
TABLE
  2
STYLE
  5
3
330
0
100
AcDbSymbolTable
 70
     1
  0
STYLE
  5
17
330
3
100
AcDbSymbolTableRecord
100
AcDbTextStyleTableRecord
  2
STANDARD
 70
     0
 40
0.0
 41
1.0
 50
0.0
 71
     0
 42
0.0
  3
Century Gothic
  4

  0
ENDTAB
  0
TABLE
  2
VIEW
  5
5
330
0
100
AcDbSymbolTable
 70
     0
  0
ENDTAB
  0
TABLE
  2
UCS
  5
6
330
0
100
AcDbSymbolTable
 70
     0
  0
ENDTAB
  0
TABLE
  2
APPID
  5
8
330
0
100
AcDbSymbolTable
 70
     2
  0
APPID
  5
16
330
8
100
AcDbSymbolTableRecord
100
AcDbRegAppTableRecord
  2
ACAD
 70
     0
  0
APPID
  5
932
330
8
100
AcDbSymbolTableRecord
100
AcDbRegAppTableRecord
  2
DCO15
 70
     0
  0
ENDTAB
  0
TABLE
  2
DIMSTYLE
  5
9
330
0
100
AcDbSymbolTable
 70
     1
100
AcDbDimStyleTable
 71
     0
  0
DIMSTYLE
105
18
330
9
100
AcDbSymbolTableRecord
100
AcDbDimStyleTableRecord
  2
STANDARD
 70
     0
289
     0
340
17
  0
ENDTAB
  0
TABLE
  2
BLOCK_RECORD
  5
1
330
0
100
AcDbSymbolTable
 70
     0
  0
BLOCK_RECORD
  5
A
330
1
100
AcDbSymbolTableRecord
100
AcDbBlockTableRecord
  2
*MODEL_SPACE
340
92C
  0
BLOCK_RECORD
  5
B
330
1
100
AcDbSymbolTableRecord
100
AcDbBlockTableRecord
  2
*PAPER_SPACE
340
92D
  0
ENDTAB
  0
ENDSEC
  0
SECTION
  2
BLOCKS
  0
BLOCK
  5
D
330
A
100
AcDbEntity
  8
0
100
AcDbBlockBegin
  2
*MODEL_SPACE
 70
     0
 10
0.0
 20
0.0
 30
0.0
  3
*MODEL_SPACE
  1

  0
ENDBLK
  5
E
330
A
100
AcDbEntity
  8
0
100
AcDbBlockEnd
  0
BLOCK
  5
F
330
B
100
AcDbEntity
 67
     1
  8
0
100
AcDbBlockBegin
  2
*PAPER_SPACE
 70
     0
 10
0.0
 20
0.0
 30
0.0
  3
*PAPER_SPACE
  1

  0
ENDBLK
  5
10
330
B
100
AcDbEntity
 67
     1
  8
0
100
AcDbBlockEnd
  0
ENDSEC
  0
SECTION
  2
ENTITIES
  0
ARC
  5
27
330
A
100
AcDbEntity
  8
0
  6
Continuous
 62
     7
100
AcDbCircle
 10
65.76211647597543
 20
721.7406384092463
 30
0.0
 40
100.0000000000001
100
AcDbArc
 50
227.2249941289556
 51
267.4712225668649
  0
ARC
  5
28
330
A
100
AcDbEntity
  8
0
  6
Continuous
 62
     7
100
AcDbCircle
 10
73.93788352402589
 20
721.7406384092463
 30
0.0
 40
100.0000000000001
100
AcDbArc
 50
272.5287774331368
 51
312.7750058710459
  0
LINE
  5
29
330
A
100
AcDbEntity
  8
0
  6
Continuous
 62
     7
100
AcDbLine
 10
14.85000000000066
 20
655.8380196837971
 30
0.0
 11
14.85000000000066
 21
648.3380196837972
 31
0.0
  0
LINE
  5
2A
330
A
100
AcDbEntity
  8
0
  6
Continuous
 62
     7
100
AcDbLine
 10
124.8500000000006
 20
648.3380196837972
 30
0.0
 11
124.8500000000006
 21
655.8380196837971
 31
0.0
  0
ARC
  5
2B
330
A
100
AcDbEntity
  8
0
  6
Continuous
 62
     7
100
AcDbCircle
 10
61.35000000000066
 20
-235.6114700589858
 30
0.0
 40
2.5
100
AcDbArc
 50
101.5369590328176
 51
180.0000000000004
  0
ARC
  5
2C
330
A
100
AcDbEntity
  8
0
  6
Continuous
 62
     7
100
AcDbCircle
 10
78.35000000000066
 20
-235.6114700589858
 30
0.0
 40
2.5
100
AcDbArc
 50
0.0
 51
78.46304096718252
  0
ARC
  5
2D
330
A
100
AcDbEntity
  8
0
  6
Continuous
 62
     7
100
AcDbCircle
 10
78.35000000000066
 20
-235.6619803162027
 30
0.0
 40
2.5
100
AcDbArc
 50
270.0000000000008
 51
0.0
  0
ARC
  5
2E
330
A
100
AcDbEntity
  8
0
  6
Continuous
 62
     7
100
AcDbCircle
 10
61.35000000000066
 20
-235.6619803162027
 30
0.0
 40
2.5
100
AcDbArc
 50
180.0000000000004
 51
270.0000000000008
  0
LINE
  5
2F
330
A
100
AcDbEntity
  8
0
  6
Continuous
 62
     7
100
AcDbLine
 10
59.85000000000075
 20
-81.16198031620264
 30
0.0
 11
59.85000000000075
 21
-105.1619803162026
 31
0.0
  0
LINE
  5
30
330
A
100
AcDbEntity
  8
0
  6
Continuous
 62
     7
100
AcDbLine
 10
79.85000000000058
 20
-105.1619803162026
 30
0.0
 11
79.85000000000058
 21
-81.16198031620264
 31
0.0
  0
LINE
  5
31
330
A
100
AcDbEntity
  8
0
  6
Continuous
 62
     7
100
AcDbLine
 10
60.10000000000075
 20
-105.1619803162026
 30
0.0
 11
60.10000000000075
 21
-106.1619803162026
 31
0.0
  0
LINE
  5
32
330
A
100
AcDbEntity
  8
0
  6
Continuous
 62
     7
100
AcDbLine
 10
79.60000000000057
 20
-106.1619803162026
 30
0.0
 11
79.60000000000057
 21
-105.1619803162026
 31
0.0
  0
LINE
  5
33
330
A
100
AcDbEntity
  8
0
  6
Continuous
 62
     7
100
AcDbLine
 10
60.10000000000075
 20
-78.16198031620274
 30
0.0
 11
60.10000000000075
 21
-81.16198031620264
 31
0.0
  0
LINE
  5
34
330
A
100
AcDbEntity
  8
0
  6
Continuous
 62
     7
100
AcDbLine
 10
79.60000000000057
 20
-81.16198031620264
 30
0.0
 11
79.60000000000057
 21
-78.16198031620274
 31
0.0
  0
ARC
  5
35
330
A
100
AcDbEntity
  8
0
  6
Continuous
 62
     7
100
AcDbCircle
 10
62.10000000000075
 20
-106.1619803162026
 30
0.0
 40
2.000000000000014
100
AcDbArc
 50
180.0000000000004
 51
270.0000000000008
  0
ARC
  5
36
330
A
100
AcDbEntity
  8
0
  6
Continuous
 62
     7
100
AcDbCircle
 10
77.60000000000058
 20
-106.1619803162026
 30
0.0
 40
2.000000000000014
100
AcDbArc
 50
270.0000000000008
 51
0.0
  0
LINE
  5
37
330
A
100
AcDbEntity
  8
0
  6
Continuous
 62
     7
100
AcDbLine
 10
60.85000000000067
 20
-229.0431781626858
 30
0.0
 11
60.85000000000057
 21
-233.1619803162026
 31
0.0
  0
LINE
  5
38
330
A
100
AcDbEntity
  8
0
  6
Continuous
 62
     7
100
AcDbLine
 10
60.85000000000067
 20
-208.1619803162026
 30
0.0
 11
60.85000000000067
 21
-215.1867717021347
 31
0.0
  0
LINE
  5
39
330
A
100
AcDbEntity
  8
0
  6
Continuous
 62
     7
100
AcDbLine
 10
78.85000000000066
 20
-215.1867717021347
 30
0.0
 11
78.85000000000066
 21
-208.1619803162026
 31
0.0
  0
LINE
  5
3A
330
A
100
AcDbEntity
  8
0
  6
Continuous
 62
     7
100
AcDbLine
 10
78.85000000000075
 20
-233.1619803162026
 30
0.0
 11
78.85000000000066
 21
-229.0431781626858
 31
0.0
  0
LINE
  5
3B
330
A
100
AcDbEntity
  8
0
  6
Continuous
 62
     7
100
AcDbLine
 10
61.35000000000071
 20
621.8380196837972
 30
0.0
 11
61.35000000000074
 21
-78.16198031620274
 31
0.0
  0
LINE
  5
3C
330
A
100
AcDbEntity
  8
0
  6
Continuous
 62
     7
100
AcDbLine
 10
78.35000000000059
 20
-78.16198031620274
 30
0.0
 11
78.35000000000062
 21
621.8380196837972
 31
0.0
  0
LINE
  5
3D
330
A
100
AcDbEntity
  8
0
  6
Continuous
 62
     7
100
AcDbLine
 10
62.85000000000065
 20
-108.1619803162026
 30
0.0
 11
62.85000000000065
 21
-208.1619803162026
 31
0.0
  0
LINE
  5
3E
330
A
100
AcDbEntity
  8
0
  6
Continuous
 62
     7
100
AcDbLine
 10
76.85000000000066
 20
-208.1619803162026
 30
0.0
 11
76.85000000000066
 21
-108.1619803162026
 31
0.0
  0
LINE
  5
3F
330
A
100
AcDbEntity
  8
0
  6
Continuous
 62
     7
100
AcDbLine
 10
115.4043378383745
 20
-206.8007643840349
 30
0.0
 11
154.8500000000006
 21
-206.8007643840349
 31
0.0
  0
LINE
  5
40
330
A
100
AcDbEntity
  8
0
  6
Continuous
 62
     7
100
AcDbLine
 10
154.8500000000006
 20
-195.800764384035
 30
0.0
 11
117.4012701892227
 21
-195.800764384035
 31
0.0
  0
LINE
  5
41
330
A
100
AcDbEntity
  8
0
  6
Continuous
 62
     7
100
AcDbLine
 10
22.29872981077865
 20
-195.800764384035
 30
0.0
 11
-15.14999999999933
 21
-195.800764384035
 31
0.0
  0
LINE
  5
42
330
A
100
AcDbEntity
  8
0
  6
Continuous
 62
     7
100
AcDbLine
 10
-15.14999999999933
 20
-206.8007643840349
 30
0.0
 11
24.29566216162675
 21
-206.8007643840349
 31
0.0
  0
ARC
  5
43
330
A
100
AcDbEntity
  8
0
  6
Continuous
 62
     7
100
AcDbCircle
 10
79.85000000000067
 20
-229.0431781626858
 30
0.0
 40
1.000000000000008
100
AcDbArc
 50
119.9999999999997
 51
185.7740070968932
  0
ARC
  5
44
330
A
100
AcDbEntity
  8
0
  6
Continuous
 62
     7
100
AcDbCircle
 10
79.85000000000066
 20
-215.1867717021347
 30
0.0
 40
1.000000000000008
100
AcDbArc
 50
185.7740070969094
 51
300.0000000000005
  0
ARC
  5
45
330
A
100
AcDbEntity
  8
0
  6
Continuous
 62
     7
100
AcDbCircle
 10
59.85000000000066
 20
-229.0431781626858
 30
0.0
 40
1.000000000000004
100
AcDbArc
 50
355.2726444063088
 51
60.00000000000063
  0
ARC
  5
46
330
A
100
AcDbEntity
  8
0
  6
Continuous
 62
     7
100
AcDbCircle
 10
59.85000000000066
 20
-215.1867717021347
 30
0.0
 40
1.000000000000004
100
AcDbArc
 50
240.0000000000015
 51
355.2726444063088
  0
ARC
  5
47
330
A
100
AcDbEntity
  8
0
  6
Continuous
 62
     7
100
AcDbCircle
 10
-669.8153554041257
 20
-199.1966696745206
 30
0.0
 40
2.499999999999882
100
AcDbArc
 50
65.49999999999987
 51
245.4999999999978
  0
ARC
  5
48
330
A
100
AcDbEntity
  8
0
  6
Continuous
 62
     7
100
AcDbCircle
 10
-538.7809323979031
 20
-258.9124966170186
 30
0.0
 40
2.499999999999964
100
AcDbArc
 50
245.5000000000044
 51
65.49999999999785
  0
LINE
  5
49
330
A
100
AcDbEntity
  8
0
  6
Continuous
 62
     7
100
AcDbLine
 10
-538.3600860366092
 20
-174.6822839631011
 30
0.0
 11
-538.3202867011601
 21
-166.7474989525283
 31
0.0
  0
LINE
  5
4A
330
A
100
AcDbEntity
  8
0
  6
Continuous
 62
     7
100
AcDbLine
 10
-538.7672320998635
 20
-256.171370528677
 30
0.0
 11
-538.6241847457401
 21
-227.5507643840349
 31
0.0
  0
LINE
  5
4B
330
A
100
AcDbEntity
  8
0
  6
Continuous
 62
     7
100
AcDbLine
 10
-600.5597594740398
 20
-138.3833370794218
 30
0.0
 11
-667.7555894888842
 21
-197.3879894084801
 31
0.0
  0
ARC
  5
4C
330
A
100
AcDbEntity
  8
0
  6
Continuous
 62
     7
100
AcDbCircle
 10
-600.0648923234802
 20
-138.9469029613709
 30
0.0
 40
0.7500000000001743
100
AcDbArc
 50
65.49999999999666
 51
131.2863650537059
  0
ARC
  5
4D
330
A
100
AcDbEntity
  8
0
  6
Continuous
 62
     7
100
AcDbCircle
 10
-539.0702773336292
 20
-166.743750458347
 30
0.0
 40
0.7500000000001532
100
AcDbArc
 50
359.7136349462755
 51
65.50000000000548
  0
LINE
  5
4E
330
A
100
AcDbEntity
  8
0
  6
Continuous
 62
     7
100
AcDbLine
 10
-538.7592574016371
 20
-166.0612795051895
 30
0.0
 11
-599.7538723914878
 21
-138.2644320082134
 31
0.0
  0
ARC
  5
4F
330
A
100
AcDbEntity
  8
0
  6
Continuous
 62
     7
100
AcDbCircle
 10
-537.6499999999992
 20
-227.5507643840349
 30
0.0
 40
0.8000000000000682
100
AcDbArc
 50
180.0000000000004
 51
0.0
  0
ARC
  5
50
330
A
100
AcDbEntity
  8
0
  6
Continuous
 62
     7
100
AcDbCircle
 10
-537.6499999999992
 20
-175.050764384035
 30
0.0
 40
0.8000000000000682
100
AcDbArc
 50
0.0
 51
152.5741348507246
  0
LINE
  5
51
330
A
100
AcDbEntity
  8
0
  6
Continuous
 62
     7
100
AcDbLine
 10
-536.8499999999992
 20
-227.5507643840349
 30
0.0
 11
-536.8499999999992
 21
-175.0507643840349
 31
0.0
  0
LINE
  5
52
330
A
100
AcDbEntity
  8
0
  6
Continuous
 62
     7
100
AcDbLine
 10
-517.6499999999992
 20
-225.2507643840349
 30
0.0
 11
-497.6499999999992
 21
-225.2507643840349
 31
0.0
  0
LINE
  5
53
330
A
100
AcDbEntity
  8
0
  6
Continuous
 62
     7
100
AcDbLine
 10
-497.6499999999992
 20
-177.3507643840349
 30
0.0
 11
-517.6499999999992
 21
-177.3507643840349
 31
0.0
  0
ARC
  5
54
330
A
100
AcDbEntity
  8
0
  6
Continuous
 62
     7
100
AcDbCircle
 10
-465.6499999999992
 20
-212.5507643840349
 30
0.0
 40
10.0
100
AcDbArc
 50
270.0000000000002
 51
0.0
  0
ARC
  5
55
330
A
100
AcDbEntity
  8
0
  6
Continuous
 62
     7
100
AcDbCircle
 10
-465.6499999999992
 20
-190.050764384035
 30
0.0
 40
10.00000000000011
100
AcDbArc
 50
0.0
 51
90.00000000000065
  0
LINE
  5
56
330
A
100
AcDbEntity
  8
0
  6
Continuous
 62
     7
100
AcDbLine
 10
-536.8499999999992
 20
-222.5507643840349
 30
0.0
 11
-517.6499999999992
 21
-222.5507643840349
 31
0.0
  0
LINE
  5
57
330
A
100
AcDbEntity
  8
0
  6
Continuous
 62
     7
100
AcDbLine
 10
-517.6499999999992
 20
-180.0507643840349
 30
0.0
 11
-536.8499999999992
 21
-180.0507643840349
 31
0.0
  0
LINE
  5
58
330
A
100
AcDbEntity
  8
0
  6
Continuous
 62
     7
100
AcDbLine
 10
-497.6499999999992
 20
-222.5507643840349
 30
0.0
 11
-465.6499999999993
 21
-222.5507643840349
 31
0.0
  0
LINE
  5
59
330
A
100
AcDbEntity
  8
0
  6
Continuous
 62
     7
100
AcDbLine
 10
-465.6499999999993
 20
-180.0507643840349
 30
0.0
 11
-497.6499999999992
 21
-180.0507643840349
 31
0.0
  0
LINE
  5
5A
330
A
100
AcDbEntity
  8
0
  6
Continuous
 62
     7
100
AcDbLine
 10
-543.0025299526116
 20
-259.7359734449128
 30
0.0
 11
-573.3384316947056
 21
-326.3020344822389
 31
0.0
  0
LINE
  5
5B
330
A
100
AcDbEntity
  8
0
  6
Continuous
 62
     7
100
AcDbLine
 10
-571.5185091529523
 20
-327.1314209675515
 30
0.0
 11
-541.1831607911001
 21
-260.5651075891846
 31
0.0
  0
LINE
  5
5C
330
A
100
AcDbEntity
  8
0
  6
Continuous
 62
     7
100
AcDbLine
 10
-15.14999999999934
 20
-194.3007643840349
 30
0.0
 11
-405.1499999999993
 21
-194.3007643840349
 31
0.0
  0
LINE
  5
5D
330
A
100
AcDbEntity
  8
0
  6
Continuous
 62
     7
100
AcDbLine
 10
-455.6499999999992
 20
-207.5507643840349
 30
0.0
 11
-446.6499999999993
 21
-207.5507643840349
 31
0.0
  0
LINE
  5
5E
330
A
100
AcDbEntity
  8
0
  6
Continuous
 62
     7
100
AcDbLine
 10
-446.6499999999993
 20
-195.0507643840349
 30
0.0
 11
-455.6499999999992
 21
-195.0507643840349
 31
0.0
  0
ARC
  5
5F
330
A
100
AcDbEntity
  8
0
  6
Continuous
 62
     7
100
AcDbCircle
 10
-574.2312949875934
 20
-330.6726651805016
 30
0.0
 40
1.000000000000166
100
AcDbArc
 50
155.4999999999997
 51
335.4999999999691
  0
LINE
  5
60
330
A
100
AcDbEntity
  8
0
  6
Continuous
 62
     7
100
AcDbLine
 10
-573.3213337167169
 20
-331.0873584231579
 30
0.0
 11
-571.5185091529523
 21
-327.1314209675515
 31
0.0
  0
LINE
  5
61
330
A
100
AcDbEntity
  8
0
  6
Continuous
 62
     7
100
AcDbLine
 10
-573.3384316947056
 20
-326.302034482239
 30
0.0
 11
-575.14125625847
 21
-330.2579719378453
 31
0.0
  0
LINE
  5
62
330
A
100
AcDbEntity
  8
0
  6
Continuous
 62
     7
100
AcDbLine
 10
-405.1499999999993
 20
-216.3007643840351
 30
0.0
 11
-15.14999999999934
 21
-216.3007643840351
 31
0.0
  0
LINE
  5
63
330
A
100
AcDbEntity
  8
0
  6
Continuous
 62
     7
100
AcDbLine
 10
-421.1499999999993
 20
-196.8007643840349
 30
0.0
 11
-428.6499999999993
 21
-196.8007643840349
 31
0.0
  0
LINE
  5
64
330
A
100
AcDbEntity
  8
0
  6
Continuous
 62
     7
100
AcDbLine
 10
-405.1499999999993
 20
-196.8007643840349
 30
0.0
 11
-406.1499999999993
 21
-196.8007643840349
 31
0.0
  0
LINE
  5
65
330
A
100
AcDbEntity
  8
0
  6
Continuous
 62
     7
100
AcDbLine
 10
-428.6499999999993
 20
-205.8007643840349
 30
0.0
 11
-405.1499999999993
 21
-205.8007643840349
 31
0.0
  0
LINE
  5
66
330
A
100
AcDbEntity
  8
0
  6
Continuous
 62
     7
100
AcDbLine
 10
-407.8496726179117
 20
-192.0461663715207
 30
0.0
 11
22.29872981077868
 21
-154.4130575252219
 31
0.0
  0
LINE
  5
67
330
A
100
AcDbEntity
  8
0
  6
Continuous
 62
     7
100
AcDbLine
 10
22.29872981077869
 20
-152.9073277689067
 30
0.0
 11
-409.3242941022457
 21
-190.6694492780766
 31
0.0
  0
ARC
  5
68
330
A
100
AcDbEntity
  8
0
  6
Continuous
 62
     7
100
AcDbCircle
 10
678.4809323979027
 20
-258.9124966170186
 30
0.0
 40
2.499999999999964
100
AcDbArc
 50
114.5000000000021
 51
294.4999999999972
  0
ARC
  5
69
330
A
100
AcDbEntity
  8
0
  6
Continuous
 62
     7
100
AcDbCircle
 10
809.5153554041253
 20
-199.1966696745206
 30
0.0
 40
2.499999999999882
100
AcDbArc
 50
294.5000000000038
 51
114.5000000000001
  0
LINE
  5
6A
330
A
100
AcDbEntity
  8
0
  6
Continuous
 62
     7
100
AcDbLine
 10
807.4555894888838
 20
-197.3879894084801
 30
0.0
 11
740.2597594740393
 21
-138.3833370794218
 31
0.0
  0
LINE
  5
6B
330
A
100
AcDbEntity
  8
0
  6
Continuous
 62
     7
100
AcDbLine
 10
678.3241847457397
 20
-227.5507643840349
 30
0.0
 11
678.4672320998631
 21
-256.171370528677
 31
0.0
  0
LINE
  5
6C
330
A
100
AcDbEntity
  8
0
  6
Continuous
 62
     7
100
AcDbLine
 10
678.0202867011596
 20
-166.7474989525283
 30
0.0
 11
678.0601422736226
 21
-174.682392355764
 31
0.0
  0
ARC
  5
6D
330
A
100
AcDbEntity
  8
0
  6
Continuous
 62
     7
100
AcDbCircle
 10
678.7702773336288
 20
-166.743750458347
 30
0.0
 40
0.7500000000001532
100
AcDbArc
 50
114.4999999999945
 51
180.2863650537261
  0
ARC
  5
6E
330
A
100
AcDbEntity
  8
0
  6
Continuous
 62
     7
100
AcDbCircle
 10
739.7648923234798
 20
-138.9469029613709
 30
0.0
 40
0.7500000000001743
100
AcDbArc
 50
48.71363494629404
 51
114.5000000000033
  0
LINE
  5
6F
330
A
100
AcDbEntity
  8
0
  6
Continuous
 62
     7
100
AcDbLine
 10
739.4538723914875
 20
-138.2644320082134
 30
0.0
 11
678.4592574016366
 21
-166.0612795051895
 31
0.0
  0
ARC
  5
70
330
A
100
AcDbEntity
  8
0
  6
Continuous
 62
     7
100
AcDbCircle
 10
677.3499999999988
 20
-175.050764384035
 30
0.0
 40
0.8000000000000682
100
AcDbArc
 50
27.417119453872
 51
180.0000000000004
  0
ARC
  5
71
330
A
100
AcDbEntity
  8
0
  6
Continuous
 62
     7
100
AcDbCircle
 10
677.3499999999988
 20
-227.5507643840349
 30
0.0
 40
0.8000000000000682
100
AcDbArc
 50
180.0000000000004
 51
0.0
  0
LINE
  5
72
330
A
100
AcDbEntity
  8
0
  6
Continuous
 62
     7
100
AcDbLine
 10
676.5499999999988
 20
-175.0507643840349
 30
0.0
 11
676.5499999999988
 21
-227.5507643840349
 31
0.0
  0
LINE
  5
73
330
A
100
AcDbEntity
  8
0
  6
Continuous
 62
     7
100
AcDbLine
 10
657.3499999999988
 20
-177.3507643840349
 30
0.0
 11
637.3499999999989
 21
-177.3507643840349
 31
0.0
  0
LINE
  5
74
330
A
100
AcDbEntity
  8
0
  6
Continuous
 62
     7
100
AcDbLine
 10
637.3499999999989
 20
-225.2507643840349
 30
0.0
 11
657.3499999999988
 21
-225.2507643840349
 31
0.0
  0
ARC
  5
75
330
A
100
AcDbEntity
  8
0
  6
Continuous
 62
     7
100
AcDbCircle
 10
605.3499999999989
 20
-190.050764384035
 30
0.0
 40
10.00000000000011
100
AcDbArc
 50
89.99999999999934
 51
180.0000000000004
  0
ARC
  5
76
330
A
100
AcDbEntity
  8
0
  6
Continuous
 62
     7
100
AcDbCircle
 10
605.3499999999989
 20
-212.5507643840349
 30
0.0
 40
10.00000000000011
100
AcDbArc
 50
180.0000000000004
 51
270.0000000000015
  0
LINE
  5
77
330
A
100
AcDbEntity
  8
0
  6
Continuous
 62
     7
100
AcDbLine
 10
637.3499999999989
 20
-180.0507643840349
 30
0.0
 11
605.3499999999989
 21
-180.0507643840349
 31
0.0
  0
LINE
  5
78
330
A
100
AcDbEntity
  8
0
  6
Continuous
 62
     7
100
AcDbLine
 10
605.3499999999989
 20
-222.5507643840349
 30
0.0
 11
637.3499999999989
 21
-222.5507643840349
 31
0.0
  0
LINE
  5
79
330
A
100
AcDbEntity
  8
0
  6
Continuous
 62
     7
100
AcDbLine
 10
676.5499999999989
 20
-180.0507643840349
 30
0.0
 11
657.3499999999988
 21
-180.0507643840349
 31
0.0
  0
LINE
  5
7A
330
A
100
AcDbEntity
  8
0
  6
Continuous
 62
     7
100
AcDbLine
 10
657.3499999999988
 20
-222.5507643840349
 30
0.0
 11
676.5499999999989
 21
-222.5507643840349
 31
0.0
  0
LINE
  5
7B
330
A
100
AcDbEntity
  8
0
  6
Continuous
 62
     7
100
AcDbLine
 10
680.8831609227063
 20
-260.5651077727776
 30
0.0
 11
711.2185091529518
 21
-327.1314209675513
 31
0.0
  0
LINE
  5
7C
330
A
100
AcDbEntity
  8
0
  6
Continuous
 62
     7
100
AcDbLine
 10
713.0384316947051
 20
-326.3020344822387
 30
0.0
 11
682.7025299526113
 21
-259.7359734449126
 31
0.0
  0
LINE
  5
7D
330
A
100
AcDbEntity
  8
0
  6
Continuous
 62
     7
100
AcDbLine
 10
544.849999999999
 20
-194.3007643840349
 30
0.0
 11
154.849999999999
 21
-194.3007643840349
 31
0.0
  0
LINE
  5
7E
330
A
100
AcDbEntity
  8
0
  6
Continuous
 62
     7
100
AcDbLine
 10
595.3499999999987
 20
-195.0507643840349
 30
0.0
 11
586.3499999999988
 21
-195.0507643840349
 31
0.0
  0
LINE
  5
7F
330
A
100
AcDbEntity
  8
0
  6
Continuous
 62
     7
100
AcDbLine
 10
586.3499999999988
 20
-207.5507643840349
 30
0.0
 11
595.3499999999987
 21
-207.5507643840349
 31
0.0
  0
ARC
  5
80
330
A
100
AcDbEntity
  8
0
  6
Continuous
 62
     7
100
AcDbCircle
 10
713.931294987593
 20
-330.6726651805016
 30
0.0
 40
1.000000000000166
100
AcDbArc
 50
204.5000000000325
 51
24.50000000000029
  0
LINE
  5
81
330
A
100
AcDbEntity
  8
0
  6
Continuous
 62
     7
100
AcDbLine
 10
711.2185091529518
 20
-327.1314209675513
 30
0.0
 11
713.0213337167165
 21
-331.0873584231579
 31
0.0
  0
LINE
  5
82
330
A
100
AcDbEntity
  8
0
  6
Continuous
 62
     7
100
AcDbLine
 10
714.8412562584696
 20
-330.2579719378453
 30
0.0
 11
713.0384316947051
 21
-326.3020344822387
 31
0.0
  0
LINE
  5
83
330
A
100
AcDbEntity
  8
0
  6
Continuous
 62
     7
100
AcDbLine
 10
154.849999999999
 20
-216.3007643840351
 30
0.0
 11
544.849999999999
 21
-216.3007643840351
 31
0.0
  0
LINE
  5
84
330
A
100
AcDbEntity
  8
0
  6
Continuous
 62
     7
100
AcDbLine
 10
544.849999999999
 20
-205.8007643840349
 30
0.0
 11
568.3499999999988
 21
-205.8007643840349
 31
0.0
  0
LINE
  5
85
330
A
100
AcDbEntity
  8
0
  6
Continuous
 62
     7
100
AcDbLine
 10
545.849999999999
 20
-196.8007643840349
 30
0.0
 11
544.849999999999
 21
-196.8007643840349
 31
0.0
  0
LINE
  5
86
330
A
100
AcDbEntity
  8
0
  6
Continuous
 62
     7
100
AcDbLine
 10
568.3499999999988
 20
-196.8007643840349
 30
0.0
 11
560.8499999999991
 21
-196.8007643840349
 31
0.0
  0
LINE
  5
87
330
A
100
AcDbEntity
  8
0
  6
Continuous
 62
     7
100
AcDbLine
 10
549.0242941022453
 20
-190.6694492780766
 30
0.0
 11
117.4012701892226
 21
-152.9073277689068
 31
0.0
  0
LINE
  5
88
330
A
100
AcDbEntity
  8
0
  6
Continuous
 62
     7
100
AcDbLine
 10
117.4012701892226
 20
-154.413057525222
 30
0.0
 11
547.5496726179112
 21
-192.0461663715207
 31
0.0
  0
LINE
  5
89
330
A
100
AcDbEntity
  8
0
  6
Continuous
 62
     7
100
AcDbLine
 10
69.85000000000066
 20
648.3380196837972
 30
0.0
 11
141.8500000000006
 21
648.3380196837972
 31
0.0
  0
LINE
  5
8A
330
A
100
AcDbEntity
  8
0
  6
Continuous
 62
     7
100
AcDbLine
 10
-2.149999999999319
 20
648.3380196837972
 30
0.0
 11
69.85000000000066
 21
648.3380196837972
 31
0.0
  0
LINE
  5
8B
330
A
100
AcDbEntity
  8
0
  6
Continuous
 62
     7
100
AcDbLine
 10
69.85000000000066
 20
621.8380196837972
 30
0.0
 11
78.35000000000062
 21
621.8380196837972
 31
0.0
  0
LINE
  5
8C
330
A
100
AcDbEntity
  8
0
  6
Continuous
 62
     7
100
AcDbLine
 10
61.35000000000071
 20
621.8380196837972
 30
0.0
 11
69.85000000000066
 21
621.8380196837972
 31
0.0
  0
LINE
  5
8D
330
A
100
AcDbEntity
  8
0
  6
Continuous
 62
     7
100
AcDbLine
 10
69.85000000000066
 20
655.8380196837971
 30
0.0
 11
124.8500000000006
 21
655.8380196837971
 31
0.0
  0
LINE
  5
8E
330
A
100
AcDbEntity
  8
0
  6
Continuous
 62
     7
100
AcDbLine
 10
14.85000000000066
 20
655.8380196837971
 30
0.0
 11
69.85000000000066
 21
655.8380196837971
 31
0.0
  0
LINE
  5
8F
330
A
100
AcDbEntity
  8
0
  6
Continuous
 62
     7
100
AcDbLine
 10
78.85000000000075
 20
-233.1619803162026
 30
0.0
 11
60.85000000000057
 21
-233.1619803162026
 31
0.0
  0
LINE
  5
90
330
A
100
AcDbEntity
  8
0
  6
Continuous
 62
     7
100
AcDbLine
 10
78.35000000000066
 20
-238.1619803162027
 30
0.0
 11
61.35000000000066
 21
-238.1619803162027
 31
0.0
  0
LINE
  5
91
330
A
100
AcDbEntity
  8
0
  6
Continuous
 62
     7
100
AcDbLine
 10
69.85000000000066
 20
-81.16198031620264
 30
0.0
 11
79.85000000000058
 21
-81.16198031620264
 31
0.0
  0
LINE
  5
92
330
A
100
AcDbEntity
  8
0
  6
Continuous
 62
     7
100
AcDbLine
 10
59.85000000000075
 20
-81.16198031620264
 30
0.0
 11
69.85000000000066
 21
-81.16198031620264
 31
0.0
  0
LINE
  5
93
330
A
100
AcDbEntity
  8
0
  6
Continuous
 62
     7
100
AcDbLine
 10
69.85000000000066
 20
-105.1619803162026
 30
0.0
 11
79.85000000000058
 21
-105.1619803162026
 31
0.0
  0
LINE
  5
94
330
A
100
AcDbEntity
  8
0
  6
Continuous
 62
     7
100
AcDbLine
 10
59.85000000000075
 20
-105.1619803162026
 30
0.0
 11
69.85000000000066
 21
-105.1619803162026
 31
0.0
  0
LINE
  5
95
330
A
100
AcDbEntity
  8
0
  6
Continuous
 62
     7
100
AcDbLine
 10
69.85000000000066
 20
-78.16198031620274
 30
0.0
 11
79.60000000000057
 21
-78.16198031620274
 31
0.0
  0
LINE
  5
96
330
A
100
AcDbEntity
  8
0
  6
Continuous
 62
     7
100
AcDbLine
 10
60.10000000000075
 20
-78.16198031620274
 30
0.0
 11
69.85000000000066
 21
-78.16198031620274
 31
0.0
  0
LINE
  5
97
330
A
100
AcDbEntity
  8
0
  6
Continuous
 62
     7
100
AcDbLine
 10
69.85000000000066
 20
-108.1619803162026
 30
0.0
 11
77.60000000000058
 21
-108.1619803162026
 31
0.0
  0
LINE
  5
98
330
A
100
AcDbEntity
  8
0
  6
Continuous
 62
     7
100
AcDbLine
 10
62.10000000000075
 20
-108.1619803162026
 30
0.0
 11
69.85000000000066
 21
-108.1619803162026
 31
0.0
  0
LINE
  5
99
330
A
100
AcDbEntity
  8
0
  6
Continuous
 62
     7
100
AcDbLine
 10
78.85000000000066
 20
-208.1619803162026
 30
0.0
 11
60.85000000000067
 21
-208.1619803162026
 31
0.0
  0
LWPOLYLINE
  5
9A
330
A
100
AcDbEntity
  8
0
  6
Continuous
 62
     7
100
AcDbPolyline
 90
        5
 70
   128
 43
0.0
 10
116.4834417290099
 20
-197.458802028514
 10
116.631352726254
 20
-197.3290484981838
 10
117.149644547666
 20
-196.7529200988402
 10
117.3861924491344
 20
-196.2929489188744
 10
117.4012701892227
 20
-196.177289001055
  0
LWPOLYLINE
  5
A1
330
A
100
AcDbEntity
  8
0
  6
Continuous
 62
     7
100
AcDbPolyline
 90
        5
 70
   128
 43
0.0
 10
23.21655827098604
 20
-197.4588020285139
 10
23.06864727374736
 20
-197.3290484981838
 10
22.5503554523353
 20
-196.7529200988403
 10
22.31380755086691
 20
-196.2929489188744
 10
22.29872981077859
 20
-196.177289001055
  0
CIRCLE
  5
A8
330
A
100
AcDbEntity
  8
0
  6
Continuous
 62
     7
100
AcDbCircle
 10
30.79872981077864
 20
-201.3007643840349
 30
0.0
 40
8.499999999999964
  0
CIRCLE
  5
A9
330
A
100
AcDbEntity
  8
0
  6
Continuous
 62
     7
100
AcDbCircle
 10
108.9012701892227
 20
-201.3007643840349
 30
0.0
 40
8.499999999999957
  0
LINE
  5
AA
330
A
100
AcDbEntity
  8
0
  6
Continuous
 62
     7
100
AcDbLine
 10
113.1512701892226
 20
-208.6619803162027
 30
0.0
 11
79.1479589711334
 21
-228.2938012013052
 31
0.0
  0
LINE
  5
AB
330
A
100
AcDbEntity
  8
0
  6
Continuous
 62
     7
100
AcDbLine
 10
60.55204102886794
 20
-228.2938012013051
 30
0.0
 11
26.54872981077865
 21
-208.6619803162026
 31
0.0
  0
LINE
  5
AC
330
A
100
AcDbEntity
  8
0
  6
Continuous
 62
     7
100
AcDbLine
 10
38.79441818387335
 20
-204.1850264110286
 30
0.0
 11
59.55204102886796
 21
-216.169445548323
 31
0.0
  0
LINE
  5
AD
330
A
100
AcDbEntity
  8
0
  6
Continuous
 62
     7
100
AcDbLine
 10
80.14795897113337
 20
-216.169445548323
 30
0.0
 11
100.905581816128
 21
-204.1850264110286
 31
0.0
  0
LINE
  5
AE
330
A
100
AcDbEntity
  8
0
  6
Continuous
 62
     7
100
AcDbLine
 10
110.6012701892227
 20
-151.100764384035
 30
0.0
 11
109.9012701892226
 21
-151.100764384035
 31
0.0
  0
ARC
  5
AF
330
A
100
AcDbEntity
  8
0
  6
Continuous
 62
     7
100
AcDbCircle
 10
110.6012701892227
 20
-154.300764384035
 30
0.0
 40
3.199999999999988
100
AcDbArc
 50
270.0000000000008
 51
90.0
  0
LINE
  5
B0
330
A
100
AcDbEntity
  8
0
  6
Continuous
 62
     7
100
AcDbLine
 10
109.9012701892226
 20
-157.500764384035
 30
0.0
 11
110.6012701892227
 21
-157.500764384035
 31
0.0
  0
ARC
  5
B1
330
A
100
AcDbEntity
  8
0
  6
Continuous
 62
     7
100
AcDbCircle
 10
29.09872981077864
 20
-154.300764384035
 30
0.0
 40
3.199999999999988
100
AcDbArc
 50
90.0
 51
270.0000000000008
  0
LINE
  5
B2
330
A
100
AcDbEntity
  8
0
  6
Continuous
 62
     7
100
AcDbLine
 10
29.79872981077863
 20
-151.100764384035
 30
0.0
 11
29.09872981077864
 21
-151.100764384035
 31
0.0
  0
LINE
  5
B3
330
A
100
AcDbEntity
  8
0
  6
Continuous
 62
     7
100
AcDbLine
 10
29.09872981077864
 20
-157.500764384035
 30
0.0
 11
29.79872981077863
 21
-157.500764384035
 31
0.0
  0
ARC
  5
B4
330
A
100
AcDbEntity
  8
0
  6
Continuous
 62
     7
100
AcDbCircle
 10
114.9012701892226
 20
-148.8007643840349
 30
0.0
 40
2.499999999999957
100
AcDbArc
 50
0.0
 51
90.0
  0
ARC
  5
B5
330
A
100
AcDbEntity
  8
0
  6
Continuous
 62
     7
100
AcDbCircle
 10
109.9012701892226
 20
-148.8007643840349
 30
0.0
 40
2.5
100
AcDbArc
 50
90.0
 51
180.0000000000004
  0
ARC
  5
B6
330
A
100
AcDbEntity
  8
0
  6
Continuous
 62
     7
100
AcDbCircle
 10
29.79872981077866
 20
-148.8007643840349
 30
0.0
 40
2.499999999999975
100
AcDbArc
 50
0.0
 51
90.0
  0
LINE
  5
B7
330
A
100
AcDbEntity
  8
0
  6
Continuous
 62
     7
100
AcDbLine
 10
22.29872981077865
 20
-196.1772890010552
 30
0.0
 11
22.29872981077869
 21
-148.8007643840349
 31
0.0
  0
LINE
  5
B8
330
A
100
AcDbEntity
  8
0
  6
Continuous
 62
     7
100
AcDbLine
 10
32.29872981077865
 20
-157.500764384035
 30
0.0
 11
32.29872981077865
 21
-192.9341641186942
 31
0.0
  0
LINE
  5
B9
330
A
100
AcDbEntity
  8
0
  6
Continuous
 62
     7
100
AcDbLine
 10
29.79872981077863
 20
-157.500764384035
 30
0.0
 11
32.29872981077865
 21
-157.500764384035
 31
0.0
  0
LINE
  5
BA
330
A
100
AcDbEntity
  8
0
  6
Continuous
 62
     7
100
AcDbLine
 10
107.4012701892227
 20
-192.9341641186942
 30
0.0
 11
107.4012701892227
 21
-157.500764384035
 31
0.0
  0
LINE
  5
BB
330
A
100
AcDbEntity
  8
0
  6
Continuous
 62
     7
100
AcDbLine
 10
107.4012701892227
 20
-157.500764384035
 30
0.0
 11
109.9012701892226
 21
-157.500764384035
 31
0.0
  0
LINE
  5
BC
330
A
100
AcDbEntity
  8
0
  6
Continuous
 62
     7
100
AcDbLine
 10
32.29872981077863
 20
-148.8007643840349
 30
0.0
 11
32.29872981077865
 21
-151.100764384035
 31
0.0
  0
LINE
  5
BD
330
A
100
AcDbEntity
  8
0
  6
Continuous
 62
     7
100
AcDbLine
 10
32.29872981077865
 20
-151.100764384035
 30
0.0
 11
29.79872981077863
 21
-151.100764384035
 31
0.0
  0
ARC
  5
BE
330
A
100
AcDbEntity
  8
0
  6
Continuous
 62
     7
100
AcDbCircle
 10
24.79872981077866
 20
-148.8007643840349
 30
0.0
 40
2.499999999999971
100
AcDbArc
 50
90.0
 51
180.0000000000004
  0
LINE
  5
BF
330
A
100
AcDbEntity
  8
0
  6
Continuous
 62
     7
100
AcDbLine
 10
117.4012701892226
 20
-148.8007643840349
 30
0.0
 11
117.4012701892227
 21
-196.1772890010552
 31
0.0
  0
LINE
  5
C0
330
A
100
AcDbEntity
  8
0
  6
Continuous
 62
     7
100
AcDbLine
 10
109.9012701892226
 20
-146.300764384035
 30
0.0
 11
114.9012701892226
 21
-146.300764384035
 31
0.0
  0
LINE
  5
C1
330
A
100
AcDbEntity
  8
0
  6
Continuous
 62
     7
100
AcDbLine
 10
107.4012701892227
 20
-151.100764384035
 30
0.0
 11
107.4012701892226
 21
-148.8007643840349
 31
0.0
  0
LINE
  5
C2
330
A
100
AcDbEntity
  8
0
  6
Continuous
 62
     7
100
AcDbLine
 10
109.9012701892226
 20
-151.100764384035
 30
0.0
 11
107.4012701892227
 21
-151.100764384035
 31
0.0
  0
LINE
  5
C3
330
A
100
AcDbEntity
  8
0
  6
Continuous
 62
     7
100
AcDbLine
 10
24.79872981077866
 20
-146.300764384035
 30
0.0
 11
29.79872981077866
 21
-146.300764384035
 31
0.0
  0
LINE
  5
C4
330
A
100
AcDbEntity
  8
0
  6
Continuous
 62
     7
100
AcDbLine
 10
79.1479589711334
 20
-228.2938012013052
 30
0.0
 11
79.35000000000067
 21
-228.1771527589013
 31
0.0
  0
LINE
  5
C5
330
A
100
AcDbEntity
  8
0
  6
Continuous
 62
     7
100
AcDbLine
 10
80.35000000000065
 20
-216.0527971059191
 30
0.0
 11
80.14795897113337
 21
-216.169445548323
 31
0.0
  0
LINE
  5
C6
330
A
100
AcDbEntity
  8
0
  6
Continuous
 62
     7
100
AcDbLine
 10
60.35000000000065
 20
-228.1771527589013
 30
0.0
 11
60.55204102886794
 21
-228.2938012013051
 31
0.0
  0
LINE
  5
C7
330
A
100
AcDbEntity
  8
0
  6
Continuous
 62
     7
100
AcDbLine
 10
59.55204102886796
 20
-216.169445548323
 30
0.0
 11
59.35000000000067
 21
-216.0527971059191
 31
0.0
  0
CIRCLE
  5
C8
330
A
100
AcDbEntity
  8
0
  6
Continuous
 62
     7
100
AcDbCircle
 10
29.09872981077864
 20
-154.300764384035
 30
0.0
 40
3.0
  0
CIRCLE
  5
C9
330
A
100
AcDbEntity
  8
0
  6
Continuous
 62
     7
100
AcDbCircle
 10
110.6012701892227
 20
-154.300764384035
 30
0.0
 40
3.000000000000014
  0
LINE
  5
CA
330
A
100
AcDbEntity
  8
0
  6
Continuous
 62
     7
100
AcDbLine
 10
-537.7441992912625
 20
-256.6375934398274
 30
0.0
 11
-668.7786222974851
 21
-196.9217664973293
 31
0.0
  0
LINE
  5
CB
330
A
100
AcDbEntity
  8
0
  6
Continuous
 62
     7
100
AcDbLine
 10
-670.8520885107662
 20
-201.4715728517114
 30
0.0
 11
-541.2483582557041
 21
-260.5353955439059
 31
0.0
  0
LINE
  5
CC
330
A
100
AcDbEntity
  8
0
  6
Continuous
 62
     7
100
AcDbLine
 10
-541.1831607911001
 20
-260.5651075891846
 30
0.0
 11
-539.8176655626651
 21
-261.1873996197368
 31
0.0
  0
LWPOLYLINE
  5
CD
330
A
100
AcDbEntity
  8
0
  6
Continuous
 62
     7
100
AcDbPolyline
 90
       21
 70
   128
 43
0.0
 10
-538.6241847457401
 20
-227.5507643840349
 10
-538.76073539543
 20
-227.2091575955987
 10
-539.1535905481486
 20
-226.2088641976537
 10
-539.7756489831667
 20
-224.582569659838
 10
-540.5766525386508
 20
-222.3911241832359
 10
-541.5391461230958
 20
-219.5767968462081
 10
-542.5574418685541
 20
-216.2914015981161
 10
-543.6052398573834
 20
-212.3713129438816
 10
-544.5106083618528
 20
-208.0969458184241
 10
-545.021398314302
 20
-204.7390415998336
 10
-545.3397060311134
 20
-201.3007643840349
 10
-545.4125058535517
 20
-197.3518705613244
 10
-545.155552875261
 20
-193.4995519660841
 10
-544.5741789362569
 20
-189.8641394397371
 10
-543.7322534408098
 20
-186.5184434527595
 10
-542.659788438021
 20
-183.4003984363607
 10
-541.5051183751164
 20
-180.7087416237935
 10
-540.2404756562606
 20
-178.2154834324432
 10
-539.1947373305561
 20
-176.3914744072405
 10
-538.7349905085643
 20
-175.6401798728574
 10
-538.4499999999993
 20
-175.1886934032288
  0
LWPOLYLINE
  5
E4
330
A
100
AcDbEntity
  8
0
  6
Continuous
 62
     7
100
AcDbPolyline
 90
        7
 70
   128
 43
0.0
 10
-538.4499999999993
 20
-175.1886934032288
 10
-538.4497475260664
 20
-175.168222542553
 10
-538.4488381653683
 20
-175.143821917536
 10
-538.4463160526417
 20
-175.1063338200323
 10
-538.4358553380407
 20
-175.0170670991971
 10
-538.3919937633804
 20
-174.8004421870327
 10
-538.3599438213044
 20
-174.6820100341071
  0
CIRCLE
  5
ED
330
A
100
AcDbEntity
  8
0
  6
Continuous
 62
     7
100
AcDbCircle
 10
-507.6499999999993
 20
-201.3007643840349
 30
0.0
 40
7.499999999999886
  0
LWPOLYLINE
  5
EE
330
A
100
AcDbEntity
  8
0
  6
Continuous
 62
     7
100
AcDbPolyline
 90
       11
 70
   128
 43
0.0
 10
-428.6499999999993
 20
-205.8007643840349
 10
-428.6832825741409
 20
-205.5498181418016
 10
-428.7686885727725
 20
-204.826475826322
 10
-428.870000578274
 20
-203.7045867752105
 10
-428.9428325546253
 20
-202.3051558912363
 10
-428.9582579234442
 20
-201.3007643840349
 10
-428.9246991334914
 20
-199.8191042329001
 10
-428.838896060204
 20
-198.5045988402841
 10
-428.7376726415211
 20
-197.4966492238919
 10
-428.6652912886238
 20
-196.9143069552786
 10
-428.6499999999993
 20
-196.8007643840349
  0
LINE
  5
FB
330
A
100
AcDbEntity
  8
0
  6
Continuous
 62
     7
100
AcDbLine
 10
-461.6499999999994
 20
-205.8007643840349
 30
0.0
 11
-428.6499999999993
 21
-205.8007643840349
 31
0.0
  0
LINE
  5
FC
330
A
100
AcDbEntity
  8
0
  6
Continuous
 62
     7
100
AcDbLine
 10
-461.6499999999994
 20
-196.8007643840349
 30
0.0
 11
-428.6499999999993
 21
-196.8007643840349
 31
0.0
  0
LINE
  5
FD
330
A
100
AcDbEntity
  8
0
  6
Continuous
 62
     7
100
AcDbLine
 10
-461.6499999999994
 20
-205.8007643840349
 30
0.0
 11
-501.6499999999992
 21
-205.8007643840349
 31
0.0
  0
LINE
  5
FE
330
A
100
AcDbEntity
  8
0
  6
Continuous
 62
     7
100
AcDbLine
 10
-501.6499999999992
 20
-196.8007643840349
 30
0.0
 11
-461.6499999999994
 21
-196.8007643840349
 31
0.0
  0
LINE
  5
FF
330
A
100
AcDbEntity
  8
0
  6
Continuous
 62
     7
100
AcDbLine
 10
-538.4499999999993
 20
-175.1886934032288
 30
0.0
 11
-538.4499999999993
 21
-227.5507643840349
 31
0.0
  0
LINE
  5
100
330
A
100
AcDbEntity
  8
0
  6
Continuous
 62
     7
100
AcDbLine
 10
-517.6499999999992
 20
-201.3007643840349
 30
0.0
 11
-517.6499999999992
 21
-225.2507643840349
 31
0.0
  0
LINE
  5
101
330
A
100
AcDbEntity
  8
0
  6
Continuous
 62
     7
100
AcDbLine
 10
-517.6499999999992
 20
-177.3507643840349
 30
0.0
 11
-517.6499999999992
 21
-201.3007643840349
 31
0.0
  0
LINE
  5
102
330
A
100
AcDbEntity
  8
0
  6
Continuous
 62
     7
100
AcDbLine
 10
-497.6499999999992
 20
-196.8007643840349
 30
0.0
 11
-497.6499999999992
 21
-177.3507643840349
 31
0.0
  0
LINE
  5
103
330
A
100
AcDbEntity
  8
0
  6
Continuous
 62
     7
100
AcDbLine
 10
-497.6499999999992
 20
-225.2507643840349
 30
0.0
 11
-497.6499999999992
 21
-205.8007643840349
 31
0.0
  0
LINE
  5
104
330
A
100
AcDbEntity
  8
0
  6
Continuous
 62
     7
100
AcDbLine
 10
-455.6499999999992
 20
-212.5507643840349
 30
0.0
 11
-455.6499999999992
 21
-205.8007643840349
 31
0.0
  0
LINE
  5
105
330
A
100
AcDbEntity
  8
0
  6
Continuous
 62
     7
100
AcDbLine
 10
-455.6499999999992
 20
-196.8007643840349
 30
0.0
 11
-455.6499999999992
 21
-190.0507643840349
 31
0.0
  0
LINE
  5
106
330
A
100
AcDbEntity
  8
0
  6
Continuous
 62
     7
100
AcDbLine
 10
-405.1499999999993
 20
-202.7007643840349
 30
0.0
 11
-405.1499999999993
 21
-194.3007643840349
 31
0.0
  0
LINE
  5
107
330
A
100
AcDbEntity
  8
0
  6
Continuous
 62
     7
100
AcDbLine
 10
-15.14999999999934
 20
-202.7007643840349
 30
0.0
 11
-15.14999999999934
 21
-194.3007643840349
 31
0.0
  0
LINE
  5
108
330
A
100
AcDbEntity
  8
0
  6
Continuous
 62
     7
100
AcDbLine
 10
-405.1499999999993
 20
-212.3007643840349
 30
0.0
 11
-405.1499999999993
 21
-202.7007643840349
 31
0.0
  0
LINE
  5
109
330
A
100
AcDbEntity
  8
0
  6
Continuous
 62
     7
100
AcDbLine
 10
-15.14999999999934
 20
-202.7007643840349
 30
0.0
 11
-15.14999999999934
 21
-212.3007643840349
 31
0.0
  0
LINE
  5
10A
330
A
100
AcDbEntity
  8
0
  6
Continuous
 62
     7
100
AcDbLine
 10
-446.6499999999993
 20
-196.8007643840349
 30
0.0
 11
-446.6499999999993
 21
-195.0507643840349
 31
0.0
  0
LINE
  5
10B
330
A
100
AcDbEntity
  8
0
  6
Continuous
 62
     7
100
AcDbLine
 10
-446.6499999999993
 20
-207.5507643840349
 30
0.0
 11
-446.6499999999993
 21
-205.8007643840349
 31
0.0
  0
CIRCLE
  5
10C
330
A
100
AcDbEntity
  8
0
  6
Continuous
 62
     7
100
AcDbCircle
 10
-413.6499999999994
 20
-196.8007643840349
 30
0.0
 40
7.499999999999943
  0
LINE
  5
10D
330
A
100
AcDbEntity
  8
0
  6
Continuous
 62
     7
100
AcDbLine
 10
-405.1499999999993
 20
-216.3007643840351
 30
0.0
 11
-405.1499999999993
 21
-212.3007643840349
 31
0.0
  0
LINE
  5
10E
330
A
100
AcDbEntity
  8
0
  6
Continuous
 62
     7
100
AcDbLine
 10
-15.14999999999934
 20
-216.3007643840351
 30
0.0
 11
-15.14999999999934
 21
-212.3007643840349
 31
0.0
  0
LINE
  5
10F
330
A
100
AcDbEntity
  8
0
  6
Continuous
 62
     7
100
AcDbLine
 10
808.4786222974848
 20
-196.9217664973293
 30
0.0
 11
677.444199291262
 21
-256.6375934398274
 31
0.0
  0
LINE
  5
110
330
A
100
AcDbEntity
  8
0
  6
Continuous
 62
     7
100
AcDbLine
 10
680.948358255704
 20
-260.5353955439059
 30
0.0
 11
810.5520885107658
 21
-201.4715728517114
 31
0.0
  0
LWPOLYLINE
  5
111
330
A
100
AcDbEntity
  8
0
  6
Continuous
 62
     7
100
AcDbPolyline
 90
        5
 70
   128
 43
0.0
 10
679.5176655626647
 20
-261.1873996197368
 10
679.6032885045311
 20
-261.1483789988147
 10
679.8599334751988
 20
-261.0314191494754
 10
680.2869296680348
 20
-260.8368257759086
 10
680.8831609227063
 20
-260.5651077727776
  0
LWPOLYLINE
  5
118
330
A
100
AcDbEntity
  8
0
  6
Continuous
 62
     7
100
AcDbPolyline
 90
       20
 70
   128
 43
0.0
 10
678.1499999997062
 20
-175.1886934027696
 10
678.629805010205
 20
-175.9536042799759
 10
679.4514316858546
 20
-177.3407935596
 10
680.506244420064
 20
-179.2857110378062
 10
681.6725669820799
 20
-181.7380908659293
 10
682.9442562850167
 20
-185.0017168463082
 10
684.0357982789123
 20
-188.7770470034667
 10
684.784529611453
 20
-192.949281920218
 10
685.1166465887634
 20
-197.415569946555
 10
685.0397060311133
 20
-201.3007643840349
 10
684.6116399070375
 20
-205.5700073258205
 10
683.903946152972
 20
-209.6934686063463
 10
683.0112927393205
 20
-213.5482010572403
 10
682.0252959373113
 20
-217.0755787850952
 10
680.9656602675303
 20
-220.4006657981585
 10
679.9907498361981
 20
-223.1868050486226
 10
679.1814567191082
 20
-225.3597806686977
 10
678.613336740496
 20
-226.8223715432141
 10
678.3977221516381
 20
-227.3668316927857
 10
678.3241847457397
 20
-227.5507643840349
  0
LWPOLYLINE
  5
12E
330
A
100
AcDbEntity
  8
0
  6
Continuous
 62
     7
100
AcDbPolyline
 90
       11
 70
   128
 43
0.0
 10
678.059943821304
 20
-174.6820100341071
 10
678.0916682628283
 20
-174.7991390871546
 10
678.1081120150556
 20
-174.8686924919608
 10
678.1211226073662
 20
-174.9311327089093
 10
678.1307469156541
 20
-174.984500301462
 10
678.1375953910186
 20
-175.0291930074344
 10
678.1423434974495
 20
-175.0664532038467
 10
678.1466869602808
 20
-175.1108624987159
 10
678.1484067580513
 20
-175.1357909012712
 10
678.1497073402729
 20
-175.1666211700984
 10
678.1499999999989
 20
-175.1886933041861
  0
CIRCLE
  5
13B
330
A
100
AcDbEntity
  8
0
  6
Continuous
 62
     7
100
AcDbCircle
 10
647.3499999999991
 20
-201.3007643840349
 30
0.0
 40
7.499999999999886
  0
LWPOLYLINE
  5
13C
330
A
100
AcDbEntity
  8
0
  6
Continuous
 62
     7
100
AcDbPolyline
 90
       11
 70
   128
 43
0.0
 10
568.3499999999988
 20
-196.8007643840349
 10
568.3832825741405
 20
-197.0517106262683
 10
568.4686885727721
 20
-197.7750529417478
 10
568.5700005782735
 20
-198.8969419928594
 10
568.6428325546248
 20
-200.2963728768336
 10
568.6582579234438
 20
-201.3007643840349
 10
568.6246991334911
 20
-202.7824245351697
 10
568.5388960602035
 20
-204.0969299277858
 10
568.4376726415207
 20
-205.1048795441779
 10
568.3652912886234
 20
-205.6872218127912
 10
568.3499999999988
 20
-205.8007643840349
  0
LINE
  5
149
330
A
100
AcDbEntity
  8
0
  6
Continuous
 62
     7
100
AcDbLine
 10
568.3499999999988
 20
-205.8007643840349
 30
0.0
 11
601.3499999999991
 21
-205.8007643840349
 31
0.0
  0
LINE
  5
14A
330
A
100
AcDbEntity
  8
0
  6
Continuous
 62
     7
100
AcDbLine
 10
568.3499999999988
 20
-196.8007643840349
 30
0.0
 11
601.3499999999991
 21
-196.8007643840349
 31
0.0
  0
LINE
  5
14B
330
A
100
AcDbEntity
  8
0
  6
Continuous
 62
     7
100
AcDbLine
 10
641.3499999999991
 20
-205.8007643840349
 30
0.0
 11
601.3499999999991
 21
-205.8007643840349
 31
0.0
  0
LINE
  5
14C
330
A
100
AcDbEntity
  8
0
  6
Continuous
 62
     7
100
AcDbLine
 10
601.3499999999991
 20
-196.8007643840349
 30
0.0
 11
641.3499999999991
 21
-196.8007643840349
 31
0.0
  0
LINE
  5
14D
330
A
100
AcDbEntity
  8
0
  6
Continuous
 62
     7
100
AcDbLine
 10
678.1499999999989
 20
-227.5507643840349
 30
0.0
 11
678.1499999999989
 21
-175.1886933537074
 31
0.0
  0
LINE
  5
14E
330
A
100
AcDbEntity
  8
0
  6
Continuous
 62
     7
100
AcDbLine
 10
657.3499999999988
 20
-225.2507643840349
 30
0.0
 11
657.3499999999988
 21
-177.3507643840349
 31
0.0
  0
LINE
  5
14F
330
A
100
AcDbEntity
  8
0
  6
Continuous
 62
     7
100
AcDbLine
 10
637.3499999999989
 20
-177.3507643840349
 30
0.0
 11
637.349999999999
 21
-196.8007643840349
 31
0.0
  0
LINE
  5
150
330
A
100
AcDbEntity
  8
0
  6
Continuous
 62
     7
100
AcDbLine
 10
637.349999999999
 20
-205.8007643840349
 30
0.0
 11
637.3499999999989
 21
-225.2507643840349
 31
0.0
  0
LINE
  5
151
330
A
100
AcDbEntity
  8
0
  6
Continuous
 62
     7
100
AcDbLine
 10
595.3499999999989
 20
-205.8007643840349
 30
0.0
 11
595.3499999999987
 21
-212.5507643840349
 31
0.0
  0
LINE
  5
152
330
A
100
AcDbEntity
  8
0
  6
Continuous
 62
     7
100
AcDbLine
 10
595.3499999999987
 20
-190.0507643840349
 30
0.0
 11
595.3499999999989
 21
-196.8007643840349
 31
0.0
  0
LINE
  5
153
330
A
100
AcDbEntity
  8
0
  6
Continuous
 62
     7
100
AcDbLine
 10
544.849999999999
 20
-194.3007643840349
 30
0.0
 11
544.8499999999991
 21
-202.7007643840349
 31
0.0
  0
LINE
  5
154
330
A
100
AcDbEntity
  8
0
  6
Continuous
 62
     7
100
AcDbLine
 10
154.849999999999
 20
-194.3007643840349
 30
0.0
 11
154.849999999999
 21
-202.7007643840349
 31
0.0
  0
LINE
  5
155
330
A
100
AcDbEntity
  8
0
  6
Continuous
 62
     7
100
AcDbLine
 10
544.8499999999991
 20
-202.7007643840349
 30
0.0
 11
544.8499999999991
 21
-212.3007643840349
 31
0.0
  0
LINE
  5
156
330
A
100
AcDbEntity
  8
0
  6
Continuous
 62
     7
100
AcDbLine
 10
154.849999999999
 20
-212.3007643840349
 30
0.0
 11
154.849999999999
 21
-202.7007643840349
 31
0.0
  0
LINE
  5
157
330
A
100
AcDbEntity
  8
0
  6
Continuous
 62
     7
100
AcDbLine
 10
586.3499999999988
 20
-195.0507643840349
 30
0.0
 11
586.3499999999988
 21
-196.8007643840349
 31
0.0
  0
LINE
  5
158
330
A
100
AcDbEntity
  8
0
  6
Continuous
 62
     7
100
AcDbLine
 10
586.3499999999988
 20
-205.8007643840349
 30
0.0
 11
586.3499999999988
 21
-207.5507643840349
 31
0.0
  0
CIRCLE
  5
159
330
A
100
AcDbEntity
  8
0
  6
Continuous
 62
     7
100
AcDbCircle
 10
553.349999999999
 20
-196.8007643840349
 30
0.0
 40
7.500000000000113
  0
LINE
  5
15A
330
A
100
AcDbEntity
  8
0
  6
Continuous
 62
     7
100
AcDbLine
 10
544.8499999999991
 20
-212.3007643840349
 30
0.0
 11
544.849999999999
 21
-216.3007643840351
 31
0.0
  0
LINE
  5
15B
330
A
100
AcDbEntity
  8
0
  6
Continuous
 62
     7
100
AcDbLine
 10
154.849999999999
 20
-212.3007643840349
 30
0.0
 11
154.849999999999
 21
-216.3007643840351
 31
0.0
  0
LINE
  5
15C
330
A
100
AcDbEntity
  8
0
  6
PHANTOM
 62
     7
100
AcDbLine
 10
69.85000000000066
 20
-235.6114700589858
 30
0.0
 11
58.85000000000066
 21
-235.6114700589858
 31
0.0
  0
LINE
  5
15D
330
A
100
AcDbEntity
  8
0
  6
PHANTOM
 62
     7
100
AcDbLine
 10
80.85000000000066
 20
-235.6114700589858
 30
0.0
 11
69.85000000000066
 21
-235.6114700589858
 31
0.0
  0
LINE
  5
15E
330
A
100
AcDbEntity
  8
0
  6
PHANTOM
 62
     7
100
AcDbLine
 10
58.85000000000066
 20
-235.6619803162027
 30
0.0
 11
80.85000000000066
 21
-235.6619803162027
 31
0.0
  0
LINE
  5
15F
330
A
100
AcDbEntity
  8
0
  6
PHANTOM
 62
     7
100
AcDbLine
 10
69.85000000000066
 20
-106.1619803162026
 30
0.0
 11
79.60000000000057
 21
-106.1619803162026
 31
0.0
  0
LINE
  5
160
330
A
100
AcDbEntity
  8
0
  6
PHANTOM
 62
     7
100
AcDbLine
 10
60.10000000000075
 20
-106.1619803162026
 30
0.0
 11
69.85000000000066
 21
-106.1619803162026
 31
0.0
  0
LINE
  5
161
330
A
100
AcDbEntity
  8
0
  6
PHANTOM
 62
     7
100
AcDbLine
 10
61.03183692598122
 20
-229.1598266050896
 30
0.0
 11
60.85000000000067
 21
-229.0431781626858
 31
0.0
  0
LWPOLYLINE
  5
162
330
A
100
AcDbEntity
  8
0
  6
PHANTOM
 62
     7
100
AcDbPolyline
 90
        7
 70
   128
 43
0.0
 10
62.33351811018014
 20
-225.9534035897582
 10
62.25187078755721
 20
-227.0337924064662
 10
62.00744877864561
 20
-227.9969804872963
 10
61.69674852784199
 20
-228.6554905282081
 10
61.37537058746145
 20
-229.0593868002193
 10
61.09255088106626
 20
-229.1833044930254
 10
61.03183692598122
 20
-229.1598266050896
  0
LINE
  5
16B
330
A
100
AcDbEntity
  8
0
  6
PHANTOM
 62
     7
100
AcDbLine
 10
62.33351811018014
 20
-220.1799008978618
 30
0.0
 11
62.33351811018014
 21
-225.9534035897582
 31
0.0
  0
LWPOLYLINE
  5
16C
330
A
100
AcDbEntity
  8
0
  6
PHANTOM
 62
     7
100
AcDbPolyline
 90
        7
 70
   128
 43
0.0
 10
61.03183692598122
 20
-215.3034201445386
 10
61.24908934988897
 20
-215.5928306013568
 10
61.27136897829953
 20
-215.6339179150811
 10
61.62422145672205
 20
-216.4556593301441
 10
62.07364572792788
 20
-217.9987871378854
 10
62.32663615812184
 20
-219.8463119967474
 10
62.33351811018014
 20
-220.1799008978618
  0
LINE
  5
175
330
A
100
AcDbEntity
  8
0
  6
PHANTOM
 62
     7
100
AcDbLine
 10
60.85000000000067
 20
-215.1867717021347
 30
0.0
 11
61.03183692598122
 21
-215.3034201445386
 31
0.0
  0
LINE
  5
176
330
A
100
AcDbEntity
  8
0
  6
PHANTOM
 62
     7
100
AcDbLine
 10
78.66816307402011
 20
-215.3034201445386
 30
0.0
 11
78.85000000000066
 21
-215.1867717021347
 31
0.0
  0
LWPOLYLINE
  5
177
330
A
100
AcDbEntity
  8
0
  6
PHANTOM
 62
     7
100
AcDbPolyline
 90
        6
 70
   128
 43
0.0
 10
77.36648188982119
 20
-220.1799008978634
 10
77.53809396363664
 20
-218.4299008978632
 10
77.9770612629197
 20
-216.738147607181
 10
78.34918143682177
 20
-215.7922577774646
 10
78.59482128277424
 20
-215.3724292756349
 10
78.66816307402011
 20
-215.3034201445386
  0
LINE
  5
17F
330
A
100
AcDbEntity
  8
0
  6
PHANTOM
 62
     7
100
AcDbLine
 10
77.36648188982119
 20
-225.9534035897581
 30
0.0
 11
77.36648188982119
 21
-220.1799008978634
 31
0.0
  0
LWPOLYLINE
  5
180
330
A
100
AcDbEntity
  8
0
  6
PHANTOM
 62
     7
100
AcDbPolyline
 90
        6
 70
   128
 43
0.0
 10
78.6681630740201
 20
-229.1598266050896
 10
78.3930648459618
 20
-229.1135824060543
 10
78.02602047146047
 20
-228.6920749044182
 10
77.67534861136486
 20
-227.9487716344639
 10
77.44985366296763
 20
-227.0445585545569
 10
77.36648188982119
 20
-225.9534035897579
  0
LINE
  5
188
330
A
100
AcDbEntity
  8
0
  6
PHANTOM
 62
     7
100
AcDbLine
 10
78.85000000000066
 20
-229.0431781626858
 30
0.0
 11
78.6681630740201
 21
-229.1598266050896
 31
0.0
  0
LWPOLYLINE
  5
189
330
A
100
AcDbEntity
  8
0
  6
PHANTOM
 62
     7
100
AcDbPolyline
 90
        7
 70
   128
 43
0.0
 10
61.49835345575562
 20
-220.1799008978618
 10
61.44998210577372
 20
-219.9168493096354
 10
60.96038831022313
 20
-218.4304454698212
 10
60.30578404715185
 20
-217.1562080913671
 10
59.84006576834963
 20
-216.4620494858648
 10
59.59283102790585
 20
-216.1971261857401
 10
59.55204102886795
 20
-216.169445548323
  0
LWPOLYLINE
  5
192
330
A
100
AcDbEntity
  8
0
  6
PHANTOM
 62
     7
100
AcDbPolyline
 90
        9
 70
   128
 43
0.0
 10
59.55204102886796
 20
-216.169445548323
 10
59.78587269830154
 20
-216.2655360003094
 10
60.0376436140088
 20
-216.2967816480934
 10
60.29038488847479
 20
-216.2610765936165
 10
60.52706223382418
 20
-216.1608272905844
 10
60.73172404087569
 20
-216.002790354001
 10
60.89057648768328
 20
-215.7976171769892
 10
60.99291321726454
 20
-215.5591360468711
 10
61.03183692598122
 20
-215.3034201445386
  0
LINE
  5
19D
330
A
100
AcDbEntity
  8
0
  6
PHANTOM
 62
     7
100
AcDbLine
 10
61.4983534557556
 20
-220.1799008978618
 30
0.0
 11
62.33351811018014
 21
-220.1799008978618
 31
0.0
  0
LWPOLYLINE
  5
19E
330
A
100
AcDbEntity
  8
0
  6
PHANTOM
 62
     7
100
AcDbPolyline
 90
        6
 70
   128
 43
0.0
 10
80.14795897113337
 20
-216.169445548323
 10
80.0637512032511
 20
-216.2337488901174
 10
79.75837296011992
 20
-216.5973808632657
 10
79.25741592997598
 20
-217.3917332729411
 10
78.59521297135062
 20
-218.7813103557168
 10
78.20164654424539
 20
-220.1799008978637
  0
LINE
  5
1A6
330
A
100
AcDbEntity
  8
0
  6
PHANTOM
 62
     7
100
AcDbLine
 10
78.20164654424488
 20
-220.1799008978623
 30
0.0
 11
77.36648188982119
 21
-220.1799008978634
 31
0.0
  0
LWPOLYLINE
  5
1A7
330
A
100
AcDbEntity
  8
0
  6
PHANTOM
 62
     7
100
AcDbPolyline
 90
        9
 70
   128
 43
0.0
 10
80.14795897113337
 20
-216.169445548323
 10
79.91412730169979
 20
-216.2655360003094
 10
79.66235638599252
 20
-216.2967816480934
 10
79.40961511152652
 20
-216.2610765936165
 10
79.17293776617714
 20
-216.1608272905844
 10
78.96827595912563
 20
-216.002790354001
 10
78.80942351231801
 20
-215.7976171769892
 10
78.70708678273678
 20
-215.5591360468712
 10
78.66816307402011
 20
-215.3034201445386
  0
LINE
  5
1B2
330
A
100
AcDbEntity
  8
0
  6
PHANTOM
 62
     7
100
AcDbLine
 10
78.2016465442457
 20
-225.9534035897581
 30
0.0
 11
77.36648188982119
 21
-225.9534035897581
 31
0.0
  0
LWPOLYLINE
  5
1B3
330
A
100
AcDbEntity
  8
0
  6
PHANTOM
 62
     7
100
AcDbPolyline
 90
        7
 70
   128
 43
0.0
 10
78.2016465442457
 20
-225.9534035897581
 10
78.15266962335184
 20
-226.7992789869408
 10
78.27345578473466
 20
-227.4787346046871
 10
78.49646562893955
 20
-227.9489791867301
 10
78.54330015419096
 20
-228.0145537232648
 10
78.86984870187131
 20
-228.2952826725448
 10
79.14795897113338
 20
-228.2938012013052
  0
LWPOLYLINE
  5
1BC
330
A
100
AcDbEntity
  8
0
  6
PHANTOM
 62
     7
100
AcDbPolyline
 90
        9
 70
   128
 43
0.0
 10
78.6681630740201
 20
-229.1598266050896
 10
78.67370471769804
 20
-229.0287308011627
 10
78.69628777151075
 20
-228.8999280920351
 10
78.73551721836611
 20
-228.775671462269
 10
78.79070686665568
 20
-228.6581343775508
 10
78.86089135294547
 20
-228.549372766977
 10
78.94484302787003
 20
-228.4512890612589
 10
79.04109342986631
 20
-228.3655989158848
 10
79.1479589711334
 20
-228.2938012013052
  0
LINE
  5
1C7
330
A
100
AcDbEntity
  8
0
  6
PHANTOM
 62
     7
100
AcDbLine
 10
78.2016465442457
 20
-225.9534035897581
 30
0.0
 11
106.6871067855691
 21
-209.5073154514397
 31
0.0
  0
LWPOLYLINE
  5
1C8
330
A
100
AcDbEntity
  8
0
  6
PHANTOM
 62
     7
100
AcDbPolyline
 90
        8
 70
   128
 43
0.0
 10
60.55204102886794
 20
-228.2938012013051
 10
60.61758704643851
 20
-228.3205941176147
 10
60.89405431764726
 20
-228.2621078431764
 10
61.17566552774622
 20
-227.9889387819272
 10
61.41475978942153
 20
-227.5142482434581
 10
61.54424910378035
 20
-226.8479946988108
 10
61.54777760624158
 20
-226.7910569210538
 10
61.49835345575565
 20
-225.9534035897582
  0
LINE
  5
1D2
330
A
100
AcDbEntity
  8
0
  6
PHANTOM
 62
     7
100
AcDbLine
 10
61.49835345575566
 20
-225.9534035897582
 30
0.0
 11
62.33351811018014
 21
-225.9534035897582
 31
0.0
  0
LWPOLYLINE
  5
1D3
330
A
100
AcDbEntity
  8
0
  6
PHANTOM
 62
     7
100
AcDbPolyline
 90
        9
 70
   128
 43
0.0
 10
60.55204102886794
 20
-228.2938012013051
 10
60.658906570135
 20
-228.3655989158848
 10
60.75515697213126
 20
-228.4512890612589
 10
60.83910864705585
 20
-228.5493727669769
 10
60.90929313334562
 20
-228.6581343775508
 10
60.96448278163521
 20
-228.775671462269
 10
61.00371222849058
 20
-228.8999280920351
 10
61.02629528230327
 20
-229.0287308011627
 10
61.03183692598122
 20
-229.1598266050896
  0
LINE
  5
1DE
330
A
100
AcDbEntity
  8
0
  6
PHANTOM
 62
     7
100
AcDbLine
 10
33.01289321443215
 20
-209.5073154514397
 30
0.0
 11
61.49835345575566
 21
-225.9534035897582
 31
0.0
  0
LINE
  5
1DF
330
A
100
AcDbEntity
  8
0
  6
PHANTOM
 62
     7
100
AcDbLine
 10
61.49835345575566
 20
-225.9534035897582
 30
0.0
 11
61.4983534557556
 21
-220.1799008978618
 31
0.0
  0
LINE
  5
1E0
330
A
100
AcDbEntity
  8
0
  6
PHANTOM
 62
     7
100
AcDbLine
 10
78.20164654424488
 20
-220.1799008978623
 30
0.0
 11
78.2016465442457
 21
-225.9534035897581
 31
0.0
  0
LINE
  5
1E1
330
A
100
AcDbEntity
  8
0
  6
PHANTOM
 62
     7
100
AcDbLine
 10
61.4983534557556
 20
-220.1799008978618
 30
0.0
 11
37.60882556938534
 21
-206.3872755418529
 31
0.0
  0
LINE
  5
1E2
330
A
100
AcDbEntity
  8
0
  6
PHANTOM
 62
     7
100
AcDbLine
 10
102.0911744306159
 20
-206.3872755418529
 30
0.0
 11
78.20164654424488
 21
-220.1799008978623
 31
0.0
  0
LINE
  5
1E3
330
A
100
AcDbEntity
  8
0
  6
PHANTOM
 62
     7
100
AcDbLine
 10
109.9012701892226
 20
-148.8007643840349
 30
0.0
 11
109.9012701892226
 21
-151.100764384035
 31
0.0
  0
LINE
  5
1E4
330
A
100
AcDbEntity
  8
0
  6
PHANTOM
 62
     7
100
AcDbLine
 10
114.9012701892226
 20
-148.8007643840349
 30
0.0
 11
109.9012701892226
 21
-148.8007643840349
 31
0.0
  0
LINE
  5
1E5
330
A
100
AcDbEntity
  8
0
  6
PHANTOM
 62
     7
100
AcDbLine
 10
114.9012701892227
 20
-195.2799670946388
 30
0.0
 11
114.9012701892226
 21
-148.8007643840349
 31
0.0
  0
LINE
  5
1E6
330
A
100
AcDbEntity
  8
0
  6
PHANTOM
 62
     7
100
AcDbLine
 10
109.9012701892226
 20
-157.500764384035
 30
0.0
 11
109.9012701892227
 21
-192.8597928759679
 31
0.0
  0
LINE
  5
1E7
330
A
100
AcDbEntity
  8
0
  6
PHANTOM
 62
     7
100
AcDbLine
 10
29.79872981077864
 20
-192.8597928759679
 30
0.0
 11
29.79872981077863
 21
-157.500764384035
 31
0.0
  0
LINE
  5
1E8
330
A
100
AcDbEntity
  8
0
  6
PHANTOM
 62
     7
100
AcDbLine
 10
24.79872981077869
 20
-148.8007643840349
 30
0.0
 11
24.79872981077867
 21
-195.2799670946388
 31
0.0
  0
LINE
  5
1E9
330
A
100
AcDbEntity
  8
0
  6
PHANTOM
 62
     7
100
AcDbLine
 10
29.79872981077866
 20
-148.8007643840349
 30
0.0
 11
24.79872981077869
 21
-148.8007643840349
 31
0.0
  0
LINE
  5
1EA
330
A
100
AcDbEntity
  8
0
  6
PHANTOM
 62
     7
100
AcDbLine
 10
29.79872981077863
 20
-151.100764384035
 30
0.0
 11
29.79872981077866
 21
-148.8007643840349
 31
0.0
  0
LINE
  5
1EB
330
A
100
AcDbEntity
  8
0
  6
PHANTOM
 62
     7
100
AcDbLine
 10
117.4012701892226
 20
-148.8007643840349
 30
0.0
 11
114.9012701892226
 21
-148.8007643840349
 31
0.0
  0
LINE
  5
1EC
330
A
100
AcDbEntity
  8
0
  6
PHANTOM
 62
     7
100
AcDbLine
 10
114.9012701892226
 20
-146.300764384035
 30
0.0
 11
114.9012701892226
 21
-148.8007643840349
 31
0.0
  0
LINE
  5
1ED
330
A
100
AcDbEntity
  8
0
  6
PHANTOM
 62
     7
100
AcDbLine
 10
109.9012701892226
 20
-146.300764384035
 30
0.0
 11
109.9012701892226
 21
-148.8007643840349
 31
0.0
  0
LINE
  5
1EE
330
A
100
AcDbEntity
  8
0
  6
PHANTOM
 62
     7
100
AcDbLine
 10
107.4012701892226
 20
-148.8007643840349
 30
0.0
 11
109.9012701892226
 21
-148.8007643840349
 31
0.0
  0
LINE
  5
1EF
330
A
100
AcDbEntity
  8
0
  6
PHANTOM
 62
     7
100
AcDbLine
 10
32.29872981077863
 20
-148.8007643840349
 30
0.0
 11
29.79872981077866
 21
-148.8007643840349
 31
0.0
  0
LINE
  5
1F0
330
A
100
AcDbEntity
  8
0
  6
PHANTOM
 62
     7
100
AcDbLine
 10
29.79872981077866
 20
-146.300764384035
 30
0.0
 11
29.79872981077866
 21
-148.8007643840349
 31
0.0
  0
LINE
  5
1F1
330
A
100
AcDbEntity
  8
0
  6
PHANTOM
 62
     7
100
AcDbLine
 10
22.29872981077869
 20
-148.8007643840349
 30
0.0
 11
24.79872981077869
 21
-148.8007643840349
 31
0.0
  0
LINE
  5
1F2
330
A
100
AcDbEntity
  8
0
  6
PHANTOM
 62
     7
100
AcDbLine
 10
24.79872981077866
 20
-146.300764384035
 30
0.0
 11
24.79872981077869
 21
-148.8007643840349
 31
0.0
  0
LINE
  5
1F3
330
A
100
AcDbEntity
  8
0
  6
PHANTOM
 62
     7
100
AcDbLine
 10
-538.3202867011601
 20
-166.7474989525283
 30
0.0
 11
-600.5597594740398
 21
-138.3833370794218
 31
0.0
  0
LINE
  5
1F4
330
A
100
AcDbEntity
  8
0
  6
PHANTOM
 62
     7
100
AcDbLine
 10
-461.6499999999994
 20
-196.8007643840349
 30
0.0
 11
-461.6499999999994
 21
-205.8007643840349
 31
0.0
  0
LINE
  5
1F5
330
A
100
AcDbEntity
  8
0
  6
PHANTOM
 62
     7
100
AcDbLine
 10
-465.6499999999993
 20
-196.8007643840349
 30
0.0
 11
-465.6499999999993
 21
-180.0507643840349
 31
0.0
  0
LINE
  5
1F6
330
A
100
AcDbEntity
  8
0
  6
PHANTOM
 62
     7
100
AcDbLine
 10
-465.6499999999993
 20
-222.5507643840349
 30
0.0
 11
-465.6499999999993
 21
-205.8007643840349
 31
0.0
  0
LWPOLYLINE
  5
1F7
330
A
100
AcDbEntity
  8
0
  6
PHANTOM
 62
     7
100
AcDbPolyline
 90
       10
 70
   128
 43
0.0
 10
-573.3384316947056
 20
-326.3020344822389
 10
-573.2898790324454
 20
-326.3790538834461
 10
-573.1101847182118
 20
-326.5074810659927
 10
-572.8267055824139
 20
-326.6677641555317
 10
-572.4825987537323
 20
-326.8355015046504
 10
-572.1302513774971
 20
-326.9851566224883
 10
-571.823305147704
 20
-327.0939458739817
 10
-571.6084898453637
 20
-327.1453070817678
 10
-571.5185091529523
 20
-327.1314209675515
 10
-571.5185091529523
 20
-327.1314209675515
  0
LINE
  5
203
330
A
100
AcDbEntity
  8
0
  6
PHANTOM
 62
     7
100
AcDbLine
 10
-405.1499999999993
 20
-202.7007643840349
 30
0.0
 11
-15.14999999999934
 21
-202.7007643840349
 31
0.0
  0
LINE
  5
204
330
A
100
AcDbEntity
  8
0
  6
PHANTOM
 62
     7
100
AcDbLine
 10
-15.14999999999934
 20
-212.3007643840349
 30
0.0
 11
-405.1499999999993
 21
-212.3007643840349
 31
0.0
  0
LINE
  5
205
330
A
100
AcDbEntity
  8
0
  6
PHANTOM
 62
     7
100
AcDbLine
 10
740.2597594740393
 20
-138.3833370794218
 30
0.0
 11
678.0202867011596
 21
-166.7474989525283
 31
0.0
  0
LINE
  5
206
330
A
100
AcDbEntity
  8
0
  6
PHANTOM
 62
     7
100
AcDbLine
 10
601.3499999999991
 20
-205.8007643840349
 30
0.0
 11
601.3499999999991
 21
-196.8007643840349
 31
0.0
  0
LINE
  5
207
330
A
100
AcDbEntity
  8
0
  6
PHANTOM
 62
     7
100
AcDbLine
 10
605.3499999999989
 20
-180.0507643840349
 30
0.0
 11
605.3499999999989
 21
-196.8007643840349
 31
0.0
  0
LINE
  5
208
330
A
100
AcDbEntity
  8
0
  6
PHANTOM
 62
     7
100
AcDbLine
 10
605.3499999999989
 20
-205.8007643840349
 30
0.0
 11
605.3499999999989
 21
-222.5507643840349
 31
0.0
  0
LWPOLYLINE
  5
209
330
A
100
AcDbEntity
  8
0
  6
PHANTOM
 62
     7
100
AcDbPolyline
 90
        9
 70
   128
 43
0.0
 10
711.2185091529518
 20
-327.1314209675513
 10
711.3084898453632
 20
-327.1453070817675
 10
711.5233051477034
 20
-327.0939458739815
 10
711.8302513774968
 20
-326.9851566224881
 10
712.1825987537317
 20
-326.8355015046502
 10
712.5267055824134
 20
-326.6677641555315
 10
712.8101847182112
 20
-326.5074810659925
 10
712.9898790324449
 20
-326.3790538834458
 10
713.0384316947051
 20
-326.3020344822387
  0
LINE
  5
214
330
A
100
AcDbEntity
  8
0
  6
PHANTOM
 62
     7
100
AcDbLine
 10
154.849999999999
 20
-202.7007643840349
 30
0.0
 11
544.8499999999991
 21
-202.7007643840349
 31
0.0
  0
LINE
  5
215
330
A
100
AcDbEntity
  8
0
  6
PHANTOM
 62
     7
100
AcDbLine
 10
544.8499999999991
 20
-212.3007643840349
 30
0.0
 11
154.849999999999
 21
-212.3007643840349
 31
0.0
  0
LINE
  5
216
330
A
100
AcDbEntity
  8
0
  6
Continuous
 62
     7
100
AcDbLine
 10
141.6396232055868
 20
-654.3429473446947
 30
0.0
 11
154.8500000000006
 21
-654.3429473446947
 31
0.0
  0
LINE
  5
217
330
A
100
AcDbEntity
  8
0
  6
Continuous
 62
     7
100
AcDbLine
 10
154.8500000000006
 20
-643.3429473446945
 30
0.0
 11
141.6396232055863
 21
-643.3429473446945
 31
0.0
  0
LINE
  5
218
330
A
100
AcDbEntity
  8
0
  6
Continuous
 62
     7
100
AcDbLine
 10
-1.939623205585022
 20
-643.3429473446945
 30
0.0
 11
-15.14999999999933
 21
-643.3429473446945
 31
0.0
  0
LINE
  5
219
330
A
100
AcDbEntity
  8
0
  6
Continuous
 62
     7
100
AcDbLine
 10
-15.14999999999933
 20
-654.3429473446947
 30
0.0
 11
-1.93962320558548
 21
-654.3429473446947
 31
0.0
  0
LINE
  5
21A
330
A
100
AcDbEntity
  8
0
  6
Continuous
 62
     7
100
AcDbLine
 10
-538.8236007533594
 20
-655.0005422807919
 30
0.0
 11
-538.7315301163438
 21
-654.3843533959792
 31
0.0
  0
LINE
  5
21B
330
A
100
AcDbEntity
  8
0
  6
Continuous
 62
     7
100
AcDbLine
 10
-538.7315301163438
 20
-643.3015412934111
 30
0.0
 11
-538.823803690277
 21
-642.6839942397285
 31
0.0
  0
LINE
  5
21C
330
A
100
AcDbEntity
  8
0
  6
Continuous
 62
     7
100
AcDbLine
 10
-408.4984885860315
 20
-649.5929473446947
 30
0.0
 11
-2.146093644029803
 21
-649.5929473446948
 31
0.0
  0
LINE
  5
21D
330
A
100
AcDbEntity
  8
0
  6
Continuous
 62
     7
100
AcDbLine
 10
-2.146093644029734
 20
-648.0929473446949
 30
0.0
 11
-408.5023154059149
 21
-648.0929473446948
 31
0.0
  0
ARC
  5
21E
330
A
100
AcDbEntity
  8
0
  6
Continuous
 62
     7
100
AcDbCircle
 10
-537.6499999999992
 20
-675.0929473446947
 30
0.0
 40
0.8000000000000682
100
AcDbArc
 50
180.0000000000004
 51
0.0
  0
ARC
  5
21F
330
A
100
AcDbEntity
  8
0
  6
Continuous
 62
     7
100
AcDbCircle
 10
-537.6499999999992
 20
-622.5929473446947
 30
0.0
 40
0.8000000000000682
100
AcDbArc
 50
0.0
 51
180.0000000000004
  0
LINE
  5
220
330
A
100
AcDbEntity
  8
0
  6
Continuous
 62
     7
100
AcDbLine
 10
-536.8499999999992
 20
-675.0929473446947
 30
0.0
 11
-536.8499999999992
 21
-622.5929473446947
 31
0.0
  0
LINE
  5
221
330
A
100
AcDbEntity
  8
0
  6
Continuous
 62
     7
100
AcDbLine
 10
-545.3397060311134
 20
-675.0929473446947
 30
0.0
 11
-538.4499999999993
 21
-675.0929473446947
 31
0.0
  0
LINE
  5
222
330
A
100
AcDbEntity
  8
0
  6
Continuous
 62
     7
100
AcDbLine
 10
-538.4499999999993
 20
-622.5929473446947
 30
0.0
 11
-545.3397060311134
 21
-622.5929473446947
 31
0.0
  0
LINE
  5
223
330
A
100
AcDbEntity
  8
0
  6
Continuous
 62
     7
100
AcDbLine
 10
-500.1499999999992
 20
-672.7929473446947
 30
0.0
 11
-497.6499999999992
 21
-672.7929473446947
 31
0.0
  0
LINE
  5
224
330
A
100
AcDbEntity
  8
0
  6
Continuous
 62
     7
100
AcDbLine
 10
-517.6499999999992
 20
-672.7929473446947
 30
0.0
 11
-515.1499999999991
 21
-672.7929473446947
 31
0.0
  0
LINE
  5
225
330
A
100
AcDbEntity
  8
0
  6
Continuous
 62
     7
100
AcDbLine
 10
-515.1499999999991
 20
-624.8929473446946
 30
0.0
 11
-517.6499999999992
 21
-624.8929473446946
 31
0.0
  0
LINE
  5
226
330
A
100
AcDbEntity
  8
0
  6
Continuous
 62
     7
100
AcDbLine
 10
-497.6499999999992
 20
-624.8929473446946
 30
0.0
 11
-500.1499999999992
 21
-624.8929473446946
 31
0.0
  0
ARC
  5
227
330
A
100
AcDbEntity
  8
0
  6
Continuous
 62
     7
100
AcDbCircle
 10
-465.6499999999992
 20
-660.0929473446947
 30
0.0
 40
10.0
100
AcDbArc
 50
270.0000000000002
 51
0.0
  0
ARC
  5
228
330
A
100
AcDbEntity
  8
0
  6
Continuous
 62
     7
100
AcDbCircle
 10
-465.6499999999992
 20
-637.5929473446947
 30
0.0
 40
10.0
100
AcDbArc
 50
0.0
 51
90.00000000000065
  0
LINE
  5
229
330
A
100
AcDbEntity
  8
0
  6
Continuous
 62
     7
100
AcDbLine
 10
-536.8499999999992
 20
-670.0929473446947
 30
0.0
 11
-517.6499999999992
 21
-670.0929473446947
 31
0.0
  0
LINE
  5
22A
330
A
100
AcDbEntity
  8
0
  6
Continuous
 62
     7
100
AcDbLine
 10
-517.6499999999992
 20
-627.5929473446947
 30
0.0
 11
-536.8499999999992
 21
-627.5929473446947
 31
0.0
  0
LINE
  5
22B
330
A
100
AcDbEntity
  8
0
  6
Continuous
 62
     7
100
AcDbLine
 10
-497.6499999999992
 20
-670.0929473446947
 30
0.0
 11
-465.6499999999993
 21
-670.0929473446947
 31
0.0
  0
LINE
  5
22C
330
A
100
AcDbEntity
  8
0
  6
Continuous
 62
     7
100
AcDbLine
 10
-465.6499999999993
 20
-627.5929473446947
 30
0.0
 11
-497.6499999999992
 21
-627.5929473446947
 31
0.0
  0
LINE
  5
22D
330
A
100
AcDbEntity
  8
0
  6
Continuous
 62
     7
100
AcDbLine
 10
-421.1499999999993
 20
-648.8429473446947
 30
0.0
 11
-421.1499999999993
 21
-653.8429473446947
 31
0.0
  0
LINE
  5
22E
330
A
100
AcDbEntity
  8
0
  6
Continuous
 62
     7
100
AcDbLine
 10
-421.1499999999993
 20
-643.8429473446947
 30
0.0
 11
-421.1499999999993
 21
-648.8429473446947
 31
0.0
  0
LINE
  5
22F
330
A
100
AcDbEntity
  8
0
  6
Continuous
 62
     7
100
AcDbLine
 10
-406.1499999999993
 20
-648.0929473446948
 30
0.0
 11
-406.1499999999993
 21
-643.8429473446947
 31
0.0
  0
LINE
  5
230
330
A
100
AcDbEntity
  8
0
  6
Continuous
 62
     7
100
AcDbLine
 10
-406.1499999999993
 20
-653.8429473446947
 30
0.0
 11
-406.1499999999993
 21
-649.5929473446947
 31
0.0
  0
LINE
  5
231
330
A
100
AcDbEntity
  8
0
  6
Continuous
 62
     7
100
AcDbLine
 10
-515.1499999999991
 20
-613.8429473446948
 30
0.0
 11
-515.1499999999991
 21
-624.8929473446946
 31
0.0
  0
LINE
  5
232
330
A
100
AcDbEntity
  8
0
  6
Continuous
 62
     7
100
AcDbLine
 10
-500.1499999999992
 20
-615.8429473446948
 30
0.0
 11
-500.1499999999992
 21
-613.8429473446948
 31
0.0
  0
LINE
  5
233
330
A
100
AcDbEntity
  8
0
  6
Continuous
 62
     7
100
AcDbLine
 10
-500.1499999999992
 20
-624.8929473446946
 30
0.0
 11
-500.1499999999992
 21
-619.8429473446947
 31
0.0
  0
LINE
  5
234
330
A
100
AcDbEntity
  8
0
  6
Continuous
 62
     7
100
AcDbLine
 10
-515.1499999999991
 20
-672.7929473446947
 30
0.0
 11
-515.1499999999991
 21
-683.8429473446947
 31
0.0
  0
LINE
  5
235
330
A
100
AcDbEntity
  8
0
  6
Continuous
 62
     7
100
AcDbLine
 10
-500.1499999999992
 20
-677.8429473446947
 30
0.0
 11
-500.1499999999992
 21
-672.7929473446947
 31
0.0
  0
LINE
  5
236
330
A
100
AcDbEntity
  8
0
  6
Continuous
 62
     7
100
AcDbLine
 10
-500.1499999999992
 20
-683.8429473446947
 30
0.0
 11
-500.1499999999992
 21
-681.8429473446947
 31
0.0
  0
LINE
  5
237
330
A
100
AcDbEntity
  8
0
  6
Continuous
 62
     7
100
AcDbLine
 10
-15.14999999999934
 20
-641.8429473446947
 30
0.0
 11
-405.1499999999993
 21
-641.8429473446947
 31
0.0
  0
LINE
  5
238
330
A
100
AcDbEntity
  8
0
  6
Continuous
 62
     7
100
AcDbLine
 10
-405.1499999999993
 20
-655.8429473446947
 30
0.0
 11
-15.14999999999934
 21
-655.8429473446947
 31
0.0
  0
LINE
  5
239
330
A
100
AcDbEntity
  8
0
  6
Continuous
 62
     7
100
AcDbLine
 10
-455.6499999999992
 20
-655.0929473446947
 30
0.0
 11
-446.6499999999993
 21
-655.0929473446947
 31
0.0
  0
LINE
  5
23A
330
A
100
AcDbEntity
  8
0
  6
Continuous
 62
     7
100
AcDbLine
 10
-446.6499999999993
 20
-642.5929473446947
 30
0.0
 11
-455.6499999999992
 21
-642.5929473446947
 31
0.0
  0
LWPOLYLINE
  5
23B
330
A
100
AcDbEntity
  8
0
  6
Continuous
 62
     7
100
AcDbPolyline
 90
       94
 70
   128
 43
0.0
 10
-540.6654776075199
 20
-622.5929473446947
 10
-541.622051114933
 20
-619.9005719285552
 10
-543.2190857284009
 20
-616.0585162683124
 10
-545.0421775701128
 20
-612.2634789015766
 10
-547.0892150434906
 20
-608.5426014266952
 10
-549.3564657128009
 20
-604.920223372389
 10
-551.8387844663054
 20
-601.4185106999148
 10
-554.5297709634164
 20
-598.0578758839317
 10
-557.4218921888157
 20
-594.8572625127186
 10
-560.5065800998499
 20
-591.8343404801982
 10
-563.7743107798359
 20
-589.005641115304
 10
-567.2146692564481
 20
-586.3866511331893
 10
-570.8164027251593
 20
-583.9918776152159
 10
-574.5674640409269
 20
-581.8348918685305
 10
-578.4550468370611
 20
-579.9283571107678
 10
-582.4656134005115
 20
-578.2840429536764
 10
-586.5849164220198
 20
-576.9128283183643
 10
-590.7980159123199
 20
-575.8246935367416
 10
-595.0892929000689
 20
-575.0287018977721
 10
-599.4424619629103
 20
-574.5329707564395
 10
-603.8405851290848
 20
-574.3446325404467
 10
-608.2660901390091
 20
-574.4697865735287
 10
-612.7007567113877
 20
-574.9134381752019
 10
-617.1257735527571
 20
-575.6794285457889
 10
-621.5218748623001
 20
-576.7703917020233
 10
-625.8693487237502
 20
-578.1877046552328
 10
-630.1481209163726
 20
-579.9314521532632
 10
-634.3378553076896
 20
-582.0004165805719
 10
-638.4180687178306
 20
-584.3921056527602
 10
-642.3682563206975
 20
-587.1028340613854
 10
-645.7625011322416
 20
-589.7836655478226
 10
-648.9983082469857
 20
-592.6866975805252
 10
-652.063044721671
 20
-595.7999850220097
 10
-654.9450603111739
 20
-599.1108367143944
 10
-657.6334144939177
 20
-602.6055519486048
 10
-660.1179168275772
 20
-606.2693471619446
 10
-662.3891615762678
 20
-610.0861979633394
 10
-664.4385551750551
 20
-614.0385169226469
 10
-666.2583324528646
 20
-618.1064920693114
 10
-667.8415509523837
 20
-622.266664740554
 10
-669.1820318902109
 20
-626.4886065507526
 10
-670.2741377000048
 20
-630.7260921578378
 10
-671.1118816383738
 20
-634.8885441799329
 10
-671.6834152359679
 20
-638.7096587927828
 10
-671.9991437542242
 20
-641.6665307189024
 10
-672.2015728853246
 20
-644.5349000075764
 10
-672.3153554041256
 20
-648.8429473446947
 10
-672.1608110943249
 20
-653.8629506694308
 10
-672.0114999407077
 20
-655.8780756916519
 10
-671.6532866134983
 20
-659.2138274409012
 10
-671.1364447011488
 20
-662.6554700327907
 10
-670.4189501920242
 20
-666.3147821221663
 10
-669.4916162087861
 20
-670.0889528492849
 10
-668.3450059047045
 20
-673.9271505303775
 10
-666.9742366871015
 20
-677.7853227608195
 10
-665.3772020736348
 20
-681.6273784210611
 10
-663.5541102319225
 20
-685.4224157878002
 10
-661.5070727585468
 20
-689.1432932626791
 10
-659.2398220892367
 20
-692.7656713169871
 10
-656.7575033357335
 20
-696.2673839894608
 10
-654.0665168386224
 20
-699.6280188054457
 10
-651.1743956132246
 20
-702.8286321766585
 10
-648.0897077021893
 20
-705.8515542091815
 10
-644.8219770222058
 20
-708.6802535740747
 10
-641.3816185455922
 20
-711.2992435561915
 10
-637.7798850768815
 20
-713.6940170741659
 10
-634.0288237611161
 20
-715.8510028208509
 10
-630.1412409649799
 20
-717.757537578616
 10
-626.1306744015323
 20
-719.4018517357072
 10
-622.0113713800242
 20
-720.7730663710202
 10
-617.7982718897234
 20
-721.8612011526444
 10
-613.5069949019749
 20
-722.6571927916147
 10
-609.1538258391331
 20
-723.1529239329484
 10
-604.7557026729581
 20
-723.3412621489423
 10
-600.3301976630346
 20
-723.2161081158612
 10
-595.8955310906567
 20
-722.7724565141894
 10
-591.4705142492866
 20
-722.0064661436034
 10
-587.0744129397434
 20
-720.9155029873699
 10
-582.7269390782929
 20
-719.4981900341615
 10
-578.4481668856718
 20
-717.7544425361331
 10
-574.2584324943535
 20
-715.685478108825
 10
-570.1782190842136
 20
-713.2937890366388
 10
-566.2280314813442
 20
-710.5830606280135
 10
-562.8337866698005
 20
-707.9022291415778
 10
-559.5979795550571
 20
-704.9991971088776
 10
-556.5332430803712
 20
-701.8859096673941
 10
-553.6512274908703
 20
-698.5750579750138
 10
-550.9628733081273
 20
-695.080342740807
 10
-548.4783709744673
 20
-691.4165475274695
 10
-546.2071262257758
 20
-687.5996967260764
 10
-544.1577326269874
 20
-683.6473777667703
 10
-542.3379553491757
 20
-679.5794026201057
 10
-540.7547368496564
 20
-675.4192299488673
 10
-540.6511410089505
 20
-675.0929473446944
  0
LINE
  5
29B
330
A
100
AcDbEntity
  8
0
  6
Continuous
 62
     7
100
AcDbLine
 10
-421.1499999999993
 20
-644.3429473446946
 30
0.0
 11
-428.9582579234441
 21
-644.3429473446946
 31
0.0
  0
LINE
  5
29C
330
A
100
AcDbEntity
  8
0
  6
Continuous
 62
     7
100
AcDbLine
 10
-405.1499999999993
 20
-644.3429473446946
 30
0.0
 11
-406.1499999999993
 21
-644.3429473446946
 31
0.0
  0
LINE
  5
29D
330
A
100
AcDbEntity
  8
0
  6
Continuous
 62
     7
100
AcDbLine
 10
-406.1499999999993
 20
-653.3429473446947
 30
0.0
 11
-405.1499999999993
 21
-653.3429473446947
 31
0.0
  0
LINE
  5
29E
330
A
100
AcDbEntity
  8
0
  6
Continuous
 62
     7
100
AcDbLine
 10
-428.9582579234442
 20
-653.3429473446947
 30
0.0
 11
-421.1499999999993
 21
-653.3429473446947
 31
0.0
  0
LINE
  5
29F
330
A
100
AcDbEntity
  8
0
  6
Continuous
 62
     7
100
AcDbLine
 10
678.523600753359
 20
-642.6853524085935
 30
0.0
 11
678.4315301163434
 21
-643.3015412934061
 31
0.0
  0
LINE
  5
2A0
330
A
100
AcDbEntity
  8
0
  6
Continuous
 62
     7
100
AcDbLine
 10
678.4315301163434
 20
-654.3843533959742
 30
0.0
 11
678.5238036902766
 21
-655.0019004496568
 31
0.0
  0
LINE
  5
2A1
330
A
100
AcDbEntity
  8
0
  6
Continuous
 62
     7
100
AcDbLine
 10
548.1984885860311
 20
-648.0929473446913
 30
0.0
 11
141.846093644031
 21
-648.0929473446943
 31
0.0
  0
LINE
  5
2A2
330
A
100
AcDbEntity
  8
0
  6
Continuous
 62
     7
100
AcDbLine
 10
141.8460936440311
 20
-649.5929473446942
 30
0.0
 11
548.2023154059145
 21
-649.5929473446913
 31
0.0
  0
ARC
  5
2A3
330
A
100
AcDbEntity
  8
0
  6
Continuous
 62
     7
100
AcDbCircle
 10
677.3499999999986
 20
-622.5929473446905
 30
0.0
 40
0.8000000000000682
100
AcDbArc
 50
0.0
 51
180.0000000000004
  0
ARC
  5
2A4
330
A
100
AcDbEntity
  8
0
  6
Continuous
 62
     7
100
AcDbCircle
 10
677.3499999999991
 20
-675.0929473446904
 30
0.0
 40
0.8000000000000682
100
AcDbArc
 50
180.0000000000004
 51
0.0
  0
LINE
  5
2A5
330
A
100
AcDbEntity
  8
0
  6
Continuous
 62
     7
100
AcDbLine
 10
676.5499999999986
 20
-622.5929473446905
 30
0.0
 11
676.549999999999
 21
-675.0929473446904
 31
0.0
  0
LINE
  5
2A6
330
A
100
AcDbEntity
  8
0
  6
Continuous
 62
     7
100
AcDbLine
 10
685.0397060311128
 20
-622.5929473446903
 30
0.0
 11
678.1499999999986
 21
-622.5929473446905
 31
0.0
  0
LINE
  5
2A7
330
A
100
AcDbEntity
  8
0
  6
Continuous
 62
     7
100
AcDbLine
 10
678.1499999999992
 20
-675.0929473446904
 30
0.0
 11
685.0397060311133
 21
-675.0929473446904
 31
0.0
  0
LINE
  5
2A8
330
A
100
AcDbEntity
  8
0
  6
Continuous
 62
     7
100
AcDbLine
 10
639.8499999999986
 20
-624.8929473446906
 30
0.0
 11
637.3499999999986
 21
-624.8929473446906
 31
0.0
  0
LINE
  5
2A9
330
A
100
AcDbEntity
  8
0
  6
Continuous
 62
     7
100
AcDbLine
 10
657.3499999999986
 20
-624.8929473446906
 30
0.0
 11
654.8499999999985
 21
-624.8929473446906
 31
0.0
  0
LINE
  5
2AA
330
A
100
AcDbEntity
  8
0
  6
Continuous
 62
     7
100
AcDbLine
 10
654.8499999999989
 20
-672.7929473446907
 30
0.0
 11
657.3499999999991
 21
-672.7929473446907
 31
0.0
  0
LINE
  5
2AB
330
A
100
AcDbEntity
  8
0
  6
Continuous
 62
     7
100
AcDbLine
 10
637.3499999999991
 20
-672.7929473446907
 30
0.0
 11
639.8499999999991
 21
-672.7929473446907
 31
0.0
  0
ARC
  5
2AC
330
A
100
AcDbEntity
  8
0
  6
Continuous
 62
     7
100
AcDbCircle
 10
605.3499999999988
 20
-637.5929473446909
 30
0.0
 40
10.00000000000011
100
AcDbArc
 50
89.99999999999934
 51
180.0000000000004
  0
ARC
  5
2AD
330
A
100
AcDbEntity
  8
0
  6
Continuous
 62
     7
100
AcDbCircle
 10
605.3499999999989
 20
-660.0929473446909
 30
0.0
 40
10.00000000000011
100
AcDbArc
 50
180.0000000000004
 51
270.0000000000008
  0
LINE
  5
2AE
330
A
100
AcDbEntity
  8
0
  6
Continuous
 62
     7
100
AcDbLine
 10
637.3499999999987
 20
-627.5929473446907
 30
0.0
 11
605.3499999999989
 21
-627.5929473446909
 31
0.0
  0
LINE
  5
2AF
330
A
100
AcDbEntity
  8
0
  6
Continuous
 62
     7
100
AcDbLine
 10
605.3499999999989
 20
-670.0929473446909
 30
0.0
 11
637.349999999999
 21
-670.0929473446907
 31
0.0
  0
LINE
  5
2B0
330
A
100
AcDbEntity
  8
0
  6
Continuous
 62
     7
100
AcDbLine
 10
676.5499999999988
 20
-627.5929473446905
 30
0.0
 11
657.3499999999987
 21
-627.5929473446906
 31
0.0
  0
LINE
  5
2B1
330
A
100
AcDbEntity
  8
0
  6
Continuous
 62
     7
100
AcDbLine
 10
657.349999999999
 20
-670.0929473446906
 30
0.0
 11
676.5499999999989
 21
-670.0929473446905
 31
0.0
  0
LINE
  5
2B2
330
A
100
AcDbEntity
  8
0
  6
Continuous
 62
     7
100
AcDbLine
 10
560.849999999999
 20
-648.8429473446913
 30
0.0
 11
560.849999999999
 21
-643.8429473446912
 31
0.0
  0
LINE
  5
2B3
330
A
100
AcDbEntity
  8
0
  6
Continuous
 62
     7
100
AcDbLine
 10
560.8499999999991
 20
-653.8429473446913
 30
0.0
 11
560.849999999999
 21
-648.8429473446913
 31
0.0
  0
LINE
  5
2B4
330
A
100
AcDbEntity
  8
0
  6
Continuous
 62
     7
100
AcDbLine
 10
545.849999999999
 20
-649.5929473446913
 30
0.0
 11
545.8499999999991
 21
-653.8429473446914
 31
0.0
  0
LINE
  5
2B5
330
A
100
AcDbEntity
  8
0
  6
Continuous
 62
     7
100
AcDbLine
 10
545.849999999999
 20
-643.8429473446914
 30
0.0
 11
545.849999999999
 21
-648.0929473446914
 31
0.0
  0
LINE
  5
2B6
330
A
100
AcDbEntity
  8
0
  6
Continuous
 62
     7
100
AcDbLine
 10
654.8499999999985
 20
-624.8929473446906
 30
0.0
 11
654.8499999999985
 21
-613.8429473446906
 31
0.0
  0
LINE
  5
2B7
330
A
100
AcDbEntity
  8
0
  6
Continuous
 62
     7
100
AcDbLine
 10
639.8499999999986
 20
-619.8429473446907
 30
0.0
 11
639.8499999999986
 21
-624.8929473446906
 31
0.0
  0
LINE
  5
2B8
330
A
100
AcDbEntity
  8
0
  6
Continuous
 62
     7
100
AcDbLine
 10
639.8499999999986
 20
-613.8429473446907
 30
0.0
 11
639.8499999999986
 21
-615.8429473446907
 31
0.0
  0
LINE
  5
2B9
330
A
100
AcDbEntity
  8
0
  6
Continuous
 62
     7
100
AcDbLine
 10
654.8499999999989
 20
-683.8429473446905
 30
0.0
 11
654.8499999999989
 21
-672.7929473446907
 31
0.0
  0
LINE
  5
2BA
330
A
100
AcDbEntity
  8
0
  6
Continuous
 62
     7
100
AcDbLine
 10
639.8499999999991
 20
-681.8429473446906
 30
0.0
 11
639.8499999999991
 21
-683.8429473446906
 31
0.0
  0
LINE
  5
2BB
330
A
100
AcDbEntity
  8
0
  6
Continuous
 62
     7
100
AcDbLine
 10
639.8499999999991
 20
-672.7929473446907
 30
0.0
 11
639.8499999999991
 21
-677.8429473446907
 31
0.0
  0
LINE
  5
2BC
330
A
100
AcDbEntity
  8
0
  6
Continuous
 62
     7
100
AcDbLine
 10
154.849999999999
 20
-655.8429473446941
 30
0.0
 11
544.8499999999991
 21
-655.8429473446913
 31
0.0
  0
LINE
  5
2BD
330
A
100
AcDbEntity
  8
0
  6
Continuous
 62
     7
100
AcDbLine
 10
544.849999999999
 20
-641.8429473446914
 30
0.0
 11
154.8499999999989
 21
-641.842947344694
 31
0.0
  0
LINE
  5
2BE
330
A
100
AcDbEntity
  8
0
  6
Continuous
 62
     7
100
AcDbLine
 10
595.3499999999987
 20
-642.5929473446911
 30
0.0
 11
586.3499999999988
 21
-642.5929473446911
 31
0.0
  0
LINE
  5
2BF
330
A
100
AcDbEntity
  8
0
  6
Continuous
 62
     7
100
AcDbLine
 10
586.3499999999988
 20
-655.0929473446911
 30
0.0
 11
595.3499999999987
 21
-655.0929473446911
 31
0.0
  0
LWPOLYLINE
  5
2C0
330
A
100
AcDbEntity
  8
0
  6
Continuous
 62
     7
100
AcDbPolyline
 90
       94
 70
   128
 43
0.0
 10
680.3654776075198
 20
-675.0929473446904
 10
681.3220511149328
 20
-677.7853227608296
 10
682.9190857284007
 20
-681.6273784210722
 10
684.7421775701126
 20
-685.4224157878081
 10
686.7892150434905
 20
-689.1432932626895
 10
689.0564657128008
 20
-692.7656713169956
 10
691.5387844663054
 20
-696.26738398947
 10
694.2297709634163
 20
-699.6280188054529
 10
697.1218921888156
 20
-702.8286321766661
 10
700.2065800998499
 20
-705.8515542091864
 10
703.4743107798361
 20
-708.6802535740806
 10
706.9146692564482
 20
-711.2992435561953
 10
710.5164027251594
 20
-713.6940170741687
 10
714.267464040927
 20
-715.851002820854
 10
718.1550468370611
 20
-717.7575375786168
 10
722.1656134005115
 20
-719.4018517357082
 10
726.2849164220199
 20
-720.7730663710201
 10
730.4980159123199
 20
-721.8612011526429
 10
734.7892929000691
 20
-722.6571927916124
 10
739.1424619629105
 20
-723.1529239329449
 10
743.540585129085
 20
-723.3412621489377
 10
747.9660901390092
 20
-723.2161081158557
 10
752.4007567113878
 20
-722.7724565141825
 10
756.8257735527573
 20
-722.0064661435955
 10
761.2218748623003
 20
-720.915502987361
 10
765.5693487237503
 20
-719.4981900341517
 10
769.8481209163726
 20
-717.7544425361212
 10
774.0378553076896
 20
-715.6854781088124
 10
778.1180687178306
 20
-713.2937890366242
 10
782.0682563206976
 20
-710.5830606279989
 10
785.4625011322416
 20
-707.9022291415618
 10
788.6983082469858
 20
-704.9991971088592
 10
791.7630447216709
 20
-701.8859096673745
 10
794.6450603111738
 20
-698.5750579749899
 10
797.3334144939176
 20
-695.0803427407795
 10
799.8179168275771
 20
-691.4165475274398
 10
802.0891615762677
 20
-687.5996967260447
 10
804.1385551750549
 20
-683.6473777667373
 10
805.9583324528643
 20
-679.5794026200727
 10
807.5415509523836
 20
-675.4192299488303
 10
808.8820318902104
 20
-671.1972881386317
 10
809.9741377000045
 20
-666.9598025315464
 10
810.8118816383734
 20
-662.7973505094512
 10
811.3834152359675
 20
-658.9762358966013
 10
811.6991437542239
 20
-656.0193639704818
 10
811.9015728853241
 20
-653.1509946818077
 10
812.0153554041252
 20
-648.8429473446895
 10
811.8608110943245
 20
-643.8229440199534
 10
811.7114999407073
 20
-641.8078189977323
 10
811.3532866134978
 20
-638.472067248483
 10
810.8364447011483
 20
-635.0304246565936
 10
810.1189501920236
 20
-631.3711125672179
 10
809.1916162087855
 20
-627.5969418400992
 10
808.0450059047038
 20
-623.7587441590067
 10
806.6742366871009
 20
-619.9005719285647
 10
805.0772020736342
 20
-616.058516268323
 10
803.2541102319219
 20
-612.2634789015842
 10
801.2070727585463
 20
-608.5426014267049
 10
798.939822089236
 20
-604.9202233723972
 10
796.4575033357329
 20
-601.4185106999234
 10
793.7665168386216
 20
-598.0578758839385
 10
790.8743956132239
 20
-594.8572625127257
 10
787.7897077021884
 20
-591.8343404802027
 10
784.5219770222049
 20
-589.0056411153095
 10
781.0816185455914
 20
-586.3866511331927
 10
777.4798850768807
 20
-583.9918776152185
 10
773.7288237611153
 20
-581.8348918685334
 10
769.841240964979
 20
-579.9283571107683
 10
765.8306744015314
 20
-578.2840429536771
 10
761.7113713800233
 20
-576.9128283183642
 10
757.4982718897225
 20
-575.82469353674
 10
753.206994901974
 20
-575.0287018977696
 10
748.8538258391321
 20
-574.532970756436
 10
744.4557026729571
 20
-574.3446325404421
 10
740.0301976630338
 20
-574.4697865735231
 10
735.5955310906558
 20
-574.913438175195
 10
731.1705142492855
 20
-575.6794285457811
 10
726.7744129397424
 20
-576.7703917020145
 10
722.4269390782921
 20
-578.187704655223
 10
718.1481668856711
 20
-579.9314521532514
 10
713.9584324943527
 20
-582.0004165805596
 10
709.8782190842127
 20
-584.3921056527458
 10
705.9280314813434
 20
-587.1028340613711
 10
702.5337866697997
 20
-589.7836655478068
 10
699.2979795550562
 20
-592.686697580507
 10
696.2332430803704
 20
-595.7999850219905
 10
693.3512274908695
 20
-599.1108367143709
 10
690.6628733081265
 20
-602.6055519485777
 10
688.1783709744667
 20
-606.2693471619151
 10
685.9071262257751
 20
-610.0861979633083
 10
683.8577326269869
 20
-614.0385169226144
 10
682.0379553491751
 20
-618.106492069279
 10
680.4547368496558
 20
-622.2666647405174
 10
680.3511410089498
 20
-622.5929473446902
  0
LINE
  5
320
330
A
100
AcDbEntity
  8
0
  6
Continuous
 62
     7
100
AcDbLine
 10
560.849999999999
 20
-653.3429473446911
 30
0.0
 11
568.6582579234438
 21
-653.3429473446911
 31
0.0
  0
LINE
  5
321
330
A
100
AcDbEntity
  8
0
  6
Continuous
 62
     7
100
AcDbLine
 10
544.8499999999991
 20
-653.3429473446913
 30
0.0
 11
545.849999999999
 21
-653.3429473446913
 31
0.0
  0
LINE
  5
322
330
A
100
AcDbEntity
  8
0
  6
Continuous
 62
     7
100
AcDbLine
 10
545.849999999999
 20
-644.3429473446912
 30
0.0
 11
544.849999999999
 21
-644.3429473446914
 31
0.0
  0
LINE
  5
323
330
A
100
AcDbEntity
  8
0
  6
Continuous
 62
     7
100
AcDbLine
 10
568.6582579234437
 20
-644.3429473446911
 30
0.0
 11
560.849999999999
 21
-644.3429473446912
 31
0.0
  0
CIRCLE
  5
324
330
A
100
AcDbEntity
  8
0
  6
Continuous
 62
     7
100
AcDbCircle
 10
69.85000000000066
 20
-648.8429473446976
 30
0.0
 40
55.0
  0
CIRCLE
  5
325
330
A
100
AcDbEntity
  8
0
  6
Continuous
 62
     7
100
AcDbCircle
 10
69.85000000000066
 20
-648.8429473446976
 30
0.0
 40
72.0
  0
LWPOLYLINE
  5
326
330
A
100
AcDbEntity
  8
0
  6
Continuous
 62
     7
100
AcDbPolyline
 90
       18
 70
   128
 43
0.0
 10
-538.3202867011601
 20
-648.8429473446948
 10
-538.4799520046883
 20
-652.302799551234
 10
-538.9573095331972
 20
-655.7271489922059
 10
-539.7474609524765
 20
-659.0808572084611
 10
-540.8422982397186
 20
-662.3295106154086
 10
-542.2305868828048
 20
-665.4397736329623
 10
-543.8980811616022
 20
-668.3797307537043
 10
-545.8276703283302
 20
-671.1192140391777
 10
-547.9995541869869
 20
-673.6301126837604
 10
-550.3914462701539
 20
-675.8866614695706
 10
-552.9788025283107
 20
-677.8657051524673
 10
-555.7350731849965
 20
-679.5469360661897
 10
-558.6319751734432
 20
-680.9131025064943
 10
-561.639782359115
 20
-681.9501857569853
 10
-564.7276305700732
 20
-682.6475439401142
 10
-567.8638343051469
 20
-682.9980212172463
 10
-571.0162118700529
 20
-682.9980212172463
 10
-571.6790743577161
 20
-682.9532809259728
  0
LWPOLYLINE
  5
33A
330
A
100
AcDbEntity
  8
0
  6
Continuous
 62
     7
100
AcDbPolyline
 90
       18
 70
   128
 43
0.0
 10
-571.8461512586818
 20
-614.7463555948418
 10
-571.0162118700525
 20
-614.6878734721433
 10
-567.8638343051464
 20
-614.6878734721434
 10
-564.7276305700727
 20
-615.0383507492755
 10
-561.6397823591146
 20
-615.7357089324046
 10
-558.6319751734428
 20
-616.7727921828955
 10
-555.7350731849961
 20
-618.1389586232001
 10
-552.9788025283104
 20
-619.8201895369227
 10
-550.3914462701535
 20
-621.7992332198194
 10
-547.9995541869865
 20
-624.0557820056294
 10
-545.8276703283299
 20
-626.5666806502123
 10
-543.898081161602
 20
-629.3061639356858
 10
-542.2305868828045
 20
-632.2461210564276
 10
-540.8422982397183
 20
-635.3563840739815
 10
-539.7474609524764
 20
-638.605037480929
 10
-538.9573095331972
 20
-641.9587456971842
 10
-538.4799520046882
 20
-645.3830951381561
 10
-538.3202867011601
 20
-648.8429473446948
  0
LWPOLYLINE
  5
34E
330
A
100
AcDbEntity
  8
0
  6
Continuous
 62
     7
100
AcDbPolyline
 90
       22
 70
   128
 43
0.0
 10
-599.3362727752303
 20
-648.8429473446949
 10
-599.1728779259643
 20
-645.4166922361566
 10
-598.684483566328
 20
-642.0279758955776
 10
-597.8764406471281
 20
-638.7139258083195
 10
-596.7576022556816
 20
-635.5108514006477
 10
-595.340226619537
 20
-632.4538462260595
 10
-593.6398428027688
 20
-629.576403472967
 10
-591.6750805663018
 20
-626.9100490063167
 10
-589.4674662563517
 20
-624.4839959636157
 10
-587.0411869572713
 20
-622.324824689684
 10
-584.4228254927926
 20
-620.4561915168345
 10
-581.6410691790482
 20
-618.8985695811457
 10
-578.7263955203313
 20
-617.6690245144983
 10
-575.7107382911812
 20
-616.7810274699412
 10
-572.6271376632678
 20
-616.24430752892
 10
-569.509378210355
 20
-616.0647451074244
 10
-566.3916187574423
 20
-616.24430752892
 10
-563.3080181295289
 20
-616.7810274699412
 10
-560.292360900379
 20
-617.6690245144983
 10
-557.3776872416618
 20
-618.8985695811457
 10
-554.5959309279176
 20
-620.4561915168347
 10
-553.251478425217
 20
-621.3621230082902
  0
LWPOLYLINE
  5
366
330
A
100
AcDbEntity
  8
0
  6
Continuous
 62
     7
100
AcDbPolyline
 90
       22
 70
   128
 43
0.0
 10
-552.2535556962325
 20
-675.5787980794545
 10
-554.5959309279179
 20
-677.2297031725551
 10
-557.3776872416623
 20
-678.7873251082439
 10
-560.2923609003791
 20
-680.0168701748914
 10
-563.3080181295293
 20
-680.9048672194485
 10
-566.3916187574428
 20
-681.4415871604698
 10
-569.5093782103555
 20
-681.6211495819653
 10
-572.6271376632682
 20
-681.4415871604698
 10
-575.7107382911816
 20
-680.9048672194484
 10
-578.7263955203317
 20
-680.0168701748913
 10
-581.6410691790486
 20
-678.7873251082437
 10
-584.4228254927929
 20
-677.2297031725549
 10
-587.0411869572716
 20
-675.3610699997055
 10
-589.467466256352
 20
-673.2018987257737
 10
-591.6750805663021
 20
-670.7758456830727
 10
-593.6398428027691
 20
-668.1094912164224
 10
-595.3402266195371
 20
-665.2320484633299
 10
-596.7576022556817
 20
-662.1750432887417
 10
-597.8764406471282
 20
-658.9719688810699
 10
-598.684483566328
 20
-655.6579187938118
 10
-599.1728779259643
 20
-652.2692024532327
 10
-599.3362727752303
 20
-648.8429473446949
  0
LWPOLYLINE
  5
37E
330
A
100
AcDbEntity
  8
0
  6
Continuous
 62
     7
100
AcDbPolyline
 90
       10
 70
   128
 43
0.0
 10
-538.8532004307974
 20
-642.6873996897341
 10
-538.9298050102054
 20
-642.0284863684318
 10
-539.7514316858548
 20
-638.1199674374009
 10
-540.8062444200643
 20
-634.548010067867
 10
-541.9725669820802
 20
-631.3396817972601
 10
-543.244256285017
 20
-628.2685542349931
 10
-544.3357982789126
 20
-625.7730751523385
 10
-545.0845296114533
 20
-623.9615743992788
 10
-545.4166465887635
 20
-622.8820582192627
 10
-545.3397060311134
 20
-622.5929473446947
  0
LWPOLYLINE
  5
38A
330
A
100
AcDbEntity
  8
0
  6
Continuous
 62
     7
100
AcDbPolyline
 90
       10
 70
   128
 43
0.0
 10
-545.3397060311134
 20
-675.0929473446947
 10
-545.4125058535517
 20
-674.7914560399997
 10
-545.155552875261
 20
-673.9069371469989
 10
-544.5741789362569
 20
-672.4685231128115
 10
-543.7322534408098
 20
-670.5350078250821
 10
-542.659788438021
 20
-668.0416811537573
 10
-541.5051183751164
 20
-665.1227230999593
 10
-540.2404756562606
 20
-661.3337926657601
 10
-539.1947373305561
 20
-657.1248416239022
 10
-538.8396288568087
 20
-654.9978611186612
  0
LWPOLYLINE
  5
396
330
A
100
AcDbEntity
  8
0
  6
Continuous
 62
     7
100
AcDbPolyline
 90
       80
 70
   128
 43
0.0
 10
-543.3536901054047
 20
-675.0929473446947
 10
-544.4671606500916
 20
-677.9751254420637
 10
-546.4835437629696
 20
-682.4602081571963
 10
-548.7827913533849
 20
-686.7778113699605
 10
-551.3534486854972
 20
-690.9064249983324
 10
-554.1827088737862
 20
-694.8254804968911
 10
-557.2564766863099
 20
-698.5154533282773
 10
-560.5594387664415
 20
-701.9579602334562
 10
-564.0751399232418
 20
-705.1358508161895
 10
-567.7860651103929
 20
-708.0332929854469
 10
-571.6737266852775
 20
-710.6358518300869
 10
-575.7187565134848
 20
-712.9305615328582
 10
-579.9010024598818
 20
-714.9059899654488
 10
-584.1996287855372
 20
-716.552295642775
 10
-588.5932199503237
 20
-717.8612767527637
 10
-593.0598873040629
 20
-718.8264120173687
 10
-597.5773781346787
 20
-719.4428931812498
 10
-602.1231865300896
 20
-719.7076489662581
 10
-606.6746655015306
 20
-719.6193603723907
 10
-611.2091398097126
 20
-719.1784672489809
 10
-615.7040189317229
 20
-718.3871661033921
 10
-620.1369096058754
 20
-717.2493991581278
 10
-624.4857273938121
 20
-715.7708347108783
 10
-628.7288067040662
 20
-713.9588388953452
 10
-632.845008728947
 20
-711.8224389835356
 10
-636.8138267570178
 20
-709.372278412346
 10
-640.6154883365006
 20
-706.6205637584951
 10
-644.2310537806358
 20
-703.5810039259732
 10
-647.6425105242489
 20
-700.268741848971
 10
-650.832862861445
 20
-696.7002790505446
 10
-653.7862166173597
 20
-692.8933934328565
 10
-656.4878583321391
 20
-688.867050708562
 10
-658.9243285626569
 20
-684.6413099145823
 10
-661.083488936783
 20
-680.2372234789916
 10
-662.9545826261424
 20
-675.67673233888
 10
-664.5282879360938
 20
-670.9825566317077
 10
-665.7967647459425
 20
-666.1780825047237
 10
-666.7536935680285
 20
-661.2872456063561
 10
-667.3943070310949
 20
-656.3344118400161
 10
-667.7154136310926
 20
-651.3442559743927
 10
-667.7154136310926
 20
-646.3416387149957
 10
-667.3943070310948
 20
-641.3514828493722
 10
-666.7536935680284
 20
-636.3986490830322
 10
-665.7967647459424
 20
-631.5078121846648
 10
-664.5282879360935
 20
-626.7033380576808
 10
-662.9545826261421
 20
-622.0091623505084
 10
-661.0834889367826
 20
-617.4486712103969
 10
-658.9243285626564
 20
-613.0445847748062
 10
-656.4878583321386
 20
-608.8188439808265
 10
-653.786216617359
 20
-604.7925012565321
 10
-650.8328628614443
 20
-600.9856156388441
 10
-647.6425105242482
 20
-597.4171528404177
 10
-644.231053780635
 20
-594.1048907634157
 10
-640.6154883364999
 20
-591.0653309308936
 10
-636.8138267570172
 20
-588.3136162770429
 10
-632.8450087289461
 20
-585.8634557058532
 10
-628.7288067040653
 20
-583.7270557940438
 10
-624.4857273938113
 20
-581.9150599785108
 10
-620.1369096058743
 20
-580.4364955312612
 10
-615.704018931722
 20
-579.2987285859969
 10
-611.2091398097117
 20
-578.5074274404082
 10
-606.6746655015297
 20
-578.0665343169986
 10
-602.1231865300887
 20
-577.9782457231312
 10
-597.5773781346778
 20
-578.2430015081396
 10
-593.0598873040621
 20
-578.8594826720208
 10
-588.5932199503229
 20
-579.8246179366258
 10
-584.1996287855363
 20
-581.1335990466147
 10
-579.901002459881
 20
-582.7799047239408
 10
-575.718756513484
 20
-584.7553331565316
 10
-571.6737266852767
 20
-587.0500428593028
 10
-567.7860651103923
 20
-589.6526017039429
 10
-564.0751399232413
 20
-592.5500438732004
 10
-560.5594387664409
 20
-595.7279344559337
 10
-557.2564766863093
 20
-599.1704413611126
 10
-554.1827088737858
 20
-602.8604141924987
 10
-551.3534486854967
 20
-606.7794696910575
 10
-548.7827913533845
 20
-610.9080833194294
 10
-546.4835437629695
 20
-615.2256865321938
 10
-544.4671606500913
 20
-619.7107692473263
 10
-543.3536901054045
 20
-622.5929473446947
  0
LWPOLYLINE
  5
3E8
330
A
100
AcDbEntity
  8
0
  6
Continuous
 62
     7
100
AcDbPolyline
 90
       10
 70
   128
 43
0.0
 10
-582.1627024464169
 20
-619.1604279408413
 10
-582.0119274499826
 20
-619.0861021431897
 10
-579.115507508977
 20
-617.8642573446299
 10
-576.1187364270329
 20
-616.9818215564184
 10
-573.0544474552386
 20
-616.4484629297126
 10
-569.9562135848128
 20
-616.2700250532387
 10
-566.857979714387
 20
-616.4484629297126
 10
-563.7936907425927
 20
-616.9818215564184
 10
-560.7969196606485
 20
-617.86425734463
 10
-560.2496165649331
 20
-618.0661795410056
  0
LWPOLYLINE
  5
3F4
330
A
100
AcDbEntity
  8
0
  6
Continuous
 62
     7
100
AcDbPolyline
 90
       10
 70
   128
 43
0.0
 10
-559.2219223681907
 20
-679.2047587085452
 10
-560.7969196606489
 20
-679.8216373447599
 10
-563.793690742593
 20
-680.7040731329712
 10
-566.8579797143873
 20
-681.2374317596772
 10
-569.9562135848132
 20
-681.4158696361508
 10
-573.054447455239
 20
-681.2374317596772
 10
-576.1187364270333
 20
-680.7040731329712
 10
-579.1155075089775
 20
-679.8216373447596
 10
-582.011927449983
 20
-678.5997925461998
 10
-582.1627024464174
 20
-678.5254667485482
  0
LWPOLYLINE
  5
400
330
A
100
AcDbEntity
  8
0
  6
Continuous
 62
     7
100
AcDbPolyline
 90
       38
 70
   128
 43
0.0
 10
-581.6678138891594
 20
-648.8429473446949
 10
-581.5042018329044
 20
-646.7304370906718
 10
-581.01807248511
 20
-644.6786999104191
 10
-580.223410902019
 20
-642.7467605470244
 10
-579.14307805054
 20
-640.9901973784993
 10
-577.8081531398531
 20
-639.4595435290357
 10
-576.2570395291471
 20
-638.1988331230285
 10
-574.5343599328966
 20
-637.2443345034885
 10
-572.6896727066107
 20
-636.6235068578487
 10
-570.7760461431762
 20
-636.3542102671362
 10
-568.8485317946921
 20
-636.444191903959
 10
-566.9625807395475
 20
-636.8908631604543
 10
-565.1724483558566
 20
-637.6813741178253
 10
-563.5296334930123
 20
-638.7929832151082
 10
-562.0813969435535
 20
-640.1937114824756
 10
-560.8694018362099
 20
-641.8432625179749
 10
-559.9285150635462
 20
-643.694181741645
 10
-559.2858042249437
 20
-645.6932215773808
 10
-558.959758941048
 20
-647.782873288751
 10
-558.9597589410482
 20
-649.9030214006388
 10
-559.2858042249438
 20
-651.992673112009
 10
-559.9285150635463
 20
-653.9917129477449
 10
-560.86940183621
 20
-655.8426321714149
 10
-562.0813969435536
 20
-657.4921832069143
 10
-563.5296334930126
 20
-658.8929114742817
 10
-565.1724483558568
 20
-660.0045205715645
 10
-566.9625807395477
 20
-660.7950315289356
 10
-568.8485317946923
 20
-661.2417027854307
 10
-570.7760461431765
 20
-661.3316844222533
 10
-572.6896727066108
 20
-661.0623878315409
 10
-574.5343599328967
 20
-660.4415601859011
 10
-576.2570395291472
 20
-659.4870615663611
 10
-577.8081531398533
 20
-658.2263511603538
 10
-579.1430780505402
 20
-656.6956973108903
 10
-580.2234109020191
 20
-654.9391341423651
 10
-581.0180724851102
 20
-653.0071947789704
 10
-581.5042018329044
 20
-650.9554575987179
 10
-581.6678138891594
 20
-648.8429473446949
  0
LWPOLYLINE
  5
428
330
A
100
AcDbEntity
  8
0
  6
Continuous
 62
     7
100
AcDbPolyline
 90
       20
 70
   128
 43
0.0
 10
-570.500644624489
 20
-636.3450243814587
 10
-569.2632250373485
 20
-636.444191903959
 10
-567.3772739822039
 20
-636.8908631604543
 10
-565.5871415985131
 20
-637.6813741178253
 10
-563.9443267356688
 20
-638.7929832151082
 10
-562.4960901862099
 20
-640.1937114824756
 10
-561.2840950788664
 20
-641.8432625179749
 10
-560.3432083062026
 20
-643.694181741645
 10
-559.7004974676001
 20
-645.6932215773808
 10
-559.3744521837045
 20
-647.782873288751
 10
-559.3744521837046
 20
-649.9030214006388
 10
-559.7004974676001
 20
-651.992673112009
 10
-560.3432083062028
 20
-653.9917129477449
 10
-561.2840950788664
 20
-655.8426321714149
 10
-562.49609018621
 20
-657.4921832069143
 10
-563.944326735669
 20
-658.8929114742817
 10
-565.5871415985131
 20
-660.0045205715645
 10
-567.3772739822042
 20
-660.7950315289356
 10
-569.2632250373487
 20
-661.2417027854307
 10
-570.5006446246292
 20
-661.3408703079337
  0
LWPOLYLINE
  5
43E
330
A
100
AcDbEntity
  8
0
  6
Continuous
 62
     7
100
AcDbPolyline
 90
       11
 70
   128
 43
0.0
 10
-408.498455361485
 20
-649.5908769194685
 10
-408.780943482546
 20
-649.5397062311084
 10
-409.1022636217912
 20
-649.3374680071515
 10
-409.2400403129685
 20
-649.163438800052
 10
-409.3116465693817
 20
-648.9895473908624
 10
-409.3279140851374
 20
-648.7941373754607
 10
-409.2924219345208
 20
-648.6337413251983
 10
-409.1930856840213
 20
-648.4514337725941
 10
-408.9937204987239
 20
-648.2587855995191
 10
-408.6780667282694
 20
-648.1147378326514
 10
-408.5022837479151
 20
-648.111148969961
  0
LINE
  5
44B
330
A
100
AcDbEntity
  8
0
  6
Continuous
 62
     7
100
AcDbLine
 10
-538.4499999999993
 20
-651.962190762366
 30
0.0
 11
-538.4499999999993
 21
-675.0929473446947
 31
0.0
  0
LINE
  5
44C
330
A
100
AcDbEntity
  8
0
  6
Continuous
 62
     7
100
AcDbLine
 10
-538.4499999999993
 20
-622.5929473446947
 30
0.0
 11
-538.4499999999993
 21
-645.7237039270236
 31
0.0
  0
LINE
  5
44D
330
A
100
AcDbEntity
  8
0
  6
Continuous
 62
     7
100
AcDbLine
 10
-497.6499999999992
 20
-672.7929473446947
 30
0.0
 11
-497.6499999999992
 21
-624.8929473446946
 31
0.0
  0
LWPOLYLINE
  5
44E
330
A
100
AcDbEntity
  8
0
  6
Continuous
 62
     7
100
AcDbPolyline
 90
       12
 70
   128
 43
0.0
 10
-515.1499999999991
 20
-672.7929473446947
 10
-514.7501901270875
 20
-672.6707714132244
 10
-513.6057244820099
 20
-672.3551389504473
 10
-511.7874789484183
 20
-671.9615812154192
 10
-509.4409379610675
 20
-671.6587304515793
 10
-506.9477445577081
 20
-671.5991698498959
 10
-504.629882459642
 20
-671.787960091642
 10
-502.6064800242852
 20
-672.1407926044055
 10
-501.0524044983115
 20
-672.5258687524074
 10
-500.2375871607933
 20
-672.7656638313068
 10
-500.1499999999992
 20
-672.7929473446947
 10
-500.1499999999992
 20
-672.7929473446947
  0
LINE
  5
45C
330
A
100
AcDbEntity
  8
0
  6
Continuous
 62
     7
100
AcDbLine
 10
-517.6499999999992
 20
-624.8929473446946
 30
0.0
 11
-517.6499999999992
 21
-672.7929473446947
 31
0.0
  0
LWPOLYLINE
  5
45D
330
A
100
AcDbEntity
  8
0
  6
Continuous
 62
     7
100
AcDbPolyline
 90
       12
 70
   128
 43
0.0
 10
-500.1499999999992
 20
-624.8929473446946
 10
-500.549809872911
 20
-625.015123276165
 10
-501.6942755179885
 20
-625.3307557389421
 10
-503.5125210515801
 20
-625.7243134739701
 10
-505.859062038931
 20
-626.0271642378102
 10
-508.3522554422905
 20
-626.0867248394935
 10
-510.6701175403564
 20
-625.8979345977475
 10
-512.6935199757133
 20
-625.5451020849839
 10
-514.247595501687
 20
-625.160025936982
 10
-515.0624128392052
 20
-624.9202308580826
 10
-515.1499999999991
 20
-624.8929473446946
 10
-515.149999999999
 20
-624.8929473446946
  0
LINE
  5
46B
330
A
100
AcDbEntity
  8
0
  6
Continuous
 62
     7
100
AcDbLine
 10
-455.6499999999992
 20
-660.0929473446947
 30
0.0
 11
-455.6499999999992
 21
-637.5929473446947
 31
0.0
  0
LINE
  5
46C
330
A
100
AcDbEntity
  8
0
  6
Continuous
 62
     7
100
AcDbLine
 10
-421.1499999999993
 20
-653.8429473446947
 30
0.0
 11
-406.1499999999993
 21
-653.8429473446947
 31
0.0
  0
LINE
  5
46D
330
A
100
AcDbEntity
  8
0
  6
Continuous
 62
     7
100
AcDbLine
 10
-406.1499999999993
 20
-643.8429473446947
 30
0.0
 11
-421.1499999999993
 21
-643.8429473446947
 31
0.0
  0
LINE
  5
46E
330
A
100
AcDbEntity
  8
0
  6
Continuous
 62
     7
100
AcDbLine
 10
-500.1499999999992
 20
-613.8429473446948
 30
0.0
 11
-515.1499999999991
 21
-613.8429473446948
 31
0.0
  0
LINE
  5
46F
330
A
100
AcDbEntity
  8
0
  6
Continuous
 62
     7
100
AcDbLine
 10
-501.6499999999992
 20
-619.8429473446947
 30
0.0
 11
-501.6499999999992
 21
-615.8429473446947
 31
0.0
  0
LINE
  5
470
330
A
100
AcDbEntity
  8
0
  6
Continuous
 62
     7
100
AcDbLine
 10
-515.1499999999991
 20
-683.8429473446947
 30
0.0
 11
-500.1499999999992
 21
-683.8429473446947
 31
0.0
  0
LINE
  5
471
330
A
100
AcDbEntity
  8
0
  6
Continuous
 62
     7
100
AcDbLine
 10
-501.6499999999992
 20
-681.8429473446947
 30
0.0
 11
-501.6499999999992
 21
-677.8429473446947
 31
0.0
  0
LINE
  5
472
330
A
100
AcDbEntity
  8
0
  6
Continuous
 62
     7
100
AcDbLine
 10
-405.1499999999993
 20
-655.8429473446947
 30
0.0
 11
-405.1499999999993
 21
-649.5929473446947
 31
0.0
  0
LINE
  5
473
330
A
100
AcDbEntity
  8
0
  6
Continuous
 62
     7
100
AcDbLine
 10
-405.1499999999993
 20
-648.0929473446948
 30
0.0
 11
-405.1499999999993
 21
-641.8429473446947
 31
0.0
  0
LINE
  5
474
330
A
100
AcDbEntity
  8
0
  6
Continuous
 62
     7
100
AcDbLine
 10
-15.14999999999934
 20
-655.8429473446947
 30
0.0
 11
-15.14999999999934
 21
-649.5929473446948
 31
0.0
  0
LINE
  5
475
330
A
100
AcDbEntity
  8
0
  6
Continuous
 62
     7
100
AcDbLine
 10
-15.14999999999934
 20
-648.0929473446949
 30
0.0
 11
-15.14999999999934
 21
-641.8429473446947
 31
0.0
  0
LINE
  5
476
330
A
100
AcDbEntity
  8
0
  6
Continuous
 62
     7
100
AcDbLine
 10
-446.6499999999993
 20
-655.0929473446947
 30
0.0
 11
-446.6499999999993
 21
-642.5929473446947
 31
0.0
  0
LINE
  5
477
330
A
100
AcDbEntity
  8
0
  6
Continuous
 62
     7
100
AcDbLine
 10
-501.6499999999992
 20
-681.8429473446947
 30
0.0
 11
-461.6499999999994
 21
-681.8429473446947
 31
0.0
  0
LINE
  5
478
330
A
100
AcDbEntity
  8
0
  6
Continuous
 62
     7
100
AcDbLine
 10
-461.6499999999994
 20
-677.8429473446947
 30
0.0
 11
-501.6499999999992
 21
-677.8429473446947
 31
0.0
  0
ARC
  5
479
330
A
100
AcDbEntity
  8
0
  6
Continuous
 62
     7
100
AcDbCircle
 10
-461.6499999999994
 20
-648.8429473446947
 30
0.0
 40
33.00000000000006
100
AcDbArc
 50
270.0000000000008
 51
0.0
  0
ARC
  5
47A
330
A
100
AcDbEntity
  8
0
  6
Continuous
 62
     7
100
AcDbCircle
 10
-461.6499999999994
 20
-648.8429473446947
 30
0.0
 40
33.00000000000006
100
AcDbArc
 50
0.0
 51
90.0
  0
ARC
  5
47B
330
A
100
AcDbEntity
  8
0
  6
Continuous
 62
     7
100
AcDbCircle
 10
-461.6499999999994
 20
-648.8429473446947
 30
0.0
 40
29.0
100
AcDbArc
 50
270.0000000000008
 51
90.0
  0
LINE
  5
47C
330
A
100
AcDbEntity
  8
0
  6
Continuous
 62
     7
100
AcDbLine
 10
-501.6499999999992
 20
-619.8429473446947
 30
0.0
 11
-461.6499999999994
 21
-619.8429473446947
 31
0.0
  0
LINE
  5
47D
330
A
100
AcDbEntity
  8
0
  6
Continuous
 62
     7
100
AcDbLine
 10
-461.6499999999994
 20
-615.8429473446947
 30
0.0
 11
-501.6499999999992
 21
-615.8429473446947
 31
0.0
  0
LWPOLYLINE
  5
47E
330
A
100
AcDbEntity
  8
0
  6
Continuous
 62
     7
100
AcDbPolyline
 90
       18
 70
   128
 43
0.0
 10
678.0202867011596
 20
-648.8429473446906
 10
678.1799520046879
 20
-645.3830951381513
 10
678.6573095331968
 20
-641.9587456971794
 10
679.4474609524761
 20
-638.6050374809242
 10
680.5422982397181
 20
-635.3563840739768
 10
681.9305868828043
 20
-632.246121056423
 10
683.5980811616017
 20
-629.3061639356811
 10
685.5276703283297
 20
-626.5666806502077
 10
687.6995541869863
 20
-624.0557820056247
 10
690.0914462701532
 20
-621.7992332198146
 10
692.6788025283102
 20
-619.8201895369181
 10
695.4350731849959
 20
-618.1389586231956
 10
698.3319751734427
 20
-616.7727921828909
 10
701.3397823591143
 20
-615.7357089324
 10
704.4276305700726
 20
-615.0383507492709
 10
707.5638343051463
 20
-614.687873472139
 10
710.7162118700524
 20
-614.687873472139
 10
711.3790743577156
 20
-614.7326137634125
  0
LWPOLYLINE
  5
492
330
A
100
AcDbEntity
  8
0
  6
Continuous
 62
     7
100
AcDbPolyline
 90
       18
 70
   128
 43
0.0
 10
711.5461512586817
 20
-682.9395390945434
 10
710.7162118700524
 20
-682.9980212172419
 10
707.5638343051463
 20
-682.9980212172419
 10
704.4276305700726
 20
-682.6475439401098
 10
701.3397823591144
 20
-681.9501857569807
 10
698.3319751734427
 20
-680.91310250649
 10
695.4350731849959
 20
-679.5469360661851
 10
692.6788025283102
 20
-677.8657051524626
 10
690.0914462701534
 20
-675.886661469566
 10
687.6995541869863
 20
-673.6301126837559
 10
685.5276703283297
 20
-671.1192140391731
 10
683.5980811616017
 20
-668.3797307536996
 10
681.9305868828043
 20
-665.4397736329577
 10
680.5422982397181
 20
-662.3295106154039
 10
679.4474609524762
 20
-659.0808572084564
 10
678.6573095331967
 20
-655.7271489922011
 10
678.1799520046878
 20
-652.3027995512293
 10
678.0202867011596
 20
-648.8429473446906
  0
LWPOLYLINE
  5
4A6
330
A
100
AcDbEntity
  8
0
  6
Continuous
 62
     7
100
AcDbPolyline
 90
       22
 70
   128
 43
0.0
 10
739.0362727752298
 20
-648.8429473446903
 10
738.8728779259639
 20
-652.2692024532285
 10
738.3844835663276
 20
-655.6579187938076
 10
737.5764406471278
 20
-658.9719688810657
 10
736.4576022556812
 20
-662.1750432887374
 10
735.0402266195366
 20
-665.2320484633256
 10
733.3398428027685
 20
-668.109491216418
 10
731.3750805663016
 20
-670.7758456830685
 10
729.1674662563515
 20
-673.2018987257695
 10
726.7411869572711
 20
-675.3610699997011
 10
724.1228254927924
 20
-677.2297031725505
 10
721.341069179048
 20
-678.7873251082394
 10
718.426395520331
 20
-680.0168701748869
 10
715.4107382911811
 20
-680.9048672194441
 10
712.3271376632676
 20
-681.4415871604653
 10
709.2093782103549
 20
-681.6211495819609
 10
706.0916187574422
 20
-681.4415871604653
 10
703.0080181295287
 20
-680.9048672194441
 10
699.9923609003787
 20
-680.0168701748869
 10
697.0776872416617
 20
-678.7873251082394
 10
694.2959309279174
 20
-677.2297031725505
 10
692.9514784252169
 20
-676.3237716810951
  0
LWPOLYLINE
  5
4BE
330
A
100
AcDbEntity
  8
0
  6
Continuous
 62
     7
100
AcDbPolyline
 90
       22
 70
   128
 43
0.0
 10
691.9535556962318
 20
-622.1070966099307
 10
694.2959309279173
 20
-620.4561915168301
 10
697.0776872416617
 20
-618.8985695811412
 10
699.9923609003786
 20
-617.6690245144939
 10
703.0080181295286
 20
-616.7810274699368
 10
706.0916187574422
 20
-616.2443075289155
 10
709.2093782103549
 20
-616.06474510742
 10
712.3271376632676
 20
-616.2443075289155
 10
715.410738291181
 20
-616.7810274699368
 10
718.426395520331
 20
-617.669024514494
 10
721.3410691790479
 20
-618.8985695811413
 10
724.1228254927923
 20
-620.4561915168302
 10
726.7411869572709
 20
-622.3248246896798
 10
729.1674662563514
 20
-624.4839959636115
 10
731.3750805663016
 20
-626.9100490063125
 10
733.3398428027685
 20
-629.5764034729629
 10
735.0402266195366
 20
-632.4538462260553
 10
736.4576022556811
 20
-635.5108514006436
 10
737.5764406471277
 20
-638.7139258083151
 10
738.3844835663276
 20
-642.0279758955732
 10
738.8728779259639
 20
-645.4166922361523
 10
739.0362727752298
 20
-648.8429473446903
  0
LWPOLYLINE
  5
4D6
330
A
100
AcDbEntity
  8
0
  6
Continuous
 62
     7
100
AcDbPolyline
 90
       10
 70
   128
 43
0.0
 10
678.5532004307971
 20
-654.9984949996512
 10
678.629805010205
 20
-655.6574083209535
 10
679.4514316858546
 20
-659.5659272519843
 10
680.506244420064
 20
-663.1378846215182
 10
681.6725669820799
 20
-666.3462128921249
 10
682.9442562850167
 20
-669.4173404543922
 10
684.0357982789123
 20
-671.9128195370467
 10
684.784529611453
 20
-673.7243202901063
 10
685.1166465887634
 20
-674.8038364701224
 10
685.0397060311133
 20
-675.0929473446904
  0
LWPOLYLINE
  5
4E2
330
A
100
AcDbEntity
  8
0
  6
Continuous
 62
     7
100
AcDbPolyline
 90
       10
 70
   128
 43
0.0
 10
685.0397060311128
 20
-622.5929473446903
 10
685.112505853551
 20
-622.8944386493854
 10
684.8555528752604
 20
-623.7789575423862
 10
684.2741789362564
 20
-625.2173715765736
 10
683.4322534408093
 20
-627.1508868643032
 10
682.3597884380205
 20
-629.6442135356279
 10
681.2051183751159
 20
-632.563171589426
 10
679.9404756562601
 20
-636.3521020236252
 10
678.8947373305555
 20
-640.561053065483
 10
678.5396288568084
 20
-642.6880335707241
  0
LWPOLYLINE
  5
4EE
330
A
100
AcDbEntity
  8
0
  6
Continuous
 62
     7
100
AcDbPolyline
 90
       80
 70
   128
 43
0.0
 10
683.0536901054038
 20
-622.5929473446903
 10
684.1671606500909
 20
-619.7107692473211
 10
686.183543762969
 20
-615.2256865321884
 10
688.4827913533842
 20
-610.9080833194242
 10
691.0534486854966
 20
-606.7794696910522
 10
693.8827088737855
 20
-602.8604141924936
 10
696.9564766863092
 20
-599.1704413611074
 10
700.2594387664408
 20
-595.7279344559285
 10
703.7751399232411
 20
-592.5500438731951
 10
707.4860651103921
 20
-589.6526017039377
 10
711.3737266852766
 20
-587.0500428592976
 10
715.4187565134839
 20
-584.7553331565264
 10
719.601002459881
 20
-582.7799047239357
 10
723.8996287855363
 20
-581.1335990466097
 10
728.2932199503229
 20
-579.8246179366209
 10
732.7598873040622
 20
-578.8594826720157
 10
737.2773781346778
 20
-578.2430015081347
 10
741.8231865300887
 20
-577.9782457231264
 10
746.3746655015297
 20
-578.0665343169938
 10
750.9091398097117
 20
-578.5074274404036
 10
755.4040189317221
 20
-579.2987285859923
 10
759.8369096058745
 20
-580.4364955312565
 10
764.1857273938112
 20
-581.9150599785062
 10
768.4288067040653
 20
-583.7270557940392
 10
772.5450087289462
 20
-585.8634557058487
 10
776.5138267570171
 20
-588.3136162770383
 10
780.3154883365
 20
-591.0653309308892
 10
783.9310537806351
 20
-594.1048907634113
 10
787.3425105242483
 20
-597.4171528404134
 10
790.5328628614443
 20
-600.9856156388398
 10
793.486216617359
 20
-604.7925012565277
 10
796.1878583321385
 20
-608.8188439808223
 10
798.6243285626563
 20
-613.0445847748021
 10
800.7834889367824
 20
-617.4486712103927
 10
802.6545826261418
 20
-622.0091623505043
 10
804.2282879360934
 20
-626.7033380576767
 10
805.496764745942
 20
-631.5078121846607
 10
806.4536935680282
 20
-636.3986490830281
 10
807.0943070310946
 20
-641.351482849368
 10
807.4154136310923
 20
-646.3416387149916
 10
807.4154136310923
 20
-651.3442559743886
 10
807.0943070310944
 20
-656.334411840012
 10
806.4536935680282
 20
-661.287245606352
 10
805.496764745942
 20
-666.1780825047194
 10
804.2282879360932
 20
-670.9825566317034
 10
802.654582626142
 20
-675.6767323388758
 10
800.7834889367824
 20
-680.2372234789873
 10
798.6243285626563
 20
-684.641309914578
 10
796.1878583321383
 20
-688.8670507085578
 10
793.486216617359
 20
-692.8933934328522
 10
790.5328628614443
 20
-696.7002790505403
 10
787.3425105242481
 20
-700.2687418489666
 10
783.9310537806349
 20
-703.5810039259686
 10
780.3154883364999
 20
-706.6205637584906
 10
776.5138267570172
 20
-709.3722784123415
 10
772.5450087289462
 20
-711.8224389835311
 10
768.4288067040653
 20
-713.9588388953406
 10
764.1857273938113
 20
-715.7708347108737
 10
759.8369096058745
 20
-717.2493991581232
 10
755.4040189317221
 20
-718.3871661033874
 10
750.9091398097117
 20
-719.1784672489762
 10
746.3746655015297
 20
-719.6193603723859
 10
741.8231865300887
 20
-719.7076489662532
 10
737.2773781346778
 20
-719.4428931812449
 10
732.7598873040622
 20
-718.8264120173638
 10
728.2932199503229
 20
-717.8612767527587
 10
723.8996287855363
 20
-716.5522956427698
 10
719.6010024598811
 20
-714.9059899654438
 10
715.418756513484
 20
-712.930561532853
 10
711.3737266852767
 20
-710.6358518300818
 10
707.4860651103922
 20
-708.0332929854417
 10
703.7751399232412
 20
-705.1358508161842
 10
700.2594387664409
 20
-701.9579602334509
 10
696.9564766863093
 20
-698.515453328272
 10
693.8827088737857
 20
-694.8254804968859
 10
691.0534486854967
 20
-690.9064249983272
 10
688.4827913533842
 20
-686.7778113699552
 10
686.1835437629693
 20
-682.460208157191
 10
684.1671606500912
 20
-677.9751254420585
 10
683.0536901054045
 20
-675.0929473446904
  0
LWPOLYLINE
  5
540
330
A
100
AcDbEntity
  8
0
  6
Continuous
 62
     7
100
AcDbPolyline
 90
       10
 70
   128
 43
0.0
 10
721.8627024475741
 20
-678.5254667479691
 10
721.7119274499824
 20
-678.5997925461954
 10
718.8155075089769
 20
-679.8216373447553
 10
715.8187364270328
 20
-680.7040731329667
 10
712.7544474552385
 20
-681.2374317596727
 10
709.6562135848127
 20
-681.4158696361464
 10
706.5579797143868
 20
-681.2374317596727
 10
703.4936907425925
 20
-680.7040731329668
 10
700.4969196606484
 20
-679.8216373447553
 10
699.9496165649329
 20
-679.6197151483795
  0
LWPOLYLINE
  5
54C
330
A
100
AcDbEntity
  8
0
  6
Continuous
 62
     7
100
AcDbPolyline
 90
       10
 70
   128
 43
0.0
 10
698.9219223681901
 20
-618.4811359808401
 10
700.4969196606484
 20
-617.8642573446254
 10
703.4936907425925
 20
-616.9818215564141
 10
706.5579797143868
 20
-616.4484629297081
 10
709.6562135848127
 20
-616.2700250532343
 10
712.7544474552384
 20
-616.4484629297081
 10
715.8187364270327
 20
-616.9818215564141
 10
718.8155075089769
 20
-617.8642573446255
 10
721.7119274499823
 20
-619.0861021431853
 10
721.8627024475733
 20
-619.1604279414113
  0
LWPOLYLINE
  5
558
330
A
100
AcDbEntity
  8
0
  6
Continuous
 62
     7
100
AcDbPolyline
 90
       38
 70
   128
 43
0.0
 10
721.367813889159
 20
-648.8429473446903
 10
721.2042018329039
 20
-650.9554575987134
 10
720.7180724851097
 20
-653.0071947789661
 10
719.9234109020186
 20
-654.9391341423607
 10
718.8430780505397
 20
-656.6956973108859
 10
717.508153139853
 20
-658.2263511603493
 10
715.9570395291468
 20
-659.4870615663568
 10
714.2343599328962
 20
-660.4415601858967
 10
712.3896727066104
 20
-661.0623878315365
 10
710.4760461431759
 20
-661.3316844222488
 10
708.5485317946918
 20
-661.2417027854263
 10
706.6625807395472
 20
-660.795031528931
 10
704.8724483558563
 20
-660.0045205715599
 10
703.2296334930121
 20
-658.8929114742771
 10
701.7813969435532
 20
-657.4921832069097
 10
700.5694018362095
 20
-655.8426321714104
 10
699.6285150635458
 20
-653.9917129477403
 10
698.9858042249433
 20
-651.9926731120044
 10
698.6597589410477
 20
-649.9030214006343
 10
698.6597589410478
 20
-647.7828732887465
 10
698.9858042249434
 20
-645.6932215773763
 10
699.6285150635459
 20
-643.6941817416403
 10
700.5694018362096
 20
-641.8432625179704
 10
701.7813969435531
 20
-640.193711482471
 10
703.2296334930121
 20
-638.7929832151036
 10
704.8724483558562
 20
-637.6813741178207
 10
706.6625807395472
 20
-636.8908631604497
 10
708.5485317946918
 20
-636.4441919039544
 10
710.4760461431759
 20
-636.3542102671318
 10
712.3896727066103
 20
-636.6235068578443
 10
714.2343599328962
 20
-637.2443345034841
 10
715.9570395291467
 20
-638.1988331230241
 10
717.5081531398529
 20
-639.4595435290313
 10
718.8430780505398
 20
-640.9901973784949
 10
719.9234109020188
 20
-642.74676054702
 10
720.7180724851098
 20
-644.6786999104148
 10
721.2042018329039
 20
-646.7304370906673
 10
721.367813889159
 20
-648.8429473446903
  0
LWPOLYLINE
  5
580
330
A
100
AcDbEntity
  8
0
  6
Continuous
 62
     7
100
AcDbPolyline
 90
       20
 70
   128
 43
0.0
 10
710.2006446244566
 20
-661.3408703079259
 10
708.9632250373482
 20
-661.2417027854263
 10
707.0772739822037
 20
-660.795031528931
 10
705.2871415985127
 20
-660.0045205715599
 10
703.6443267356685
 20
-658.8929114742771
 10
702.1960901862096
 20
-657.4921832069097
 10
700.9840950788659
 20
-655.8426321714104
 10
700.0432083062023
 20
-653.9917129477403
 10
699.4004974675997
 20
-651.9926731120044
 10
699.0744521837041
 20
-649.9030214006343
 10
699.0744521837042
 20
-647.7828732887465
 10
699.4004974675998
 20
-645.6932215773763
 10
700.0432083062023
 20
-643.6941817416403
 10
700.984095078866
 20
-641.8432625179704
 10
702.1960901862095
 20
-640.193711482471
 10
703.6443267356685
 20
-638.7929832151036
 10
705.2871415985126
 20
-637.6813741178207
 10
707.0772739822037
 20
-636.8908631604497
 10
708.9632250373482
 20
-636.4441919039544
 10
710.2006446244561
 20
-636.3450243814549
  0
LWPOLYLINE
  5
596
330
A
100
AcDbEntity
  8
0
  6
Continuous
 62
     7
100
AcDbPolyline
 90
       11
 70
   128
 43
0.0
 10
548.1984553614845
 20
-648.0950177699176
 10
548.4809434825456
 20
-648.1461884582776
 10
548.8022636217908
 20
-648.3484266822347
 10
548.9400403129682
 20
-648.5224558893342
 10
549.0116465693812
 20
-648.6963472985236
 10
549.0279140851371
 20
-648.8917573139254
 10
548.9924219345205
 20
-649.0521533641878
 10
548.893085684021
 20
-649.234460916792
 10
548.6937204987235
 20
-649.427109089867
 10
548.3780667282689
 20
-649.5711568567348
 10
548.2022837479146
 20
-649.5747457194251
  0
LINE
  5
5A3
330
A
100
AcDbEntity
  8
0
  6
Continuous
 62
     7
100
AcDbLine
 10
678.1499999999989
 20
-645.7237039270193
 30
0.0
 11
678.1499999999986
 21
-622.5929473446905
 31
0.0
  0
LINE
  5
5A4
330
A
100
AcDbEntity
  8
0
  6
Continuous
 62
     7
100
AcDbLine
 10
678.1499999999992
 20
-675.0929473446904
 30
0.0
 11
678.1499999999989
 21
-651.9621907623618
 31
0.0
  0
LINE
  5
5A5
330
A
100
AcDbEntity
  8
0
  6
Continuous
 62
     7
100
AcDbLine
 10
637.3499999999986
 20
-624.8929473446906
 30
0.0
 11
637.3499999999991
 21
-672.7929473446907
 31
0.0
  0
LWPOLYLINE
  5
5A6
330
A
100
AcDbEntity
  8
0
  6
Continuous
 62
     7
100
AcDbPolyline
 90
       12
 70
   128
 43
0.0
 10
654.8499999999985
 20
-624.8929473446906
 10
654.4501901270869
 20
-625.0151232761609
 10
653.3057244820094
 20
-625.330755738938
 10
651.4874789484179
 20
-625.7243134739661
 10
649.1409379610669
 20
-626.0271642378061
 10
646.6477445577075
 20
-626.0867248394894
 10
644.3298824596415
 20
-625.8979345977433
 10
642.3064800242847
 20
-625.5451020849799
 10
640.7524044983111
 20
-625.1600259369781
 10
639.9375871607928
 20
-624.9202308580785
 10
639.8499999999986
 20
-624.8929473446906
 10
639.8499999999986
 20
-624.8929473446906
  0
LINE
  5
5B4
330
A
100
AcDbEntity
  8
0
  6
Continuous
 62
     7
100
AcDbLine
 10
657.3499999999991
 20
-672.7929473446907
 30
0.0
 11
657.3499999999986
 21
-624.8929473446906
 31
0.0
  0
LWPOLYLINE
  5
5B5
330
A
100
AcDbEntity
  8
0
  6
Continuous
 62
     7
100
AcDbPolyline
 90
       12
 70
   128
 43
0.0
 10
639.8499999999991
 20
-672.7929473446907
 10
640.2498098729106
 20
-672.6707714132204
 10
641.3942755179883
 20
-672.3551389504433
 10
643.2125210515798
 20
-671.9615812154152
 10
645.5590620389307
 20
-671.6587304515753
 10
648.0522554422901
 20
-671.5991698498919
 10
650.3701175403562
 20
-671.7879600916379
 10
652.393519975713
 20
-672.1407926044014
 10
653.9475955016866
 20
-672.5258687524033
 10
654.762412839205
 20
-672.7656638313027
 10
654.8499999999989
 20
-672.7929473446907
 10
654.8499999999989
 20
-672.7929473446907
  0
LINE
  5
5C3
330
A
100
AcDbEntity
  8
0
  6
Continuous
 62
     7
100
AcDbLine
 10
595.3499999999986
 20
-637.5929473446911
 30
0.0
 11
595.3499999999989
 21
-660.092947344691
 31
0.0
  0
LINE
  5
5C4
330
A
100
AcDbEntity
  8
0
  6
Continuous
 62
     7
100
AcDbLine
 10
560.849999999999
 20
-643.8429473446912
 30
0.0
 11
545.849999999999
 21
-643.8429473446914
 31
0.0
  0
LINE
  5
5C5
330
A
100
AcDbEntity
  8
0
  6
Continuous
 62
     7
100
AcDbLine
 10
545.8499999999991
 20
-653.8429473446914
 30
0.0
 11
560.8499999999991
 21
-653.8429473446913
 31
0.0
  0
LINE
  5
5C6
330
A
100
AcDbEntity
  8
0
  6
Continuous
 62
     7
100
AcDbLine
 10
654.8499999999985
 20
-613.8429473446906
 30
0.0
 11
639.8499999999986
 21
-613.8429473446907
 31
0.0
  0
LINE
  5
5C7
330
A
100
AcDbEntity
  8
0
  6
Continuous
 62
     7
100
AcDbLine
 10
641.3499999999986
 20
-615.8429473446907
 30
0.0
 11
641.3499999999986
 21
-619.8429473446907
 31
0.0
  0
LINE
  5
5C8
330
A
100
AcDbEntity
  8
0
  6
Continuous
 62
     7
100
AcDbLine
 10
639.8499999999991
 20
-683.8429473446906
 30
0.0
 11
654.8499999999989
 21
-683.8429473446905
 31
0.0
  0
LINE
  5
5C9
330
A
100
AcDbEntity
  8
0
  6
Continuous
 62
     7
100
AcDbLine
 10
641.3499999999991
 20
-677.8429473446907
 30
0.0
 11
641.3499999999991
 21
-681.8429473446907
 31
0.0
  0
LINE
  5
5CA
330
A
100
AcDbEntity
  8
0
  6
Continuous
 62
     7
100
AcDbLine
 10
544.849999999999
 20
-641.8429473446914
 30
0.0
 11
544.849999999999
 21
-648.0929473446914
 31
0.0
  0
LINE
  5
5CB
330
A
100
AcDbEntity
  8
0
  6
Continuous
 62
     7
100
AcDbLine
 10
544.849999999999
 20
-649.5929473446913
 30
0.0
 11
544.8499999999991
 21
-655.8429473446913
 31
0.0
  0
LINE
  5
5CC
330
A
100
AcDbEntity
  8
0
  6
Continuous
 62
     7
100
AcDbLine
 10
154.8499999999989
 20
-641.842947344694
 30
0.0
 11
154.849999999999
 21
-648.0929473446942
 31
0.0
  0
LINE
  5
5CD
330
A
100
AcDbEntity
  8
0
  6
Continuous
 62
     7
100
AcDbLine
 10
154.849999999999
 20
-649.5929473446942
 30
0.0
 11
154.849999999999
 21
-655.8429473446941
 31
0.0
  0
LINE
  5
5CE
330
A
100
AcDbEntity
  8
0
  6
Continuous
 62
     7
100
AcDbLine
 10
586.3499999999988
 20
-642.5929473446911
 30
0.0
 11
586.3499999999988
 21
-655.0929473446911
 31
0.0
  0
LINE
  5
5CF
330
A
100
AcDbEntity
  8
0
  6
Continuous
 62
     7
100
AcDbLine
 10
641.3499999999986
 20
-615.8429473446907
 30
0.0
 11
601.3499999999988
 21
-615.842947344691
 31
0.0
  0
LINE
  5
5D0
330
A
100
AcDbEntity
  8
0
  6
Continuous
 62
     7
100
AcDbLine
 10
601.3499999999988
 20
-619.842947344691
 30
0.0
 11
641.3499999999986
 21
-619.8429473446907
 31
0.0
  0
ARC
  5
5D1
330
A
100
AcDbEntity
  8
0
  6
Continuous
 62
     7
100
AcDbCircle
 10
601.3499999999988
 20
-648.8429473446911
 30
0.0
 40
33.0
100
AcDbArc
 50
90.00000000000019
 51
180.0000000000004
  0
ARC
  5
5D2
330
A
100
AcDbEntity
  8
0
  6
Continuous
 62
     7
100
AcDbCircle
 10
601.3499999999988
 20
-648.8429473446911
 30
0.0
 40
33.0
100
AcDbArc
 50
180.0000000000004
 51
270.0000000000012
  0
ARC
  5
5D3
330
A
100
AcDbEntity
  8
0
  6
Continuous
 62
     7
100
AcDbCircle
 10
601.3499999999988
 20
-648.8429473446911
 30
0.0
 40
29.0
100
AcDbArc
 50
90.00000000000023
 51
270.0000000000013
  0
LINE
  5
5D4
330
A
100
AcDbEntity
  8
0
  6
Continuous
 62
     7
100
AcDbLine
 10
641.3499999999991
 20
-677.8429473446907
 30
0.0
 11
601.3499999999991
 21
-677.8429473446911
 31
0.0
  0
LINE
  5
5D5
330
A
100
AcDbEntity
  8
0
  6
Continuous
 62
     7
100
AcDbLine
 10
601.3499999999991
 20
-681.842947344691
 30
0.0
 11
641.3499999999991
 21
-681.8429473446907
 31
0.0
  0
LWPOLYLINE
  5
5D6
330
A
100
AcDbEntity
  8
0
  6
PHANTOM
 62
     7
100
AcDbPolyline
 90
       31
 70
   128
 43
0.0
 10
-571.6790743577161
 20
-682.9532809259728
 10
-574.1524156051268
 20
-682.6475439401142
 10
-577.2402638160849
 20
-681.9501857569852
 10
-580.2480710017566
 20
-680.9131025064943
 10
-583.1449729902034
 20
-679.5469360661897
 10
-585.9012436468892
 20
-677.8657051524671
 10
-588.4885999050459
 20
-675.8866614695705
 10
-590.880491988213
 20
-673.6301126837604
 10
-593.0523758468695
 20
-671.1192140391776
 10
-594.9819650135976
 20
-668.3797307537041
 10
-596.6494592923951
 20
-665.4397736329622
 10
-598.0377479354812
 20
-662.3295106154085
 10
-599.1325852227231
 20
-659.0808572084609
 10
-599.9227366420025
 20
-655.7271489922058
 10
-600.4000941705115
 20
-652.3027995512339
 10
-600.5597594740398
 20
-648.8429473446947
 10
-600.4000941705115
 20
-645.3830951381555
 10
-599.9227366420024
 20
-641.9587456971835
 10
-599.132585222723
 20
-638.6050374809284
 10
-598.0377479354809
 20
-635.3563840739809
 10
-596.6494592923949
 20
-632.2461210564272
 10
-594.9819650135975
 20
-629.3061639356852
 10
-593.0523758468694
 20
-626.5666806502118
 10
-590.8804919882127
 20
-624.0557820056291
 10
-588.4885999050458
 20
-621.799233219819
 10
-585.9012436468888
 20
-619.8201895369224
 10
-583.1449729902031
 20
-618.1389586231999
 10
-580.2480710017562
 20
-616.7727921828952
 10
-577.2402638160846
 20
-615.7357089324044
 10
-574.1524156051265
 20
-615.0383507492754
 10
-571.8461512586818
 20
-614.7463555948418
  0
LWPOLYLINE
  5
5F7
330
A
100
AcDbEntity
  8
0
  6
PHANTOM
 62
     7
100
AcDbPolyline
 90
       21
 70
   128
 43
0.0
 10
-553.251478425217
 20
-621.3621230082902
 10
-551.977569463439
 20
-622.3248246896842
 10
-549.5512901643584
 20
-624.4839959636158
 10
-547.3436758544083
 20
-626.9100490063168
 10
-545.3789136179413
 20
-629.5764034729671
 10
-543.6785298011732
 20
-632.4538462260597
 10
-542.2611541650288
 20
-635.5108514006478
 10
-541.1423157735821
 20
-638.7139258083196
 10
-540.3342728543824
 20
-642.0279758955777
 10
-539.8458784947459
 20
-645.4166922361568
 10
-539.6824836454801
 20
-648.842947344695
 10
-539.8458784947459
 20
-652.2692024532332
 10
-540.3342728543825
 20
-655.6579187938124
 10
-541.1423157735822
 20
-658.9719688810705
 10
-542.2611541650288
 20
-662.1750432887422
 10
-543.6785298011734
 20
-665.2320484633303
 10
-545.3789136179416
 20
-668.1094912164228
 10
-547.3436758544087
 20
-670.7758456830731
 10
-549.5512901643587
 20
-673.2018987257742
 10
-551.9775694634392
 20
-675.3610699997058
 10
-552.2535556962325
 20
-675.5787980794545
  0
LWPOLYLINE
  5
60E
330
A
100
AcDbEntity
  8
0
  6
PHANTOM
 62
     7
100
AcDbPolyline
 90
       25
 70
   128
 43
0.0
 10
-560.2496165649331
 20
-618.0661795410056
 10
-557.9004997196431
 20
-619.0861021431897
 10
-555.1361647025648
 20
-620.6339691647975
 10
-552.5342012423349
 20
-622.4908996544525
 10
-550.1231169951195
 20
-624.6365486931221
 10
-547.9293283044833
 20
-627.047408100933
 10
-545.9768707784006
 20
-629.6970639977083
 10
-544.2871359501047
 20
-632.556486198967
 10
-542.8786369079747
 20
-635.5943462766993
 10
-541.7668054622632
 20
-638.7773608001805
 10
-540.9638230709555
 20
-642.0706559962029
 10
-540.4784873771651
 20
-645.4381498334323
 10
-540.3161158203166
 20
-648.842947344695
 10
-540.4784873771651
 20
-652.2477448559576
 10
-540.9638230709556
 20
-655.6152386931871
 10
-541.7668054622634
 20
-658.9085338892096
 10
-542.8786369079748
 20
-662.0915484126908
 10
-544.2871359501049
 20
-665.1294084904231
 10
-545.9768707784007
 20
-667.9888306916816
 10
-547.9293283044837
 20
-670.638486588457
 10
-550.1231169951199
 20
-673.0493459962679
 10
-552.5342012423352
 20
-675.1949950349374
 10
-555.136164702565
 20
-677.0519255245923
 10
-557.9004997196434
 20
-678.5997925462001
 10
-559.2219223681907
 20
-679.2047587085452
  0
LWPOLYLINE
  5
629
330
A
100
AcDbEntity
  8
0
  6
PHANTOM
 62
     7
100
AcDbPolyline
 90
       27
 70
   128
 43
0.0
 10
-599.0395118609658
 20
-648.8429473446949
 10
-598.8261999829988
 20
-652.6859118604134
 10
-598.162542727964
 20
-656.5875992762705
 10
-597.0211913479896
 20
-660.4712765710408
 10
-595.8180779163589
 20
-663.3745124824139
 10
-594.3537499666819
 20
-666.1296265686473
 10
-590.6199407554659
 20
-671.1808680923357
 10
-588.4185760757421
 20
-673.363097578552
 10
-586.0235065990659
 20
-675.2841297702964
 10
-583.5168858274824
 20
-676.8931080662874
 10
-580.8746272441798
 20
-678.2155087934257
 10
-577.3410393434321
 20
-679.4696649696012
 10
-573.7904625626351
 20
-680.199119183392
 10
-570.293298003203
 20
-680.4335378212238
 10
-566.796561805132
 20
-680.199162433812
 10
-563.2459646879728
 20
-679.4697944607063
 10
-559.7119687622266
 20
-678.2155087934257
 10
-557.0701365221849
 20
-676.893349850328
 10
-554.5630894073402
 20
-675.2841297702963
 10
-549.9666552509402
 20
-671.1808680923357
 10
-547.9809109340667
 20
-668.7616830672254
 10
-546.2328460397242
 20
-666.1296265686472
 10
-544.7687381038353
 20
-663.3749810103272
 10
-543.5654046584166
 20
-660.4712765710408
 10
-542.4241711102824
 20
-656.588047674507
 10
-541.7603960270313
 20
-652.6861488867475
 10
-541.5470841454403
 20
-648.8429473446948
  0
LWPOLYLINE
  5
646
330
A
100
AcDbEntity
  8
0
  6
PHANTOM
 62
     7
100
AcDbPolyline
 90
       27
 70
   128
 43
0.0
 10
-541.5470841454403
 20
-648.8429473446948
 10
-541.7603960234104
 20
-644.9999828293597
 10
-542.4240532785971
 20
-641.0982954117727
 10
-543.5654046584166
 20
-637.2146181183487
 10
-544.7685180907797
 20
-634.3113822060167
 10
-546.2328460397242
 20
-631.5562681207424
 10
-549.9666552509402
 20
-626.505026597054
 10
-552.1680199300964
 20
-624.3227971112689
 10
-554.5630894073402
 20
-622.4017649190933
 10
-557.0697101788213
 20
-620.7927866231528
 10
-559.7119687622264
 20
-619.4703858959639
 10
-563.2455566629261
 20
-618.2162297198043
 10
-566.796133443701
 20
-617.4867755060062
 10
-570.293298003203
 20
-617.2523568681659
 10
-573.7900342009797
 20
-617.4867322555692
 10
-577.3406313175845
 20
-618.2161002284561
 10
-580.8746272441797
 20
-619.4703858959639
 10
-583.5164594851744
 20
-620.7925448393098
 10
-586.0235065990658
 20
-622.4017649190934
 10
-590.6199407554659
 20
-626.5050265970541
 10
-592.6056850728789
 20
-628.9242116230759
 10
-594.3537499666819
 20
-631.5562681207425
 10
-595.8178579019269
 20
-634.3109136779757
 10
-597.0211913479895
 20
-637.2146181183488
 10
-598.1624248959534
 20
-641.0978470138128
 10
-598.8261999793778
 20
-644.9997458027166
 10
-599.0395118609658
 20
-648.8429473446949
  0
LINE
  5
663
330
A
100
AcDbEntity
  8
0
  6
PHANTOM
 62
     7
100
AcDbLine
 10
-465.6499999999993
 20
-670.0929473446947
 30
0.0
 11
-465.6499999999993
 21
-627.5929473446947
 31
0.0
  0
LWPOLYLINE
  5
664
330
A
100
AcDbEntity
  8
0
  6
PHANTOM
 62
     7
100
AcDbPolyline
 90
       28
 70
   128
 43
0.0
 10
-542.2658388416282
 20
-675.0929473446947
 10
-542.3442740205481
 20
-675.3457664331494
 10
-545.0635196440779
 20
-681.9121580447268
 10
-548.4237988587066
 20
-688.2420495884248
 10
-552.3969148029181
 20
-694.2244124454391
 10
-556.9337462560906
 20
-699.7546355901261
 10
-561.9660351370607
 20
-704.7403768500834
 10
-567.4097536452741
 20
-709.1066241524377
 10
-573.1697097988884
 20
-712.7993958364369
 10
-579.1448718548325
 20
-715.7877050211896
 10
-587.1991519052491
 20
-718.6463395257698
 10
-595.2915166779927
 20
-720.3087407574435
 10
-603.2614107943739
 20
-720.8429473446948
 10
-609.2475956338642
 20
-720.5424196459467
 10
-615.1831225850123
 20
-719.6409338706882
 10
-621.3660504933616
 20
-718.0402159487376
 10
-627.3779497339155
 20
-715.7877050211898
 10
-633.3531117898594
 20
-712.799395836437
 10
-639.1130679434735
 20
-709.1066241524377
 10
-644.556786451687
 20
-704.7403768500835
 10
-649.5890753326571
 20
-699.7546355901262
 10
-654.1259067858294
 20
-694.2244124454393
 10
-658.099022730041
 20
-688.242049588425
 10
-661.4593019446699
 20
-681.9121580447269
 10
-664.1785475681999
 20
-675.3457664331496
 10
-666.7797942551819
 20
-666.4945325287248
 10
-668.2924756383308
 20
-657.6016792222556
 10
-668.7786222974851
 20
-648.8429473446947
  0
LWPOLYLINE
  5
682
330
A
100
AcDbEntity
  8
0
  6
PHANTOM
 62
     7
100
AcDbPolyline
 90
       29
 70
   128
 43
0.0
 10
-668.7786222974851
 20
-648.8429473446947
 10
-668.5051537305508
 20
-642.264442262858
 10
-667.6848365890675
 20
-635.7416075710203
 10
-666.2282452731102
 20
-628.9468921149091
 10
-664.1785475681996
 20
-622.3401282562397
 10
-661.4593019446698
 20
-615.7737366446625
 10
-658.0990227300409
 20
-609.4438451009644
 10
-654.1259067858296
 20
-603.46148224395
 10
-649.5890753326571
 20
-597.9312590992631
 10
-644.5567864516872
 20
-592.9455178393058
 10
-639.1130679434734
 20
-588.5792705369516
 10
-633.3531117898594
 20
-584.8864988529522
 10
-627.3779497339152
 20
-581.8981896681995
 10
-619.323669683544
 20
-579.0395551635196
 10
-611.2313049104386
 20
-577.377153931984
 10
-603.2614107943739
 20
-576.8429473446944
 10
-597.2752259551561
 20
-577.1434750433993
 10
-591.3396990037357
 20
-578.044960818701
 10
-585.1567710947009
 20
-579.645678740778
 10
-579.1448718548322
 20
-581.8981896681995
 10
-573.1697097988884
 20
-584.8864988529522
 10
-567.4097536452741
 20
-588.5792705369515
 10
-561.966035137061
 20
-592.9455178393056
 10
-556.9337462560906
 20
-597.931259099263
 10
-552.3969148029181
 20
-603.4614822439499
 10
-548.4237988587066
 20
-609.4438451009643
 10
-545.0635196440778
 20
-615.7737366446623
 10
-542.3442740205481
 20
-622.3401282562396
 10
-542.2699742309958
 20
-622.5929473446947
  0
LWPOLYLINE
  5
6A1
330
A
100
AcDbEntity
  8
0
  6
PHANTOM
 62
     7
100
AcDbPolyline
 90
       31
 70
   128
 43
0.0
 10
711.3790743577156
 20
-614.7326137634125
 10
713.8524156051262
 20
-615.0383507492709
 10
716.9402638160843
 20
-615.7357089324
 10
719.948071001756
 20
-616.7727921828908
 10
722.8449729902028
 20
-618.1389586231955
 10
725.6012436468885
 20
-619.820189536918
 10
728.1885999050455
 20
-621.7992332198146
 10
730.5804919882124
 20
-624.0557820056246
 10
732.752375846869
 20
-626.5666806502075
 10
734.6819650135971
 20
-629.306163935681
 10
736.3494592923946
 20
-632.2461210564228
 10
737.7377479354808
 20
-635.3563840739767
 10
738.8325852227227
 20
-638.6050374809241
 10
739.6227366420021
 20
-641.9587456971793
 10
740.1000941705111
 20
-645.3830951381512
 10
740.2597594740393
 20
-648.8429473446905
 10
740.1000941705111
 20
-652.3027995512295
 10
739.622736642002
 20
-655.7271489922015
 10
738.8325852227227
 20
-659.0808572084568
 10
737.7377479354808
 20
-662.3295106154042
 10
736.3494592923946
 20
-665.4397736329579
 10
734.6819650135971
 20
-668.3797307536999
 10
732.752375846869
 20
-671.1192140391732
 10
730.5804919882125
 20
-673.630112683756
 10
728.1885999050456
 20
-675.8866614695662
 10
725.6012436468886
 20
-677.8657051524628
 10
722.8449729902028
 20
-679.5469360661853
 10
719.948071001756
 20
-680.9131025064901
 10
716.9402638160844
 20
-681.9501857569808
 10
713.8524156051263
 20
-682.6475439401098
 10
711.5461512586817
 20
-682.9395390945434
  0
LWPOLYLINE
  5
6C2
330
A
100
AcDbEntity
  8
0
  6
PHANTOM
 62
     7
100
AcDbPolyline
 90
       21
 70
   128
 43
0.0
 10
692.9514784252169
 20
-676.3237716810951
 10
691.6775694634388
 20
-675.3610699997012
 10
689.2512901643582
 20
-673.2018987257695
 10
687.043675854408
 20
-670.7758456830685
 10
685.0789136179411
 20
-668.1094912164182
 10
683.3785298011729
 20
-665.2320484633256
 10
681.9611541650284
 20
-662.1750432887374
 10
680.8423157735818
 20
-658.9719688810658
 10
680.034272854382
 20
-655.6579187938077
 10
679.5458784947456
 20
-652.2692024532285
 10
679.3824836454797
 20
-648.8429473446903
 10
679.5458784947456
 20
-645.416692236152
 10
680.0342728543821
 20
-642.0279758955729
 10
680.8423157735817
 20
-638.7139258083148
 10
681.9611541650283
 20
-635.5108514006432
 10
683.3785298011729
 20
-632.453846226055
 10
685.0789136179411
 20
-629.5764034729625
 10
687.0436758544082
 20
-626.9100490063122
 10
689.2512901643581
 20
-624.4839959636111
 10
691.6775694634387
 20
-622.3248246896795
 10
691.9535556962318
 20
-622.1070966099307
  0
LWPOLYLINE
  5
6D9
330
A
100
AcDbEntity
  8
0
  6
PHANTOM
 62
     7
100
AcDbPolyline
 90
       25
 70
   128
 43
0.0
 10
699.9496165649329
 20
-679.6197151483795
 10
697.6004997196429
 20
-678.5997925461956
 10
694.8361647025645
 20
-677.0519255245877
 10
692.2342012423347
 20
-675.1949950349328
 10
689.8231169951194
 20
-673.0493459962632
 10
687.6293283044831
 20
-670.6384865884523
 10
685.6768707784002
 20
-667.988830691677
 10
683.9871359501045
 20
-665.1294084904184
 10
682.5786369079743
 20
-662.0915484126861
 10
681.466805462263
 20
-658.9085338892049
 10
680.6638230709551
 20
-655.6152386931825
 10
680.1784873771647
 20
-652.247744855953
 10
680.0161158203162
 20
-648.8429473446903
 10
680.1784873771647
 20
-645.4381498334277
 10
680.6638230709552
 20
-642.0706559961983
 10
681.4668054622629
 20
-638.7773608001758
 10
682.5786369079743
 20
-635.5943462766946
 10
683.9871359501044
 20
-632.5564861989623
 10
685.6768707784002
 20
-629.6970639977037
 10
687.6293283044831
 20
-627.0474081009283
 10
689.8231169951193
 20
-624.6365486931174
 10
692.2342012423346
 20
-622.4908996544478
 10
694.8361647025644
 20
-620.6339691647928
 10
697.6004997196429
 20
-619.0861021431852
 10
698.9219223681901
 20
-618.4811359808401
  0
LWPOLYLINE
  5
6F4
330
A
100
AcDbEntity
  8
0
  6
PHANTOM
 62
     7
100
AcDbPolyline
 90
       27
 70
   128
 43
0.0
 10
738.7395118609654
 20
-648.8429473446903
 10
738.5261999829983
 20
-644.9999828289718
 10
737.8625427279636
 20
-641.0982954131148
 10
736.7211913479891
 20
-637.2146181183442
 10
735.5180779163584
 20
-634.3113822069713
 10
734.0537499666814
 20
-631.5562681207378
 10
730.3199407554654
 20
-626.5050265970494
 10
728.1185760757414
 20
-624.3227971108331
 10
725.7235065990653
 20
-622.4017649190888
 10
723.2168858274818
 20
-620.7927866230977
 10
720.5746272441792
 20
-619.4703858959594
 10
717.0410393434315
 20
-618.216229719784
 10
713.4904625626344
 20
-617.4867755059931
 10
709.9932980032024
 20
-617.2523568681614
 10
706.4965618051314
 20
-617.4867322555733
 10
702.9459646879722
 20
-618.2161002286789
 10
699.4119687622259
 20
-619.4703858959595
 10
696.7701365221842
 20
-620.7925448390573
 10
694.2630894073395
 20
-622.401764919089
 10
689.6666552509397
 20
-626.5050265970496
 10
687.6809109340662
 20
-628.92421162216
 10
685.9328460397237
 20
-631.5562681207381
 10
684.4687381038347
 20
-634.310913679058
 10
683.2654046584162
 20
-637.2146181183445
 10
682.1241711102819
 20
-641.0978470148783
 10
681.4603960270309
 20
-644.9997458026378
 10
681.2470841454399
 20
-648.8429473446905
  0
LWPOLYLINE
  5
711
330
A
100
AcDbEntity
  8
0
  6
PHANTOM
 62
     7
100
AcDbPolyline
 90
       27
 70
   128
 43
0.0
 10
681.2470841454399
 20
-648.8429473446905
 10
681.46039602341
 20
-652.6859118600256
 10
682.1240532785967
 20
-656.5875992776126
 10
683.2654046584162
 20
-660.4712765710366
 10
684.4685180907795
 20
-663.3745124833686
 10
685.9328460397239
 20
-666.1296265686429
 10
689.6666552509399
 20
-671.1808680923313
 10
691.8680199300962
 20
-673.3630975781162
 10
694.2630894073399
 20
-675.284129770292
 10
696.7697101788211
 20
-676.8931080662325
 10
699.4119687622262
 20
-678.2155087934214
 10
702.945556662926
 20
-679.4696649695809
 10
706.4961334437008
 20
-680.1991191833791
 10
709.9932980032028
 20
-680.4335378212194
 10
713.4900342009794
 20
-680.1991624338159
 10
717.0406313175844
 20
-679.469794460929
 10
720.5746272441794
 20
-678.2155087934212
 10
723.2164594851743
 20
-676.8933498500754
 10
725.7235065990657
 20
-675.2841297702917
 10
730.3199407554656
 20
-671.1808680923311
 10
732.3056850728786
 20
-668.7616830663091
 10
734.0537499666815
 20
-666.1296265686427
 10
735.5178579019266
 20
-663.3749810114095
 10
736.7211913479892
 20
-660.4712765710363
 10
737.8624248959531
 20
-656.5880476755722
 10
738.5261999793775
 20
-652.6861488866686
 10
738.7395118609654
 20
-648.8429473446903
  0
LINE
  5
72E
330
A
100
AcDbEntity
  8
0
  6
PHANTOM
 62
     7
100
AcDbLine
 10
605.3499999999989
 20
-627.5929473446909
 30
0.0
 11
605.3499999999989
 21
-670.0929473446909
 31
0.0
  0
LWPOLYLINE
  5
72F
330
A
100
AcDbEntity
  8
0
  6
PHANTOM
 62
     7
100
AcDbPolyline
 90
       28
 70
   128
 43
0.0
 10
681.9658388416276
 20
-622.5929473446903
 10
682.0442740205476
 20
-622.3401282562353
 10
684.7635196440773
 20
-615.7737366446578
 10
688.1237988587059
 20
-609.4438451009598
 10
692.0969148029175
 20
-603.4614822439455
 10
696.63374625609
 20
-597.9312590992585
 10
701.6660351370599
 20
-592.9455178393012
 10
707.1097536452732
 20
-588.5792705369469
 10
712.8697097988877
 20
-584.8864988529477
 10
718.8448718548317
 20
-581.8981896681949
 10
726.8991519052482
 20
-579.0395551636148
 10
734.9915166779918
 20
-577.377153931941
 10
742.961410794373
 20
-576.8429473446897
 10
748.9475956338631
 20
-577.1434750434378
 10
754.8831225850114
 20
-578.0449608186963
 10
761.0660504933608
 20
-579.6456787406468
 10
767.0779497339147
 20
-581.8981896681946
 10
773.0531117898586
 20
-584.8864988529474
 10
778.8130679434726
 20
-588.5792705369467
 10
784.2567864516861
 20
-592.9455178393007
 10
789.2890753326565
 20
-597.9312590992581
 10
793.8259067858288
 20
-603.4614822439451
 10
797.7990227300404
 20
-609.4438451009592
 10
801.1593019446692
 20
-615.7737366446573
 10
803.8785475681992
 20
-622.3401282562345
 10
806.4797942551814
 20
-631.1913621606594
 10
807.9924756383302
 20
-640.0842154671287
 10
808.4786222974848
 20
-648.8429473446895
  0
LWPOLYLINE
  5
74D
330
A
100
AcDbEntity
  8
0
  6
PHANTOM
 62
     7
100
AcDbPolyline
 90
       29
 70
   128
 43
0.0
 10
808.4786222974848
 20
-648.8429473446895
 10
808.2051537305503
 20
-655.4214524265263
 10
807.3848365890672
 20
-661.9442871183641
 10
805.92824527311
 20
-668.7390025744751
 10
803.8785475681994
 20
-675.3457664331445
 10
801.1593019446696
 20
-681.912158044722
 10
797.7990227300407
 20
-688.2420495884199
 10
793.8259067858296
 20
-694.2244124454342
 10
789.2890753326571
 20
-699.7546355901212
 10
784.2567864516873
 20
-704.7403768500786
 10
778.8130679434734
 20
-709.1066241524328
 10
773.0531117898594
 20
-712.799395836432
 10
767.0779497339152
 20
-715.7877050211849
 10
759.023669683544
 20
-718.6463395258649
 10
750.9313049104386
 20
-720.3087407574003
 10
742.9614107943741
 20
-720.84294734469
 10
736.9752259551562
 20
-720.5424196459851
 10
731.0396990037357
 20
-719.6409338706835
 10
724.856771094701
 20
-718.0402159486065
 10
718.8448718548324
 20
-715.7877050211851
 10
712.8697097988885
 20
-712.7993958364323
 10
707.1097536452741
 20
-709.1066241524331
 10
701.666035137061
 20
-704.740376850079
 10
696.6337462560906
 20
-699.7546355901217
 10
692.0969148029181
 20
-694.2244124454348
 10
688.1237988587064
 20
-688.2420495884205
 10
684.7635196440776
 20
-681.9121580447224
 10
682.0442740205479
 20
-675.3457664331452
 10
681.9699742309958
 20
-675.0929473446904
  0
ARC
  5
76C
330
A
100
AcDbEntity
  8
0
  6
Continuous
 62
     7
100
AcDbCircle
 10
1213.704536264396
 20
721.7406384092463
 30
0.0
 40
100.0000000000001
100
AcDbArc
 50
227.2249941289556
 51
267.4712225668649
  0
ARC
  5
76D
330
A
100
AcDbEntity
  8
0
  6
Continuous
 62
     7
100
AcDbCircle
 10
1221.880303312446
 20
721.7406384092463
 30
0.0
 40
100.0000000000001
100
AcDbArc
 50
272.5287774331367
 51
312.7750058710459
  0
LINE
  5
76E
330
A
100
AcDbEntity
  8
0
  6
Continuous
 62
     7
100
AcDbLine
 10
1162.792419788421
 20
655.8380196837971
 30
0.0
 11
1162.792419788421
 21
648.3380196837972
 31
0.0
  0
LINE
  5
76F
330
A
100
AcDbEntity
  8
0
  6
Continuous
 62
     7
100
AcDbLine
 10
1272.792419788421
 20
648.3380196837972
 30
0.0
 11
1272.792419788421
 21
655.8380196837971
 31
0.0
  0
LINE
  5
770
330
A
100
AcDbEntity
  8
0
  6
Continuous
 62
     7
100
AcDbLine
 10
1207.792419788421
 20
-81.16198031620264
 30
0.0
 11
1207.792419788421
 21
-105.1619803162026
 31
0.0
  0
LINE
  5
771
330
A
100
AcDbEntity
  8
0
  6
Continuous
 62
     7
100
AcDbLine
 10
1227.79241978842
 20
-105.1619803162026
 30
0.0
 11
1227.79241978842
 21
-81.16198031620264
 31
0.0
  0
LINE
  5
772
330
A
100
AcDbEntity
  8
0
  6
Continuous
 62
     7
100
AcDbLine
 10
1208.042419788421
 20
-78.16198031620274
 30
0.0
 11
1208.042419788421
 21
-81.16198031620264
 31
0.0
  0
LINE
  5
773
330
A
100
AcDbEntity
  8
0
  6
Continuous
 62
     7
100
AcDbLine
 10
1227.542419788421
 20
-81.16198031620264
 30
0.0
 11
1227.542419788421
 21
-78.16198031620274
 31
0.0
  0
LINE
  5
774
330
A
100
AcDbEntity
  8
0
  6
Continuous
 62
     7
100
AcDbLine
 10
1208.042419788421
 20
-105.1619803162026
 30
0.0
 11
1208.042419788421
 21
-106.1619803162026
 31
0.0
  0
LINE
  5
775
330
A
100
AcDbEntity
  8
0
  6
Continuous
 62
     7
100
AcDbLine
 10
1227.542419788421
 20
-106.1619803162026
 30
0.0
 11
1227.542419788421
 21
-105.1619803162026
 31
0.0
  0
ARC
  5
776
330
A
100
AcDbEntity
  8
0
  6
Continuous
 62
     7
100
AcDbCircle
 10
1210.042419788421
 20
-106.1619803162026
 30
0.0
 40
2.000000000000014
100
AcDbArc
 50
180.0000000000004
 51
270.0000000000008
  0
ARC
  5
777
330
A
100
AcDbEntity
  8
0
  6
Continuous
 62
     7
100
AcDbCircle
 10
1225.542419788421
 20
-106.1619803162026
 30
0.0
 40
2.000000000000014
100
AcDbArc
 50
270.0000000000008
 51
0.0
  0
LINE
  5
778
330
A
100
AcDbEntity
  8
0
  6
Continuous
 62
     7
100
AcDbLine
 10
1209.292419788421
 20
621.8380196837972
 30
0.0
 11
1209.292419788421
 21
-78.16198031620274
 31
0.0
  0
LINE
  5
779
330
A
100
AcDbEntity
  8
0
  6
Continuous
 62
     7
100
AcDbLine
 10
1226.292419788421
 20
-78.16198031620274
 30
0.0
 11
1226.292419788421
 21
621.8380196837972
 31
0.0
  0
LINE
  5
77A
330
A
100
AcDbEntity
  8
0
  6
Continuous
 62
     7
100
AcDbLine
 10
1210.792419788421
 20
-108.1619803162026
 30
0.0
 11
1210.792419788421
 21
-138.5008366200684
 31
0.0
  0
LINE
  5
77B
330
A
100
AcDbEntity
  8
0
  6
Continuous
 62
     7
100
AcDbLine
 10
1224.792419788421
 20
-138.5059138651659
 30
0.0
 11
1224.792419788421
 21
-108.1619803162026
 31
0.0
  0
LWPOLYLINE
  5
77C
330
A
100
AcDbEntity
  8
0
  6
Continuous
 62
     7
100
AcDbPolyline
 90
       52
 70
   128
 43
0.0
 10
1217.792419788423
 20
-196.6966696745208
 10
1212.773396323008
 20
-196.7682677991454
 10
1210.77240081459
 20
-196.8368951147993
 10
1207.46385407272
 20
-197.001036498319
 10
1204.062776180832
 20
-197.2365726667252
 10
1200.458762439238
 20
-197.5618525816242
 10
1196.75556613843
 20
-197.9798911807323
 10
1193.003759342076
 20
-198.4937899682298
 10
1189.246554611397
 20
-199.1045325206952
 10
1185.518495958603
 20
-199.8118731452803
 10
1181.848320827197
 20
-200.6145903978895
 10
1178.260415637883
 20
-201.5107224713036
 10
1174.775796278223
 20
-202.4977454273298
 10
1171.41275147425
 20
-203.5727240207484
 10
1168.187277459333
 20
-204.7324490352382
 10
1165.113384138575
 20
-205.973571245348
 10
1162.203328328025
 20
-207.2927386024906
 10
1159.46781615181
 20
-208.6867397717378
 10
1156.916210589995
 20
-210.1526522451833
 10
1154.556778288268
 20
-211.6879852231403
 10
1152.397008240873
 20
-213.2907945139595
 10
1150.444300879972
 20
-214.9594766032639
 10
1148.706577213758
 20
-216.6923602999619
 10
1147.191784797675
 20
-218.4882510003962
 10
1145.908762151199
 20
-220.3457163365988
 10
1144.867302443587
 20
-222.2629605087897
 10
1144.078193100654
 20
-224.2381015029299
 10
1143.553662768695
 20
-226.2699011011892
 10
1143.30870110855
 20
-228.3585151108902
 10
1143.363214759079
 20
-230.5056403512995
 10
1143.744050112275
 20
-232.712361517943
 10
1144.483859771809
 20
-234.9732322578299
 10
1145.446919590988
 20
-236.9754405099246
 10
1146.690976427654
 20
-238.9427447368991
 10
1148.209399081495
 20
-240.8629151686042
 10
1149.992413356007
 20
-242.7253109341346
 10
1152.028699803151
 20
-244.5217491145793
 10
1154.30679799964
 20
-246.2463834841779
 10
1156.814619840198
 20
-247.8942868540095
 10
1159.541330858927
 20
-249.4621168321463
 10
1162.476425329372
 20
-250.9469088823783
 10
1165.608840663093
 20
-252.3455274285389
 10
1168.926782705387
 20
-253.6547124608876
 10
1172.41753589391
 20
-254.871135121443
 10
1176.067282652025
 20
-255.9914724569911
 10
1179.860866706758
 20
-257.0124816061469
 10
1183.781396556436
 20
-257.9310650174473
 10
1187.809482061605
 20
-258.7443223714729
 10
1191.921618893851
 20
-259.4495837371938
 10
1196.086408455567
 20
-260.0444082724268
 10
1200.25442212308
 20
-260.526489674275
 10
1202.274763605151
 20
-260.7084974875982
  0
LWPOLYLINE
  5
7B2
330
A
100
AcDbEntity
  8
0
  6
Continuous
 62
     7
100
AcDbPolyline
 90
       10
 70
   128
 43
0.0
 10
1204.322274145894
 20
-260.8929528975296
 10
1204.324802696418
 20
-260.8931806887006
 10
1208.215948203799
 20
-261.1510259067036
 10
1211.001734815262
 20
-261.2813028264659
 10
1213.903974606679
 20
-261.3695417844252
 10
1217.792419788423
 20
-261.4124966170186
 10
1222.811443253838
 20
-261.340898492394
 10
1224.812438762257
 20
-261.2722711767399
 10
1228.120985504119
 20
-261.1081297932206
 10
1231.262914444957
 20
-260.8905405677892
  0
LWPOLYLINE
  5
7BE
330
A
100
AcDbEntity
  8
0
  6
Continuous
 62
     7
100
AcDbPolyline
 90
       52
 70
   128
 43
0.0
 10
1233.309677349859
 20
-260.711252698705
 10
1235.126077137605
 20
-260.5473137099155
 10
1238.829273438411
 20
-260.1292751108077
 10
1242.581080234767
 20
-259.61537632331
 10
1246.338284965446
 20
-259.0046337708447
 10
1250.066343618241
 20
-258.2972931462594
 10
1253.736518749644
 20
-257.4945758936512
 10
1257.324423938959
 20
-256.5984438202371
 10
1260.80904329862
 20
-255.6114208642102
 10
1264.172088102592
 20
-254.5364422707922
 10
1267.397562117509
 20
-253.376717256303
 10
1270.471455438268
 20
-252.1355950461925
 10
1273.381511248818
 20
-250.8164276890504
 10
1276.117023425036
 20
-249.4224265198018
 10
1278.66862898685
 20
-247.9565140463571
 10
1281.028061288575
 20
-246.4211810684004
 10
1283.187831335971
 20
-244.8183717775815
 10
1285.140538696871
 20
-243.1496896882781
 10
1286.878262363085
 20
-241.4168059915803
 10
1288.393054779169
 20
-239.6209152911457
 10
1289.676077425646
 20
-237.7634499549431
 10
1290.717537133258
 20
-235.8462057827512
 10
1291.506646476192
 20
-233.8710647886113
 10
1292.031176808151
 20
-231.8392651903528
 10
1292.276138468296
 20
-229.7506511806512
 10
1292.221624817767
 20
-227.6035259402433
 10
1291.840789464572
 20
-225.3968047736005
 10
1291.100979805039
 20
-223.1359340337148
 10
1290.13791998586
 20
-221.1337257816201
 10
1288.893863149196
 20
-219.166421554645
 10
1287.375440495355
 20
-217.2462511229394
 10
1285.592426220844
 20
-215.3838553574095
 10
1283.556139773701
 20
-213.5874171769645
 10
1281.278041577212
 20
-211.862782807366
 10
1278.770219736654
 20
-210.214879437534
 10
1276.043508717927
 20
-208.6470494593973
 10
1273.108414247483
 20
-207.1622574091649
 10
1269.975998913763
 20
-205.7636388630047
 10
1266.65805687147
 20
-204.4544538306555
 10
1263.167303682948
 20
-203.2380311701003
 10
1259.517556924834
 20
-202.1176938345519
 10
1255.723972870102
 20
-201.096684685396
 10
1251.803443020425
 20
-200.1781012740953
 10
1247.775357515255
 20
-199.3648439200691
 10
1243.663220683008
 20
-198.6595825543475
 10
1239.498431121289
 20
-198.0647580191141
 10
1235.330417453779
 20
-197.5826766172657
 10
1231.260036880442
 20
-197.2159856028399
 10
1227.368891373054
 20
-196.9581403848361
 10
1224.583104761587
 20
-196.8278634650736
 10
1221.680864970162
 20
-196.739624507114
 10
1217.792419788423
 20
-196.6966696745208
  0
LINE
  5
7F4
330
A
100
AcDbEntity
  8
0
  6
Continuous
 62
     7
100
AcDbLine
 10
1283.536756587557
 20
-213.5727431347954
 30
0.0
 11
1251.265485507769
 21
-149.6589158286697
 31
0.0
  0
LINE
  5
7F5
330
A
100
AcDbEntity
  8
0
  6
Continuous
 62
     7
100
AcDbLine
 10
1184.319354069077
 20
-149.6589158286698
 30
0.0
 11
1152.033673420006
 21
-213.6012815434761
 31
0.0
  0
LWPOLYLINE
  5
7F6
330
A
100
AcDbEntity
  8
0
  6
Continuous
 62
     7
100
AcDbPolyline
 90
       12
 70
   128
 43
0.0
 10
1217.792419788423
 20
-138.1969029613708
 10
1214.382247471011
 20
-138.2683688138325
 10
1213.032222226712
 20
-138.3364903597505
 10
1210.813494842122
 20
-138.4986784810729
 10
1208.558629249526
 20
-138.7295824414659
 10
1206.203572223907
 20
-139.0456137957304
 10
1203.828748634896
 20
-139.4473987113117
 10
1201.477615945581
 20
-139.9352965877251
 10
1199.187559846352
 20
-140.507269642882
 10
1196.988743023619
 20
-141.1599019270936
 10
1194.905922894663
 20
-141.8887838830345
 10
1193.83077595968
 20
-142.3307175433438
  0
LWPOLYLINE
  5
804
330
A
100
AcDbEntity
  8
0
  6
Continuous
 62
     7
100
AcDbPolyline
 90
       11
 70
   128
 43
0.0
 10
1241.725460997546
 20
-142.3129149305415
 10
1239.855917144959
 20
-141.5865508243268
 10
1237.494508883147
 20
-140.8192388239655
 10
1234.995867444374
 20
-140.1452138672985
 10
1232.390666335724
 20
-139.569852054654
 10
1229.72261520259
 20
-139.098069863994
 10
1227.069364365674
 20
-138.7346716404492
 10
1224.435392363416
 20
-138.4700443932977
 10
1222.519849672695
 20
-138.3345658070469
 10
1220.576937559129
 20
-138.2445108200509
 10
1217.792419788423
 20
-138.1969029613708
  0
LWPOLYLINE
  5
811
330
A
100
AcDbEntity
  8
0
  6
Continuous
 62
     7
100
AcDbPolyline
 90
        9
 70
   128
 43
0.0
 10
1217.792419788423
 20
-331.6726651805017
 10
1219.231248148007
 20
-331.5109203068133
 10
1219.786033480963
 20
-331.3577106870742
 10
1220.664976596334
 20
-330.9959895903606
 10
1221.502226822538
 20
-330.4857355260215
 10
1222.289151588497
 20
-329.7984558985973
 10
1222.96072699134
 20
-328.9432554597848
 10
1223.464114804278
 20
-327.9345565963818
 10
1223.732561986939
 20
-326.8589352379873
  0
LWPOLYLINE
  5
81C
330
A
100
AcDbEntity
  8
0
  6
Continuous
 62
     7
100
AcDbPolyline
 90
        9
 70
   128
 43
0.0
 10
1211.865182485581
 20
-326.8573574597435
 10
1212.132072252979
 20
-327.9646997079185
 10
1212.688013971848
 20
-329.0411792863454
 10
1213.46427739111
 20
-329.9677274914258
 10
1214.389797632145
 20
-330.6948634077091
 10
1215.315814173352
 20
-331.1783621037104
 10
1216.045534705395
 20
-331.4325169705896
 10
1216.895906278472
 20
-331.6104387603035
 10
1217.792419788423
 20
-331.6726651805017
  0
LWPOLYLINE
  5
827
330
A
100
AcDbEntity
  8
0
  6
Continuous
 62
     7
100
AcDbPolyline
 90
        8
 70
   128
 43
0.0
 10
1217.792419788423
 20
-329.6726651805016
 10
1216.646133724268
 20
-329.523388260999
 10
1216.210181379622
 20
-329.3824175376207
 10
1215.537444004956
 20
-329.0534641748734
 10
1214.926666024733
 20
-328.5974818973149
 10
1214.395505136385
 20
-327.9951630069108
 10
1214.003550470201
 20
-327.2592821323483
 10
1213.843606877077
 20
-326.5691266008101
  0
LWPOLYLINE
  5
831
330
A
100
AcDbEntity
  8
0
  6
Continuous
 62
     7
100
AcDbPolyline
 90
        8
 70
   128
 43
0.0
 10
1221.732597319499
 20
-326.5730493181731
 10
1221.717461296614
 20
-326.8058046577423
 10
1221.384213654393
 20
-327.6831642374009
 10
1220.832045662008
 20
-328.428337563628
 10
1220.152020600665
 20
-328.9877855052076
 10
1219.520840756874
 20
-329.3233018306671
 10
1218.915951307004
 20
-329.5293782714891
 10
1217.792419788423
 20
-329.6726651805016
  0
LINE
  5
83B
330
A
100
AcDbEntity
  8
0
  6
Continuous
 62
     7
100
AcDbLine
 10
1231.714133537635
 20
-257.7717854621791
 30
0.0
 11
1221.75994864289
 21
-326.573539347182
 31
0.0
  0
LINE
  5
83C
330
A
100
AcDbEntity
  8
0
  6
Continuous
 62
     7
100
AcDbLine
 10
1223.739339547676
 20
-326.859916102608
 30
0.0
 11
1233.58175746454
 21
-258.8306779168763
 31
0.0
  0
LINE
  5
83D
330
A
100
AcDbEntity
  8
0
  6
Continuous
 62
     7
100
AcDbLine
 10
1202.000451216731
 20
-258.812493582177
 30
0.0
 11
1211.845587497319
 21
-326.8605131471761
 31
0.0
  0
LINE
  5
83E
330
A
100
AcDbEntity
  8
0
  6
Continuous
 62
     7
100
AcDbLine
 10
1213.824890933947
 20
-326.573539347182
 30
0.0
 11
1203.871175808951
 21
-257.7750324364326
 31
0.0
  0
ARC
  5
83F
330
A
100
AcDbEntity
  8
0
  6
Continuous
 62
     7
100
AcDbCircle
 10
1217.505552883447
 20
-200.4214563162003
 30
0.0
 40
27.50000000000008
100
AcDbArc
 50
186.9515604644753
 51
353.2489634884389
  0
LINE
  5
840
330
A
100
AcDbEntity
  8
0
  6
Continuous
 62
     7
100
AcDbLine
 10
1209.292419788421
 20
621.8380196837972
 30
0.0
 11
1226.292419788421
 21
621.8380196837972
 31
0.0
  0
LINE
  5
841
330
A
100
AcDbEntity
  8
0
  6
Continuous
 62
     7
100
AcDbLine
 10
1145.792419788421
 20
648.3380196837972
 30
0.0
 11
1289.792419788421
 21
648.3380196837972
 31
0.0
  0
LINE
  5
842
330
A
100
AcDbEntity
  8
0
  6
Continuous
 62
     7
100
AcDbLine
 10
1162.792419788421
 20
655.8380196837971
 30
0.0
 11
1272.792419788421
 21
655.8380196837971
 31
0.0
  0
LINE
  5
843
330
A
100
AcDbEntity
  8
0
  6
Continuous
 62
     7
100
AcDbLine
 10
1207.792419788421
 20
-105.1619803162026
 30
0.0
 11
1227.79241978842
 21
-105.1619803162026
 31
0.0
  0
LINE
  5
844
330
A
100
AcDbEntity
  8
0
  6
Continuous
 62
     7
100
AcDbLine
 10
1207.792419788421
 20
-81.16198031620264
 30
0.0
 11
1227.79241978842
 21
-81.16198031620264
 31
0.0
  0
LINE
  5
845
330
A
100
AcDbEntity
  8
0
  6
Continuous
 62
     7
100
AcDbLine
 10
1208.042419788421
 20
-78.16198031620274
 30
0.0
 11
1227.542419788421
 21
-78.16198031620274
 31
0.0
  0
LINE
  5
846
330
A
100
AcDbEntity
  8
0
  6
Continuous
 62
     7
100
AcDbLine
 10
1210.042420721934
 20
-108.1619803162026
 30
0.0
 11
1225.542419788421
 21
-108.1619803162026
 31
0.0
  0
LWPOLYLINE
  5
847
330
A
100
AcDbEntity
  8
0
  6
Continuous
 62
     7
100
AcDbPolyline
 90
       85
 70
   128
 43
0.0
 10
1202.242096657714
 20
-260.4827087061415
 10
1197.951567967736
 20
-260.0313538327276
 10
1193.171774123392
 20
-259.3874723991449
 10
1188.511935688014
 20
-258.6068883282585
 10
1183.994756080222
 20
-257.6934047405365
 10
1179.642243663834
 20
-256.6514722624502
 10
1175.475604519877
 20
-255.4861673423687
 10
1171.515139127443
 20
-254.2031675173539
 10
1167.780143456763
 20
-252.8087237513655
 10
1164.288814956405
 20
-251.3096299796441
 10
1161.05816389262
 20
-249.7131900076586
 10
1158.103930472831
 20
-248.0271819258924
 10
1155.440508157015
 20
-246.2598202138401
 10
1153.080873530658
 20
-244.4197157178558
 10
1151.036523080912
 20
-242.5158336978422
 10
1149.317417184026
 20
-240.5574501471845
 10
1147.93193157692
 20
-238.5541065987464
 10
1146.886816549367
 20
-236.5155636371167
 10
1146.187164055584
 20
-234.4517533436059
 10
1145.836382905485
 20
-232.3727309056834
 10
1145.836182156456
 20
-230.2886256266254
 10
1146.186562786576
 20
-228.2095915740576
 10
1146.885817689852
 20
-226.1457581078443
 10
1147.930539993488
 20
-224.107180528356
 10
1149.315639656677
 20
-222.1037910855664
 10
1151.03436827002
 20
-220.1453505876684
 10
1153.078351934778
 20
-218.2414008449808
 10
1155.437632061735
 20
-216.4012181808439
 10
1158.100713890909
 20
-214.6337682360071
 10
1161.054622495717
 20
-212.9476622867072
 10
1164.284965998727
 20
-211.3511152892645
 10
1167.776005691
 20
-209.8519058556056
 10
1171.510732713398
 20
-208.4573383547217
 10
1175.470950926247
 20
-207.1742073247081
 10
1179.637365563612
 20
-206.0087643687741
 10
1183.989677240232
 20
-204.9666876965131
 10
1188.506680853111
 20
-204.0530544588291
 10
1193.166368895904
 20
-203.2723160113104
 10
1197.946038682728
 20
-202.6282762265704
 10
1202.822402958981
 20
-202.12407296122
 10
1207.771703360283
 20
-201.762162767769
 10
1212.769826166717
 20
-201.5443089259401
 10
1217.792419788424
 20
-201.4715728517114
 10
1222.81501341013
 20
-201.5443089259403
 10
1227.813136216564
 20
-201.7621627677691
 10
1232.762436617866
 20
-202.1240729612201
 10
1237.63880089412
 20
-202.6282762265704
 10
1242.418470680943
 20
-203.2723160113105
 10
1247.078158723737
 20
-204.0530544588292
 10
1251.595162336615
 20
-204.9666876965133
 10
1255.947474013235
 20
-206.0087643687742
 10
1260.1138886506
 20
-207.1742073247082
 10
1264.07410686345
 20
-208.4573383547219
 10
1267.808833885847
 20
-209.8519058556058
 10
1271.29987357812
 20
-211.3511152892648
 10
1274.53021708113
 20
-212.9476622867074
 10
1277.484125685938
 20
-214.6337682360072
 10
1280.147207515112
 20
-216.4012181808442
 10
1282.506487642069
 20
-218.2414008449812
 10
1284.550471306827
 20
-220.1453505876687
 10
1286.26919992017
 20
-222.1037910855667
 10
1287.654299583358
 20
-224.1071805283564
 10
1288.699021886994
 20
-226.1457581078447
 10
1289.39827679027
 20
-228.2095915740579
 10
1289.74865742039
 20
-230.2886256266256
 10
1289.748456671361
 20
-232.3727309056837
 10
1289.397675521262
 20
-234.4517533436062
 10
1288.698023027479
 20
-236.515563637117
 10
1287.652907999925
 20
-238.5541065987467
 10
1286.267422392819
 20
-240.5574501471848
 10
1284.548316495933
 20
-242.5158336978424
 10
1282.503966046188
 20
-244.4197157178561
 10
1280.14433141983
 20
-246.2598202138402
 10
1277.480909104014
 20
-248.0271819258926
 10
1274.526675684225
 20
-249.713190007659
 10
1271.296024620441
 20
-251.3096299796442
 10
1267.804696120082
 20
-252.8087237513657
 10
1264.069700449402
 20
-254.203167517354
 10
1260.109235056968
 20
-255.4861673423689
 10
1255.942595913011
 20
-256.6514722624504
 10
1251.590083496623
 20
-257.6934047405367
 10
1247.07290388883
 20
-258.6068883282587
 10
1242.413065453452
 20
-259.3874723991449
 10
1237.633271609108
 20
-260.0313538327276
 10
1233.342742919132
 20
-260.4827087061415
  0
LWPOLYLINE
  5
89E
330
A
100
AcDbEntity
  8
0
  6
Continuous
 62
     7
100
AcDbPolyline
 90
        9
 70
   128
 43
0.0
 10
1231.29662699461
 20
-260.657524748954
 10
1228.793337443895
 20
-260.836825845122
 10
1225.142378027041
 20
-261.0314191957185
 10
1221.472207632762
 20
-261.1483790219664
 10
1217.792419180951
 20
-261.1873996197368
 10
1214.112630730727
 20
-261.1483789988147
 10
1210.442460341208
 20
-261.0314191494754
 10
1206.791500932272
 20
-260.8368257759086
 10
1204.288212582236
 20
-260.657524748954
  0
LINE
  5
8A9
330
A
100
AcDbEntity
  8
0
  6
Continuous
 62
     7
100
AcDbLine
 10
1201.956231395087
 20
-257.8303739615119
 30
0.0
 11
1202.073666973909
 21
-258.8035354507521
 31
0.0
  0
LWPOLYLINE
  5
8AA
330
A
100
AcDbEntity
  8
0
  6
Continuous
 62
     7
100
AcDbPolyline
 90
        3
 70
   128
 43
0.0
 10
1233.57688543438
 20
-258.829435317758
 10
1233.587313055851
 20
-258.7909030731751
 10
1233.62860818583
 20
-257.8303740443037
  0
LWPOLYLINE
  5
8AF
330
A
100
AcDbEntity
  8
0
  6
Continuous
 62
     7
100
AcDbPolyline
 90
        8
 70
   128
 43
0.0
 10
1251.265485507769
 20
-149.6589158286697
 10
1250.899658200713
 20
-149.0106435165297
 10
1249.862574950223
 20
-147.6399068104396
 10
1248.496408509918
 20
-146.3197125145999
 10
1246.815177596195
 20
-145.0636076089942
 10
1244.836133913298
 20
-143.8844814297356
 10
1242.579585127489
 20
-142.7944334070358
 10
1241.938709541889
 20
-142.5222522403698
  0
LWPOLYLINE
  5
8B9
330
A
100
AcDbEntity
  8
0
  6
Continuous
 62
     7
100
AcDbPolyline
 90
        8
 70
   128
 43
0.0
 10
1193.612114909905
 20
-142.5363359210982
 10
1193.005254449357
 20
-142.7944334070359
 10
1190.748705663547
 20
-143.8844814297357
 10
1188.76966198065
 20
-145.0636076089943
 10
1187.088431066928
 20
-146.3197125146001
 10
1185.722264626623
 20
-147.6399068104399
 10
1184.685181376132
 20
-149.01064351653
 10
1184.319354069077
 20
-149.6589158286698
  0
LWPOLYLINE
  5
8C3
330
A
100
AcDbEntity
  8
0
  6
Continuous
 62
     7
100
AcDbPolyline
 90
        9
 70
   128
 43
0.0
 10
1233.628608185699
 20
-257.8303739617104
 10
1233.455710584762
 20
-257.6921145523964
 10
1233.200164447051
 20
-257.5741957236442
 10
1232.890273536761
 20
-257.4896779222016
 10
1232.560360733235
 20
-257.4479221657845
 10
1232.246966499495
 20
-257.4535532360233
 10
1231.984801735779
 20
-257.5059474471693
 10
1231.802903271675
 20
-257.5993017242447
 10
1231.721417810647
 20
-257.7232763394725
  0
LWPOLYLINE
  5
8CE
330
A
100
AcDbEntity
  8
0
  6
Continuous
 62
     7
100
AcDbPolyline
 90
        9
 70
   128
 43
0.0
 10
1203.863421770282
 20
-257.7232763402163
 10
1203.781936305652
 20
-257.5993017246694
 10
1203.600037841863
 20
-257.5059474474469
 10
1203.337873078348
 20
-257.4535532361362
 10
1203.024478844682
 20
-257.4479221657352
 10
1202.694566041105
 20
-257.4896779220111
 10
1202.384675130658
 20
-257.5741957233473
 10
1202.129128992712
 20
-257.6921145520369
 10
1201.956231395087
 20
-257.8303739615119
  0
LWPOLYLINE
  5
8D9
330
A
100
AcDbEntity
  8
0
  6
Continuous
 62
     7
100
AcDbPolyline
 90
        8
 70
   128
 43
0.0
 10
1184.319354069068
 20
-149.6589158286696
 10
1184.685181376123
 20
-149.0106435165297
 10
1185.722264626615
 20
-147.6399068104396
 10
1187.088431066919
 20
-146.3197125145999
 10
1188.769661980641
 20
-145.0636076089942
 10
1190.748705663538
 20
-143.8844814297356
 10
1193.005254449348
 20
-142.7944334070358
 10
1193.520142554518
 20
-142.5746154497248
  0
LWPOLYLINE
  5
8E3
330
A
100
AcDbEntity
  8
0
  6
Continuous
 62
     7
100
AcDbPolyline
 90
        8
 70
   128
 43
0.0
 10
1241.865578528537
 20
-142.4921065095843
 10
1242.57958512748
 20
-142.7944334070359
 10
1244.83613391329
 20
-143.8844814297357
 10
1246.815177596186
 20
-145.0636076089943
 10
1248.496408509909
 20
-146.3197125146001
 10
1249.862574950214
 20
-147.6399068104399
 10
1250.899658200705
 20
-149.01064351653
 10
1251.26548550776
 20
-149.6589158286699
  0
LWPOLYLINE
  5
8ED
330
A
100
AcDbEntity
  8
0
  6
Continuous
 62
     7
100
AcDbPolyline
 90
        3
 70
   128
 43
0.0
 10
1221.75994864289
 20
-326.573539347182
 10
1221.758199233909
 20
-326.5979539451397
 10
1221.758200329046
 20
-326.59857044671
  0
LINE
  5
8F2
330
A
100
AcDbEntity
  8
0
  6
Continuous
 62
     7
100
AcDbLine
 10
1223.724631953056
 20
-326.9087742279178
 30
0.0
 11
1223.739339547676
 21
-326.859916102608
 31
0.0
  0
LINE
  5
8F3
330
A
100
AcDbEntity
  8
0
  6
PHANTOM
 62
     7
100
AcDbLine
 10
1208.042419788421
 20
-106.1619803162026
 30
0.0
 11
1227.542419788421
 21
-106.1619803162026
 31
0.0
  0
LWPOLYLINE
  5
8F4
330
A
100
AcDbEntity
  8
0
  6
PHANTOM
 62
     7
100
AcDbPolyline
 90
       17
 70
   128
 43
0.0
 10
1241.938709541889
 20
-142.5222522403698
 10
1240.068686482906
 20
-141.8046489086786
 10
1237.329203197432
 20
-140.9252844630094
 10
1234.38924607669
 20
-140.1653635392111
 10
1231.278983059137
 20
-139.532683954299
 10
1228.030329652189
 20
-139.0337378569667
 10
1224.676621435934
 20
-138.6736451093549
 10
1221.252271994962
 20
-138.4561007503371
 10
1217.792419788423
 20
-138.3833370794218
 10
1214.332567581884
 20
-138.4561007503372
 10
1210.908218140912
 20
-138.6736451093549
 10
1207.554509924657
 20
-139.0337378569668
 10
1204.305856517709
 20
-139.5326839542991
 10
1201.195593500155
 20
-140.1653635392112
 10
1198.255636379413
 20
-140.9252844630095
 10
1195.51615309394
 20
-141.8046489086788
 10
1193.612114909905
 20
-142.5363359210982
  0
LWPOLYLINE
  5
907
330
A
100
AcDbEntity
  8
0
  6
PHANTOM
 62
     7
100
AcDbPolyline
 90
        5
 70
   128
 43
0.0
 10
1212.835195481554
 20
-326.3020344822387
 10
1213.214605004105
 20
-326.2881483680224
 10
1213.536252866204
 20
-326.3395095758085
 10
1213.751171096591
 20
-326.4482988273018
 10
1213.825154010058
 20
-326.5754332065731
  0
LWPOLYLINE
  5
90E
330
A
100
AcDbEntity
  8
0
  6
PHANTOM
 62
     7
100
AcDbPolyline
 90
        6
 70
   128
 43
0.0
 10
1211.845587497319
 20
-326.8605131471761
 10
1211.84375062018
 20
-326.8355015046502
 10
1211.919219866517
 20
-326.6677641555315
 10
1212.134138096904
 20
-326.5074810659925
 10
1212.455785959003
 20
-326.3790538834458
 10
1212.835195481554
 20
-326.3020344822387
  0
LWPOLYLINE
  5
916
330
A
100
AcDbEntity
  8
0
  6
PHANTOM
 62
     7
100
AcDbPolyline
 90
        6
 70
   128
 43
0.0
 10
1222.749644095292
 20
-326.3020344822389
 10
1223.129053617843
 20
-326.3790538834461
 10
1223.450701479942
 20
-326.5074810659927
 10
1223.665619710329
 20
-326.6677641555317
 10
1223.741088956666
 20
-326.8355015046504
 10
1223.73927001206
 20
-326.8603919446804
  0
LWPOLYLINE
  5
91E
330
A
100
AcDbEntity
  8
0
  6
PHANTOM
 62
     7
100
AcDbPolyline
 90
        5
 70
   128
 43
0.0
 10
1221.760126157145
 20
-326.5723426311216
 10
1221.833668480255
 20
-326.448298827302
 10
1222.048586710642
 20
-326.3395095758087
 10
1222.370234572741
 20
-326.2881483680225
 10
1222.749644095292
 20
-326.3020344822389
  0
ENDSEC
  0
SECTION
  2
OBJECTS
  0
DICTIONARY
  5
19
330
0
100
AcDbDictionary
281
     1
  3
ACAD_COLOR
350
929
  3
ACAD_GROUP
350
1A
  3
ACAD_LAYOUT
350
92A
  3
ACAD_MATERIAL
350
928
  3
ACAD_MLINESTYLE
350
1B
  3
ACAD_PLOTSETTINGS
350
92B
  3
ACAD_PLOTSTYLENAME
350
926
  3
ACDBHEADERROUNDTRIPXREC
350
943
  3
AcDbVariableDictionary
350
93C
  3
ASE_INDEX_DICTIONARY
350
931
  0
DICTIONARY
  5
929
102
{ACAD_REACTORS
330
19
102
}
330
19
100
AcDbDictionary
281
     1
  0
DICTIONARY
  5
1A
102
{ACAD_REACTORS
330
19
102
}
330
19
100
AcDbDictionary
281
     1
  0
DICTIONARY
  5
92A
102
{ACAD_REACTORS
330
19
102
}
330
19
100
AcDbDictionary
281
     1
  3
Layout1
350
92D
  3
Model
350
92C
  0
DICTIONARY
  5
928
102
{ACAD_REACTORS
330
19
102
}
330
19
100
AcDbDictionary
281
     1
  0
DICTIONARY
  5
1B
102
{ACAD_REACTORS
330
19
102
}
330
19
100
AcDbDictionary
281
     1
  3
STANDARD
350
1C
  0
DICTIONARY
  5
92B
102
{ACAD_REACTORS
330
19
102
}
330
19
100
AcDbDictionary
281
     1
  0
ACDBDICTIONARYWDFLT
  5
926
102
{ACAD_REACTORS
330
19
102
}
330
19
100
AcDbDictionary
281
     1
  3
Normal
350
927
100
AcDbDictionaryWithDefault
340
927
  0
DICTIONARY
  5
943
102
{ACAD_REACTORS
330
19
102
}
330
19
100
AcDbDictionary
281
     1
  3
COLORDICT
350
945
  3
MATERIALDICT
350
944
  0
DICTIONARY
  5
93C
102
{ACAD_REACTORS
330
19
102
}
330
19
100
AcDbDictionary
281
     1
  3
DIMASSOC
350
93D
  3
PROJECTNAME
350
93E
  0
DICTIONARY
  5
931
102
{ACAD_REACTORS
330
19
102
}
330
19
100
AcDbDictionary
281
     1
  3
ASEBlockHierarchyIndexRecord
350
933
1001
DCO15
1040
1552229247.578
  0
LAYOUT
  5
92D
102
{ACAD_XDICTIONARY
360
948
102
}
102
{ACAD_REACTORS
330
92A
102
}
330
92A
100
AcDbPlotSettings
  1

  2
ProgeSOFT PDF Wizard
  4

  6

 40
0.0
 41
0.0
 42
0.0
 43
0.0
 44
0.0
 45
0.0
 46
0.0
 47
0.0
 48
0.0
 49
0.0
140
0.0
141
0.0
142
1.0
143
1.0
 70
   688
 72
     0
 73
     0
 74
     5
  7

 75
    16
147
1.0
148
0.0
149
0.0
100
AcDbLayout
  1
Layout1
 70
     1
 71
     1
 10
0.0
 20
0.0
 11
12.0
 21
9.0
 12
0.0
 22
0.0
 32
0.0
 14
1.000000000000000E+20
 24
1.000000000000000E+20
 34
1.000000000000000E+20
 15
-1.000000000000000E+20
 25
-1.000000000000000E+20
 35
-1.000000000000000E+20
146
0.0
 13
0.0
 23
0.0
 33
0.0
 16
1.0
 26
0.0
 36
0.0
 17
0.0
 27
1.0
 37
0.0
 76
     0
330
B
  0
LAYOUT
  5
92C
102
{ACAD_XDICTIONARY
360
946
102
}
102
{ACAD_REACTORS
330
92A
102
}
330
92A
100
AcDbPlotSettings
  1

  2
ProgeSOFT PDF Wizard
  4

  6

 40
0.0
 41
0.0
 42
0.0
 43
0.0
 44
0.0
 45
0.0
 46
0.0
 47
0.0
 48
0.0
 49
0.0
140
0.0
141
0.0
142
1.0
143
1.0
 70
  1712
 72
     0
 73
     0
 74
     0
  7

 75
     0
147
1.0
148
0.0
149
0.0
100
AcDbLayout
  1
Model
 70
     1
 71
     0
 10
0.0
 20
0.0
 11
12.0
 21
9.0
 12
0.0
 22
0.0
 32
0.0
 14
0.0
 24
0.0
 34
0.0
 15
0.0
 25
0.0
 35
0.0
146
0.0
 13
0.0
 23
0.0
 33
0.0
 16
1.0
 26
0.0
 36
0.0
 17
0.0
 27
1.0
 37
0.0
 76
     0
330
A
  0
MLINESTYLE
  5
1C
102
{ACAD_REACTORS
330
1B
102
}
330
1B
100
AcDbMlineStyle
  2
STANDARD
 70
     0
  3

 62
     0
 51
90.0
 52
90.0
 71
     2
 49
0.5
 62
   256
  6
BYLAYER
 49
-0.5
 62
   256
  6
BYLAYER
  0
ACDBPLACEHOLDER
  5
927
102
{ACAD_REACTORS
330
926
102
}
330
926
  0
XRECORD
  5
945
102
{ACAD_REACTORS
330
943
102
}
330
943
100
AcDbXrecord
280
     1
340
929
  0
XRECORD
  5
944
102
{ACAD_REACTORS
330
943
102
}
330
943
100
AcDbXrecord
280
     1
340
928
  0
DICTIONARYVAR
  5
93D
102
{ACAD_REACTORS
330
93C
102
}
330
93C
100
DictionaryVariables
280
     0
  1
1
  0
DICTIONARYVAR
  5
93E
102
{ACAD_REACTORS
330
93C
102
}
330
93C
100
DictionaryVariables
280
     0
  1

  0
XRECORD
  5
933
102
{ACAD_REACTORS
330
931
102
}
330
931
100
AcDbXrecord
280
     1
  0
DICTIONARY
  5
948
330
92D
100
AcDbDictionary
280
     1
281
     1
  3
ACAD_XREC_ROUNDTRIP
360
949
  0
DICTIONARY
  5
946
330
92C
100
AcDbDictionary
280
     1
281
     1
  3
ACAD_XREC_ROUNDTRIP
360
947
  0
XRECORD
  5
949
102
{ACAD_REACTORS
330
948
102
}
330
948
100
AcDbXrecord
280
     1
102
SHADEPLOT
 70
     0
102
SHADEPLOTRESLEVEL
 70
     2
102
SHADEPLOTCUSTOMDPI
 70
   300
  0
XRECORD
  5
947
102
{ACAD_REACTORS
330
946
102
}
330
946
100
AcDbXrecord
280
     1
102
SHADEPLOT
 70
     0
102
SHADEPLOTRESLEVEL
 70
     2
102
SHADEPLOTCUSTOMDPI
 70
   300
  0
ENDSEC
  0
EOF
