  0
SECTION
  2
HEADER
  9
$ACADVER
  1
AC1015
  9
$ACADMAINTVER
 70
     6
  9
$DWGCODEPAGE
  3
ANSI_1252
  9
$INSBASE
 10
0.0
 20
0.0
 30
0.0
  9
$EXTMIN
 10
0.0
 20
0.0
 30
0.0
  9
$EXTMAX
 10
11.0
 20
8.5
 30
0.0
  9
$LIMMIN
 10
0.0
 20
0.0
  9
$LIMMAX
 10
11.0
 20
8.5
  9
$ORTHOMODE
 70
     0
  9
$REGENMODE
 70
     1
  9
$FILLMODE
 70
     1
  9
$QTEXTMODE
 70
     0
  9
$MIRRTEXT
 70
     1
  9
$LTSCALE
 40
1.0
  9
$ATTMODE
 70
     1
  9
$TEXTSIZE
 40
0.125
  9
$TRACEWID
 40
0.05
  9
$TEXTSTYLE
  7
Standard
  9
$CLAYER
  8
0
  9
$CELTYPE
  6
ByLayer
  9
$CECOLOR
 62
   256
  9
$CELTSCALE
 40
1.0
  9
$DISPSILH
 70
     0
  9
$DIMSCALE
 40
1.0
  9
$DIMASZ
 40
0.09
  9
$DIMEXO
 40
0.0393700787401575
  9
$DIMDLI
 40
0.38
  9
$DIMRND
 40
0.0
  9
$DIMDLE
 40
0.0
  9
$DIMEXE
 40
0.0393700787401575
  9
$DIMTP
 40
0.0
  9
$DIMTM
 40
0.0
  9
$DIMTXT
 40
0.125
  9
$DIMCEN
 40
0.09
  9
$DIMTSZ
 40
0.0
  9
$DIMTOL
 70
     0
  9
$DIMLIM
 70
     0
  9
$DIMTIH
 70
     1
  9
$DIMTOH
 70
     1
  9
$DIMSE1
 70
     0
  9
$DIMSE2
 70
     0
  9
$DIMTAD
 70
     1
  9
$DIMZIN
 70
     0
  9
$DIMBLK
  1

  9
$DIMASO
 70
     1
  9
$DIMSHO
 70
     1
  9
$DIMPOST
  1

  9
$DIMAPOST
  1

  9
$DIMALT
 70
     0
  9
$DIMALTD
 70
     2
  9
$DIMALTF
 40
25.4
  9
$DIMLFAC
 40
1.0
  9
$DIMTOFL
 70
     0
  9
$DIMTVP
 40
0.0
  9
$DIMTIX
 70
     0
  9
$DIMSOXD
 70
     0
  9
$DIMSAH
 70
     0
  9
$DIMBLK1
  1

  9
$DIMBLK2
  1

  9
$DIMSTYLE
  2
Standard
  9
$DIMCLRD
 70
     0
  9
$DIMCLRE
 70
     0
  9
$DIMCLRT
 70
     0
  9
$DIMTFAC
 40
1.0
  9
$DIMGAP
 40
0.06
  9
$DIMJUST
 70
     0
  9
$DIMSD1
 70
     0
  9
$DIMSD2
 70
     0
  9
$DIMTOLJ
 70
     1
  9
$DIMTZIN
 70
     0
  9
$DIMALTZ
 70
     0
  9
$DIMALTTZ
 70
     0
  9
$DIMUPT
 70
     0
  9
$DIMDEC
 70
     1
  9
$DIMTDEC
 70
     1
  9
$DIMALTU
 70
     2
  9
$DIMALTTD
 70
     2
  9
$DIMTXSTY
  7
Standard
  9
$DIMAUNIT
 70
     0
  9
$DIMADEC
 70
     1
  9
$DIMALTRND
 40
0.0
  9
$DIMAZIN
 70
     0
  9
$DIMDSEP
 70
    46
  9
$DIMATFIT
 70
     3
  9
$DIMFRAC
 70
     0
  9
$DIMLDRBLK
  1

  9
$DIMLUNIT
 70
     2
  9
$DIMLWD
 70
    -2
  9
$DIMLWE
 70
    -2
  9
$DIMTMOVE
 70
     0
  9
$LUNITS
 70
     2
  9
$LUPREC
 70
     3
  9
$SKETCHINC
 40
0.1
  9
$FILLETRAD
 40
0.5
  9
$AUNITS
 70
     0
  9
$AUPREC
 70
     1
  9
$MENU
  1
.
  9
$ELEVATION
 40
0.0
  9
$PELEVATION
 40
0.0
  9
$THICKNESS
 40
0.0
  9
$LIMCHECK
 70
     0
  9
$CHAMFERA
 40
0.5
  9
$CHAMFERB
 40
0.5
  9
$CHAMFERC
 40
1.0
  9
$CHAMFERD
 40
0.0
  9
$SKPOLY
 70
     0
  9
$TDCREATE
 40
2457240.40723
  9
$TDUCREATE
 40
2457240.573896667
  9
$TDUPDATE
 40
2457240.471589155
  9
$TDUUPDATE
 40
2457240.638255822
  9
$TDINDWG
 40
0.0437213542
  9
$TDUSRTIMER
 40
2457240.637986701
  9
$USRTIMER
 70
     1
  9
$ANGBASE
 50
0.0
  9
$ANGDIR
 70
     0
  9
$PDMODE
 70
     0
  9
$PDSIZE
 40
-1.0
  9
$PLINEWID
 40
0.0
  9
$SPLFRAME
 70
     0
  9
$SPLINETYPE
 70
     6
  9
$SPLINESEGS
 70
     8
  9
$HANDSEED
  5
67B
  9
$SURFTAB1
 70
     6
  9
$SURFTAB2
 70
     6
  9
$SURFTYPE
 70
     6
  9
$SURFU
 70
     6
  9
$SURFV
 70
     6
  9
$UCSBASE
  2

  9
$UCSNAME
  2

  9
$UCSORG
 10
0.0
 20
0.0
 30
0.0
  9
$UCSXDIR
 10
1.0
 20
0.0
 30
0.0
  9
$UCSYDIR
 10
0.0
 20
1.0
 30
0.0
  9
$UCSORTHOREF
  2

  9
$UCSORTHOVIEW
 70
     0
  9
$UCSORGTOP
 10
0.0
 20
0.0
 30
0.0
  9
$UCSORGBOTTOM
 10
0.0
 20
0.0
 30
0.0
  9
$UCSORGLEFT
 10
0.0
 20
0.0
 30
0.0
  9
$UCSORGRIGHT
 10
0.0
 20
0.0
 30
0.0
  9
$UCSORGFRONT
 10
0.0
 20
0.0
 30
0.0
  9
$UCSORGBACK
 10
0.0
 20
0.0
 30
0.0
  9
$PUCSBASE
  2

  9
$PUCSNAME
  2

  9
$PUCSORG
 10
0.0
 20
0.0
 30
0.0
  9
$PUCSXDIR
 10
1.0
 20
0.0
 30
0.0
  9
$PUCSYDIR
 10
0.0
 20
1.0
 30
0.0
  9
$PUCSORTHOREF
  2

  9
$PUCSORTHOVIEW
 70
     0
  9
$PUCSORGTOP
 10
0.0
 20
0.0
 30
0.0
  9
$PUCSORGBOTTOM
 10
0.0
 20
0.0
 30
0.0
  9
$PUCSORGLEFT
 10
0.0
 20
0.0
 30
0.0
  9
$PUCSORGRIGHT
 10
0.0
 20
0.0
 30
0.0
  9
$PUCSORGFRONT
 10
0.0
 20
0.0
 30
0.0
  9
$PUCSORGBACK
 10
0.0
 20
0.0
 30
0.0
  9
$USERI1
 70
     0
  9
$USERI2
 70
     0
  9
$USERI3
 70
     0
  9
$USERI4
 70
     0
  9
$USERI5
 70
     0
  9
$USERR1
 40
0.0
  9
$USERR2
 40
0.0
  9
$USERR3
 40
0.0
  9
$USERR4
 40
0.0
  9
$USERR5
 40
0.0
  9
$WORLDVIEW
 70
     1
  9
$SHADEDGE
 70
     3
  9
$SHADEDIF
 70
    70
  9
$TILEMODE
 70
     1
  9
$MAXACTVP
 70
    64
  9
$PINSBASE
 10
0.0
 20
0.0
 30
0.0
  9
$PLIMCHECK
 70
     0
  9
$PEXTMIN
 10
1.000000000000000E+20
 20
1.000000000000000E+20
 30
1.000000000000000E+20
  9
$PEXTMAX
 10
-1.000000000000000E+20
 20
-1.000000000000000E+20
 30
-1.000000000000000E+20
  9
$PLIMMIN
 10
0.0
 20
0.0
  9
$PLIMMAX
 10
0.0
 20
0.0
  9
$UNITMODE
 70
     0
  9
$VISRETAIN
 70
     1
  9
$PLINEGEN
 70
     0
  9
$PSLTSCALE
 70
     1
  9
$TREEDEPTH
 70
  3020
  9
$CMLSTYLE
  2
Standard
  9
$CMLJUST
 70
     0
  9
$CMLSCALE
 40
1.0
  9
$PROXYGRAPHICS
 70
     1
  9
$MEASUREMENT
 70
     0
  9
$CELWEIGHT
370
    -1
  9
$ENDCAPS
280
     0
  9
$JOINSTYLE
280
     0
  9
$LWDISPLAY
290
     1
  9
$INSUNITS
 70
     1
  9
$HYPERLINKBASE
  1

  9
$STYLESHEET
  1

  9
$XEDIT
290
     1
  9
$CEPSNTYPE
380
     0
  9
$PSTYLEMODE
290
     1
  9
$FINGERPRINTGUID
  2
{B0C5DB3E-81FB-4F9C-A533-47213296FBD5}
  9
$VERSIONGUID
  2
{FAEB1C32-E019-11D5-929B-00C0DF256EC4}
  9
$EXTNAMES
290
     1
  9
$PSVPSCALE
 40
0.0
  9
$OLESTARTUP
290
     0
  0
ENDSEC
  0
SECTION
  2
CLASSES
  0
CLASS
  1
ACDBDICTIONARYWDFLT
  2
AcDbDictionaryWithDefault
  3
ObjectDBX Classes
 90
        0
280
     0
281
     0
  0
CLASS
  1
VISUALSTYLE
  2
AcDbVisualStyle
  3
ObjectDBX Classes
 90
     4095
280
     0
281
     0
  0
CLASS
  1
MATERIAL
  2
AcDbMaterial
  3
ObjectDBX Classes
 90
     1153
280
     0
281
     0
  0
CLASS
  1
ACDBPLACEHOLDER
  2
AcDbPlaceHolder
  3
ObjectDBX Classes
 90
        0
280
     0
281
     0
  0
CLASS
  1
LAYOUT
  2
AcDbLayout
  3
ObjectDBX Classes
 90
        0
280
     0
281
     0
  0
CLASS
  1
SCALE
  2
AcDbScale
  3
ObjectDBX Classes
 90
     1153
280
     0
281
     0
  0
CLASS
  1
TABLESTYLE
  2
AcDbTableStyle
  3
ObjectDBX Classes
 90
     4095
280
     0
281
     0
  0
CLASS
  1
SUN
  2
AcDbSun
  3
SCENEOE
 90
     1153
280
     0
281
     0
  0
CLASS
  1
RASTERVARIABLES
  2
AcDbRasterVariables
  3
ISM
 90
        0
280
     0
281
     0
  0
CLASS
  1
DICTIONARYVAR
  2
AcDbDictionaryVar
  3
ObjectDBX Classes
 90
        0
280
     0
281
     0
  0
ENDSEC
  0
SECTION
  2
TABLES
  0
TABLE
  2
VPORT
  5
8
330
0
100
AcDbSymbolTable
 70
     1
  0
VPORT
  5
29
330
8
100
AcDbSymbolTableRecord
100
AcDbViewportTableRecord
  2
*Active
 70
     0
 10
0.0
 20
0.0
 11
1.0
 21
1.0
 12
14.65166052126079
 22
34.52311305482492
 13
0.0
 23
0.0
 14
0.5
 24
0.5
 15
0.5
 25
0.5
 16
0.0
 26
0.0
 36
1.0
 17
0.0
 27
0.0
 37
0.0
 40
79.16241884231464
 41
1.992647058823529
 42
50.0
 43
0.0
 44
0.0
 50
0.0
 51
0.0
 71
    16
 72
  2000
 73
     1
 74
     3
 75
     0
 76
     1
 77
     0
 78
     0
281
     0
 65
     1
110
0.0
120
0.0
130
0.0
111
1.0
121
0.0
131
0.0
112
0.0
122
1.0
132
0.0
 79
     0
146
0.0
  0
ENDTAB
  0
TABLE
  2
LTYPE
  5
5
330
0
100
AcDbSymbolTable
 70
     6
  0
LTYPE
  5
14
330
5
100
AcDbSymbolTableRecord
100
AcDbLinetypeTableRecord
  2
ByBlock
 70
     0
  3

 72
    65
 73
     0
 40
0.0
  0
LTYPE
  5
15
330
5
100
AcDbSymbolTableRecord
100
AcDbLinetypeTableRecord
  2
ByLayer
 70
     0
  3

 72
    65
 73
     0
 40
0.0
  0
LTYPE
  5
16
330
5
100
AcDbSymbolTableRecord
100
AcDbLinetypeTableRecord
  2
Continuous
 70
     0
  3
Solid line
 72
    65
 73
     0
 40
0.0
  0
ENDTAB
  0
TABLE
  2
LAYER
  5
2
330
0
100
AcDbSymbolTable
 70
    13
  0
LAYER
  5
10
330
2
100
AcDbSymbolTableRecord
100
AcDbLayerTableRecord
  2
0
 70
     0
 62
     7
  6
Continuous
370
    -3
390
F
  0
ENDTAB
  0
TABLE
  2
STYLE
  5
3
330
0
100
AcDbSymbolTable
 70
     3
  0
STYLE
  5
11
330
3
100
AcDbSymbolTableRecord
100
AcDbTextStyleTableRecord
  2
Standard
 70
     0
 40
0.0
 41
1.0
 50
0.0
 71
     0
 42
0.125
  3
txt
  4

  0
ENDTAB
  0
TABLE
  2
VIEW
  5
6
330
0
100
AcDbSymbolTable
 70
     0
  0
ENDTAB
  0
TABLE
  2
UCS
  5
7
330
0
100
AcDbSymbolTable
 70
     0
  0
ENDTAB
  0
TABLE
  2
APPID
  5
9
330
0
100
AcDbSymbolTable
 70
     1
  0
APPID
  5
12
330
9
100
AcDbSymbolTableRecord
100
AcDbRegAppTableRecord
  2
ACAD
 70
     0
  0
ENDTAB
  0
TABLE
  2
DIMSTYLE
  5
A
330
0
100
AcDbSymbolTable
 70
     1
100
AcDbDimStyleTable
  0
DIMSTYLE
105
27
330
A
100
AcDbSymbolTableRecord
100
AcDbDimStyleTableRecord
  2
Standard
 70
     0
178
     0
340
11
  0
ENDTAB
  0
TABLE
  2
BLOCK_RECORD
  5
1
330
0
100
AcDbSymbolTable
 70
     5
  0
BLOCK_RECORD
  5
1F
330
1
100
AcDbSymbolTableRecord
100
AcDbBlockTableRecord
  2
*Model_Space
340
22
  0
BLOCK_RECORD
  5
1B
330
1
100
AcDbSymbolTableRecord
100
AcDbBlockTableRecord
  2
*Paper_Space
340
1E
  0
BLOCK_RECORD
  5
23
330
1
100
AcDbSymbolTableRecord
100
AcDbBlockTableRecord
  2
*Paper_Space0
340
26
  0
ENDTAB
  0
ENDSEC
  0
SECTION
  2
BLOCKS
  0
BLOCK
  5
20
330
1F
100
AcDbEntity
  8
0
100
AcDbBlockBegin
  2
*Model_Space
 70
     0
 10
0.0
 20
0.0
 30
0.0
  3
*Model_Space
  1
*Model_Space
  0
ENDBLK
  5
21
330
1F
100
AcDbEntity
  8
0
100
AcDbBlockEnd
  0
BLOCK
  5
1C
330
1B
100
AcDbEntity
 67
     1
  8
0
100
AcDbBlockBegin
  2
*Paper_Space
 70
     0
 10
0.0
 20
0.0
 30
0.0
  3
*Paper_Space
  1
*Paper_Space
  0
ENDBLK
  5
1D
330
1B
100
AcDbEntity
 67
     1
  8
0
100
AcDbBlockEnd
  0
BLOCK
  5
24
330
23
100
AcDbEntity
  8
0
100
AcDbBlockBegin
  2
*Paper_Space0
 70
     0
 10
0.0
 20
0.0
 30
0.0
  3
*Paper_Space0
  1
*Paper_Space0
  0
ENDBLK
  5
25
330
23
100
AcDbEntity
  8
0
100
AcDbBlockEnd
  0
ENDSEC
  0
SECTION
  2
ENTITIES
  0
ARC
  5
1BE
330
1F
100
AcDbEntity
  8
0
  6
Continuous
 62
     7
370
    15
100
AcDbCircle
 10
9.273084012656462
 20
32.57364323087074
 30
0.0
 40
8.265
100
AcDbArc
 50
290.5680558848438
 51
0.0000000000007881
  0
ARC
  5
1BF
330
1F
100
AcDbEntity
  8
0
  6
Continuous
 62
     7
370
    15
100
AcDbCircle
 10
9.273084012656462
 20
32.57364323087074
 30
0.0
 40
8.264999999999999
100
AcDbArc
 50
99.04961998931891
 51
249.4319441151577
  0
ARC
  5
1C0
330
1F
100
AcDbEntity
  8
0
  6
Continuous
 62
     7
370
    15
100
AcDbCircle
 10
9.273084012656462
 20
32.57364323087074
 30
0.0
 40
8.265
100
AcDbArc
 50
0.0000000000007881
 51
80.95038001068116
  0
ARC
  5
1C1
330
1F
100
AcDbEntity
  8
0
  6
Continuous
 62
     7
370
    15
100
AcDbCircle
 10
6.438584012656463
 20
25.01979336344379
 30
0.0
 40
0.1968503937007879
100
AcDbArc
 50
249.4319441151559
 51
270.0
  0
ARC
  5
1C2
330
1F
100
AcDbEntity
  8
0
  6
Continuous
 62
     7
370
    15
100
AcDbCircle
 10
12.10758401265645
 20
25.01979336344379
 30
0.0
 40
0.1968503937007879
100
AcDbArc
 50
270.0
 51
290.5680558848445
  0
LINE
  5
209
330
1F
100
AcDbEntity
  8
0
  6
Continuous
 62
     7
370
    15
100
AcDbLine
 10
6.623084012656449
 20
24.78114296974301
 30
0.0
 11
7.013139037821333
 21
24.76752194812013
 31
0.0
  0
LINE
  5
20A
330
1F
100
AcDbEntity
  8
0
  6
Continuous
 62
     7
370
    15
100
AcDbLine
 10
11.53302898749158
 20
24.76752194812012
 30
0.0
 11
11.92308401265646
 21
24.781142969743
 31
0.0
  0
LINE
  5
20B
330
1F
100
AcDbEntity
  8
0
  6
Continuous
 62
     7
370
    15
100
AcDbLine
 10
11.92308401265646
 20
24.781142969743
 30
0.0
 11
11.92308401265646
 21
24.822942969743
 31
0.0
  0
LINE
  5
20C
330
1F
100
AcDbEntity
  8
0
  6
Continuous
 62
     7
370
    15
100
AcDbLine
 10
6.623084012656463
 20
24.822942969743
 30
0.0
 11
6.623084012656463
 21
24.78114296974301
 31
0.0
  0
ARC
  5
20D
330
1F
100
AcDbEntity
  8
0
  6
Continuous
 62
     7
370
    15
100
AcDbCircle
 10
7.014884012656452
 20
24.81749148947108
 30
0.0
 40
0.0499999999999998
100
AcDbArc
 50
268.0000000000061
 51
270.0
  0
ARC
  5
20E
330
1F
100
AcDbEntity
  8
0
  6
Continuous
 62
     7
370
    15
100
AcDbCircle
 10
11.53128401265646
 20
24.81749148947108
 30
0.0
 40
0.0499999999999998
100
AcDbArc
 50
270.0
 51
272.000000000002
  0
LINE
  5
20F
330
1F
100
AcDbEntity
  8
0
  6
Continuous
 62
     7
370
    15
100
AcDbLine
 10
7.014884012656452
 20
24.76749148947108
 30
0.0
 11
11.53128401265646
 21
24.76749148947108
 31
0.0
  0
LINE
  5
210
330
1F
100
AcDbEntity
  8
0
  6
Continuous
 62
     7
370
    15
100
AcDbLine
 10
7.154442115971598
 20
24.822942969743
 30
0.0
 11
12.10758401265645
 21
24.822942969743
 31
0.0
  0
LINE
  5
211
330
1F
100
AcDbEntity
  8
0
  6
Continuous
 62
     7
370
    15
100
AcDbLine
 10
6.438584012656463
 20
24.822942969743
 30
0.0
 11
7.154442115971598
 21
24.822942969743
 31
0.0
  0
LINE
  5
25E
330
1F
100
AcDbEntity
  8
0
  6
Continuous
 62
     7
370
    15
100
AcDbLine
 10
11.92308401265646
 20
24.781142969743
 30
0.0
 11
6.623084012656449
 21
24.78114296974301
 31
0.0
  0
LINE
  5
25F
330
1F
100
AcDbEntity
  8
0
  6
Continuous
 62
     8
370
     0
100
AcDbLine
 10
7.102750524736379
 20
24.83549108932648
 30
0.0
 11
12.17674143637468
 21
24.83549108932648
 31
0.0
  0
LINE
  5
260
330
1F
100
AcDbEntity
  8
0
  6
Continuous
 62
     8
370
     0
100
AcDbLine
 10
6.369426588938232
 20
24.83549108932648
 30
0.0
 11
7.102750524736379
 21
24.83549108932648
 31
0.0
  0
LINE
  5
28A
330
1F
100
AcDbEntity
  8
0
  6
Continuous
 62
     8
370
     0
100
AcDbLine
 10
7.013139037821333
 20
24.76752194812013
 30
0.0
 11
11.53302898749158
 21
24.76752194812012
 31
0.0
  0
CIRCLE
  5
28B
330
1F
100
AcDbEntity
  8
0
  6
Continuous
 62
     7
370
    15
100
AcDbCircle
 10
9.273084012656462
 20
9.391874751413848
 30
0.0
 40
8.265000000000004
  0
CIRCLE
  5
4A3
330
1F
100
AcDbEntity
  8
0
  6
Continuous
 62
     7
370
    15
100
AcDbCircle
 10
9.173633897211396
 20
9.248169304635145
 30
0.0
 40
0.7717500000000022
  0
CIRCLE
  5
4A4
330
1F
100
AcDbEntity
  8
0
  6
Continuous
 62
     7
370
    15
100
AcDbCircle
 10
9.173633897211396
 20
9.248169304635145
 30
0.0
 40
0.5677500000000002
  0
CIRCLE
  5
4A5
330
1F
100
AcDbEntity
  8
0
  6
Continuous
 62
     7
370
    15
100
AcDbCircle
 10
9.173633897211396
 20
9.248169304635145
 30
0.0
 40
0.5
  0
CIRCLE
  5
4A6
330
1F
100
AcDbEntity
  8
0
  6
Continuous
 62
     7
370
    15
100
AcDbCircle
 10
9.173633897211403
 20
9.248169304635159
 30
0.0
 40
1.374999999999997
  0
CIRCLE
  5
4A7
330
1F
100
AcDbEntity
  8
0
  6
Continuous
 62
     7
370
    15
100
AcDbCircle
 10
9.173633897211403
 20
9.248169304635159
 30
0.0
 40
2.649999999999999
  0
CIRCLE
  5
4A8
330
1F
100
AcDbEntity
  8
0
  6
Continuous
 62
     8
370
     0
100
AcDbCircle
 10
9.173633897211403
 20
9.248169304635159
 30
0.0
 40
2.259944974835126
  0
ELLIPSE
  5
4DF
330
1F
100
AcDbEntity
  8
0
  6
Continuous
 62
     7
370
    15
100
AcDbEllipse
 10
9.274546766976044
 20
53.17793447654476
 30
0.0
 11
2.456
 21
0.0
 31
5.453415496958752E-16
210
-2.220446049250306E-16
220
-1.174964061051032E-16
230
1.0
 40
0.2157980456026056
 41
4.793912477091305
 42
6.283185307179586
  0
ELLIPSE
  5
4E0
330
1F
100
AcDbEntity
  8
0
  6
Continuous
 62
     7
370
    15
100
AcDbEllipse
 10
9.274546766976044
 20
53.17793447654476
 30
0.0
 11
-2.456
 21
0.0
 31
6.816769371198438E-16
210
2.775557561562881E-16
220
-1.174964061051028E-16
230
1.0
 40
0.2157980456026056
 41
0.0
 42
1.489272830088285
  0
LINE
  5
4E1
330
1F
100
AcDbEntity
  8
0
  6
Continuous
 62
     7
370
    15
100
AcDbLine
 10
11.73054676697604
 20
53.17793447654476
 30
0.0
 11
11.73054676697604
 21
53.44793447654476
 31
0.0
  0
LINE
  5
4E2
330
1F
100
AcDbEntity
  8
0
  6
Continuous
 62
     7
370
    15
100
AcDbLine
 10
6.818546766976041
 20
53.44793447654476
 30
0.0
 11
6.818546766976041
 21
53.17793447654476
 31
0.0
  0
LINE
  5
4E3
330
1F
100
AcDbEntity
  8
0
  6
Continuous
 62
     7
370
    15
100
AcDbLine
 10
10.27639522728263
 20
52.68580444993132
 30
0.0
 11
10.27575595525266
 21
52.69397320274422
 31
0.0
  0
LINE
  5
4E4
330
1F
100
AcDbEntity
  8
0
  6
Continuous
 62
     7
370
    15
100
AcDbLine
 10
9.90183661876437
 20
52.66551323855741
 30
0.0
 11
9.90253829489373
 21
52.65654707300235
 31
0.0
  0
LINE
  5
4E5
330
1F
100
AcDbEntity
  8
0
  6
Continuous
 62
     7
370
    15
100
AcDbLine
 10
9.47454676697604
 20
52.64793447654475
 30
0.0
 11
9.47454676697604
 21
52.649694712668
 31
0.0
  0
LINE
  5
4E6
330
1F
100
AcDbEntity
  8
0
  6
Continuous
 62
     7
370
    15
100
AcDbLine
 10
9.074546766976042
 20
52.649694712668
 30
0.0
 11
9.074546766976042
 21
52.64793447654475
 31
0.0
  0
LINE
  5
4E7
330
1F
100
AcDbEntity
  8
0
  6
Continuous
 62
     7
370
    15
100
AcDbLine
 10
8.967046766976047
 20
52.25793447654475
 30
0.0
 11
8.977046766976045
 21
52.24793447654475
 31
0.0
  0
LINE
  5
4E8
330
1F
100
AcDbEntity
  8
0
  6
Continuous
 62
     7
370
    15
100
AcDbLine
 10
9.572046766976051
 20
52.24793447654475
 30
0.0
 11
9.582046766976049
 21
52.25793447654475
 31
0.0
  0
LINE
  5
4E9
330
1F
100
AcDbEntity
  8
0
  6
Continuous
 62
     7
370
    15
100
AcDbLine
 10
9.582046766976049
 20
52.25793447654475
 30
0.0
 11
9.582046766976049
 21
52.64793447654475
 31
0.0
  0
LINE
  5
4EA
330
1F
100
AcDbEntity
  8
0
  6
Continuous
 62
     7
370
    15
100
AcDbLine
 10
8.967046766976047
 20
52.64793447654475
 30
0.0
 11
8.967046766976047
 21
52.25793447654475
 31
0.0
  0
LINE
  5
4EB
330
1F
100
AcDbEntity
  8
0
  6
Continuous
 62
     7
370
    15
100
AcDbLine
 10
9.298046766976078
 20
44.00797408986158
 30
0.0
 11
9.298046766976078
 21
52.24793447654475
 31
0.0
  0
LINE
  5
4EC
330
1F
100
AcDbEntity
  8
0
  6
Continuous
 62
     7
370
    15
100
AcDbLine
 10
9.251046766976074
 20
52.24793447654475
 30
0.0
 11
9.251046766976074
 21
44.00797408986158
 31
0.0
  0
LINE
  5
4ED
330
1F
100
AcDbEntity
  8
0
  6
Continuous
 62
     7
370
    15
100
AcDbLine
 10
9.112279417707086
 20
52.64969471266801
 30
0.0
 11
9.474546766976125
 21
52.64969471266801
 31
0.0
  0
LINE
  5
4EE
330
1F
100
AcDbEntity
  8
0
  6
Continuous
 62
     7
370
    15
100
AcDbLine
 10
9.074546766975963
 20
52.64969471266801
 30
0.0
 11
9.112279417707086
 21
52.64969471266801
 31
0.0
  0
LINE
  5
4EF
330
1F
100
AcDbEntity
  8
0
  6
Continuous
 62
     7
370
    15
100
AcDbLine
 10
6.818546766976041
 20
53.44793447654476
 30
0.0
 11
11.73054676697604
 21
53.44793447654476
 31
0.0
  0
ARC
  5
4F0
330
1F
100
AcDbEntity
  8
0
  6
Continuous
 62
     7
370
    15
100
AcDbCircle
 10
9.987052314758174
 20
53.97984915451239
 30
0.0
 40
1.325998121598392
100
AcDbArc
 50
266.3457104113318
 51
282.6037804859527
  0
ARC
  5
4F1
330
1F
100
AcDbEntity
  8
0
  6
Continuous
 62
     7
370
    15
100
AcDbCircle
 10
10.01334822569487
 20
53.24453775519076
 30
0.0
 40
0.5948096671881284
100
AcDbArc
 50
264.9088059015505
 51
277.7580133398078
  0
ARC
  5
4F2
330
1F
100
AcDbEntity
  8
0
  6
Continuous
 62
     7
370
    15
100
AcDbCircle
 10
10.16771019573374
 20
52.80046975852625
 30
0.0
 40
0.138284212440334
100
AcDbArc
 50
269.2855896156128
 51
292.1158744070386
  0
LINE
  5
4F3
330
1F
100
AcDbEntity
  8
0
  6
Continuous
 62
     7
370
    15
100
AcDbLine
 10
9.454304829672473
 20
52.25793447654475
 30
0.0
 11
9.582046766976049
 21
52.25793447654475
 31
0.0
  0
LINE
  5
4F4
330
1F
100
AcDbEntity
  8
0
  6
Continuous
 62
     7
370
    15
100
AcDbLine
 10
8.967046766976047
 20
52.25793447654475
 30
0.0
 11
9.454304829672473
 21
52.25793447654475
 31
0.0
  0
LINE
  5
4F5
330
1F
100
AcDbEntity
  8
0
  6
Continuous
 62
     7
370
    15
100
AcDbLine
 10
9.448459039015681
 20
52.24793447654475
 30
0.0
 11
8.977046766976045
 21
52.24793447654475
 31
0.0
  0
LINE
  5
4F6
330
1F
100
AcDbEntity
  8
0
  6
Continuous
 62
     7
370
    15
100
AcDbLine
 10
9.572046766976051
 20
52.24793447654475
 30
0.0
 11
9.448459039015681
 21
52.24793447654475
 31
0.0
  0
LINE
  5
4F7
330
1F
100
AcDbEntity
  8
0
  6
Continuous
 62
     7
370
    15
100
AcDbLine
 10
9.454304829672473
 20
52.64793447654475
 30
0.0
 11
9.582046766976049
 21
52.64793447654475
 31
0.0
  0
LINE
  5
4F8
330
1F
100
AcDbEntity
  8
0
  6
Continuous
 62
     7
370
    15
100
AcDbLine
 10
8.967046766976047
 20
52.64793447654475
 30
0.0
 11
9.454304829672473
 21
52.64793447654475
 31
0.0
  0
LINE
  5
4F9
330
1F
100
AcDbEntity
  8
0
  6
Continuous
 62
     7
370
    15
100
AcDbLine
 10
9.530300108210795
 20
44.00797408986157
 30
0.0
 11
9.712046766976044
 21
44.00797408986157
 31
0.0
  0
LINE
  5
4FA
330
1F
100
AcDbEntity
  8
0
  6
Continuous
 62
     7
370
    15
100
AcDbLine
 10
8.837046766976044
 20
44.00797408986157
 30
0.0
 11
9.530300108210795
 21
44.00797408986157
 31
0.0
  0
LINE
  5
4FB
330
1F
100
AcDbEntity
  8
0
  6
Continuous
 62
     8
370
     0
100
AcDbLine
 10
6.818546766976034
 20
53.17793447654476
 30
0.0
 11
11.73054676697605
 21
53.17793447654476
 31
0.0
  0
LWPOLYLINE
  5
4FC
330
1F
100
AcDbEntity
  8
0
  6
Continuous
 62
     8
370
     0
100
AcDbPolyline
 90
        3
 70
   128
 43
0.0
 10
9.90776571327941
 20
53.44793447654476
 10
9.907735583058248
 20
53.44805437881059
 10
9.907489867219532
 20
53.44959313288962
  0
LWPOLYLINE
  5
4FD
330
1F
100
AcDbEntity
  8
0
  6
Continuous
 62
     8
370
     0
100
AcDbPolyline
 90
        3
 70
   128
 43
0.0
 10
9.748175628348925
 20
53.44793447654476
 10
9.748145498127762
 20
53.44805437881059
 10
9.747899782289046
 20
53.44959313288962
  0
LINE
  5
4FE
330
1F
100
AcDbEntity
  8
0
  6
Continuous
 62
     8
370
     0
100
AcDbLine
 10
9.962514291821051
 20
52.65352428609203
 30
0.0
 11
9.96056409474204
 21
52.65207478107339
 31
0.0
  0
LINE
  5
4FF
330
1F
100
AcDbEntity
  8
0
  6
Continuous
 62
     8
370
     0
100
AcDbLine
 10
10.21977156786501
 20
52.67235989574414
 30
0.0
 11
10.21761962238022
 21
52.67348837440002
 31
0.0
  0
SPLINE
  5
500
330
1F
100
AcDbEntity
  8
0
  6
Continuous
 62
     7
370
    15
100
AcDbSpline
210
0.0
220
0.0
230
1.0
 70
     8
 71
     3
 72
    31
 73
    27
 74
     0
 42
0.000000001
 43
0.00000001
 40
0.0
 40
0.0
 40
0.0
 40
0.0
 40
0.0104205015854956
 40
0.0274483349504552
 40
0.0424355580655086
 40
0.0556492243519779
 40
0.0673023311972214
 40
0.0816165645566899
 40
0.0935162412957164
 40
0.1048922617450745
 40
0.1164198184132226
 40
0.1281438332864983
 40
0.1401282970300457
 40
0.1690750526613211
 40
0.1986826005822773
 40
0.2356296580377935
 40
0.2734267626188511
 40
0.3113837581293598
 40
0.3518011858413722
 40
0.3915039143865205
 40
0.4308486636769863
 40
0.4699901374777737
 40
0.5091390537744056
 40
0.5499394935825042
 40
0.5909538398197314
 40
0.6009337124326819
 40
0.6009337124326819
 40
0.6009337124326819
 40
0.6009337124326819
 10
10.04498699490328
 20
52.65196324297803
 30
0.0
 10
10.05074324710308
 20
52.60956726602755
 30
0.0
 10
10.06590562073192
 20
52.49789327736773
 30
0.0
 10
10.09372661283444
 20
52.32620920827024
 30
0.0
 10
10.12557842914293
 20
52.14381704761587
 30
0.0
 10
10.15571723195322
 20
51.98366519602209
 30
0.0
 10
10.18662121751912
 20
51.82659567001495
 30
0.0
 10
10.21740570484546
 20
51.67507332241806
 30
0.0
 10
10.24822245678677
 20
51.52474225139484
 30
0.0
 10
10.27640269248079
 20
51.38545195585404
 30
0.0
 10
10.30347786860308
 20
51.24657949086788
 30
0.0
 10
10.32931455395197
 20
51.10476991856856
 30
0.0
 10
10.36409697302636
 20
50.89187819578972
 30
0.0
 10
10.39923711564742
 20
50.60373931686905
 30
0.0
 10
10.41222137530519
 20
50.20936561161854
 30
0.0
 10
10.39061931954648
 20
49.7792710915169
 30
0.0
 10
10.34878571091712
 20
49.31726323623936
 30
0.0
 10
10.29941781570716
 20
48.84196760036577
 30
0.0
 10
10.25433936461322
 20
48.35802649721908
 30
0.0
 10
10.22677772464509
 20
47.86620614322018
 30
0.0
 10
10.22194157914964
 20
47.37841806684443
 30
0.0
 10
10.24433293933217
 20
46.89355610105735
 30
0.0
 10
10.29858653667575
 20
46.40621118262923
 30
0.0
 10
10.39108646526007
 20
45.91980709664101
 30
0.0
 10
10.47956468502819
 20
45.55707118448996
 30
0.0
 10
10.53100494255125
 20
45.35650099594719
 30
0.0
 10
10.54112639503423
 20
45.31727048580006
 30
0.0
  0
SPLINE
  5
501
330
1F
100
AcDbEntity
  8
0
  6
Continuous
 62
     7
370
    15
100
AcDbSpline
210
0.0
220
0.0
230
1.0
 70
     8
 71
     3
 72
    31
 73
    27
 74
     0
 42
0.000000001
 43
0.00000001
 40
0.3988386190519194
 40
0.3988386190519194
 40
0.3988386190519194
 40
0.3988386190519194
 40
0.4315211032427148
 40
0.476241025873427
 40
0.5183105449903052
 40
0.5604200382472205
 40
0.6026880272470717
 40
0.6454100245285926
 40
0.6887809403464024
 40
0.7326204033488299
 40
0.7588373712970581
 40
0.7847787150748659
 40
0.8102258781825541
 40
0.834713963201141
 40
0.8568183309676594
 40
0.867037766931655
 40
0.8767879521453523
 40
0.8872204750796602
 40
0.90006521313979
 40
0.9155811215457483
 40
0.928234590959282
 40
0.9425759489077988
 40
0.9588591901400381
 40
0.9774228353424291
 40
0.9938890037986988
 40
1.0
 40
1.0
 40
1.0
 40
1.0
 10
10.68818232406571
 20
45.29181849808302
 30
0.0
 10
10.65467307314039
 20
45.42084917614762
 30
0.0
 10
10.57631086850241
 20
45.72680088167192
 30
0.0
 10
10.46928341688456
 20
46.20457435243456
 30
0.0
 10
10.39381484310758
 20
46.73164557727854
 30
0.0
 10
10.36017583603473
 20
47.25486524940322
 30
0.0
 10
10.35953881170467
 20
47.78219026492123
 30
0.0
 10
10.38670564027064
 20
48.31358876642921
 30
0.0
 10
10.43675242787922
 20
48.84878546558249
 30
0.0
 10
10.48570348535893
 20
49.31511235410839
 30
0.0
 10
10.52037767526262
 20
49.71083425903537
 30
0.0
 10
10.53978711455895
 20
50.03174544055009
 30
0.0
 10
10.54525322980734
 20
50.34649287756312
 30
0.0
 10
10.52983061218552
 20
50.64493192045857
 30
0.0
 10
10.50262334077613
 20
50.8782528946421
 30
0.0
 10
10.47654646732629
 20
51.04971327072772
 30
0.0
 10
10.45551509599821
 20
51.17307631831932
 30
0.0
 10
10.43077967006199
 20
51.3065746975406
 30
0.0
 10
10.39992144467035
 20
51.46284196221506
 30
0.0
 10
10.36611293727456
 20
51.62768406509732
 30
0.0
 10
10.33107713013005
 20
51.79853927701823
 30
0.0
 10
10.29623473093355
 20
51.97273104772098
 30
0.0
 10
10.2585229261343
 20
52.17128016840871
 30
0.0
 10
10.22265609935686
 20
52.37935397045624
 30
0.0
 10
10.1960512776269
 20
52.54674995630317
 30
0.0
 10
10.18376664798355
 20
52.63911139858065
 30
0.0
 10
10.18044154821025
 20
52.66411101352189
 30
0.0
  0
SPLINE
  5
502
330
1F
100
AcDbEntity
  8
0
  6
Continuous
 62
     7
370
    15
100
AcDbSpline
210
0.0
220
0.0
230
1.0
 70
     8
 71
     3
 72
    31
 73
    27
 74
     0
 42
0.000000001
 43
0.00000001
 40
0.0
 40
0.0
 40
0.0
 40
0.0
 40
0.0106620013449624
 40
0.0277283361493491
 40
0.0427480233668295
 40
0.0559889709694992
 40
0.0676648097319804
 40
0.0820045806106235
 40
0.0939247536764241
 40
0.105323272524436
 40
0.1168706835993521
 40
0.1286121676582667
 40
0.1406118881120993
 40
0.1695888450172448
 40
0.1992240865626603
 40
0.2362092554649132
 40
0.274064065096685
 40
0.3120957960810123
 40
0.3526127328439604
 40
0.3924259198007032
 40
0.4318894644560188
 40
0.4711533595350811
 40
0.5104256610932247
 40
0.5513477586234331
 40
0.59247325696879
 40
0.6012025656882558
 40
0.6012025656882558
 40
0.6012025656882558
 40
0.6012025656882558
 10
9.96866254589927
 20
52.65432773768914
 30
0.0
 10
9.974539399200786
 20
52.61103859043575
 30
0.0
 10
9.98982314927477
 20
52.49845784805685
 30
0.0
 10
10.0177862048398
 20
52.32586544598053
 30
0.0
 10
10.04964914019858
 20
52.14345607301052
 30
0.0
 10
10.07979129054983
 20
51.98330474994623
 30
0.0
 10
10.1106938593041
 20
51.82625777245688
 30
0.0
 10
10.14147184137317
 20
51.67477381156216
 30
0.0
 10
10.17228090406964
 20
51.52447940527072
 30
0.0
 10
10.20045245125149
 20
51.38522592233661
 30
0.0
 10
10.22751604707054
 20
51.24640146776083
 30
0.0
 10
10.25333511693311
 20
51.10467481936792
 30
0.0
 10
10.28808479901016
 20
50.89197198618447
 30
0.0
 10
10.32319668357151
 20
50.60413722799218
 30
0.0
 10
10.3362289419257
 20
50.2101874101993
 30
0.0
 10
10.31471024108636
 20
49.78046908748878
 30
0.0
 10
10.27293703808184
 20
49.3187141942327
 30
0.0
 10
10.22357522593818
 20
48.84345469846761
 30
0.0
 10
10.17844379870817
 20
48.35935519800672
 30
0.0
 10
10.15081000439011
 20
47.86720557592591
 30
0.0
 10
10.14592788906783
 20
47.37897831473833
 30
0.0
 10
10.16832093449515
 20
46.89361715818665
 30
0.0
 10
10.22264344372226
 20
46.40577772764528
 30
0.0
 10
10.31527409926899
 20
45.91895864131538
 30
0.0
 10
10.40261897543453
 20
45.56099081651691
 30
0.0
 10
10.45275830582294
 20
45.36528638052393
 30
0.0
 10
10.4615817496177
 20
45.33103782827597
 30
0.0
  0
LINE
  5
503
330
1F
100
AcDbEntity
  8
0
  6
Continuous
 62
     7
370
    15
100
AcDbLine
 10
7.847046766976042
 20
40.95097408986157
 30
0.0
 11
7.847046766976042
 21
40.75829459793726
 31
0.0
  0
LINE
  5
504
330
1F
100
AcDbEntity
  8
0
  6
Continuous
 62
     7
370
    15
100
AcDbLine
 10
10.70204676697605
 20
40.75829459793726
 30
0.0
 11
10.70204676697605
 21
40.95097408986157
 31
0.0
  0
ARC
  5
505
330
1F
100
AcDbEntity
  8
0
  6
Continuous
 62
     7
370
    15
100
AcDbCircle
 10
9.255146998413814
 20
38.40315520702579
 30
0.0
 40
2.930000000000002
100
AcDbArc
 50
60.40786892884346
 51
73.80069101782382
  0
ARC
  5
506
330
1F
100
AcDbEntity
  8
0
  6
Continuous
 62
     7
370
    15
100
AcDbCircle
 10
9.293946535538275
 20
38.40315520702579
 30
0.0
 40
2.930000000000001
100
AcDbArc
 50
106.1993089821762
 51
119.5921310711565
  0
ARC
  5
507
330
1F
100
AcDbEntity
  8
0
  6
Continuous
 62
     7
370
    15
100
AcDbCircle
 10
10.69204676697604
 20
40.75829459793726
 30
0.0
 40
0.0099999999999989
100
AcDbArc
 50
270.0
 51
0.0
  0
ARC
  5
508
330
1F
100
AcDbEntity
  8
0
  6
Continuous
 62
     7
370
    15
100
AcDbCircle
 10
7.85704676697604
 20
40.75829459793726
 30
0.0
 40
0.0099999999999989
100
AcDbArc
 50
180.0
 51
270.0
  0
LINE
  5
509
330
1F
100
AcDbEntity
  8
0
  6
Continuous
 62
     7
370
    15
100
AcDbLine
 10
10.10903338323343
 20
40.95097408986157
 30
0.0
 11
10.70204676697605
 21
40.95097408986157
 31
0.0
  0
LINE
  5
50A
330
1F
100
AcDbEntity
  8
0
  6
Continuous
 62
     7
370
    15
100
AcDbLine
 10
7.847046766976042
 20
40.95097408986157
 30
0.0
 11
10.10903338323343
 21
40.95097408986157
 31
0.0
  0
LINE
  5
50B
330
1F
100
AcDbEntity
  8
0
  6
Continuous
 62
     7
370
    15
100
AcDbLine
 10
7.85704676697604
 20
40.74829459793726
 30
0.0
 11
10.69204676697604
 21
40.74829459793726
 31
0.0
  0
LINE
  5
50C
330
1F
100
AcDbEntity
  8
0
  6
Continuous
 62
     7
370
    15
100
AcDbLine
 10
8.837046766976044
 20
44.00797408986157
 30
0.0
 11
8.837046766976044
 21
41.69697408986157
 31
0.0
  0
LINE
  5
50D
330
1F
100
AcDbEntity
  8
0
  6
Continuous
 62
     7
370
    15
100
AcDbLine
 10
9.712046766976044
 20
41.69697408986157
 30
0.0
 11
9.712046766976044
 21
44.00797408986157
 31
0.0
  0
SPLINE
  5
50E
330
1F
100
AcDbEntity
  8
0
100
AcDbSpline
210
0.0
220
0.0
230
1.0
 70
     8
 71
     3
 72
     9
 73
     5
 74
     3
 42
0.000000001
 43
0.0000000001
 44
0.0
 40
0.0
 40
0.0
 40
0.0
 40
0.0
 40
0.1521510487408513
 40
0.2947777446992155
 40
0.2947777446992155
 40
0.2947777446992155
 40
0.2947777446992155
 10
9.806161033356425
 20
42.29764176148925
 30
0.0
 10
9.792999793497955
 20
42.24860286490691
 30
0.0
 10
9.76750118119767
 20
42.15359480905245
 30
0.0
 10
9.730348594943278
 20
42.06251920337797
 30
0.0
 10
9.712372507131157
 20
42.01845273990391
 30
0.0
 11
9.806161033356425
 21
42.29764176148925
 31
0.0
 11
9.763572507131158
 21
42.15157273990391
 31
0.0
 11
9.712372507131157
 21
42.01845273990391
 31
0.0
  0
SPLINE
  5
50F
330
1F
100
AcDbEntity
  8
0
100
AcDbSpline
210
0.0
220
0.0
230
1.0
 70
     8
 71
     3
 72
     9
 73
     5
 74
     3
 42
0.000000001
 43
0.0000000001
 44
0.0
 40
0.0
 40
0.0
 40
0.0
 40
0.0
 40
0.2718498724252224
 40
0.5038059019748901
 40
0.5038059019748901
 40
0.5038059019748901
 40
0.5038059019748901
 10
9.937873363767089
 20
42.16363878185405
 30
0.0
 10
9.91063823683295
 20
42.07646118731491
 30
0.0
 10
9.86016472522875
 20
41.91489926986037
 30
0.0
 10
9.761302673322824
 20
41.77779151542545
 30
0.0
 10
9.715785840464491
 20
41.71466607323724
 30
0.0
 11
9.937873363767089
 21
42.16363878185405
 31
0.0
 11
9.842079173797828
 21
41.90922607323724
 31
0.0
 11
9.715785840464491
 21
41.71466607323724
 31
0.0
  0
SPLINE
  5
510
330
1F
100
AcDbEntity
  8
0
100
AcDbSpline
210
0.0
220
0.0
230
1.0
 70
     8
 71
     3
 72
    10
 73
     6
 74
     4
 42
0.000000001
 43
0.0000000001
 44
0.0
 40
0.0
 40
0.0
 40
0.0
 40
0.0
 40
0.9766779541311877
 40
2.115693493365888
 40
3.241413685052235
 40
3.241413685052235
 40
3.241413685052235
 40
3.241413685052235
 10
10.46191517853937
 20
45.33259455115842
 30
0.0
 10
10.53117154065965
 20
45.00177076988324
 30
0.0
 10
10.6811956444006
 20
44.28513565128141
 30
0.0
 10
10.04881203434788
 20
43.32918836879539
 30
0.0
 10
9.821109448901328
 20
42.61376586034569
 30
0.0
 10
9.707926531072708
 20
42.2581545842251
 30
0.0
 11
10.46191517853937
 21
45.33259455115842
 31
0.0
 11
10.54975089480604
 21
44.35987428662509
 31
0.0
 11
10.10038258576021
 21
43.31324898526676
 31
0.0
 11
9.707926531072708
 21
42.2581545842251
 31
0.0
  0
SPLINE
  5
511
330
1F
100
AcDbEntity
  8
0
100
AcDbSpline
210
0.0
220
0.0
230
1.0
 70
     8
 71
     3
 72
    10
 73
     6
 74
     4
 42
0.000000001
 43
0.0000000001
 44
0.0
 40
0.0
 40
0.0
 40
0.0
 40
0.0
 40
0.9766779541311806
 40
2.115693493365881
 40
3.188639538076122
 40
3.188639538076122
 40
3.188639538076122
 40
3.188639538076122
 10
10.54191517853937
 20
45.32192788449175
 30
0.0
 10
10.61126421987879
 20
44.99108337776453
 30
0.0
 10
10.76148908664511
 20
44.27440336339757
 30
0.0
 10
10.13773768438167
 20
43.3343921227877
 30
0.0
 10
9.914611322786431
 20
42.63579552609204
 30
0.0
 10
9.806380443515359
 20
42.29693048398952
 30
0.0
 11
10.54191517853937
 21
45.32192788449175
 31
0.0
 11
10.62975089480604
 21
44.34920761995842
 31
0.0
 11
10.18038258576021
 21
43.30258231860009
 31
0.0
 11
9.806380443515359
 21
42.29693048398952
 31
0.0
  0
SPLINE
  5
512
330
1F
100
AcDbEntity
  8
0
100
AcDbSpline
210
0.0
220
0.0
230
1.0
 70
     8
 71
     3
 72
    10
 73
     6
 74
     4
 42
0.000000001
 43
0.0000000001
 44
0.0
 40
0.0
 40
0.0
 40
0.0
 40
0.0
 40
0.9766779541311806
 40
2.115693493365887
 40
3.289403827098576
 40
3.289403827098576
 40
3.289403827098576
 40
3.289403827098576
 10
10.68591517853937
 20
45.28992788449175
 30
0.0
 10
10.75547301697405
 20
44.95898445946308
 30
0.0
 10
10.90615018293892
 20
44.2420901668831
 30
0.0
 10
10.25882084819353
 20
43.27420548799776
 30
0.0
 10
10.04584122145573
 20
42.53667601322859
 30
0.0
 10
9.937753881015354
 20
42.16237918190618
 30
0.0
 11
10.68591517853937
 21
45.28992788449175
 31
0.0
 11
10.77375089480604
 21
44.31720761995842
 31
0.0
 11
10.3243825857602
 21
43.27058231860009
 31
0.0
 11
9.937753881015354
 21
42.16237918190618
 31
0.0
  0
ARC
  5
513
330
1F
100
AcDbEntity
  8
0
  6
Continuous
 62
     7
370
    15
100
AcDbCircle
 10
10.21204676697604
 20
41.69697408986157
 30
0.0
 40
0.5
100
AcDbArc
 50
180.0
 51
253.8006910178243
  0
ARC
  5
514
330
1F
100
AcDbEntity
  8
0
  6
Continuous
 62
     7
370
    15
100
AcDbCircle
 10
8.337046766976044
 20
41.69697408986157
 30
0.0
 40
0.5000000000000009
100
AcDbArc
 50
286.1993089821775
 51
0.0
  0
ENDSEC
  0
SECTION
  2
OBJECTS
  0
DICTIONARY
  5
C
330
0
100
AcDbDictionary
281
     1
  3
ACAD_DETAILVIEWSTYLE
350
519
  3
ACAD_GROUP
350
D
  3
ACAD_IMAGE_VARS
350
467
  3
ACAD_LAYOUT
350
1A
  3
ACAD_MLINESTYLE
350
17
  3
ACAD_PLOTSETTINGS
350
19
  3
ACAD_PLOTSTYLENAME
350
E
  3
ACAD_SCALELIST
350
43D
  3
ACAD_SECTIONVIEWSTYLE
350
51A
  3
AcDbVariableDictionary
350
515
  3
APPDATA
350
465
  3
DWGPROPS
350
67A
  0
DICTIONARY
  5
519
102
{ACAD_REACTORS
330
C
102
}
330
C
100
AcDbDictionary
281
     1
  0
DICTIONARY
  5
D
102
{ACAD_REACTORS
330
C
102
}
330
C
100
AcDbDictionary
281
     1
  0
RASTERVARIABLES
  5
467
102
{ACAD_REACTORS
330
C
102
}
330
C
100
AcDbRasterVariables
 90
        0
 70
     1
 71
     1
 72
     5
  0
DICTIONARY
  5
1A
102
{ACAD_REACTORS
330
C
102
}
330
C
100
AcDbDictionary
281
     1
  3
Layout1
350
1E
  3
Layout2
350
26
  3
Model
350
22
  0
DICTIONARY
  5
17
102
{ACAD_REACTORS
330
C
102
}
330
C
100
AcDbDictionary
281
     1
  3
Standard
350
18
  0
DICTIONARY
  5
19
102
{ACAD_REACTORS
330
C
102
}
330
C
100
AcDbDictionary
281
     1
  0
ACDBDICTIONARYWDFLT
  5
E
102
{ACAD_REACTORS
330
C
102
}
330
C
100
AcDbDictionary
281
     1
  3
Normal
350
F
100
AcDbDictionaryWithDefault
340
F
  0
DICTIONARY
  5
43D
102
{ACAD_REACTORS
330
C
102
}
330
C
100
AcDbDictionary
281
     1
  3
A0
350
43E
  3
A1
350
43F
  3
A2
350
440
  3
A3
350
441
  3
A4
350
442
  3
A5
350
443
  3
A6
350
444
  3
A7
350
445
  3
A8
350
446
  3
A9
350
447
  3
B0
350
448
  3
B1
350
449
  3
B2
350
44A
  3
B3
350
44B
  3
B4
350
44C
  3
B5
350
44D
  3
B6
350
44E
  3
B7
350
44F
  3
B8
350
450
  3
B9
350
451
  3
C0
350
452
  3
C1
350
453
  3
C2
350
454
  3
C3
350
455
  3
C4
350
456
  3
C5
350
457
  3
C6
350
458
  3
C7
350
459
  3
C8
350
45A
  3
C9
350
45B
  3
D0
350
45C
  3
D1
350
45D
  3
D2
350
45E
  0
DICTIONARY
  5
51A
102
{ACAD_REACTORS
330
C
102
}
330
C
100
AcDbDictionary
281
     1
  0
DICTIONARY
  5
515
102
{ACAD_REACTORS
330
C
102
}
330
C
100
AcDbDictionary
281
     1
  0
DICTIONARY
  5
465
102
{ACAD_REACTORS
330
C
102
}
330
C
100
AcDbDictionary
281
     1
  0
XRECORD
  5
67A
102
{ACAD_REACTORS
330
C
102
}
330
C
100
AcDbXrecord
280
     1
  1
DWGPROPS COOKIE
  2

  3

  4

  6

  7

  8
vplamondon
  9

300
=
301
=
302
=
303
=
304
=
305
=
306
=
307
=
308
=
309
=
 40
0.0
 41
2457240.573896667
 42
2457240.638255822
  1

 90
        0
  0
LAYOUT
  5
1E
102
{ACAD_REACTORS
330
1A
102
}
330
1A
100
AcDbPlotSettings
  1

  2
none_device
  4

  6

 40
0.0
 41
0.0
 42
0.0
 43
0.0
 44
0.0
 45
0.0
 46
0.0
 47
0.0
 48
0.0
 49
0.0
140
0.0
141
0.0
142
1.0
143
1.0
 70
   688
 72
     0
 73
     0
 74
     5
  7

 75
    16
147
1.0
148
0.0
149
0.0
100
AcDbLayout
  1
Layout1
 70
     1
 71
     1
 10
0.0
 20
0.0
 11
12.0
 21
9.0
 12
0.0
 22
0.0
 32
0.0
 14
1.000000000000000E+20
 24
1.000000000000000E+20
 34
1.000000000000000E+20
 15
-1.000000000000000E+20
 25
-1.000000000000000E+20
 35
-1.000000000000000E+20
146
0.0
 13
0.0
 23
0.0
 33
0.0
 16
1.0
 26
0.0
 36
0.0
 17
0.0
 27
1.0
 37
0.0
 76
     0
330
1B
  0
LAYOUT
  5
26
102
{ACAD_REACTORS
330
1A
102
}
330
1A
100
AcDbPlotSettings
  1

  2
none_device
  4

  6

 40
0.0
 41
0.0
 42
0.0
 43
0.0
 44
0.0
 45
0.0
 46
0.0
 47
0.0
 48
0.0
 49
0.0
140
0.0
141
0.0
142
1.0
143
1.0
 70
   688
 72
     0
 73
     0
 74
     5
  7

 75
    16
147
1.0
148
0.0
149
0.0
100
AcDbLayout
  1
Layout2
 70
     1
 71
     2
 10
0.0
 20
0.0
 11
0.0
 21
0.0
 12
0.0
 22
0.0
 32
0.0
 14
0.0
 24
0.0
 34
0.0
 15
0.0
 25
0.0
 35
0.0
146
0.0
 13
0.0
 23
0.0
 33
0.0
 16
1.0
 26
0.0
 36
0.0
 17
0.0
 27
1.0
 37
0.0
 76
     0
330
23
  0
LAYOUT
  5
22
102
{ACAD_REACTORS
330
1A
102
}
330
1A
100
AcDbPlotSettings
  1

  2
none_device
  4

  6

 40
0.0
 41
0.0
 42
0.0
 43
0.0
 44
0.0
 45
0.0
 46
0.0
 47
0.0
 48
0.0
 49
0.0
140
0.0
141
0.0
142
1.0
143
1.0
 70
  1712
 72
     0
 73
     0
 74
     0
  7

 75
     0
147
1.0
148
0.0
149
0.0
100
AcDbLayout
  1
Model
 70
     1
 71
     0
 10
0.0
 20
0.0
 11
11.0
 21
8.5
 12
0.0
 22
0.0
 32
0.0
 14
0.0
 24
0.0
 34
0.0
 15
11.0
 25
8.5
 35
0.0
146
0.0
 13
0.0
 23
0.0
 33
0.0
 16
1.0
 26
0.0
 36
0.0
 17
0.0
 27
1.0
 37
0.0
 76
     0
330
1F
331
29
  0
MLINESTYLE
  5
18
102
{ACAD_REACTORS
330
17
102
}
330
17
100
AcDbMlineStyle
  2
Standard
 70
     0
  3

 62
   256
 51
90.0
 52
90.0
 71
     2
 49
0.5
 62
   256
  6
BYLAYER
 49
-0.5
 62
   256
  6
BYLAYER
  0
ACDBPLACEHOLDER
  5
F
102
{ACAD_REACTORS
330
E
102
}
330
E
  0
SCALE
  5
43E
102
{ACAD_REACTORS
330
43D
102
}
330
43D
100
AcDbScale
 70
     0
300
1:1
140
1.0
141
1.0
290
     1
  0
SCALE
  5
43F
102
{ACAD_REACTORS
330
43D
102
}
330
43D
100
AcDbScale
 70
     0
300
1:2
140
1.0
141
2.0
290
     0
  0
SCALE
  5
440
102
{ACAD_REACTORS
330
43D
102
}
330
43D
100
AcDbScale
 70
     0
300
1:4
140
1.0
141
4.0
290
     0
  0
SCALE
  5
441
102
{ACAD_REACTORS
330
43D
102
}
330
43D
100
AcDbScale
 70
     0
300
1:5
140
1.0
141
5.0
290
     0
  0
SCALE
  5
442
102
{ACAD_REACTORS
330
43D
102
}
330
43D
100
AcDbScale
 70
     0
300
1:8
140
1.0
141
8.0
290
     0
  0
SCALE
  5
443
102
{ACAD_REACTORS
330
43D
102
}
330
43D
100
AcDbScale
 70
     0
300
1:10
140
1.0
141
10.0
290
     0
  0
SCALE
  5
444
102
{ACAD_REACTORS
330
43D
102
}
330
43D
100
AcDbScale
 70
     0
300
1:16
140
1.0
141
16.0
290
     0
  0
SCALE
  5
445
102
{ACAD_REACTORS
330
43D
102
}
330
43D
100
AcDbScale
 70
     0
300
1:20
140
1.0
141
20.0
290
     0
  0
SCALE
  5
446
102
{ACAD_REACTORS
330
43D
102
}
330
43D
100
AcDbScale
 70
     0
300
1:30
140
1.0
141
30.0
290
     0
  0
SCALE
  5
447
102
{ACAD_REACTORS
330
43D
102
}
330
43D
100
AcDbScale
 70
     0
300
1:40
140
1.0
141
40.0
290
     0
  0
SCALE
  5
448
102
{ACAD_REACTORS
330
43D
102
}
330
43D
100
AcDbScale
 70
     0
300
1:50
140
1.0
141
50.0
290
     0
  0
SCALE
  5
449
102
{ACAD_REACTORS
330
43D
102
}
330
43D
100
AcDbScale
 70
     0
300
1:100
140
1.0
141
100.0
290
     0
  0
SCALE
  5
44A
102
{ACAD_REACTORS
330
43D
102
}
330
43D
100
AcDbScale
 70
     0
300
2:1
140
2.0
141
1.0
290
     0
  0
SCALE
  5
44B
102
{ACAD_REACTORS
330
43D
102
}
330
43D
100
AcDbScale
 70
     0
300
4:1
140
4.0
141
1.0
290
     0
  0
SCALE
  5
44C
102
{ACAD_REACTORS
330
43D
102
}
330
43D
100
AcDbScale
 70
     0
300
8:1
140
8.0
141
1.0
290
     0
  0
SCALE
  5
44D
102
{ACAD_REACTORS
330
43D
102
}
330
43D
100
AcDbScale
 70
     0
300
10:1
140
10.0
141
1.0
290
     0
  0
SCALE
  5
44E
102
{ACAD_REACTORS
330
43D
102
}
330
43D
100
AcDbScale
 70
     0
300
100:1
140
100.0
141
1.0
290
     0
  0
SCALE
  5
44F
102
{ACAD_REACTORS
330
43D
102
}
330
43D
100
AcDbScale
 70
     0
300
1/128" = 1'-0"
140
0.0078125
141
12.0
290
     0
  0
SCALE
  5
450
102
{ACAD_REACTORS
330
43D
102
}
330
43D
100
AcDbScale
 70
     0
300
1/64" = 1'-0"
140
0.015625
141
12.0
290
     0
  0
SCALE
  5
451
102
{ACAD_REACTORS
330
43D
102
}
330
43D
100
AcDbScale
 70
     0
300
1/32" = 1'-0"
140
0.03125
141
12.0
290
     0
  0
SCALE
  5
452
102
{ACAD_REACTORS
330
43D
102
}
330
43D
100
AcDbScale
 70
     0
300
1/16" = 1'-0"
140
0.0625
141
12.0
290
     0
  0
SCALE
  5
453
102
{ACAD_REACTORS
330
43D
102
}
330
43D
100
AcDbScale
 70
     0
300
3/32" = 1'-0"
140
0.09375
141
12.0
290
     0
  0
SCALE
  5
454
102
{ACAD_REACTORS
330
43D
102
}
330
43D
100
AcDbScale
 70
     0
300
1/8" = 1'-0"
140
0.125
141
12.0
290
     0
  0
SCALE
  5
455
102
{ACAD_REACTORS
330
43D
102
}
330
43D
100
AcDbScale
 70
     0
300
3/16" = 1'-0"
140
0.1875
141
12.0
290
     0
  0
SCALE
  5
456
102
{ACAD_REACTORS
330
43D
102
}
330
43D
100
AcDbScale
 70
     0
300
1/4" = 1'-0"
140
0.25
141
12.0
290
     0
  0
SCALE
  5
457
102
{ACAD_REACTORS
330
43D
102
}
330
43D
100
AcDbScale
 70
     0
300
3/8" = 1'-0"
140
0.375
141
12.0
290
     0
  0
SCALE
  5
458
102
{ACAD_REACTORS
330
43D
102
}
330
43D
100
AcDbScale
 70
     0
300
1/2" = 1'-0"
140
0.5
141
12.0
290
     0
  0
SCALE
  5
459
102
{ACAD_REACTORS
330
43D
102
}
330
43D
100
AcDbScale
 70
     0
300
3/4" = 1'-0"
140
0.75
141
12.0
290
     0
  0
SCALE
  5
45A
102
{ACAD_REACTORS
330
43D
102
}
330
43D
100
AcDbScale
 70
     0
300
1" = 1'-0"
140
1.0
141
12.0
290
     0
  0
SCALE
  5
45B
102
{ACAD_REACTORS
330
43D
102
}
330
43D
100
AcDbScale
 70
     0
300
1-1/2" = 1'-0"
140
1.5
141
12.0
290
     0
  0
SCALE
  5
45C
102
{ACAD_REACTORS
330
43D
102
}
330
43D
100
AcDbScale
 70
     0
300
3" = 1'-0"
140
3.0
141
12.0
290
     0
  0
SCALE
  5
45D
102
{ACAD_REACTORS
330
43D
102
}
330
43D
100
AcDbScale
 70
     0
300
6" = 1'-0"
140
6.0
141
12.0
290
     0
  0
SCALE
  5
45E
102
{ACAD_REACTORS
330
43D
102
}
330
43D
100
AcDbScale
 70
     0
300
1'-0" = 1'-0"
140
12.0
141
12.0
290
     0
  0
ENDSEC
  0
EOF
