  0
SECTION
  2
HEADER
  9
$ACADVER
  1
AC1015
  9
$ACADMAINTVER
 70
     6
  9
$DWGCODEPAGE
  3
ANSI_1252
  9
$INSBASE
 10
0.0
 20
0.0
 30
0.0
  9
$EXTMIN
 10
0.0
 20
0.0
 30
0.0
  9
$EXTMAX
 10
11.0
 20
8.5
 30
0.0
  9
$LIMMIN
 10
0.0
 20
0.0
  9
$LIMMAX
 10
11.0
 20
8.5
  9
$ORTHOMODE
 70
     0
  9
$REGENMODE
 70
     1
  9
$FILLMODE
 70
     1
  9
$QTEXTMODE
 70
     0
  9
$MIRRTEXT
 70
     1
  9
$LTSCALE
 40
1.0
  9
$ATTMODE
 70
     1
  9
$TEXTSIZE
 40
0.125
  9
$TRACEWID
 40
0.05
  9
$TEXTSTYLE
  7
Standard
  9
$CLAYER
  8
0
  9
$CELTYPE
  6
ByLayer
  9
$CECOLOR
 62
   256
  9
$CELTSCALE
 40
1.0
  9
$DISPSILH
 70
     0
  9
$DIMSCALE
 40
1.0
  9
$DIMASZ
 40
0.09
  9
$DIMEXO
 40
0.0393700787401575
  9
$DIMDLI
 40
0.38
  9
$DIMRND
 40
0.0
  9
$DIMDLE
 40
0.0
  9
$DIMEXE
 40
0.0393700787401575
  9
$DIMTP
 40
0.0
  9
$DIMTM
 40
0.0
  9
$DIMTXT
 40
0.125
  9
$DIMCEN
 40
0.09
  9
$DIMTSZ
 40
0.0
  9
$DIMTOL
 70
     0
  9
$DIMLIM
 70
     0
  9
$DIMTIH
 70
     1
  9
$DIMTOH
 70
     1
  9
$DIMSE1
 70
     0
  9
$DIMSE2
 70
     0
  9
$DIMTAD
 70
     1
  9
$DIMZIN
 70
     0
  9
$DIMBLK
  1

  9
$DIMASO
 70
     1
  9
$DIMSHO
 70
     1
  9
$DIMPOST
  1

  9
$DIMAPOST
  1

  9
$DIMALT
 70
     0
  9
$DIMALTD
 70
     2
  9
$DIMALTF
 40
25.4
  9
$DIMLFAC
 40
1.0
  9
$DIMTOFL
 70
     0
  9
$DIMTVP
 40
0.0
  9
$DIMTIX
 70
     0
  9
$DIMSOXD
 70
     0
  9
$DIMSAH
 70
     0
  9
$DIMBLK1
  1

  9
$DIMBLK2
  1

  9
$DIMSTYLE
  2
Standard
  9
$DIMCLRD
 70
     0
  9
$DIMCLRE
 70
     0
  9
$DIMCLRT
 70
     0
  9
$DIMTFAC
 40
1.0
  9
$DIMGAP
 40
0.06
  9
$DIMJUST
 70
     0
  9
$DIMSD1
 70
     0
  9
$DIMSD2
 70
     0
  9
$DIMTOLJ
 70
     1
  9
$DIMTZIN
 70
     0
  9
$DIMALTZ
 70
     0
  9
$DIMALTTZ
 70
     0
  9
$DIMUPT
 70
     0
  9
$DIMDEC
 70
     1
  9
$DIMTDEC
 70
     1
  9
$DIMALTU
 70
     2
  9
$DIMALTTD
 70
     2
  9
$DIMTXSTY
  7
Standard
  9
$DIMAUNIT
 70
     0
  9
$DIMADEC
 70
     1
  9
$DIMALTRND
 40
0.0
  9
$DIMAZIN
 70
     0
  9
$DIMDSEP
 70
    46
  9
$DIMATFIT
 70
     3
  9
$DIMFRAC
 70
     0
  9
$DIMLDRBLK
  1

  9
$DIMLUNIT
 70
     2
  9
$DIMLWD
 70
    -2
  9
$DIMLWE
 70
    -2
  9
$DIMTMOVE
 70
     0
  9
$LUNITS
 70
     2
  9
$LUPREC
 70
     3
  9
$SKETCHINC
 40
0.1
  9
$FILLETRAD
 40
0.5
  9
$AUNITS
 70
     0
  9
$AUPREC
 70
     1
  9
$MENU
  1
.
  9
$ELEVATION
 40
0.0
  9
$PELEVATION
 40
0.0
  9
$THICKNESS
 40
0.0
  9
$LIMCHECK
 70
     0
  9
$CHAMFERA
 40
0.5
  9
$CHAMFERB
 40
0.5
  9
$CHAMFERC
 40
1.0
  9
$CHAMFERD
 40
0.0
  9
$SKPOLY
 70
     0
  9
$TDCREATE
 40
2457240.40723
  9
$TDUCREATE
 40
2457240.573896667
  9
$TDUPDATE
 40
2457240.471148206
  9
$TDUUPDATE
 40
2457240.637814873
  9
$TDINDWG
 40
0.0395750694
  9
$TDUSRTIMER
 40
2457240.636952303
  9
$USRTIMER
 70
     1
  9
$ANGBASE
 50
0.0
  9
$ANGDIR
 70
     0
  9
$PDMODE
 70
     0
  9
$PDSIZE
 40
-1.0
  9
$PLINEWID
 40
0.0
  9
$SPLFRAME
 70
     0
  9
$SPLINETYPE
 70
     6
  9
$SPLINESEGS
 70
     8
  9
$HANDSEED
  5
67B
  9
$SURFTAB1
 70
     6
  9
$SURFTAB2
 70
     6
  9
$SURFTYPE
 70
     6
  9
$SURFU
 70
     6
  9
$SURFV
 70
     6
  9
$UCSBASE
  2

  9
$UCSNAME
  2

  9
$UCSORG
 10
0.0
 20
0.0
 30
0.0
  9
$UCSXDIR
 10
1.0
 20
0.0
 30
0.0
  9
$UCSYDIR
 10
0.0
 20
1.0
 30
0.0
  9
$UCSORTHOREF
  2

  9
$UCSORTHOVIEW
 70
     0
  9
$UCSORGTOP
 10
0.0
 20
0.0
 30
0.0
  9
$UCSORGBOTTOM
 10
0.0
 20
0.0
 30
0.0
  9
$UCSORGLEFT
 10
0.0
 20
0.0
 30
0.0
  9
$UCSORGRIGHT
 10
0.0
 20
0.0
 30
0.0
  9
$UCSORGFRONT
 10
0.0
 20
0.0
 30
0.0
  9
$UCSORGBACK
 10
0.0
 20
0.0
 30
0.0
  9
$PUCSBASE
  2

  9
$PUCSNAME
  2

  9
$PUCSORG
 10
0.0
 20
0.0
 30
0.0
  9
$PUCSXDIR
 10
1.0
 20
0.0
 30
0.0
  9
$PUCSYDIR
 10
0.0
 20
1.0
 30
0.0
  9
$PUCSORTHOREF
  2

  9
$PUCSORTHOVIEW
 70
     0
  9
$PUCSORGTOP
 10
0.0
 20
0.0
 30
0.0
  9
$PUCSORGBOTTOM
 10
0.0
 20
0.0
 30
0.0
  9
$PUCSORGLEFT
 10
0.0
 20
0.0
 30
0.0
  9
$PUCSORGRIGHT
 10
0.0
 20
0.0
 30
0.0
  9
$PUCSORGFRONT
 10
0.0
 20
0.0
 30
0.0
  9
$PUCSORGBACK
 10
0.0
 20
0.0
 30
0.0
  9
$USERI1
 70
     0
  9
$USERI2
 70
     0
  9
$USERI3
 70
     0
  9
$USERI4
 70
     0
  9
$USERI5
 70
     0
  9
$USERR1
 40
0.0
  9
$USERR2
 40
0.0
  9
$USERR3
 40
0.0
  9
$USERR4
 40
0.0
  9
$USERR5
 40
0.0
  9
$WORLDVIEW
 70
     1
  9
$SHADEDGE
 70
     3
  9
$SHADEDIF
 70
    70
  9
$TILEMODE
 70
     1
  9
$MAXACTVP
 70
    64
  9
$PINSBASE
 10
0.0
 20
0.0
 30
0.0
  9
$PLIMCHECK
 70
     0
  9
$PEXTMIN
 10
1.000000000000000E+20
 20
1.000000000000000E+20
 30
1.000000000000000E+20
  9
$PEXTMAX
 10
-1.000000000000000E+20
 20
-1.000000000000000E+20
 30
-1.000000000000000E+20
  9
$PLIMMIN
 10
0.0
 20
0.0
  9
$PLIMMAX
 10
0.0
 20
0.0
  9
$UNITMODE
 70
     0
  9
$VISRETAIN
 70
     1
  9
$PLINEGEN
 70
     0
  9
$PSLTSCALE
 70
     1
  9
$TREEDEPTH
 70
  3020
  9
$CMLSTYLE
  2
Standard
  9
$CMLJUST
 70
     0
  9
$CMLSCALE
 40
1.0
  9
$PROXYGRAPHICS
 70
     1
  9
$MEASUREMENT
 70
     0
  9
$CELWEIGHT
370
    -1
  9
$ENDCAPS
280
     0
  9
$JOINSTYLE
280
     0
  9
$LWDISPLAY
290
     1
  9
$INSUNITS
 70
     1
  9
$HYPERLINKBASE
  1

  9
$STYLESHEET
  1

  9
$XEDIT
290
     1
  9
$CEPSNTYPE
380
     0
  9
$PSTYLEMODE
290
     1
  9
$FINGERPRINTGUID
  2
{B0C5DB3E-81FB-4F9C-A533-47213296FBD5}
  9
$VERSIONGUID
  2
{FAEB1C32-E019-11D5-929B-00C0DF256EC4}
  9
$EXTNAMES
290
     1
  9
$PSVPSCALE
 40
0.0
  9
$OLESTARTUP
290
     0
  0
ENDSEC
  0
SECTION
  2
CLASSES
  0
CLASS
  1
ACDBDICTIONARYWDFLT
  2
AcDbDictionaryWithDefault
  3
ObjectDBX Classes
 90
        0
280
     0
281
     0
  0
CLASS
  1
VISUALSTYLE
  2
AcDbVisualStyle
  3
ObjectDBX Classes
 90
     4095
280
     0
281
     0
  0
CLASS
  1
MATERIAL
  2
AcDbMaterial
  3
ObjectDBX Classes
 90
     1153
280
     0
281
     0
  0
CLASS
  1
ACDBPLACEHOLDER
  2
AcDbPlaceHolder
  3
ObjectDBX Classes
 90
        0
280
     0
281
     0
  0
CLASS
  1
LAYOUT
  2
AcDbLayout
  3
ObjectDBX Classes
 90
        0
280
     0
281
     0
  0
CLASS
  1
SCALE
  2
AcDbScale
  3
ObjectDBX Classes
 90
     1153
280
     0
281
     0
  0
CLASS
  1
TABLESTYLE
  2
AcDbTableStyle
  3
ObjectDBX Classes
 90
     4095
280
     0
281
     0
  0
CLASS
  1
SUN
  2
AcDbSun
  3
SCENEOE
 90
     1153
280
     0
281
     0
  0
CLASS
  1
RASTERVARIABLES
  2
AcDbRasterVariables
  3
ISM
 90
        0
280
     0
281
     0
  0
CLASS
  1
DICTIONARYVAR
  2
AcDbDictionaryVar
  3
ObjectDBX Classes
 90
        0
280
     0
281
     0
  0
ENDSEC
  0
SECTION
  2
TABLES
  0
TABLE
  2
VPORT
  5
8
330
0
100
AcDbSymbolTable
 70
     1
  0
VPORT
  5
29
330
8
100
AcDbSymbolTableRecord
100
AcDbViewportTableRecord
  2
*Active
 70
     0
 10
0.0
 20
0.0
 11
1.0
 21
1.0
 12
22.71463421737829
 22
29.06493218458503
 13
0.0
 23
0.0
 14
0.5
 24
0.5
 15
0.5
 25
0.5
 16
0.0
 26
0.0
 36
1.0
 17
0.0
 27
0.0
 37
0.0
 40
98.95302355289327
 41
1.992647058823529
 42
50.0
 43
0.0
 44
0.0
 50
0.0
 51
0.0
 71
    16
 72
  2000
 73
     1
 74
     3
 75
     0
 76
     1
 77
     0
 78
     0
281
     0
 65
     1
110
0.0
120
0.0
130
0.0
111
1.0
121
0.0
131
0.0
112
0.0
122
1.0
132
0.0
 79
     0
146
0.0
  0
ENDTAB
  0
TABLE
  2
LTYPE
  5
5
330
0
100
AcDbSymbolTable
 70
     6
  0
LTYPE
  5
14
330
5
100
AcDbSymbolTableRecord
100
AcDbLinetypeTableRecord
  2
ByBlock
 70
     0
  3

 72
    65
 73
     0
 40
0.0
  0
LTYPE
  5
15
330
5
100
AcDbSymbolTableRecord
100
AcDbLinetypeTableRecord
  2
ByLayer
 70
     0
  3

 72
    65
 73
     0
 40
0.0
  0
LTYPE
  5
16
330
5
100
AcDbSymbolTableRecord
100
AcDbLinetypeTableRecord
  2
Continuous
 70
     0
  3
Solid line
 72
    65
 73
     0
 40
0.0
  0
ENDTAB
  0
TABLE
  2
LAYER
  5
2
330
0
100
AcDbSymbolTable
 70
    13
  0
LAYER
  5
10
330
2
100
AcDbSymbolTableRecord
100
AcDbLayerTableRecord
  2
0
 70
     0
 62
     7
  6
Continuous
370
    -3
390
F
  0
ENDTAB
  0
TABLE
  2
STYLE
  5
3
330
0
100
AcDbSymbolTable
 70
     3
  0
STYLE
  5
11
330
3
100
AcDbSymbolTableRecord
100
AcDbTextStyleTableRecord
  2
Standard
 70
     0
 40
0.0
 41
1.0
 50
0.0
 71
     0
 42
0.125
  3
txt
  4

  0
ENDTAB
  0
TABLE
  2
VIEW
  5
6
330
0
100
AcDbSymbolTable
 70
     0
  0
ENDTAB
  0
TABLE
  2
UCS
  5
7
330
0
100
AcDbSymbolTable
 70
     0
  0
ENDTAB
  0
TABLE
  2
APPID
  5
9
330
0
100
AcDbSymbolTable
 70
     1
  0
APPID
  5
12
330
9
100
AcDbSymbolTableRecord
100
AcDbRegAppTableRecord
  2
ACAD
 70
     0
  0
ENDTAB
  0
TABLE
  2
DIMSTYLE
  5
A
330
0
100
AcDbSymbolTable
 70
     1
100
AcDbDimStyleTable
  0
DIMSTYLE
105
27
330
A
100
AcDbSymbolTableRecord
100
AcDbDimStyleTableRecord
  2
Standard
 70
     0
178
     0
340
11
  0
ENDTAB
  0
TABLE
  2
BLOCK_RECORD
  5
1
330
0
100
AcDbSymbolTable
 70
     5
  0
BLOCK_RECORD
  5
1F
330
1
100
AcDbSymbolTableRecord
100
AcDbBlockTableRecord
  2
*Model_Space
340
22
  0
BLOCK_RECORD
  5
1B
330
1
100
AcDbSymbolTableRecord
100
AcDbBlockTableRecord
  2
*Paper_Space
340
1E
  0
BLOCK_RECORD
  5
23
330
1
100
AcDbSymbolTableRecord
100
AcDbBlockTableRecord
  2
*Paper_Space0
340
26
  0
ENDTAB
  0
ENDSEC
  0
SECTION
  2
BLOCKS
  0
BLOCK
  5
20
330
1F
100
AcDbEntity
  8
0
100
AcDbBlockBegin
  2
*Model_Space
 70
     0
 10
0.0
 20
0.0
 30
0.0
  3
*Model_Space
  1
*Model_Space
  0
ENDBLK
  5
21
330
1F
100
AcDbEntity
  8
0
100
AcDbBlockEnd
  0
BLOCK
  5
1C
330
1B
100
AcDbEntity
 67
     1
  8
0
100
AcDbBlockBegin
  2
*Paper_Space
 70
     0
 10
0.0
 20
0.0
 30
0.0
  3
*Paper_Space
  1
*Paper_Space
  0
ENDBLK
  5
1D
330
1B
100
AcDbEntity
 67
     1
  8
0
100
AcDbBlockEnd
  0
BLOCK
  5
24
330
23
100
AcDbEntity
  8
0
100
AcDbBlockBegin
  2
*Paper_Space0
 70
     0
 10
0.0
 20
0.0
 30
0.0
  3
*Paper_Space0
  1
*Paper_Space0
  0
ENDBLK
  5
25
330
23
100
AcDbEntity
  8
0
100
AcDbBlockEnd
  0
ENDSEC
  0
SECTION
  2
ENTITIES
  0
ARC
  5
2F3
330
1F
100
AcDbEntity
  8
0
  6
Continuous
 62
     7
370
    15
100
AcDbCircle
 10
7.681613990578334
 20
29.50324528228392
 30
0.0
 40
6.889763779527563
100
AcDbArc
 50
295.0576154183041
 51
0.0000000000002364
  0
ARC
  5
2F4
330
1F
100
AcDbEntity
  8
0
  6
Continuous
 62
     7
370
    15
100
AcDbCircle
 10
7.681613990578334
 20
29.50324528228392
 30
0.0
 40
6.889763779527565
100
AcDbArc
 50
100.876093920448
 51
244.942384581698
  0
ARC
  5
2F5
330
1F
100
AcDbEntity
  8
0
  6
Continuous
 62
     7
370
    15
100
AcDbCircle
 10
7.681613990578334
 20
29.50324528228392
 30
0.0
 40
6.889763779527563
100
AcDbArc
 50
0.0000000000002364
 51
79.12390607955345
  0
ARC
  5
2F6
330
1F
100
AcDbEntity
  8
0
  6
Continuous
 62
     7
370
    15
100
AcDbCircle
 10
4.846968321287015
 20
23.44025315629965
 30
0.0
 40
0.1968503937007862
100
AcDbArc
 50
244.9423845816983
 51
270.000000000002
  0
ARC
  5
2F7
330
1F
100
AcDbEntity
  8
0
  6
Continuous
 62
     7
370
    15
100
AcDbCircle
 10
10.5162596598697
 20
23.44025315629968
 30
0.0
 40
0.1968503937007871
100
AcDbArc
 50
270.0
 51
295.0576154183035
  0
LINE
  5
33E
330
1F
100
AcDbEntity
  8
0
  6
Continuous
 62
     7
370
    15
100
AcDbLine
 10
5.03161407027013
 20
23.20160239962878
 30
0.0
 11
5.421668977655891
 21
23.18798250363365
 31
0.0
  0
LINE
  5
33F
330
1F
100
AcDbEntity
  8
0
  6
Continuous
 62
     7
370
    15
100
AcDbLine
 10
9.941559003500615
 20
23.18798250363365
 30
0.0
 11
10.33161391088638
 21
23.20160239962878
 31
0.0
  0
LINE
  5
340
330
1F
100
AcDbEntity
  8
0
  6
Continuous
 62
     7
370
    15
100
AcDbLine
 10
10.33161391088638
 20
23.20160239962878
 30
0.0
 11
10.33161391088638
 21
23.24340309007697
 31
0.0
  0
LINE
  5
341
330
1F
100
AcDbEntity
  8
0
  6
Continuous
 62
     7
370
    15
100
AcDbLine
 10
5.03161407027013
 20
23.24340309007697
 30
0.0
 11
5.03161407027013
 21
23.20160239962878
 31
0.0
  0
ARC
  5
342
330
1F
100
AcDbEntity
  8
0
  6
Continuous
 62
     7
370
    15
100
AcDbCircle
 10
5.423413990578354
 20
23.23795128232694
 30
0.0
 40
0.0499999999999998
100
AcDbArc
 50
268.0000000000061
 51
270.0
  0
ARC
  5
343
330
1F
100
AcDbEntity
  8
0
  6
Continuous
 62
     7
370
    15
100
AcDbCircle
 10
9.939813990578358
 20
23.23795128232697
 30
0.0
 40
0.0499999999999998
100
AcDbArc
 50
270.0
 51
272.0000000000101
  0
LINE
  5
344
330
1F
100
AcDbEntity
  8
0
  6
Continuous
 62
     7
370
    15
100
AcDbLine
 10
5.423413997497271
 20
23.1879519973194
 30
0.0
 11
9.939813983659235
 21
23.1879519973194
 31
0.0
  0
LINE
  5
345
330
1F
100
AcDbEntity
  8
0
  6
Continuous
 62
     7
370
    15
100
AcDbLine
 10
4.846968443312171
 20
23.24340309007697
 30
0.0
 11
10.51625953784433
 21
23.24340309007697
 31
0.0
  0
LINE
  5
393
330
1F
100
AcDbEntity
  8
0
  6
Continuous
 62
     7
370
    15
100
AcDbLine
 10
10.33161391088638
 20
23.20160239962878
 30
0.0
 11
5.03161407027013
 21
23.20160239962878
 31
0.0
  0
LINE
  5
394
330
1F
100
AcDbEntity
  8
0
  6
Continuous
 62
     8
370
     0
100
AcDbLine
 10
4.763596446432594
 20
23.26192980938806
 30
0.0
 11
10.59963153472391
 21
23.26192980938806
 31
0.0
  0
LINE
  5
3BD
330
1F
100
AcDbEntity
  8
0
  6
Continuous
 62
     8
370
     0
100
AcDbLine
 10
5.421668977655891
 20
23.18798250363365
 30
0.0
 11
9.941559003500615
 21
23.18798250363365
 31
0.0
  0
CIRCLE
  5
3BE
330
1F
100
AcDbEntity
  8
0
  6
Continuous
 62
     7
370
    15
100
AcDbCircle
 10
7.681613990578334
 20
7.728402962655942
 30
0.0
 40
6.889763779527558
  0
CIRCLE
  5
49D
330
1F
100
AcDbEntity
  8
0
  6
Continuous
 62
     7
370
    15
100
AcDbCircle
 10
7.591731572523898
 20
7.671711821562091
 30
0.0
 40
0.7717500000000022
  0
CIRCLE
  5
49E
330
1F
100
AcDbEntity
  8
0
  6
Continuous
 62
     7
370
    15
100
AcDbCircle
 10
7.591731572523898
 20
7.671711821562091
 30
0.0
 40
0.5677500000000002
  0
CIRCLE
  5
49F
330
1F
100
AcDbEntity
  8
0
  6
Continuous
 62
     7
370
    15
100
AcDbCircle
 10
7.591731572523898
 20
7.671711821562091
 30
0.0
 40
0.5
  0
CIRCLE
  5
4A0
330
1F
100
AcDbEntity
  8
0
  6
Continuous
 62
     7
370
    15
100
AcDbCircle
 10
7.591731572523905
 20
7.671711821562106
 30
0.0
 40
1.374999999999997
  0
CIRCLE
  5
4A1
330
1F
100
AcDbEntity
  8
0
  6
Continuous
 62
     7
370
    15
100
AcDbCircle
 10
7.591731572523905
 20
7.671711821562106
 30
0.0
 40
2.649999999999999
  0
CIRCLE
  5
4A2
330
1F
100
AcDbEntity
  8
0
  6
Continuous
 62
     8
370
     0
100
AcDbCircle
 10
7.591731572523905
 20
7.671711821562106
 30
0.0
 40
2.259944974835126
  0
ELLIPSE
  5
4A9
330
1F
100
AcDbEntity
  8
0
  6
Continuous
 62
     7
370
    15
100
AcDbEllipse
 10
7.692508511909296
 20
51.59167427598525
 30
0.0
 11
2.456
 21
0.0
 31
5.453415496958752E-16
210
-2.220446049250306E-16
220
-1.174964061051032E-16
230
1.0
 40
0.2157980456026056
 41
4.793912477091305
 42
6.283185307179586
  0
ELLIPSE
  5
4AA
330
1F
100
AcDbEntity
  8
0
  6
Continuous
 62
     7
370
    15
100
AcDbEllipse
 10
7.692508511909296
 20
51.59167427598525
 30
0.0
 11
-2.456
 21
0.0
 31
6.816769371198438E-16
210
2.775557561562881E-16
220
-1.174964061051028E-16
230
1.0
 40
0.2157980456026056
 41
0.0
 42
1.489272830088285
  0
LINE
  5
4AB
330
1F
100
AcDbEntity
  8
0
  6
Continuous
 62
     7
370
    15
100
AcDbLine
 10
10.1485085119093
 20
51.59167427598525
 30
0.0
 11
10.1485085119093
 21
51.86167427598525
 31
0.0
  0
LINE
  5
4AC
330
1F
100
AcDbEntity
  8
0
  6
Continuous
 62
     7
370
    15
100
AcDbLine
 10
5.2365085119093
 20
51.86167427598525
 30
0.0
 11
5.2365085119093
 21
51.59167427598525
 31
0.0
  0
LINE
  5
4AD
330
1F
100
AcDbEntity
  8
0
  6
Continuous
 62
     7
370
    15
100
AcDbLine
 10
8.694356972215886
 20
51.09954424937181
 30
0.0
 11
8.693717700185914
 21
51.10771300218472
 31
0.0
  0
LINE
  5
4AE
330
1F
100
AcDbEntity
  8
0
  6
Continuous
 62
     7
370
    15
100
AcDbLine
 10
8.319798363697629
 20
51.0792530379979
 30
0.0
 11
8.320500039826982
 21
51.07028687244284
 31
0.0
  0
LINE
  5
4AF
330
1F
100
AcDbEntity
  8
0
  6
Continuous
 62
     7
370
    15
100
AcDbLine
 10
7.892508511909298
 20
51.06167427598524
 30
0.0
 11
7.892508511909298
 21
51.06343451210849
 31
0.0
  0
LINE
  5
4B0
330
1F
100
AcDbEntity
  8
0
  6
Continuous
 62
     7
370
    15
100
AcDbLine
 10
7.4925085119093
 20
51.06343451210849
 30
0.0
 11
7.4925085119093
 21
51.06167427598524
 31
0.0
  0
LINE
  5
4B1
330
1F
100
AcDbEntity
  8
0
  6
Continuous
 62
     7
370
    15
100
AcDbLine
 10
7.385008511909305
 20
50.67167427598524
 30
0.0
 11
7.395008511909303
 21
50.66167427598524
 31
0.0
  0
LINE
  5
4B2
330
1F
100
AcDbEntity
  8
0
  6
Continuous
 62
     7
370
    15
100
AcDbLine
 10
7.990008511909302
 20
50.66167427598524
 30
0.0
 11
8.0000085119093
 21
50.67167427598524
 31
0.0
  0
LINE
  5
4B3
330
1F
100
AcDbEntity
  8
0
  6
Continuous
 62
     7
370
    15
100
AcDbLine
 10
8.0000085119093
 20
50.67167427598524
 30
0.0
 11
8.0000085119093
 21
51.06167427598524
 31
0.0
  0
LINE
  5
4B4
330
1F
100
AcDbEntity
  8
0
  6
Continuous
 62
     7
370
    15
100
AcDbLine
 10
7.385008511909305
 20
51.06167427598524
 30
0.0
 11
7.385008511909305
 21
50.67167427598524
 31
0.0
  0
LINE
  5
4B5
330
1F
100
AcDbEntity
  8
0
  6
Continuous
 62
     7
370
    15
100
AcDbLine
 10
7.71600851190933
 20
39.53271649346878
 30
0.0
 11
7.71600851190933
 21
50.66167427598524
 31
0.0
  0
LINE
  5
4B6
330
1F
100
AcDbEntity
  8
0
  6
Continuous
 62
     7
370
    15
100
AcDbLine
 10
7.669008511909333
 20
50.66167427598524
 30
0.0
 11
7.669008511909333
 21
39.53271649346878
 31
0.0
  0
LINE
  5
4B7
330
1F
100
AcDbEntity
  8
0
  6
Continuous
 62
     7
370
    15
100
AcDbLine
 10
7.530241162640337
 20
51.0634345121085
 30
0.0
 11
7.892508511909384
 21
51.0634345121085
 31
0.0
  0
LINE
  5
4B8
330
1F
100
AcDbEntity
  8
0
  6
Continuous
 62
     7
370
    15
100
AcDbLine
 10
7.492508511909215
 20
51.0634345121085
 30
0.0
 11
7.530241162640337
 21
51.0634345121085
 31
0.0
  0
LINE
  5
4B9
330
1F
100
AcDbEntity
  8
0
  6
Continuous
 62
     7
370
    15
100
AcDbLine
 10
5.2365085119093
 20
51.86167427598525
 30
0.0
 11
10.1485085119093
 21
51.86167427598525
 31
0.0
  0
ARC
  5
4BA
330
1F
100
AcDbEntity
  8
0
  6
Continuous
 62
     7
370
    15
100
AcDbCircle
 10
8.405014059691432
 20
52.39358895395289
 30
0.0
 40
1.325998121598392
100
AcDbArc
 50
266.3457104113314
 51
282.6037804859524
  0
LINE
  5
4BD
330
1F
100
AcDbEntity
  8
0
  6
Continuous
 62
     7
370
    15
100
AcDbLine
 10
7.872266574605725
 20
50.67167427598524
 30
0.0
 11
8.0000085119093
 21
50.67167427598524
 31
0.0
  0
LINE
  5
4BE
330
1F
100
AcDbEntity
  8
0
  6
Continuous
 62
     7
370
    15
100
AcDbLine
 10
7.385008511909305
 20
50.67167427598524
 30
0.0
 11
7.872266574605725
 21
50.67167427598524
 31
0.0
  0
LINE
  5
4BF
330
1F
100
AcDbEntity
  8
0
  6
Continuous
 62
     7
370
    15
100
AcDbLine
 10
7.866420783948932
 20
50.66167427598524
 30
0.0
 11
7.395008511909303
 21
50.66167427598524
 31
0.0
  0
LINE
  5
4C0
330
1F
100
AcDbEntity
  8
0
  6
Continuous
 62
     7
370
    15
100
AcDbLine
 10
7.990008511909302
 20
50.66167427598524
 30
0.0
 11
7.866420783948932
 21
50.66167427598524
 31
0.0
  0
LINE
  5
4C1
330
1F
100
AcDbEntity
  8
0
  6
Continuous
 62
     7
370
    15
100
AcDbLine
 10
7.872266574605725
 20
51.06167427598524
 30
0.0
 11
8.0000085119093
 21
51.06167427598524
 31
0.0
  0
LINE
  5
4C2
330
1F
100
AcDbEntity
  8
0
  6
Continuous
 62
     7
370
    15
100
AcDbLine
 10
7.385008511909305
 20
51.06167427598524
 30
0.0
 11
7.872266574605725
 21
51.06167427598524
 31
0.0
  0
LINE
  5
4C3
330
1F
100
AcDbEntity
  8
0
  6
Continuous
 62
     7
370
    15
100
AcDbLine
 10
7.948261853144047
 20
39.53271649346877
 30
0.0
 11
8.130008511909296
 21
39.53271649346877
 31
0.0
  0
LINE
  5
4C4
330
1F
100
AcDbEntity
  8
0
  6
Continuous
 62
     7
370
    15
100
AcDbLine
 10
7.255008511909296
 20
39.53271649346877
 30
0.0
 11
7.948261853144047
 21
39.53271649346877
 31
0.0
  0
LINE
  5
4C5
330
1F
100
AcDbEntity
  8
0
  6
Continuous
 62
     8
370
     0
100
AcDbLine
 10
5.236508511909292
 20
51.59167427598525
 30
0.0
 11
10.14850851190931
 21
51.59167427598525
 31
0.0
  0
LWPOLYLINE
  5
4C6
330
1F
100
AcDbEntity
  8
0
  6
Continuous
 62
     8
370
     0
100
AcDbPolyline
 90
        3
 70
   128
 43
0.0
 10
8.325727458212668
 20
51.86167427598525
 10
8.325697327991506
 20
51.86179417825108
 10
8.32545161215279
 20
51.86333293233011
  0
LWPOLYLINE
  5
4C7
330
1F
100
AcDbEntity
  8
0
  6
Continuous
 62
     8
370
     0
100
AcDbPolyline
 90
        3
 70
   128
 43
0.0
 10
8.166137373282183
 20
51.86167427598525
 10
8.16610724306102
 20
51.86179417825108
 10
8.165861527222305
 20
51.86333293233011
  0
LINE
  5
4C8
330
1F
100
AcDbEntity
  8
0
  6
Continuous
 62
     8
370
     0
100
AcDbLine
 10
8.38047603675431
 20
51.06726408553252
 30
0.0
 11
8.378525839675298
 21
51.06581458051388
 31
0.0
  0
LINE
  5
4C9
330
1F
100
AcDbEntity
  8
0
  6
Continuous
 62
     8
370
     0
100
AcDbLine
 10
8.637733312798261
 20
51.08609969518463
 30
0.0
 11
8.63558136731347
 21
51.08722817384051
 31
0.0
  0
SPLINE
  5
4CA
330
1F
100
AcDbEntity
  8
0
  6
Continuous
 62
     7
370
    15
100
AcDbSpline
210
0.0
220
0.0
230
1.0
 70
     8
 71
     3
 72
    31
 73
    27
 74
     0
 42
0.000000001
 43
0.00000001
 40
0.0
 40
0.0
 40
0.0
 40
0.0
 40
0.0104205015854956
 40
0.0274483349504552
 40
0.0424355580655086
 40
0.0556492243519779
 40
0.0673023311972214
 40
0.0816165645566899
 40
0.0935162412957164
 40
0.1048922617450745
 40
0.1164198184132226
 40
0.1281438332864983
 40
0.1401282970300457
 40
0.1690750526613211
 40
0.1986826005822773
 40
0.2356296580377935
 40
0.2734267626188511
 40
0.3113837581293598
 40
0.3518011858413722
 40
0.3915039143865205
 40
0.4308486636769863
 40
0.4699901374777737
 40
0.5091390537744056
 40
0.5499394935825042
 40
0.5909538398197314
 40
0.6009337124326819
 40
0.6009337124326819
 40
0.6009337124326819
 40
0.6009337124326819
 10
8.462948739836541
 20
48.17670564658523
 30
0.0
 10
8.468704992036336
 20
48.13430966963476
 30
0.0
 10
8.483867365665176
 20
48.02263568097493
 30
0.0
 10
8.511688357767696
 20
47.85095161187743
 30
0.0
 10
8.543540174076178
 20
47.66855945122307
 30
0.0
 10
8.57367897688647
 20
47.50840759962929
 30
0.0
 10
8.604582962452369
 20
47.35133807362214
 30
0.0
 10
8.635367449778713
 20
47.19981572602526
 30
0.0
 10
8.666184201720029
 20
47.04948465500204
 30
0.0
 10
8.694364437414038
 20
46.91019435946124
 30
0.0
 10
8.721439613536333
 20
46.77132189447508
 30
0.0
 10
8.747276298885232
 20
46.62951232217576
 30
0.0
 10
8.782058717959615
 20
46.41662059939691
 30
0.0
 10
8.817198860580675
 20
46.12848172047624
 30
0.0
 10
8.830183120238445
 20
45.73410801522574
 30
0.0
 10
8.808581064479732
 20
45.3040134951241
 30
0.0
 10
8.766747455850378
 20
44.84200563984656
 30
0.0
 10
8.71737956064041
 20
44.36671000397297
 30
0.0
 10
8.672301109546474
 20
43.88276890082628
 30
0.0
 10
8.644739469578347
 20
43.39094854682739
 30
0.0
 10
8.639903324082894
 20
42.90316047045163
 30
0.0
 10
8.662294684265419
 20
42.41829850466455
 30
0.0
 10
8.716548281609
 20
41.93095358623643
 30
0.0
 10
8.809048210193325
 20
41.44454950024821
 30
0.0
 10
8.897526429961445
 20
41.08181358809716
 30
0.0
 10
8.9489666874845
 20
40.88124339955439
 30
0.0
 10
8.959088139967491
 20
40.84201288940726
 30
0.0
  0
SPLINE
  5
4CB
330
1F
100
AcDbEntity
  8
0
  6
Continuous
 62
     7
370
    15
100
AcDbSpline
210
0.0
220
0.0
230
1.0
 70
     8
 71
     3
 72
    31
 73
    27
 74
     0
 42
0.000000001
 43
0.00000001
 40
0.3988386190519194
 40
0.3988386190519194
 40
0.3988386190519194
 40
0.3988386190519194
 40
0.4315211032427148
 40
0.476241025873427
 40
0.5183105449903052
 40
0.5604200382472205
 40
0.6026880272470717
 40
0.6454100245285926
 40
0.6887809403464024
 40
0.7326204033488299
 40
0.7588373712970581
 40
0.7847787150748659
 40
0.8102258781825541
 40
0.834713963201141
 40
0.8568183309676594
 40
0.867037766931655
 40
0.8767879521453523
 40
0.8872204750796602
 40
0.90006521313979
 40
0.9155811215457483
 40
0.928234590959282
 40
0.9425759489077988
 40
0.9588591901400381
 40
0.9774228353424291
 40
0.9938890037986988
 40
1.0
 40
1.0
 40
1.0
 40
1.0
 10
9.106144068998972
 20
40.81656090169022
 30
0.0
 10
9.072634818073652
 20
40.94559157975482
 30
0.0
 10
8.994272613435669
 20
41.25154328527912
 30
0.0
 10
8.887245161817816
 20
41.72931675604175
 30
0.0
 10
8.811776588040836
 20
42.25638798088575
 30
0.0
 10
8.778137580967993
 20
42.77960765301043
 30
0.0
 10
8.777500556637925
 20
43.30693266852843
 30
0.0
 10
8.8046673852039
 20
43.83833117003641
 30
0.0
 10
8.854714172812471
 20
44.3735278691897
 30
0.0
 10
8.90366523029219
 20
44.8398547577156
 30
0.0
 10
8.938339420195867
 20
45.23557666264257
 30
0.0
 10
8.957748859492199
 20
45.55648784415729
 30
0.0
 10
8.963214974740595
 20
45.87123528117032
 30
0.0
 10
8.947792357118772
 20
46.16967432406577
 30
0.0
 10
8.92058508570939
 20
46.40299529824929
 30
0.0
 10
8.894508212259538
 20
46.57445567433492
 30
0.0
 10
8.87347684093146
 20
46.69781872192652
 30
0.0
 10
8.848741414995239
 20
46.8313171011478
 30
0.0
 10
8.817883189603606
 20
46.98758436582226
 30
0.0
 10
8.784074682207809
 20
47.15242646870452
 30
0.0
 10
8.749038875063306
 20
47.32328168062543
 30
0.0
 10
8.7141964758668
 20
47.49747345132818
 30
0.0
 10
8.676484671067556
 20
47.69602257201591
 30
0.0
 10
8.640617844290112
 20
47.90409637406344
 30
0.0
 10
8.614013022560158
 20
48.07149235991037
 30
0.0
 10
8.601728392916812
 20
48.16385380218784
 30
0.0
 10
8.598403293143498
 20
48.18885341712909
 30
0.0
  0
SPLINE
  5
4CC
330
1F
100
AcDbEntity
  8
0
  6
Continuous
 62
     7
370
    15
100
AcDbSpline
210
0.0
220
0.0
230
1.0
 70
     8
 71
     3
 72
    31
 73
    27
 74
     0
 42
0.000000001
 43
0.00000001
 40
0.0
 40
0.0
 40
0.0
 40
0.0
 40
0.0106620013449624
 40
0.0277283361493491
 40
0.0427480233668295
 40
0.0559889709694992
 40
0.0676648097319804
 40
0.0820045806106235
 40
0.0939247536764241
 40
0.105323272524436
 40
0.1168706835993521
 40
0.1286121676582667
 40
0.1406118881120993
 40
0.1695888450172448
 40
0.1992240865626603
 40
0.2362092554649132
 40
0.274064065096685
 40
0.3120957960810123
 40
0.3526127328439604
 40
0.3924259198007032
 40
0.4318894644560188
 40
0.4711533595350811
 40
0.5104256610932247
 40
0.5513477586234331
 40
0.59247325696879
 40
0.6012025656882558
 40
0.6012025656882558
 40
0.6012025656882558
 40
0.6012025656882558
 10
8.386624290832529
 20
48.17907014129635
 30
0.0
 10
8.392501144134044
 20
48.13578099404295
 30
0.0
 10
8.40778489420802
 20
48.02320025166405
 30
0.0
 10
8.43574794977306
 20
47.85060784958772
 30
0.0
 10
8.467610885131833
 20
47.66819847661772
 30
0.0
 10
8.497753035483086
 20
47.50804715355343
 30
0.0
 10
8.528655604237358
 20
47.35100017606408
 30
0.0
 10
8.559433586306426
 20
47.19951621516936
 30
0.0
 10
8.590242649002903
 20
47.04922180887792
 30
0.0
 10
8.618414196184744
 20
46.90996832594381
 30
0.0
 10
8.645477792003803
 20
46.77114387136803
 30
0.0
 10
8.671296861866367
 20
46.62941722297512
 30
0.0
 10
8.706046543943415
 20
46.41671438979167
 30
0.0
 10
8.741158428504761
 20
46.12887963159937
 30
0.0
 10
8.754190686858955
 20
45.7349298138065
 30
0.0
 10
8.73267198601961
 20
45.30521149109597
 30
0.0
 10
8.690898783015086
 20
44.8434565978399
 30
0.0
 10
8.641536970871435
 20
44.36819710207482
 30
0.0
 10
8.596405543641424
 20
43.88409760161393
 30
0.0
 10
8.568771749323368
 20
43.39194797953311
 30
0.0
 10
8.563889634001086
 20
42.90372071834553
 30
0.0
 10
8.586282679428408
 20
42.41835956179385
 30
0.0
 10
8.640605188655513
 20
41.93052013125248
 30
0.0
 10
8.733235844202241
 20
41.44370104492258
 30
0.0
 10
8.82058072036778
 20
41.08573322012411
 30
0.0
 10
8.87072005075619
 20
40.89002878413113
 30
0.0
 10
8.879543494550958
 20
40.85578023188317
 30
0.0
  0
LINE
  5
4CD
330
1F
100
AcDbEntity
  8
0
  6
Continuous
 62
     7
370
    15
100
AcDbLine
 10
6.265008511909301
 20
36.47571649346877
 30
0.0
 11
6.265008511909301
 21
36.28303700154446
 31
0.0
  0
LINE
  5
4CE
330
1F
100
AcDbEntity
  8
0
  6
Continuous
 62
     7
370
    15
100
AcDbLine
 10
9.120008511909298
 20
36.28303700154446
 30
0.0
 11
9.120008511909298
 21
36.47571649346877
 31
0.0
  0
ARC
  5
4CF
330
1F
100
AcDbEntity
  8
0
  6
Continuous
 62
     7
370
    15
100
AcDbCircle
 10
7.673108743347065
 20
33.92789761063299
 30
0.0
 40
2.930000000000002
100
AcDbArc
 50
60.40786892884346
 51
73.80069101782382
  0
ARC
  5
4D0
330
1F
100
AcDbEntity
  8
0
  6
Continuous
 62
     7
370
    15
100
AcDbCircle
 10
7.711908280471526
 20
33.92789761063299
 30
0.0
 40
2.930000000000001
100
AcDbArc
 50
106.1993089821762
 51
119.5921310711564
  0
ARC
  5
4D1
330
1F
100
AcDbEntity
  8
0
  6
Continuous
 62
     7
370
    15
100
AcDbCircle
 10
9.1100085119093
 20
36.28303700154446
 30
0.0
 40
0.0099999999999989
100
AcDbArc
 50
270.0
 51
0.0
  0
ARC
  5
4D2
330
1F
100
AcDbEntity
  8
0
  6
Continuous
 62
     7
370
    15
100
AcDbCircle
 10
6.275008511909299
 20
36.28303700154446
 30
0.0
 40
0.0099999999999989
100
AcDbArc
 50
180.0
 51
270.0
  0
LINE
  5
4D3
330
1F
100
AcDbEntity
  8
0
  6
Continuous
 62
     7
370
    15
100
AcDbLine
 10
8.526995128166682
 20
36.47571649346877
 30
0.0
 11
9.120008511909298
 21
36.47571649346877
 31
0.0
  0
LINE
  5
4D4
330
1F
100
AcDbEntity
  8
0
  6
Continuous
 62
     7
370
    15
100
AcDbLine
 10
6.265008511909301
 20
36.47571649346877
 30
0.0
 11
8.526995128166682
 21
36.47571649346877
 31
0.0
  0
LINE
  5
4D5
330
1F
100
AcDbEntity
  8
0
  6
Continuous
 62
     7
370
    15
100
AcDbLine
 10
6.275008511909299
 20
36.27303700154446
 30
0.0
 11
9.1100085119093
 21
36.27303700154446
 31
0.0
  0
LINE
  5
4D6
330
1F
100
AcDbEntity
  8
0
  6
Continuous
 62
     7
370
    15
100
AcDbLine
 10
7.255008511909296
 20
39.53271649346877
 30
0.0
 11
7.255008511909296
 21
37.22171649346878
 31
0.0
  0
LINE
  5
4D7
330
1F
100
AcDbEntity
  8
0
  6
Continuous
 62
     7
370
    15
100
AcDbLine
 10
8.130008511909296
 20
37.22171649346878
 30
0.0
 11
8.130008511909296
 21
39.53271649346877
 31
0.0
  0
SPLINE
  5
4D8
330
1F
100
AcDbEntity
  8
0
100
AcDbSpline
210
0.0
220
0.0
230
1.0
 70
     8
 71
     3
 72
     9
 73
     5
 74
     3
 42
0.000000001
 43
0.0000000001
 44
0.0
 40
0.0
 40
0.0
 40
0.0
 40
0.0
 40
0.1521510487408562
 40
0.2947777446992204
 40
0.2947777446992204
 40
0.2947777446992204
 40
0.2947777446992204
 10
8.224122778289676
 20
37.82238416509646
 30
0.0
 10
8.210961538431212
 20
37.77334526851411
 30
0.0
 10
8.18546292613093
 20
37.67833721265966
 30
0.0
 10
8.148310339876538
 20
37.58726160698518
 30
0.0
 10
8.130334252064415
 20
37.54319514351111
 30
0.0
 11
8.224122778289676
 21
37.82238416509646
 31
0.0
 11
8.181534252064417
 21
37.6763151435111
 31
0.0
 11
8.130334252064415
 21
37.54319514351111
 31
0.0
  0
SPLINE
  5
4D9
330
1F
100
AcDbEntity
  8
0
100
AcDbSpline
210
0.0
220
0.0
230
1.0
 70
     8
 71
     3
 72
     9
 73
     5
 74
     3
 42
0.000000001
 43
0.0000000001
 44
0.0
 40
0.0
 40
0.0
 40
0.0
 40
0.0
 40
0.2718498724252249
 40
0.5038059019748827
 40
0.5038059019748827
 40
0.5038059019748827
 40
0.5038059019748827
 10
8.355835108700347
 20
37.68838118546125
 30
0.0
 10
8.328599981766205
 20
37.6012035909221
 30
0.0
 10
8.278126470162
 20
37.43964167346756
 30
0.0
 10
8.179264418256079
 20
37.30253391903265
 30
0.0
 10
8.13374758539775
 20
37.23940847684445
 30
0.0
 11
8.355835108700347
 21
37.68838118546125
 31
0.0
 11
8.260040918731079
 21
37.43396847684444
 31
0.0
 11
8.13374758539775
 21
37.23940847684445
 31
0.0
  0
SPLINE
  5
4DA
330
1F
100
AcDbEntity
  8
0
100
AcDbSpline
210
0.0
220
0.0
230
1.0
 70
     8
 71
     3
 72
    10
 73
     6
 74
     4
 42
0.000000001
 43
0.0000000001
 44
0.0
 40
0.0
 40
0.0
 40
0.0
 40
0.0
 40
0.9766779541311806
 40
2.115693493365887
 40
3.241413685052225
 40
3.241413685052225
 40
3.241413685052225
 40
3.241413685052225
 10
8.879876923472622
 20
40.85733695476562
 30
0.0
 10
8.949133285592906
 20
40.52651317349044
 30
0.0
 10
9.09915738933386
 20
39.80987805488861
 30
0.0
 10
8.466773779281132
 20
38.85393077240259
 30
0.0
 10
8.239071193834583
 20
38.13850826395289
 30
0.0
 10
8.125888276005966
 20
37.7828969878323
 30
0.0
 11
8.879876923472622
 21
40.85733695476562
 31
0.0
 11
8.96771263973929
 21
39.88461669023229
 31
0.0
 11
8.51834433069346
 21
38.83799138887396
 31
0.0
 11
8.125888276005966
 21
37.7828969878323
 31
0.0
  0
SPLINE
  5
4DB
330
1F
100
AcDbEntity
  8
0
100
AcDbSpline
210
0.0
220
0.0
230
1.0
 70
     8
 71
     3
 72
    10
 73
     6
 74
     4
 42
0.000000001
 43
0.0000000001
 44
0.0
 40
0.0
 40
0.0
 40
0.0
 40
0.0
 40
0.976677954131173
 40
2.115693493365877
 40
3.18863953807612
 40
3.18863953807612
 40
3.18863953807612
 40
3.18863953807612
 10
8.959876923472628
 20
40.84667028809895
 30
0.0
 10
9.029225964812037
 20
40.51582578137172
 30
0.0
 10
9.179450831578356
 20
39.79914576700477
 30
0.0
 10
8.555699429314927
 20
38.8591345263949
 30
0.0
 10
8.332573067719684
 20
38.16053792969923
 30
0.0
 10
8.22434218844861
 20
37.82167288759672
 30
0.0
 11
8.959876923472628
 21
40.84667028809895
 31
0.0
 11
9.047712639739288
 21
39.87395002356563
 31
0.0
 11
8.598344330693465
 21
38.82732472220729
 31
0.0
 11
8.22434218844861
 21
37.82167288759672
 31
0.0
  0
SPLINE
  5
4DC
330
1F
100
AcDbEntity
  8
0
100
AcDbSpline
210
0.0
220
0.0
230
1.0
 70
     8
 71
     3
 72
    10
 73
     6
 74
     4
 42
0.000000001
 43
0.0000000001
 44
0.0
 40
0.0
 40
0.0
 40
0.0
 40
0.0
 40
0.9766779541311806
 40
2.115693493365884
 40
3.28940382709857
 40
3.28940382709857
 40
3.28940382709857
 40
3.28940382709857
 10
9.103876923472626
 20
40.81467028809895
 30
0.0
 10
9.173434761907309
 20
40.48372686307029
 30
0.0
 10
9.324111927872176
 20
39.76683257049029
 30
0.0
 10
8.676782593126777
 20
38.79894789160497
 30
0.0
 10
8.463802966388982
 20
38.06141841683579
 30
0.0
 10
8.355715625948612
 20
37.68712158551339
 30
0.0
 11
9.103876923472626
 21
40.81467028809895
 31
0.0
 11
9.191712639739293
 21
39.84195002356562
 31
0.0
 11
8.742344330693456
 21
38.7953247222073
 31
0.0
 11
8.355715625948612
 21
37.68712158551339
 31
0.0
  0
ARC
  5
4DD
330
1F
100
AcDbEntity
  8
0
  6
Continuous
 62
     7
370
    15
100
AcDbCircle
 10
8.630008511909296
 20
37.22171649346878
 30
0.0
 40
0.5
100
AcDbArc
 50
180.0
 51
253.8006910178243
  0
ARC
  5
4DE
330
1F
100
AcDbEntity
  8
0
  6
Continuous
 62
     7
370
    15
100
AcDbCircle
 10
6.755008511909296
 20
37.22171649346878
 30
0.0
 40
0.5000000000000009
100
AcDbArc
 50
286.1993089821783
 51
0.0
  0
SPLINE
  5
56A
330
1F
100
AcDbEntity
  8
0
100
AcDbSpline
210
0.0
220
0.0
230
1.0
 70
     8
 71
     3
 72
    10
 73
     6
 74
     4
 42
0.000000001
 43
0.0000000001
 44
0.0
 40
0.0
 40
0.0
 40
0.0
 40
0.0
 40
0.5137504911977754
 40
2.354807304278607
 40
2.890653472120206
 40
2.890653472120206
 40
2.890653472120206
 40
2.890653472120206
 10
8.386624290832529
 20
48.17907014129635
 30
0.0
 10
8.372234308380326
 20
48.34979978669003
 30
0.0
 10
8.306276929521408
 20
49.13234972662799
 30
0.0
 10
8.368178063808262
 20
50.09765469357617
 30
0.0
 10
8.398237496992579
 20
50.88915577445189
 30
0.0
 10
8.405014059691432
 20
51.0675908323545
 30
0.0
 11
8.386624290832529
 21
48.17907014129635
 31
0.0
 11
8.348994042876043
 21
48.69144064361346
 31
0.0
 11
8.383625221009403
 21
50.53217171318676
 31
0.0
 11
8.405014059691432
 21
51.0675908323545
 31
0.0
  0
SPLINE
  5
590
330
1F
100
AcDbEntity
  8
0
100
AcDbSpline
210
0.0
220
0.0
230
1.0
 70
     8
 71
     3
 72
    10
 73
     6
 74
     4
 42
0.000000001
 43
0.0000000001
 44
0.0
 40
0.0
 40
0.0
 40
0.0
 40
0.0
 40
0.5137504911977754
 40
2.354807304278607
 40
2.890653472120206
 40
2.890653472120206
 40
2.890653472120206
 40
2.890653472120206
 10
8.463267960059078
 20
48.17624196676346
 30
0.0
 10
8.448877977606875
 20
48.34697161215713
 30
0.0
 10
8.382920598747955
 20
49.12952155209511
 30
0.0
 10
8.44482173303481
 20
50.09482651904328
 30
0.0
 10
8.474881166219127
 20
50.886327599919
 30
0.0
 10
8.48165772891798
 20
51.0647626578216
 30
0.0
 11
8.463267960059078
 21
48.17624196676346
 31
0.0
 11
8.425637712102592
 21
48.68861246908057
 31
0.0
 11
8.460268890235952
 21
50.52934353865386
 31
0.0
 11
8.48165772891798
 21
51.0647626578216
 31
0.0
  0
SPLINE
  5
5B6
330
1F
100
AcDbEntity
  8
0
100
AcDbSpline
210
0.0
220
0.0
230
1.0
 70
     8
 71
     3
 72
    10
 73
     6
 74
     4
 42
0.000000001
 43
0.0000000001
 44
0.0
 40
0.0
 40
0.0
 40
0.0
 40
0.0
 40
0.5137504911977754
 40
2.354807304278607
 40
2.890653472120206
 40
2.890653472120206
 40
2.890653472120206
 40
2.890653472120206
 10
8.598507890275528
 20
48.18848319621937
 30
0.0
 10
8.584117907823325
 20
48.35921284161304
 30
0.0
 10
8.518160528964406
 20
49.14176278155102
 30
0.0
 10
8.580061663251259
 20
50.1070677484992
 30
0.0
 10
8.610121096435577
 20
50.89856882937491
 30
0.0
 10
8.61689765913443
 20
51.07700388727751
 30
0.0
 11
8.598507890275528
 21
48.18848319621937
 31
0.0
 11
8.560877642319042
 21
48.70085369853648
 31
0.0
 11
8.595508820452402
 21
50.54158476810977
 31
0.0
 11
8.61689765913443
 21
51.07700388727751
 31
0.0
  0
ENDSEC
  0
SECTION
  2
OBJECTS
  0
DICTIONARY
  5
C
330
0
100
AcDbDictionary
281
     1
  3
ACAD_DETAILVIEWSTYLE
350
519
  3
ACAD_GROUP
350
D
  3
ACAD_IMAGE_VARS
350
467
  3
ACAD_LAYOUT
350
1A
  3
ACAD_MLINESTYLE
350
17
  3
ACAD_PLOTSETTINGS
350
19
  3
ACAD_PLOTSTYLENAME
350
E
  3
ACAD_SCALELIST
350
43D
  3
ACAD_SECTIONVIEWSTYLE
350
51A
  3
AcDbVariableDictionary
350
515
  3
APPDATA
350
465
  3
DWGPROPS
350
67A
  0
DICTIONARY
  5
519
102
{ACAD_REACTORS
330
C
102
}
330
C
100
AcDbDictionary
281
     1
  0
DICTIONARY
  5
D
102
{ACAD_REACTORS
330
C
102
}
330
C
100
AcDbDictionary
281
     1
  0
RASTERVARIABLES
  5
467
102
{ACAD_REACTORS
330
C
102
}
330
C
100
AcDbRasterVariables
 90
        0
 70
     1
 71
     1
 72
     5
  0
DICTIONARY
  5
1A
102
{ACAD_REACTORS
330
C
102
}
330
C
100
AcDbDictionary
281
     1
  3
Layout1
350
1E
  3
Layout2
350
26
  3
Model
350
22
  0
DICTIONARY
  5
17
102
{ACAD_REACTORS
330
C
102
}
330
C
100
AcDbDictionary
281
     1
  3
Standard
350
18
  0
DICTIONARY
  5
19
102
{ACAD_REACTORS
330
C
102
}
330
C
100
AcDbDictionary
281
     1
  0
ACDBDICTIONARYWDFLT
  5
E
102
{ACAD_REACTORS
330
C
102
}
330
C
100
AcDbDictionary
281
     1
  3
Normal
350
F
100
AcDbDictionaryWithDefault
340
F
  0
DICTIONARY
  5
43D
102
{ACAD_REACTORS
330
C
102
}
330
C
100
AcDbDictionary
281
     1
  3
A0
350
43E
  3
A1
350
43F
  3
A2
350
440
  3
A3
350
441
  3
A4
350
442
  3
A5
350
443
  3
A6
350
444
  3
A7
350
445
  3
A8
350
446
  3
A9
350
447
  3
B0
350
448
  3
B1
350
449
  3
B2
350
44A
  3
B3
350
44B
  3
B4
350
44C
  3
B5
350
44D
  3
B6
350
44E
  3
B7
350
44F
  3
B8
350
450
  3
B9
350
451
  3
C0
350
452
  3
C1
350
453
  3
C2
350
454
  3
C3
350
455
  3
C4
350
456
  3
C5
350
457
  3
C6
350
458
  3
C7
350
459
  3
C8
350
45A
  3
C9
350
45B
  3
D0
350
45C
  3
D1
350
45D
  3
D2
350
45E
  0
DICTIONARY
  5
51A
102
{ACAD_REACTORS
330
C
102
}
330
C
100
AcDbDictionary
281
     1
  0
DICTIONARY
  5
515
102
{ACAD_REACTORS
330
C
102
}
330
C
100
AcDbDictionary
281
     1
  0
DICTIONARY
  5
465
102
{ACAD_REACTORS
330
C
102
}
330
C
100
AcDbDictionary
281
     1
  0
XRECORD
  5
67A
102
{ACAD_REACTORS
330
C
102
}
330
C
100
AcDbXrecord
280
     1
  1
DWGPROPS COOKIE
  2

  3

  4

  6

  7

  8
vplamondon
  9

300
=
301
=
302
=
303
=
304
=
305
=
306
=
307
=
308
=
309
=
 40
0.0
 41
2457240.573896667
 42
2457240.637814873
  1

 90
        0
  0
LAYOUT
  5
1E
102
{ACAD_REACTORS
330
1A
102
}
330
1A
100
AcDbPlotSettings
  1

  2
none_device
  4

  6

 40
0.0
 41
0.0
 42
0.0
 43
0.0
 44
0.0
 45
0.0
 46
0.0
 47
0.0
 48
0.0
 49
0.0
140
0.0
141
0.0
142
1.0
143
1.0
 70
   688
 72
     0
 73
     0
 74
     5
  7

 75
    16
147
1.0
148
0.0
149
0.0
100
AcDbLayout
  1
Layout1
 70
     1
 71
     1
 10
0.0
 20
0.0
 11
12.0
 21
9.0
 12
0.0
 22
0.0
 32
0.0
 14
1.000000000000000E+20
 24
1.000000000000000E+20
 34
1.000000000000000E+20
 15
-1.000000000000000E+20
 25
-1.000000000000000E+20
 35
-1.000000000000000E+20
146
0.0
 13
0.0
 23
0.0
 33
0.0
 16
1.0
 26
0.0
 36
0.0
 17
0.0
 27
1.0
 37
0.0
 76
     0
330
1B
  0
LAYOUT
  5
26
102
{ACAD_REACTORS
330
1A
102
}
330
1A
100
AcDbPlotSettings
  1

  2
none_device
  4

  6

 40
0.0
 41
0.0
 42
0.0
 43
0.0
 44
0.0
 45
0.0
 46
0.0
 47
0.0
 48
0.0
 49
0.0
140
0.0
141
0.0
142
1.0
143
1.0
 70
   688
 72
     0
 73
     0
 74
     5
  7

 75
    16
147
1.0
148
0.0
149
0.0
100
AcDbLayout
  1
Layout2
 70
     1
 71
     2
 10
0.0
 20
0.0
 11
0.0
 21
0.0
 12
0.0
 22
0.0
 32
0.0
 14
0.0
 24
0.0
 34
0.0
 15
0.0
 25
0.0
 35
0.0
146
0.0
 13
0.0
 23
0.0
 33
0.0
 16
1.0
 26
0.0
 36
0.0
 17
0.0
 27
1.0
 37
0.0
 76
     0
330
23
  0
LAYOUT
  5
22
102
{ACAD_REACTORS
330
1A
102
}
330
1A
100
AcDbPlotSettings
  1

  2
none_device
  4

  6

 40
0.0
 41
0.0
 42
0.0
 43
0.0
 44
0.0
 45
0.0
 46
0.0
 47
0.0
 48
0.0
 49
0.0
140
0.0
141
0.0
142
1.0
143
1.0
 70
  1712
 72
     0
 73
     0
 74
     0
  7

 75
     0
147
1.0
148
0.0
149
0.0
100
AcDbLayout
  1
Model
 70
     1
 71
     0
 10
0.0
 20
0.0
 11
11.0
 21
8.5
 12
0.0
 22
0.0
 32
0.0
 14
0.0
 24
0.0
 34
0.0
 15
11.0
 25
8.5
 35
0.0
146
0.0
 13
0.0
 23
0.0
 33
0.0
 16
1.0
 26
0.0
 36
0.0
 17
0.0
 27
1.0
 37
0.0
 76
     0
330
1F
331
29
  0
MLINESTYLE
  5
18
102
{ACAD_REACTORS
330
17
102
}
330
17
100
AcDbMlineStyle
  2
Standard
 70
     0
  3

 62
   256
 51
90.0
 52
90.0
 71
     2
 49
0.5
 62
   256
  6
BYLAYER
 49
-0.5
 62
   256
  6
BYLAYER
  0
ACDBPLACEHOLDER
  5
F
102
{ACAD_REACTORS
330
E
102
}
330
E
  0
SCALE
  5
43E
102
{ACAD_REACTORS
330
43D
102
}
330
43D
100
AcDbScale
 70
     0
300
1:1
140
1.0
141
1.0
290
     1
  0
SCALE
  5
43F
102
{ACAD_REACTORS
330
43D
102
}
330
43D
100
AcDbScale
 70
     0
300
1:2
140
1.0
141
2.0
290
     0
  0
SCALE
  5
440
102
{ACAD_REACTORS
330
43D
102
}
330
43D
100
AcDbScale
 70
     0
300
1:4
140
1.0
141
4.0
290
     0
  0
SCALE
  5
441
102
{ACAD_REACTORS
330
43D
102
}
330
43D
100
AcDbScale
 70
     0
300
1:5
140
1.0
141
5.0
290
     0
  0
SCALE
  5
442
102
{ACAD_REACTORS
330
43D
102
}
330
43D
100
AcDbScale
 70
     0
300
1:8
140
1.0
141
8.0
290
     0
  0
SCALE
  5
443
102
{ACAD_REACTORS
330
43D
102
}
330
43D
100
AcDbScale
 70
     0
300
1:10
140
1.0
141
10.0
290
     0
  0
SCALE
  5
444
102
{ACAD_REACTORS
330
43D
102
}
330
43D
100
AcDbScale
 70
     0
300
1:16
140
1.0
141
16.0
290
     0
  0
SCALE
  5
445
102
{ACAD_REACTORS
330
43D
102
}
330
43D
100
AcDbScale
 70
     0
300
1:20
140
1.0
141
20.0
290
     0
  0
SCALE
  5
446
102
{ACAD_REACTORS
330
43D
102
}
330
43D
100
AcDbScale
 70
     0
300
1:30
140
1.0
141
30.0
290
     0
  0
SCALE
  5
447
102
{ACAD_REACTORS
330
43D
102
}
330
43D
100
AcDbScale
 70
     0
300
1:40
140
1.0
141
40.0
290
     0
  0
SCALE
  5
448
102
{ACAD_REACTORS
330
43D
102
}
330
43D
100
AcDbScale
 70
     0
300
1:50
140
1.0
141
50.0
290
     0
  0
SCALE
  5
449
102
{ACAD_REACTORS
330
43D
102
}
330
43D
100
AcDbScale
 70
     0
300
1:100
140
1.0
141
100.0
290
     0
  0
SCALE
  5
44A
102
{ACAD_REACTORS
330
43D
102
}
330
43D
100
AcDbScale
 70
     0
300
2:1
140
2.0
141
1.0
290
     0
  0
SCALE
  5
44B
102
{ACAD_REACTORS
330
43D
102
}
330
43D
100
AcDbScale
 70
     0
300
4:1
140
4.0
141
1.0
290
     0
  0
SCALE
  5
44C
102
{ACAD_REACTORS
330
43D
102
}
330
43D
100
AcDbScale
 70
     0
300
8:1
140
8.0
141
1.0
290
     0
  0
SCALE
  5
44D
102
{ACAD_REACTORS
330
43D
102
}
330
43D
100
AcDbScale
 70
     0
300
10:1
140
10.0
141
1.0
290
     0
  0
SCALE
  5
44E
102
{ACAD_REACTORS
330
43D
102
}
330
43D
100
AcDbScale
 70
     0
300
100:1
140
100.0
141
1.0
290
     0
  0
SCALE
  5
44F
102
{ACAD_REACTORS
330
43D
102
}
330
43D
100
AcDbScale
 70
     0
300
1/128" = 1'-0"
140
0.0078125
141
12.0
290
     0
  0
SCALE
  5
450
102
{ACAD_REACTORS
330
43D
102
}
330
43D
100
AcDbScale
 70
     0
300
1/64" = 1'-0"
140
0.015625
141
12.0
290
     0
  0
SCALE
  5
451
102
{ACAD_REACTORS
330
43D
102
}
330
43D
100
AcDbScale
 70
     0
300
1/32" = 1'-0"
140
0.03125
141
12.0
290
     0
  0
SCALE
  5
452
102
{ACAD_REACTORS
330
43D
102
}
330
43D
100
AcDbScale
 70
     0
300
1/16" = 1'-0"
140
0.0625
141
12.0
290
     0
  0
SCALE
  5
453
102
{ACAD_REACTORS
330
43D
102
}
330
43D
100
AcDbScale
 70
     0
300
3/32" = 1'-0"
140
0.09375
141
12.0
290
     0
  0
SCALE
  5
454
102
{ACAD_REACTORS
330
43D
102
}
330
43D
100
AcDbScale
 70
     0
300
1/8" = 1'-0"
140
0.125
141
12.0
290
     0
  0
SCALE
  5
455
102
{ACAD_REACTORS
330
43D
102
}
330
43D
100
AcDbScale
 70
     0
300
3/16" = 1'-0"
140
0.1875
141
12.0
290
     0
  0
SCALE
  5
456
102
{ACAD_REACTORS
330
43D
102
}
330
43D
100
AcDbScale
 70
     0
300
1/4" = 1'-0"
140
0.25
141
12.0
290
     0
  0
SCALE
  5
457
102
{ACAD_REACTORS
330
43D
102
}
330
43D
100
AcDbScale
 70
     0
300
3/8" = 1'-0"
140
0.375
141
12.0
290
     0
  0
SCALE
  5
458
102
{ACAD_REACTORS
330
43D
102
}
330
43D
100
AcDbScale
 70
     0
300
1/2" = 1'-0"
140
0.5
141
12.0
290
     0
  0
SCALE
  5
459
102
{ACAD_REACTORS
330
43D
102
}
330
43D
100
AcDbScale
 70
     0
300
3/4" = 1'-0"
140
0.75
141
12.0
290
     0
  0
SCALE
  5
45A
102
{ACAD_REACTORS
330
43D
102
}
330
43D
100
AcDbScale
 70
     0
300
1" = 1'-0"
140
1.0
141
12.0
290
     0
  0
SCALE
  5
45B
102
{ACAD_REACTORS
330
43D
102
}
330
43D
100
AcDbScale
 70
     0
300
1-1/2" = 1'-0"
140
1.5
141
12.0
290
     0
  0
SCALE
  5
45C
102
{ACAD_REACTORS
330
43D
102
}
330
43D
100
AcDbScale
 70
     0
300
3" = 1'-0"
140
3.0
141
12.0
290
     0
  0
SCALE
  5
45D
102
{ACAD_REACTORS
330
43D
102
}
330
43D
100
AcDbScale
 70
     0
300
6" = 1'-0"
140
6.0
141
12.0
290
     0
  0
SCALE
  5
45E
102
{ACAD_REACTORS
330
43D
102
}
330
43D
100
AcDbScale
 70
     0
300
1'-0" = 1'-0"
140
12.0
141
12.0
290
     0
  0
ENDSEC
  0
EOF
