  0
SECTION
  2
HEADER
  9
$ACADVER
  1
AC1018
  9
$ACADMAINTVER
 70
     0
  9
$DWGCODEPAGE
  3
ANSI_1252
  9
$INSBASE
 10
0.0
 20
0.0
 30
0.0
  9
$EXTMIN
 10
0.0
 20
0.2152375563970402
 30
0.0
  9
$EXTMAX
 10
1106.361682278996
 20
1967.297546551597
 30
0.0
  9
$LIMMIN
 10
0.0
 20
0.0
  9
$LIMMAX
 10
12.0
 20
9.0
  9
$ORTHOMODE
 70
     0
  9
$REGENMODE
 70
     1
  9
$FILLMODE
 70
     1
  9
$QTEXTMODE
 70
     0
  9
$MIRRTEXT
 70
     1
  9
$LTSCALE
 40
1.0
  9
$ATTMODE
 70
     1
  9
$TEXTSIZE
 40
0.2
  9
$TRACEWID
 40
0.05
  9
$TEXTSTYLE
  7
Standard
  9
$CLAYER
  8
Predefinito
  9
$CELTYPE
  6
ByLayer
  9
$CECOLOR
 62
   256
  9
$CELTSCALE
 40
1.0
  9
$DISPSILH
 70
     0
  9
$DIMSCALE
 40
1.0
  9
$DIMASZ
 40
0.18
  9
$DIMEXO
 40
0.0625
  9
$DIMDLI
 40
0.38
  9
$DIMRND
 40
0.0
  9
$DIMDLE
 40
0.0
  9
$DIMEXE
 40
0.18
  9
$DIMTP
 40
0.0
  9
$DIMTM
 40
0.0
  9
$DIMTXT
 40
0.18
  9
$DIMCEN
 40
0.09
  9
$DIMTSZ
 40
0.0
  9
$DIMTOL
 70
     0
  9
$DIMLIM
 70
     0
  9
$DIMTIH
 70
     1
  9
$DIMTOH
 70
     1
  9
$DIMSE1
 70
     0
  9
$DIMSE2
 70
     0
  9
$DIMTAD
 70
     0
  9
$DIMZIN
 70
     0
  9
$DIMBLK
  1

  9
$DIMASO
 70
     1
  9
$DIMSHO
 70
     1
  9
$DIMPOST
  1

  9
$DIMAPOST
  1

  9
$DIMALT
 70
     0
  9
$DIMALTD
 70
     2
  9
$DIMALTF
 40
25.4
  9
$DIMLFAC
 40
1.0
  9
$DIMTOFL
 70
     0
  9
$DIMTVP
 40
0.0
  9
$DIMTIX
 70
     0
  9
$DIMSOXD
 70
     0
  9
$DIMSAH
 70
     0
  9
$DIMBLK1
  1

  9
$DIMBLK2
  1

  9
$DIMSTYLE
  2
Standard
  9
$DIMCLRD
 70
     0
  9
$DIMCLRE
 70
     0
  9
$DIMCLRT
 70
     0
  9
$DIMTFAC
 40
1.0
  9
$DIMGAP
 40
0.09
  9
$DIMJUST
 70
     0
  9
$DIMSD1
 70
     0
  9
$DIMSD2
 70
     0
  9
$DIMTOLJ
 70
     1
  9
$DIMTZIN
 70
     0
  9
$DIMALTZ
 70
     0
  9
$DIMALTTZ
 70
     0
  9
$DIMUPT
 70
     0
  9
$DIMDEC
 70
     4
  9
$DIMTDEC
 70
     4
  9
$DIMALTU
 70
     2
  9
$DIMALTTD
 70
     2
  9
$DIMTXSTY
  7
Standard
  9
$DIMAUNIT
 70
     0
  9
$DIMADEC
 70
     0
  9
$DIMALTRND
 40
0.0
  9
$DIMAZIN
 70
     0
  9
$DIMDSEP
 70
    46
  9
$DIMATFIT
 70
     3
  9
$DIMFRAC
 70
     0
  9
$DIMLDRBLK
  1

  9
$DIMLUNIT
 70
     2
  9
$DIMLWD
 70
    -2
  9
$DIMLWE
 70
    -2
  9
$DIMTMOVE
 70
     2
  9
$LUNITS
 70
     2
  9
$LUPREC
 70
     3
  9
$SKETCHINC
 40
0.1
  9
$FILLETRAD
 40
0.5
  9
$AUNITS
 70
     0
  9
$AUPREC
 70
     0
  9
$MENU
  1
.
  9
$ELEVATION
 40
0.0
  9
$PELEVATION
 40
0.0
  9
$THICKNESS
 40
0.0
  9
$LIMCHECK
 70
     0
  9
$CHAMFERA
 40
0.5
  9
$CHAMFERB
 40
0.5
  9
$CHAMFERC
 40
1.0
  9
$CHAMFERD
 40
0.0
  9
$SKPOLY
 70
     0
  9
$TDCREATE
 40
2457910.691260127
  9
$TDUCREATE
 40
2457910.607926794
  9
$TDUPDATE
 40
2457910.691260139
  9
$TDUUPDATE
 40
2457910.607926806
  9
$TDINDWG
 40
0.0000000116
  9
$TDUSRTIMER
 40
0.0000000116
  9
$USRTIMER
 70
     1
  9
$ANGBASE
 50
0.0
  9
$ANGDIR
 70
     0
  9
$PDMODE
 70
     0
  9
$PDSIZE
 40
0.0
  9
$PLINEWID
 40
0.0
  9
$SPLFRAME
 70
     0
  9
$SPLINETYPE
 70
     6
  9
$SPLINESEGS
 70
     8
  9
$HANDSEED
  5
16E
  9
$SURFTAB1
 70
     6
  9
$SURFTAB2
 70
     6
  9
$SURFTYPE
 70
     6
  9
$SURFU
 70
     6
  9
$SURFV
 70
     6
  9
$UCSBASE
  2

  9
$UCSNAME
  2

  9
$UCSORG
 10
0.0
 20
0.0
 30
0.0
  9
$UCSXDIR
 10
1.0
 20
0.0
 30
0.0
  9
$UCSYDIR
 10
0.0
 20
1.0
 30
0.0
  9
$UCSORTHOREF
  2

  9
$UCSORTHOVIEW
 70
     0
  9
$UCSORGTOP
 10
0.0
 20
0.0
 30
0.0
  9
$UCSORGBOTTOM
 10
0.0
 20
0.0
 30
0.0
  9
$UCSORGLEFT
 10
0.0
 20
0.0
 30
0.0
  9
$UCSORGRIGHT
 10
0.0
 20
0.0
 30
0.0
  9
$UCSORGFRONT
 10
0.0
 20
0.0
 30
0.0
  9
$UCSORGBACK
 10
0.0
 20
0.0
 30
0.0
  9
$PUCSBASE
  2

  9
$PUCSNAME
  2

  9
$PUCSORG
 10
0.0
 20
0.0
 30
0.0
  9
$PUCSXDIR
 10
1.0
 20
0.0
 30
0.0
  9
$PUCSYDIR
 10
0.0
 20
1.0
 30
0.0
  9
$PUCSORTHOREF
  2

  9
$PUCSORTHOVIEW
 70
     0
  9
$PUCSORGTOP
 10
0.0
 20
0.0
 30
0.0
  9
$PUCSORGBOTTOM
 10
0.0
 20
0.0
 30
0.0
  9
$PUCSORGLEFT
 10
0.0
 20
0.0
 30
0.0
  9
$PUCSORGRIGHT
 10
0.0
 20
0.0
 30
0.0
  9
$PUCSORGFRONT
 10
0.0
 20
0.0
 30
0.0
  9
$PUCSORGBACK
 10
0.0
 20
0.0
 30
0.0
  9
$USERI1
 70
     0
  9
$USERI2
 70
     0
  9
$USERI3
 70
     0
  9
$USERI4
 70
     0
  9
$USERI5
 70
     0
  9
$USERR1
 40
0.0
  9
$USERR2
 40
0.0
  9
$USERR3
 40
0.0
  9
$USERR4
 40
0.0
  9
$USERR5
 40
0.0
  9
$WORLDVIEW
 70
     1
  9
$SHADEDGE
 70
     3
  9
$SHADEDIF
 70
    70
  9
$TILEMODE
 70
     0
  9
$MAXACTVP
 70
    64
  9
$PINSBASE
 10
0.0
 20
0.0
 30
0.0
  9
$PLIMCHECK
 70
     0
  9
$PEXTMIN
 10
0.0
 20
0.0
 30
0.0
  9
$PEXTMAX
 10
0.0
 20
0.0
 30
0.0
  9
$PLIMMIN
 10
0.0
 20
0.0
  9
$PLIMMAX
 10
12.0
 20
9.0
  9
$UNITMODE
 70
     0
  9
$VISRETAIN
 70
     1
  9
$PLINEGEN
 70
     0
  9
$PSLTSCALE
 70
     1
  9
$TREEDEPTH
 70
  3020
  9
$CMLSTYLE
  2
Standard
  9
$CMLJUST
 70
     0
  9
$CMLSCALE
 40
1.0
  9
$PROXYGRAPHICS
 70
     1
  9
$MEASUREMENT
 70
     0
  9
$CELWEIGHT
370
    -1
  9
$ENDCAPS
280
     0
  9
$JOINSTYLE
280
     0
  9
$LWDISPLAY
290
     0
  9
$INSUNITS
 70
     4
  9
$HYPERLINKBASE
  1

  9
$STYLESHEET
  1

  9
$XEDIT
290
     1
  9
$CEPSNTYPE
380
     0
  9
$PSTYLEMODE
290
     1
  9
$FINGERPRINTGUID
  2
{8F8D4C8A-D902-41AD-B406-145B558FC315}
  9
$VERSIONGUID
  2
{FAEB1C32-E019-11D5-929B-00C0DF256EC4}
  9
$EXTNAMES
290
     1
  9
$PSVPSCALE
 40
0.0
  9
$OLESTARTUP
290
     0
  9
$SORTENTS
280
   127
  9
$INDEXCTL
280
     0
  9
$HIDETEXT
280
     1
  9
$XCLIPFRAME
290
     0
  9
$HALOGAP
280
     0
  9
$OBSCOLOR
 70
   257
  9
$OBSLTYPE
280
     0
  9
$INTERSECTIONDISPLAY
280
     0
  9
$INTERSECTIONCOLOR
 70
   257
  9
$DIMASSOC
280
     2
  9
$PROJECTNAME
  1

  0
ENDSEC
  0
SECTION
  2
CLASSES
  0
CLASS
  1
ACDBDICTIONARYWDFLT
  2
AcDbDictionaryWithDefault
  3
ObjectDBX Classes
 90
        0
 91
        4
280
     0
281
     0
  0
CLASS
  1
VISUALSTYLE
  2
AcDbVisualStyle
  3
ObjectDBX Classes
 90
     4095
 91
        4
280
     0
281
     0
  0
CLASS
  1
SCALE
  2
AcDbScale
  3
ObjectDBX Classes
 90
     1153
 91
        4
280
     0
281
     0
  0
CLASS
  1
DICTIONARYVAR
  2
AcDbDictionaryVar
  3
ObjectDBX Classes
 90
        0
 91
        4
280
     0
281
     0
  0
ENDSEC
  0
SECTION
  2
TABLES
  0
TABLE
  2
VPORT
  5
8
330
0
100
AcDbSymbolTable
 70
     1
  0
VPORT
  5
29
330
8
100
AcDbSymbolTableRecord
100
AcDbViewportTableRecord
  2
*Active
 70
     0
 10
0.0
 20
0.0
 11
1.0
 21
1.0
 12
553.180841139498
 22
983.756392053997
 13
0.0
 23
0.0
 14
0.5
 24
0.5
 15
0.5
 25
0.5
 16
0.0
 26
0.0
 36
1.0
 17
0.0
 27
0.0
 37
0.0
 40
2006.423955175104
 41
0.5624379199689584
 42
50.0
 43
0.0
 44
0.0
 50
0.0
 51
0.0
 71
     0
 72
   100
 73
     1
 74
     3
 75
     0
 76
     0
 77
     0
 78
     0
281
     0
 65
     1
110
0.0
120
0.0
130
0.0
111
1.0
121
0.0
131
0.0
112
0.0
122
1.0
132
0.0
 79
     0
146
0.0
  0
ENDTAB
  0
TABLE
  2
LTYPE
  5
5
330
0
100
AcDbSymbolTable
 70
     1
  0
LTYPE
  5
14
330
5
100
AcDbSymbolTableRecord
100
AcDbLinetypeTableRecord
  2
ByBlock
 70
     0
  3

 72
    65
 73
     0
 40
0.0
  0
LTYPE
  5
15
330
5
100
AcDbSymbolTableRecord
100
AcDbLinetypeTableRecord
  2
ByLayer
 70
     0
  3

 72
    65
 73
     0
 40
0.0
  0
LTYPE
  5
16
330
5
100
AcDbSymbolTableRecord
100
AcDbLinetypeTableRecord
  2
Continuous
 70
     0
  3
Solid line
 72
    65
 73
     0
 40
0.0
  0
ENDTAB
  0
TABLE
  2
LAYER
  5
2
330
0
100
AcDbSymbolTable
 70
     2
  0
LAYER
  5
10
330
2
100
AcDbSymbolTableRecord
100
AcDbLayerTableRecord
  2
0
 70
     0
 62
     7
  6
Continuous
370
    -3
390
F
  0
LAYER
  5
3B
330
2
100
AcDbSymbolTableRecord
100
AcDbLayerTableRecord
  2
Predefinito
 70
     0
 62
     7
  6
Continuous
370
    -3
390
F
  0
ENDTAB
  0
TABLE
  2
STYLE
  5
3
330
0
100
AcDbSymbolTable
 70
     1
  0
STYLE
  5
11
330
3
100
AcDbSymbolTableRecord
100
AcDbTextStyleTableRecord
  2
Standard
 70
     0
 40
0.0
 41
1.0
 50
0.0
 71
     0
 42
0.2
  3
txt
  4

  0
ENDTAB
  0
TABLE
  2
VIEW
  5
6
330
0
100
AcDbSymbolTable
 70
     0
  0
ENDTAB
  0
TABLE
  2
UCS
  5
7
330
0
100
AcDbSymbolTable
 70
     0
  0
ENDTAB
  0
TABLE
  2
APPID
  5
9
330
0
100
AcDbSymbolTable
 70
     1
  0
APPID
  5
12
330
9
100
AcDbSymbolTableRecord
100
AcDbRegAppTableRecord
  2
ACAD
 70
     0
  0
ENDTAB
  0
TABLE
  2
DIMSTYLE
  5
A
330
0
100
AcDbSymbolTable
 70
     1
100
AcDbDimStyleTable
  0
DIMSTYLE
105
27
330
A
100
AcDbSymbolTableRecord
100
AcDbDimStyleTableRecord
  2
Standard
 70
     0
340
11
  0
ENDTAB
  0
TABLE
  2
BLOCK_RECORD
  5
1
330
0
100
AcDbSymbolTable
 70
     3
  0
BLOCK_RECORD
  5
1F
330
1
100
AcDbSymbolTableRecord
100
AcDbBlockTableRecord
  2
*Model_Space
340
22
  0
BLOCK_RECORD
  5
143
330
1
100
AcDbSymbolTableRecord
100
AcDbBlockTableRecord
  2
*Paper_Space
340
144
  0
BLOCK_RECORD
  5
23
330
1
100
AcDbSymbolTableRecord
100
AcDbBlockTableRecord
  2
*Paper_Space0
340
26
  0
BLOCK_RECORD
  5
1B
330
1
100
AcDbSymbolTableRecord
100
AcDbBlockTableRecord
  2
*Paper_Space1
340
1E
  0
BLOCK_RECORD
  5
13E
330
1
100
AcDbSymbolTableRecord
100
AcDbBlockTableRecord
  2
*Paper_Space2
340
13F
  0
ENDTAB
  0
ENDSEC
  0
SECTION
  2
BLOCKS
  0
BLOCK
  5
20
330
1F
100
AcDbEntity
  8
0
100
AcDbBlockBegin
  2
*Model_Space
 70
     0
 10
0.0
 20
0.0
 30
0.0
  3
*Model_Space
  1

  0
ENDBLK
  5
21
330
1F
100
AcDbEntity
  8
0
100
AcDbBlockEnd
  0
BLOCK
  5
145
330
143
100
AcDbEntity
 67
     1
  8
0
100
AcDbBlockBegin
  2
*Paper_Space
 70
     0
 10
0.0
 20
0.0
 30
0.0
  3
*Paper_Space
  1

  0
ENDBLK
  5
146
330
143
100
AcDbEntity
 67
     1
  8
0
100
AcDbBlockEnd
  0
BLOCK
  5
24
330
23
100
AcDbEntity
  8
0
100
AcDbBlockBegin
  2
*Paper_Space0
 70
     0
 10
0.0
 20
0.0
 30
0.0
  3
*Paper_Space0
  1

  0
ENDBLK
  5
25
330
23
100
AcDbEntity
  8
0
100
AcDbBlockEnd
  0
BLOCK
  5
1C
330
1B
100
AcDbEntity
  8
0
100
AcDbBlockBegin
  2
*Paper_Space1
 70
     0
 10
0.0
 20
0.0
 30
0.0
  3
*Paper_Space1
  1

  0
ENDBLK
  5
1D
330
1B
100
AcDbEntity
  8
0
100
AcDbBlockEnd
  0
BLOCK
  5
140
330
13E
100
AcDbEntity
  8
0
100
AcDbBlockBegin
  2
*Paper_Space2
 70
     0
 10
0.0
 20
0.0
 30
0.0
  3
*Paper_Space2
  1

  0
VIEWPORT
  5
142
330
13E
100
AcDbEntity
  8
0
100
AcDbViewport
 10
6.0
 20
4.5
 30
0.0
 40
12.696
 41
9.522
 68
     1
 69
     1
 12
6.0
 22
4.5
 13
0.0
 23
0.0
 14
0.5
 24
0.5
 15
0.5
 25
0.5
 16
0.0
 26
0.0
 36
1.0
 17
0.0
 27
0.0
 37
0.0
 42
50.0
 43
0.0
 44
0.0
 45
9.522
 50
0.0
 51
0.0
 72
   100
 90
   557152
  1

281
     0
 71
     1
 74
     0
110
0.0
120
0.0
130
0.0
111
1.0
121
0.0
131
0.0
112
0.0
122
1.0
132
0.0
 79
     0
146
0.0
170
     0
  0
ENDBLK
  5
141
330
13E
100
AcDbEntity
  8
0
100
AcDbBlockEnd
  0
ENDSEC
  0
SECTION
  2
ENTITIES
  0
SPLINE
  5
3C
330
1F
100
AcDbEntity
  8
Predefinito
100
AcDbSpline
210
0.0
220
0.0
230
1.0
 70
    24
 71
     2
 72
     6
 73
     3
 74
     0
 42
0.0000000001
 43
0.0000000001
 40
0.0
 40
0.0
 40
0.0
 40
3.650000000000006
 40
3.650000000000006
 40
3.650000000000006
 10
136.3499999102278
 20
1715.299336542239
 30
0.0
 10
138.1749999102278
 20
1715.299336542239
 30
0.0
 10
139.9999999102278
 20
1715.299336542239
 30
0.0
  0
SPLINE
  5
3D
330
1F
100
AcDbEntity
  8
Predefinito
100
AcDbSpline
210
0.0
220
0.0
230
1.0
 70
    24
 71
     2
 72
     6
 73
     3
 74
     0
 42
0.0000000001
 43
0.0000000001
 40
-3.650000000000006
 40
-3.650000000000006
 40
-3.650000000000006
 40
0.0
 40
0.0
 40
0.0
 10
139.9999999102278
 20
1715.299336542239
 30
0.0
 10
141.8249999102279
 20
1715.299336542239
 30
0.0
 10
143.6499999102278
 20
1715.299336542239
 30
0.0
  0
POLYLINE
  5
3E
330
1F
100
AcDbEntity
  8
Predefinito
100
AcDb2dPolyline
 66
     1
 10
0.0
 20
0.0
 30
0.0
  0
VERTEX
  5
3F
330
3E
100
AcDbEntity
  8
Predefinito
100
AcDbVertex
100
AcDb2dVertex
 10
316.3499997807022
 20
1765.299336542239
 30
0.0
  0
VERTEX
  5
40
330
3E
100
AcDbEntity
  8
Predefinito
100
AcDbVertex
100
AcDb2dVertex
 10
323.6499997807022
 20
1765.299336542239
 30
0.0
  0
SEQEND
  5
41
330
3E
100
AcDbEntity
  8
Predefinito
  0
SPLINE
  5
42
330
1F
100
AcDbEntity
  8
Predefinito
100
AcDbSpline
210
0.0
220
0.0
230
1.0
 70
    12
 71
     2
 72
     6
 73
     3
 74
     0
 42
0.0000000001
 43
0.0000000001
 40
0.0
 40
0.0
 40
0.0
 40
173.1900398227612
 40
173.1900398227612
 40
173.1900398227612
 10
1002.876426935196
 20
1715.299336561618
 30
0.0
 41
1.0
 10
1002.876452270959
 20
1801.894356472998
 30
0.0
 41
0.9999999999999646
 10
1002.87428954197
 20
1888.489753365052
 30
0.0
 41
1.0
  0
SPLINE
  5
43
330
1F
100
AcDbEntity
  8
Predefinito
100
AcDbSpline
210
0.0
220
0.0
230
1.0
 70
    24
 71
     2
 72
     6
 73
     3
 74
     0
 42
0.0000000001
 43
0.0000000001
 40
-42.60741628827883
 40
-42.60741628827883
 40
-42.60741628827883
 40
0.0
 40
0.0
 40
0.0
 10
1002.87428954197
 20
1888.489753365052
 30
0.0
 10
1002.871846517012
 20
1909.793649958279
 30
0.0
 10
1002.869403492053
 20
1931.097546551507
 30
0.0
  0
SPLINE
  5
44
330
1F
100
AcDbEntity
  8
Predefinito
100
AcDbSpline
210
0.0
220
0.0
230
1.0
 70
    24
 71
     2
 72
     6
 73
     3
 74
     0
 42
0.0000000001
 43
0.0000000001
 40
0.0
 40
0.0
 40
0.0
 40
496.333333333333
 40
496.333333333333
 40
496.333333333333
 10
1006.12645835838
 20
1711.32266989501
 30
0.0
 10
1006.12645835838
 20
1463.156003228343
 30
0.0
 10
1006.12645835838
 20
1214.989336561677
 30
0.0
  0
SPLINE
  5
45
330
1F
100
AcDbEntity
  8
Predefinito
100
AcDbSpline
210
0.0
220
0.0
230
1.0
 70
    24
 71
     2
 72
     6
 73
     3
 74
     0
 42
0.0000000001
 43
0.0000000001
 40
0.0
 40
0.0
 40
0.0
 40
496.333333333333
 40
496.333333333333
 40
496.333333333333
 10
996.12645835838
 20
1214.989336561677
 30
0.0
 10
996.12645835838
 20
1463.156003228343
 30
0.0
 10
996.12645835838
 20
1711.32266989501
 30
0.0
  0
SPLINE
  5
46
330
1F
100
AcDbEntity
  8
Predefinito
100
AcDbSpline
210
0.0
220
0.0
230
1.0
 70
    24
 71
     2
 72
     6
 73
     3
 74
     0
 42
0.0000000001
 43
0.0000000001
 40
0.0
 40
0.0
 40
0.0
 40
35.0
 40
35.0
 40
35.0
 10
57.50000000000077
 20
1932.297546532159
 30
0.0
 10
57.50000000000077
 20
1949.797546532159
 30
0.0
 10
57.50000000000077
 20
1967.297546532159
 30
0.0
  0
SPLINE
  5
47
330
1F
100
AcDbEntity
  8
Predefinito
100
AcDbSpline
210
0.0
220
0.0
230
1.0
 70
    24
 71
     2
 72
     6
 73
     3
 74
     0
 42
0.0000000001
 43
0.0000000001
 40
0.0
 40
0.0
 40
0.0
 40
35.0
 40
35.0
 40
35.0
 10
342.5000000000009
 20
1967.297546532159
 30
0.0
 10
342.5000000000009
 20
1949.797546532159
 30
0.0
 10
342.5000000000009
 20
1932.297546532159
 30
0.0
  0
SPLINE
  5
48
330
1F
100
AcDbEntity
  8
Predefinito
100
AcDbSpline
210
0.0
220
0.0
230
1.0
 70
    24
 71
     2
 72
     6
 73
     3
 74
     0
 42
0.0000000001
 43
0.0000000001
 40
0.0
 40
0.0
 40
0.0
 40
1.200000000000045
 40
1.200000000000045
 40
1.200000000000045
 10
399.9999999999999
 20
1932.297546532159
 30
0.0
 10
399.9999999999999
 20
1931.697546532159
 30
0.0
 10
399.9999999999999
 20
1931.097546532159
 30
0.0
  0
SPLINE
  5
49
330
1F
100
AcDbEntity
  8
Predefinito
100
AcDbSpline
210
0.0
220
0.0
230
1.0
 70
    24
 71
     2
 72
     6
 73
     3
 74
     0
 42
0.0000000001
 43
0.0000000001
 40
0.0
 40
0.0
 40
0.0
 40
1.200000000000045
 40
1.200000000000045
 40
1.200000000000045
 10
0.0
 20
1931.097546532159
 30
0.0
 10
0.0
 20
1931.697546532159
 30
0.0
 10
0.0
 20
1932.297546532159
 30
0.0
  0
SPLINE
  5
4A
330
1F
100
AcDbEntity
  8
Predefinito
100
AcDbSpline
210
0.0
220
0.0
230
1.0
 70
    12
 71
     2
 72
     6
 73
     3
 74
     0
 42
0.0000000001
 43
0.0000000001
 40
0.0
 40
0.0
 40
0.0
 40
173.1897763666856
 40
173.1897763666856
 40
173.1897763666856
 10
141.750532887876
 20
1715.299336542147
 30
0.0
 41
1.0
 10
141.7501013975936
 20
1801.894224725005
 30
0.0
 41
0.9999999999897697
 10
141.7488865149232
 20
1888.489112900417
 30
0.0
 41
1.0
  0
SPLINE
  5
4B
330
1F
100
AcDbEntity
  8
Predefinito
100
AcDbSpline
210
0.0
220
0.0
230
1.0
 70
    12
 71
     2
 72
     6
 73
     3
 74
     0
 42
0.0000000001
 43
0.0000000001
 40
0.0
 40
0.0
 40
0.0
 40
173.1911336606761
 40
173.1911336606761
 40
173.1911336606761
 10
138.2499812841415
 20
1715.299336542239
 30
0.0
 41
1.0
 10
138.2499972218604
 20
1801.894903372577
 30
0.0
 41
0.9999999999999899
 10
138.2500377214793
 20
1888.490470202905
 30
0.0
 41
1.0
  0
SPLINE
  5
4C
330
1F
100
AcDbEntity
  8
Predefinito
100
AcDbSpline
210
0.0
220
0.0
230
1.0
 70
    24
 71
     2
 72
     6
 73
     3
 74
     0
 42
0.0000000001
 43
0.0000000001
 40
0.0
 40
0.0
 40
0.0
 40
42.60707079202069
 40
42.60707079202069
 40
42.60707079202069
 10
138.2500377211529
 20
1888.490477922064
 30
0.0
 10
138.2568567547158
 20
1909.794012226725
 30
0.0
 10
138.2636757882786
 20
1931.097546531385
 30
0.0
  0
SPLINE
  5
4D
330
1F
100
AcDbEntity
  8
Predefinito
100
AcDbSpline
210
0.0
220
0.0
230
1.0
 70
    24
 71
     2
 72
     6
 73
     3
 74
     0
 42
0.0000000001
 43
0.0000000001
 40
0.0
 40
0.0
 40
0.0
 40
42.60833665677386
 40
42.60833665677386
 40
42.60833665677386
 10
141.7580576568995
 20
1931.097538033779
 30
0.0
 10
141.7512384207418
 20
1909.793370796775
 30
0.0
 10
141.7444191845841
 20
1888.48920355977
 30
0.0
  0
SPLINE
  5
4E
330
1F
100
AcDbEntity
  8
Predefinito
100
AcDbSpline
210
0.0
220
0.0
230
1.0
 70
    12
 71
     2
 72
     6
 73
     3
 74
     0
 42
0.0000000001
 43
0.0000000001
 40
0.0
 40
0.0
 40
0.0
 40
165.7982098428448
 40
165.7982098428448
 40
165.7982098428448
 10
321.7505327593535
 20
1765.299336542181
 30
0.0
 41
1.0
 10
321.7504810332619
 20
1848.198441468304
 30
0.0
 41
0.9999999999146835
 10
321.7482635412817
 20
1931.097546364782
 30
0.0
 41
1.0
  0
SPLINE
  5
4F
330
1F
100
AcDbEntity
  8
Predefinito
100
AcDbSpline
210
0.0
220
0.0
230
1.0
 70
    12
 71
     2
 72
     6
 73
     3
 74
     0
 42
0.0000000001
 43
0.0000000001
 40
0.0
 40
0.0
 40
0.0
 40
165.7982099963726
 40
165.7982099963726
 40
165.7982099963726
 10
318.2499811649323
 20
1765.299336542239
 30
0.0
 41
1.0
 10
318.2499835076677
 20
1848.198441540431
 30
0.0
 41
0.9999999999999029
 10
318.2500589493482
 20
1931.097546538588
 30
0.0
 41
1.0
  0
SPLINE
  5
50
330
1F
100
AcDbEntity
  8
Predefinito
100
AcDbSpline
210
0.0
220
0.0
230
1.0
 70
    12
 71
     2
 72
     6
 73
     3
 74
     0
 42
0.0000000001
 43
0.0000000001
 40
0.0
 40
0.0
 40
0.0
 40
0.2731199666025092
 40
0.2731199666025092
 40
0.2731199666025092
 10
107.0013624197996
 20
1261.808754362301
 30
0.0
 41
1.0
 10
107.0163510553969
 20
1261.954360705624
 30
0.0
 41
0.902381402839528
 10
107.1390167568905
 20
1262.034229298263
 30
0.0
 41
1.0
  0
SPLINE
  5
51
330
1F
100
AcDbEntity
  8
Predefinito
100
AcDbSpline
210
0.0
220
0.0
230
1.0
 70
    24
 71
     2
 72
     6
 73
     3
 74
     0
 42
0.0000000001
 43
0.0000000001
 40
0.0
 40
0.0
 40
0.0
 40
0.1218076105260479
 40
0.1218076105260479
 40
0.1218076105260479
 10
107.0000003090706
 20
1261.68386012497
 30
0.0
 10
107.0000003090706
 20
1261.744763930233
 30
0.0
 10
107.0000003090706
 20
1261.805667735496
 30
0.0
  0
SPLINE
  5
52
330
1F
100
AcDbEntity
  8
Predefinito
100
AcDbSpline
210
0.0
220
0.0
230
1.0
 70
     8
 71
     3
 72
    13
 73
     9
 74
     0
 42
0.0000000001
 43
0.0000000001
 40
0.0
 40
0.0
 40
0.0
 40
0.0
 40
7.579607547259033
 40
13.71718213845153
 40
18.98433297923501
 40
24.71102083029105
 40
38.28465103870766
 40
55.15632733846837
 40
55.15632733846837
 40
55.15632733846837
 40
55.15632733846837
 10
144.9989859370137
 20
1306.098156671651
 30
0.0
 10
145.0181730728525
 20
1303.570496672656
 30
0.0
 10
145.1488669623804
 20
1299.000340538121
 30
0.0
 10
146.0385841715249
 20
1292.714168123206
 30
0.0
 10
147.738523580062
 20
1287.248387166462
 30
0.0
 10
151.625407553931
 20
1279.981421510513
 30
0.0
 10
159.8214079371389
 20
1271.000694105045
 30
0.0
 10
168.0973170711665
 20
1265.0741590801
 30
0.0
 10
172.8377253384366
 20
1262.049023056179
 30
0.0
  0
SPLINE
  5
53
330
1F
100
AcDbEntity
  8
Predefinito
100
AcDbSpline
210
0.0
220
0.0
230
1.0
 70
    12
 71
     2
 72
     6
 73
     3
 74
     0
 42
0.0000000001
 43
0.0000000001
 40
0.0
 40
0.0
 40
0.0
 40
0.2731199666026365
 40
0.2731199666026365
 40
0.2731199666026365
 10
172.8609838612508
 20
1262.034229298263
 30
0.0
 41
1.0
 10
172.9836495627451
 20
1261.954360705624
 30
0.0
 41
0.9023814028370999
 10
172.9986381983415
 20
1261.808754362301
 30
0.0
 41
1.0
  0
SPLINE
  5
54
330
1F
100
AcDbEntity
  8
Predefinito
100
AcDbSpline
210
0.0
220
0.0
230
1.0
 70
    24
 71
     2
 72
     6
 73
     3
 74
     0
 42
0.0000000001
 43
0.0000000001
 40
0.0
 40
0.0
 40
0.0
 40
0.1218076105260479
 40
0.1218076105260479
 40
0.1218076105260479
 10
173.0000003090706
 20
1261.805667735496
 30
0.0
 10
173.0000003090706
 20
1261.744763930233
 30
0.0
 10
173.0000003090706
 20
1261.68386012497
 30
0.0
  0
SPLINE
  5
55
330
1F
100
AcDbEntity
  8
Predefinito
100
AcDbSpline
210
0.0
220
0.0
230
1.0
 70
     8
 71
     3
 72
    13
 73
     9
 74
     0
 42
0.0000000001
 43
0.0000000001
 40
0.0
 40
0.0
 40
0.0
 40
0.0
 40
8.9290679076077
 40
16.94220412038399
 40
30.37238592253389
 40
35.95308547117283
 40
41.45689794758136
 40
55.15642533272185
 40
55.15642533272185
 40
55.15642533272185
 40
55.15642533272185
 10
107.1622752847097
 20
1262.049023055684
 30
0.0
 10
109.6718536556062
 20
1263.643880321654
 30
0.0
 10
114.3478850949194
 20
1266.831821809422
 30
0.0
 10
122.2033629038615
 20
1273.211915135391
 30
0.0
 10
128.31644297857
 20
1279.934296522027
 30
0.0
 10
132.2310449169612
 20
1287.155193014077
 30
0.0
 10
134.7057748516427
 20
1295.079152374095
 30
0.0
 10
134.9556882721101
 20
1301.548386240022
 30
0.0
 10
135.0010146811219
 20
1306.098156670919
 30
0.0
  0
SPLINE
  5
56
330
1F
100
AcDbEntity
  8
Predefinito
100
AcDbSpline
210
0.0
220
0.0
230
1.0
 70
     8
 71
     3
 72
    20
 73
    16
 74
     0
 42
0.0000000001
 43
0.0000000001
 40
0.0
 40
0.0
 40
0.0
 40
0.0
 40
0.3620405428001845
 40
69.50185795219994
 40
81.773579856081
 40
82.17741465185087
 40
82.69172651245756
 40
83.54356635238702
 40
84.27282393113215
 40
84.81295497716089
 40
85.82524172706304
 40
86.7957470902284
 40
87.01036289533424
 40
87.2755554471873
 40
90.03244561339223
 40
90.03244561339223
 40
90.03244561339223
 40
90.03244561339223
 10
173.3940271737018
 20
1261.68386012497
 30
0.0
 10
173.5227895206224
 20
1261.683157972742
 30
0.0
 10
193.5918999699381
 20
1250.108652282797
 30
0.0
 10
217.1875908564576
 20
1236.462731109443
 30
0.0
 10
240.8158959187039
 20
1222.843916958065
 30
0.0
 10
244.6165630247993
 20
1220.63394535589
 30
0.0
 10
244.9858444547838
 20
1220.148572205524
 30
0.0
 10
245.2591721943434
 20
1219.504141036861
 30
0.0
 10
245.2372382464352
 20
1218.774937476563
 30
0.0
 10
244.9843841213839
 20
1218.056359057648
 30
0.0
 10
244.4045355769213
 20
1217.40543911143
 30
0.0
 10
243.6974415749026
 20
1217.147115690195
 30
0.0
 10
243.213199894253
 20
1217.126184245513
 30
0.0
 10
242.1348922259236
 20
1217.106052854831
 30
0.0
 10
241.1274037994451
 20
1217.08124741384
 30
0.0
 10
240.2087808324938
 20
1217.062996598795
 30
0.0
  0
SPLINE
  5
57
330
1F
100
AcDbEntity
  8
Predefinito
100
AcDbSpline
210
0.0
220
0.0
230
1.0
 70
    24
 71
     2
 72
     6
 73
     3
 74
     0
 42
0.0000000001
 43
0.0000000001
 40
0.0
 40
0.0
 40
0.0
 40
28.3886070608724
 40
28.3886070608724
 40
28.3886070608724
 10
173.388606971101
 20
1261.68386012497
 30
0.0
 10
159.1943034406648
 20
1261.68386012497
 30
0.0
 10
144.9999999102286
 20
1261.683860124969
 30
0.0
  0
SPLINE
  5
58
330
1F
100
AcDbEntity
  8
Predefinito
100
AcDbSpline
210
0.0
220
0.0
230
1.0
 70
    24
 71
     2
 72
     6
 73
     3
 74
     0
 42
0.0000000001
 43
0.0000000001
 40
0.0
 40
0.0
 40
0.0
 40
95.20878092263283
 40
95.20878092263283
 40
95.20878092263283
 10
240.2087808324529
 20
1217.062996598796
 30
0.0
 10
192.6043903711365
 20
1217.062996598795
 30
0.0
 10
144.9999999098201
 20
1217.062996598795
 30
0.0
  0
SPLINE
  5
59
330
1F
100
AcDbEntity
  8
Predefinito
100
AcDbSpline
210
0.0
220
0.0
230
1.0
 70
    12
 71
     2
 72
     6
 73
     3
 74
     0
 42
0.0000000001
 43
0.0000000001
 40
0.0
 40
0.0
 40
0.0
 40
91.04263638727528
 40
91.04263638727528
 40
91.04263638727528
 10
236.018923637647
 20
1216.898224620521
 30
0.0
 41
1.0
 10
190.5263653874934
 20
1215.142072287983
 30
0.0
 41
0.9998311878008604
 10
144.9999999102284
 20
1215.058564269168
 30
0.0
 41
1.0
  0
SPLINE
  5
5A
330
1F
100
AcDbEntity
  8
Predefinito
100
AcDbSpline
210
0.0
220
0.0
230
1.0
 70
     8
 71
     3
 72
    20
 73
    16
 74
     0
 42
0.0000000001
 43
0.0000000001
 40
0.0
 40
0.0
 40
0.0
 40
0.0
 40
2.752562657524
 40
2.967756610285957
 40
3.117205708895052
 40
3.737909747194835
 40
6.000314554011922
 40
7.895207943396002
 40
8.247004438467972
 40
8.270483924084823
 40
8.28456826596114
 40
8.312718905474801
 40
12.39360607718292
 40
89.66329222922205
 40
89.99980026504619
 40
89.99980026504619
 40
89.99980026504619
 40
89.99980026504619
 10
39.78689261541494
 20
1217.063050145426
 30
0.0
 10
38.8682327268554
 20
1217.081315061365
 30
0.0
 10
37.88284856813339
 20
1217.105777625466
 30
0.0
 10
36.84048426843795
 20
1217.12500146856
 30
0.0
 10
36.51873519219301
 20
1217.136054074695
 30
0.0
 10
35.49237003396434
 20
1217.317040487448
 30
0.0
 10
34.39741242913031
 20
1218.803953711465
 30
0.0
 10
35.03412845189833
 20
1220.372393797276
 30
0.0
 10
35.66178898632401
 20
1220.794665735478
 30
0.0
 10
35.77221204174973
 20
1220.86589927573
 30
0.0
 10
35.79155208241429
 20
1220.875667738207
 30
0.0
 10
36.98103679048892
 20
1221.564240582387
 30
0.0
 10
60.47631084392595
 20
1235.121684317356
 30
0.0
 10
84.05121639251638
 20
1248.746847247546
 30
0.0
 10
106.4602578642987
 20
1261.670676770407
 30
0.0
 10
106.5770249902268
 20
1261.680929881606
 30
0.0
  0
SPLINE
  5
5B
330
1F
100
AcDbEntity
  8
Predefinito
100
AcDbSpline
210
0.0
220
0.0
230
1.0
 70
    24
 71
     2
 72
     6
 73
     3
 74
     0
 42
0.0000000001
 43
0.0000000001
 40
0.0
 40
0.0
 40
0.0
 40
28.3940264706735
 40
28.3940264706735
 40
28.3940264706735
 10
106.6059734445304
 20
1261.68386012497
 30
0.0
 10
120.8029866798672
 20
1261.68386012497
 30
0.0
 10
134.9999999152039
 20
1261.683860124969
 30
0.0
  0
SPLINE
  5
5C
330
1F
100
AcDbEntity
  8
Predefinito
100
AcDbSpline
210
0.0
220
0.0
230
1.0
 70
    24
 71
     2
 72
     6
 73
     3
 74
     0
 42
0.0000000001
 43
0.0000000001
 40
0.0
 40
0.0
 40
0.0
 40
95.20878012430188
 40
95.20878012430188
 40
95.20878012430188
 10
134.9999999099203
 20
1217.062996598795
 30
0.0
 10
87.39560984776935
 20
1217.062996598795
 30
0.0
 10
39.79121978561841
 20
1217.062996598795
 30
0.0
  0
SPLINE
  5
5D
330
1F
100
AcDbEntity
  8
Predefinito
100
AcDbSpline
210
0.0
220
0.0
230
1.0
 70
    12
 71
     2
 72
     6
 73
     3
 74
     0
 42
0.0000000001
 43
0.0000000001
 40
0.0
 40
0.0
 40
0.0
 40
93.98751400398196
 40
93.98751400398196
 40
93.98751400398196
 10
134.9999999131576
 20
1215.058561508667
 30
0.0
 41
1.0
 10
88.00069061257557
 20
1215.145003666693
 30
0.0
 41
0.9998202693219078
 10
41.03844420442572
 20
1217.013146937074
 30
0.0
 41
1.0
  0
SPLINE
  5
5E
330
1F
100
AcDbEntity
  8
Predefinito
100
AcDbSpline
210
0.0
220
0.0
230
1.0
 70
    24
 71
     2
 72
     6
 73
     3
 74
     0
 42
0.0000000001
 43
0.0000000001
 40
0.0
 40
0.0
 40
0.0
 40
0.3000000000001819
 40
0.3000000000001819
 40
0.3000000000001819
 10
136.3500003090707
 20
1814.999336542239
 30
0.0
 10
136.3500003090707
 20
1815.149336542239
 30
0.0
 10
136.3500003090707
 20
1815.299336542239
 30
0.0
  0
SPLINE
  5
5F
330
1F
100
AcDbEntity
  8
Predefinito
100
AcDbSpline
210
0.0
220
0.0
230
1.0
 70
    24
 71
     2
 72
     6
 73
     3
 74
     0
 42
0.0000000001
 43
0.0000000001
 40
0.0
 40
0.0
 40
0.0
 40
0.3000000000001819
 40
0.3000000000001819
 40
0.3000000000001819
 10
143.6500003090707
 20
1815.299336542239
 30
0.0
 10
143.6500003090707
 20
1815.149336542239
 30
0.0
 10
143.6500003090707
 20
1814.999336542239
 30
0.0
  0
SPLINE
  5
60
330
1F
100
AcDbEntity
  8
Predefinito
100
AcDbSpline
210
0.0
220
0.0
230
1.0
 70
    12
 71
     2
 72
     6
 73
     3
 74
     0
 42
0.0000000001
 43
0.0000000001
 40
0.0
 40
0.0
 40
0.0
 40
0.2731199666021287
 40
0.2731199666021287
 40
0.2731199666021287
 10
287.0013618914313
 20
1211.808754362301
 30
0.0
 41
1.0
 10
287.0163505270289
 20
1211.954360705624
 30
0.0
 41
0.9023814028403793
 10
287.1390162285221
 20
1212.034229298263
 30
0.0
 41
1.0
  0
SPLINE
  5
61
330
1F
100
AcDbEntity
  8
Predefinito
100
AcDbSpline
210
0.0
220
0.0
230
1.0
 70
    24
 71
     2
 72
     6
 73
     3
 74
     0
 42
0.0000000001
 43
0.0000000001
 40
0.0
 40
0.0
 40
0.0
 40
0.1218076105260479
 40
0.1218076105260479
 40
0.1218076105260479
 10
286.9999997807022
 20
1211.68386012497
 30
0.0
 10
286.9999997807022
 20
1211.744763930233
 30
0.0
 10
286.9999997807022
 20
1211.805667735496
 30
0.0
  0
SPLINE
  5
62
330
1F
100
AcDbEntity
  8
Predefinito
100
AcDbSpline
210
0.0
220
0.0
230
1.0
 70
     8
 71
     3
 72
    13
 73
     9
 74
     0
 42
0.0000000001
 43
0.0000000001
 40
0.0
 40
0.0
 40
0.0
 40
0.0
 40
10.11984014321878
 40
16.82218037760601
 40
22.70614913570973
 40
28.59619527024212
 40
42.97226817576845
 40
61.04753165984721
 40
61.04753165984721
 40
61.04753165984721
 40
61.04753165984721
 10
324.9999997807022
 20
1261.989336542239
 30
0.0
 10
325.0019066951779
 20
1258.616044913615
 30
0.0
 10
324.9168603763862
 20
1253.006999699775
 30
0.0
 10
325.5421942039222
 20
1245.450142582315
 30
0.0
 10
326.8881842900897
 20
1239.424285374667
 30
0.0
 10
330.5111540381565
 20
1231.422443893015
 30
0.0
 10
338.956860090764
 20
1221.63568982063
 30
0.0
 10
347.7588306613266
 20
1215.292778605579
 30
0.0
 10
352.837724810068
 20
1212.049023056179
 30
0.0
  0
SPLINE
  5
63
330
1F
100
AcDbEntity
  8
Predefinito
100
AcDbSpline
210
0.0
220
0.0
230
1.0
 70
    24
 71
     2
 72
     6
 73
     3
 74
     0
 42
0.0000000001
 43
0.0000000001
 40
0.0
 40
0.0
 40
0.0
 40
3.0
 40
3.0
 40
3.0
 10
314.9999997807022
 20
1261.989336542239
 30
0.0
 10
314.9999997807022
 20
1263.489336542239
 30
0.0
 10
314.9999997807022
 20
1264.989336542239
 30
0.0
  0
SPLINE
  5
64
330
1F
100
AcDbEntity
  8
Predefinito
100
AcDbSpline
210
0.0
220
0.0
230
1.0
 70
    12
 71
     2
 72
     6
 73
     3
 74
     0
 42
0.0000000001
 43
0.0000000001
 40
0.0
 40
0.0
 40
0.0
 40
0.2731199666039378
 40
0.2731199666039378
 40
0.2731199666039378
 10
352.8609833328823
 20
1212.034229298263
 30
0.0
 41
1.0
 10
352.9836490343807
 20
1211.954360705627
 30
0.0
 41
0.9023814028244458
 10
352.9986376699732
 20
1211.808754362301
 30
0.0
 41
1.0
  0
SPLINE
  5
65
330
1F
100
AcDbEntity
  8
Predefinito
100
AcDbSpline
210
0.0
220
0.0
230
1.0
 70
    24
 71
     2
 72
     6
 73
     3
 74
     0
 42
0.0000000001
 43
0.0000000001
 40
0.0
 40
0.0
 40
0.0
 40
0.1218076105267301
 40
0.1218076105267301
 40
0.1218076105267301
 10
352.9999997807022
 20
1211.805667735496
 30
0.0
 10
352.9999997807022
 20
1211.744763930233
 30
0.0
 10
352.9999997807022
 20
1211.683860124969
 30
0.0
  0
SPLINE
  5
66
330
1F
100
AcDbEntity
  8
Predefinito
100
AcDbSpline
210
0.0
220
0.0
230
1.0
 70
     8
 71
     3
 72
    14
 73
    10
 74
     0
 42
0.0000000001
 43
0.0000000001
 40
0.0
 40
0.0
 40
0.0
 40
0.0
 40
9.656586339249614
 40
18.10883709666241
 40
32.34201512086321
 40
38.10460783553984
 40
44.08114815613857
 40
50.78447797405879
 40
61.04762965483227
 40
61.04762965483227
 40
61.04762965483227
 40
61.04762965483227
 10
287.1622747563413
 20
1212.049023055684
 30
0.0
 10
289.8745221340295
 20
1213.774266456436
 30
0.0
 10
294.8697846686902
 20
1217.193786921562
 30
0.0
 10
303.1535432096398
 20
1224.080081495908
 30
0.0
 10
309.4134848682245
 20
1231.345181254194
 30
0.0
 10
313.0575671654923
 20
1239.265151405418
 30
0.0
 10
314.4359003538069
 20
1245.277476074629
 30
0.0
 10
315.0845062666261
 20
1252.909893551628
 30
0.0
 10
314.9984631807479
 20
1258.568901225367
 30
0.0
 10
314.9999997807022
 20
1261.989336542239
 30
0.0
  0
SPLINE
  5
67
330
1F
100
AcDbEntity
  8
Predefinito
100
AcDbSpline
210
0.0
220
0.0
230
1.0
 70
    24
 71
     2
 72
     6
 73
     3
 74
     0
 42
0.0000000001
 43
0.0000000001
 40
0.0
 40
0.0
 40
0.0
 40
3.0
 40
3.0
 40
3.0
 10
324.9999997807022
 20
1264.989336542239
 30
0.0
 10
324.9999997807022
 20
1263.489336542239
 30
0.0
 10
324.9999997807022
 20
1261.989336542239
 30
0.0
  0
SPLINE
  5
68
330
1F
100
AcDbEntity
  8
Predefinito
100
AcDbSpline
210
0.0
220
0.0
230
1.0
 70
     8
 71
     3
 72
    20
 73
    16
 74
     0
 42
0.0000000001
 43
0.0000000001
 40
0.0
 40
0.0
 40
0.0
 40
0.0
 40
0.3620405428168167
 40
69.50185795221618
 40
81.77357985609774
 40
82.17741465186734
 40
82.69172651247253
 40
83.54356635240461
 40
84.27282393115112
 40
84.81295497717961
 40
85.82524172707994
 40
86.7957470902434
 40
87.01036289534943
 40
87.27555544720464
 40
90.03244561339119
 40
90.03244561339119
 40
90.03244561339119
 40
90.03244561339119
 10
353.394026645333
 20
1211.68386012497
 30
0.0
 10
353.5227889922576
 20
1211.683157972743
 30
0.0
 10
373.5918994415736
 20
1200.108652282788
 30
0.0
 10
397.1875903281016
 20
1186.462731109436
 30
0.0
 10
420.8158953903481
 20
1172.843916958057
 30
0.0
 10
424.6165624964428
 20
1170.633945355881
 30
0.0
 10
424.985843926421
 20
1170.148572205509
 30
0.0
 10
425.2591716659778
 20
1169.504141036841
 30
0.0
 10
425.2372377180636
 20
1168.774937476543
 30
0.0
 10
424.9843835930061
 20
1168.056359057631
 30
0.0
 10
424.4045350485355
 20
1167.405439111426
 30
0.0
 10
423.6974410465184
 20
1167.147115690191
 30
0.0
 10
423.2131993658686
 20
1167.12618424551
 30
0.0
 10
422.1348916975445
 20
1167.106052854832
 30
0.0
 10
421.1274032710716
 20
1167.08124741384
 30
0.0
 10
420.2087803041264
 20
1167.062996598795
 30
0.0
  0
SPLINE
  5
69
330
1F
100
AcDbEntity
  8
Predefinito
100
AcDbSpline
210
0.0
220
0.0
230
1.0
 70
    24
 71
     2
 72
     6
 73
     3
 74
     0
 42
0.0000000001
 43
0.0000000001
 40
0.0
 40
0.0
 40
0.0
 40
33.38860666185224
 40
33.38860666185224
 40
33.38860666185224
 10
353.3886064425544
 20
1211.683860124969
 30
0.0
 10
336.6943031116283
 20
1211.68386012497
 30
0.0
 10
319.9999997807022
 20
1211.68386012497
 30
0.0
  0
SPLINE
  5
6A
330
1F
100
AcDbEntity
  8
Predefinito
100
AcDbSpline
210
0.0
220
0.0
230
1.0
 70
    24
 71
     2
 72
     6
 73
     3
 74
     0
 42
0.0000000001
 43
0.0000000001
 40
0.0
 40
0.0
 40
0.0
 40
100.2087805235192
 40
100.2087805235192
 40
100.2087805235192
 10
420.2087803042006
 20
1167.062996598795
 30
0.0
 10
370.104390042441
 20
1167.062996598795
 30
0.0
 10
319.9999997806813
 20
1167.062996598795
 30
0.0
  0
SPLINE
  5
6B
330
1F
100
AcDbEntity
  8
Predefinito
100
AcDbSpline
210
0.0
220
0.0
230
1.0
 70
    12
 71
     2
 72
     6
 73
     3
 74
     0
 42
0.0000000001
 43
0.0000000001
 40
0.0
 40
0.0
 40
0.0
 40
96.03262674400115
 40
96.03262674400115
 40
96.03262674400115
 10
416.0189231092806
 20
1166.898224620521
 30
0.0
 41
1.0
 10
368.0323329509325
 20
1165.046163813447
 30
0.0
 41
0.9998124732393256
 10
320.0100161863455
 20
1165.053701719427
 30
0.0
 41
1.0
  0
SPLINE
  5
6C
330
1F
100
AcDbEntity
  8
Predefinito
100
AcDbSpline
210
0.0
220
0.0
230
1.0
 70
     8
 71
     3
 72
    20
 73
    16
 74
     0
 42
0.0000000001
 43
0.0000000001
 40
0.0
 40
0.0
 40
0.0
 40
0.0
 40
2.752562657521397
 40
2.967756610283589
 40
3.117205708892782
 40
3.73790974719295
 40
6.000314554015284
 40
7.895207943400921
 40
8.247004438468785
 40
8.270483924085303
 40
8.28456826596138
 40
8.312718905474817
 40
12.39360607718323
 40
89.66329222922205
 40
89.99980026504849
 40
89.99980026504849
 40
89.99980026504849
 40
89.99980026504849
 10
219.7868920870465
 20
1167.063050145425
 30
0.0
 10
218.8682321984877
 20
1167.081315061366
 30
0.0
 10
217.8828480397671
 20
1167.105777625469
 30
0.0
 10
216.8404837400714
 20
1167.125001468556
 30
0.0
 10
216.5187346638272
 20
1167.136054074694
 30
0.0
 10
215.492369505595
 20
1167.317040487445
 30
0.0
 10
214.3974119007627
 20
1168.803953711466
 30
0.0
 10
215.0341279235301
 20
1170.372393797279
 30
0.0
 10
215.6617884579502
 20
1170.794665735485
 30
0.0
 10
215.7722115133798
 20
1170.86589927573
 30
0.0
 10
215.7915515540442
 20
1170.875667738208
 30
0.0
 10
216.9810362621188
 20
1171.564240582388
 30
0.0
 10
240.476310315556
 20
1185.121684317354
 30
0.0
 10
264.051215864148
 20
1198.746847247544
 30
0.0
 10
286.4602573359296
 20
1211.670676770407
 30
0.0
 10
286.5770244618583
 20
1211.680929881606
 30
0.0
  0
SPLINE
  5
6D
330
1F
100
AcDbEntity
  8
Predefinito
100
AcDbSpline
210
0.0
220
0.0
230
1.0
 70
    24
 71
     2
 72
     6
 73
     3
 74
     0
 42
0.0000000001
 43
0.0000000001
 40
0.0
 40
0.0
 40
0.0
 40
33.39402686445374
 40
33.39402686445374
 40
33.39402686445374
 10
286.6059729162484
 20
1211.68386012497
 30
0.0
 10
303.3029863484753
 20
1211.68386012497
 30
0.0
 10
319.9999997807022
 20
1211.68386012497
 30
0.0
  0
SPLINE
  5
6E
330
1F
100
AcDbEntity
  8
Predefinito
100
AcDbSpline
210
0.0
220
0.0
230
1.0
 70
    24
 71
     2
 72
     6
 73
     3
 74
     0
 42
0.0000000001
 43
0.0000000001
 40
0.0
 40
0.0
 40
0.0
 40
100.2087805234641
 40
100.2087805234641
 40
100.2087805234641
 10
319.9999997806813
 20
1167.062996598795
 30
0.0
 10
269.8956095189492
 20
1167.062996598795
 30
0.0
 10
219.7912192572172
 20
1167.062996598795
 30
0.0
  0
SPLINE
  5
6F
330
1F
100
AcDbEntity
  8
Predefinito
100
AcDbSpline
210
0.0
220
0.0
230
1.0
 70
    12
 71
     2
 72
     6
 73
     3
 74
     0
 42
0.0000000001
 43
0.0000000001
 40
0.0
 40
0.0
 40
0.0
 40
98.97750568989304
 40
98.97750568989304
 40
98.97750568989304
 10
319.9899833750588
 20
1165.053701719427
 30
0.0
 41
1.0
 10
270.4946625785441
 20
1165.046105932149
 30
0.0
 41
0.999800946575104
 10
221.0384436760559
 20
1167.013146937074
 30
0.0
 41
1.0
  0
SPLINE
  5
70
330
1F
100
AcDbEntity
  8
Predefinito
100
AcDbSpline
210
0.0
220
0.0
230
1.0
 70
    24
 71
     2
 72
     6
 73
     3
 74
     0
 42
0.0000000001
 43
0.0000000001
 40
0.0
 40
0.0
 40
0.0
 40
0.3000000000001819
 40
0.3000000000001819
 40
0.3000000000001819
 10
316.3499997807022
 20
1764.999336542239
 30
0.0
 10
316.3499997807022
 20
1765.149336542239
 30
0.0
 10
316.3499997807022
 20
1765.299336542239
 30
0.0
  0
SPLINE
  5
71
330
1F
100
AcDbEntity
  8
Predefinito
100
AcDbSpline
210
0.0
220
0.0
230
1.0
 70
    24
 71
     2
 72
     6
 73
     3
 74
     0
 42
0.0000000001
 43
0.0000000001
 40
0.0
 40
0.0
 40
0.0
 40
0.3000000000001819
 40
0.3000000000001819
 40
0.3000000000001819
 10
323.6499997807022
 20
1765.299336542239
 30
0.0
 10
323.6499997807022
 20
1765.149336542239
 30
0.0
 10
323.6499997807022
 20
1764.999336542239
 30
0.0
  0
SPLINE
  5
72
330
1F
100
AcDbEntity
  8
Predefinito
100
AcDbSpline
210
0.0
220
0.0
230
1.0
 70
    12
 71
     2
 72
     6
 73
     3
 74
     0
 42
0.0000000001
 43
0.0000000001
 40
0.0
 40
0.0
 40
0.0
 40
0.2731199666025799
 40
0.2731199666025799
 40
0.2731199666025799
 10
107.0013620209568
 20
1161.808754362301
 30
0.0
 41
1.0
 10
107.016350656554
 20
1161.954360705624
 30
0.0
 41
0.9023814028394195
 10
107.1390163580477
 20
1162.034229298263
 30
0.0
 41
1.0
  0
SPLINE
  5
73
330
1F
100
AcDbEntity
  8
Predefinito
100
AcDbSpline
210
0.0
220
0.0
230
1.0
 70
    24
 71
     2
 72
     6
 73
     3
 74
     0
 42
0.0000000001
 43
0.0000000001
 40
0.0
 40
0.0
 40
0.0
 40
0.1218076105267301
 40
0.1218076105267301
 40
0.1218076105267301
 10
106.9999999102278
 20
1161.683860124969
 30
0.0
 10
106.9999999102278
 20
1161.744763930233
 30
0.0
 10
106.9999999102278
 20
1161.805667735496
 30
0.0
  0
SPLINE
  5
74
330
1F
100
AcDbEntity
  8
Predefinito
100
AcDbSpline
210
0.0
220
0.0
230
1.0
 70
     8
 71
     3
 72
    13
 73
     9
 74
     0
 42
0.0000000001
 43
0.0000000001
 40
0.0
 40
0.0
 40
0.0
 40
0.0
 40
10.11984014321878
 40
16.82218037760647
 40
22.70614913570974
 40
28.59619527024205
 40
42.97226817576818
 40
61.04753165984737
 40
61.04753165984737
 40
61.04753165984737
 40
61.04753165984737
 10
144.9999999102278
 20
1211.989336542239
 30
0.0
 10
145.0019068247038
 20
1208.616044913615
 30
0.0
 10
144.9168605059115
 20
1203.006999699771
 30
0.0
 10
145.5421943334478
 20
1195.450142582311
 30
0.0
 10
146.8881844196153
 20
1189.424285374667
 30
0.0
 10
150.5111541676818
 20
1181.422443893012
 30
0.0
 10
158.9568602202906
 20
1171.635689820631
 30
0.0
 10
167.7588307908524
 20
1165.29277860558
 30
0.0
 10
172.8377249395937
 20
1162.049023056179
 30
0.0
  0
SPLINE
  5
75
330
1F
100
AcDbEntity
  8
Predefinito
100
AcDbSpline
210
0.0
220
0.0
230
1.0
 70
    24
 71
     2
 72
     6
 73
     3
 74
     0
 42
0.0000000001
 43
0.0000000001
 40
0.0
 40
0.0
 40
0.0
 40
3.0
 40
3.0
 40
3.0
 10
134.9999999102278
 20
1211.989336542239
 30
0.0
 10
134.9999999102278
 20
1213.489336542239
 30
0.0
 10
134.9999999102278
 20
1214.989336542239
 30
0.0
  0
SPLINE
  5
76
330
1F
100
AcDbEntity
  8
Predefinito
100
AcDbSpline
210
0.0
220
0.0
230
1.0
 70
    12
 71
     2
 72
     6
 73
     3
 74
     0
 42
0.0000000001
 43
0.0000000001
 40
0.0
 40
0.0
 40
0.0
 40
0.2731199666023555
 40
0.2731199666023555
 40
0.2731199666023555
 10
172.8609834624079
 20
1162.034229298263
 30
0.0
 41
1.0
 10
172.9836491639009
 20
1161.954360705623
 30
0.0
 41
0.902381402841712
 10
172.9986377994991
 20
1161.808754362301
 30
0.0
 41
1.0
  0
SPLINE
  5
77
330
1F
100
AcDbEntity
  8
Predefinito
100
AcDbSpline
210
0.0
220
0.0
230
1.0
 70
    24
 71
     2
 72
     6
 73
     3
 74
     0
 42
0.0000000001
 43
0.0000000001
 40
0.0
 40
0.0
 40
0.0
 40
0.1218076105260479
 40
0.1218076105260479
 40
0.1218076105260479
 10
172.9999999102278
 20
1161.805667735496
 30
0.0
 10
172.9999999102278
 20
1161.744763930233
 30
0.0
 10
172.9999999102278
 20
1161.68386012497
 30
0.0
  0
SPLINE
  5
78
330
1F
100
AcDbEntity
  8
Predefinito
100
AcDbSpline
210
0.0
220
0.0
230
1.0
 70
     8
 71
     3
 72
    14
 73
    10
 74
     0
 42
0.0000000001
 43
0.0000000001
 40
0.0
 40
0.0
 40
0.0
 40
0.0
 40
9.656586339249667
 40
18.10883709666253
 40
32.34201512086366
 40
38.10460783553969
 40
44.0811481561397
 40
50.7844779740588
 40
61.04762965483226
 40
61.04762965483226
 40
61.04762965483226
 40
61.04762965483226
 10
107.1622748858669
 20
1162.049023055684
 30
0.0
 10
109.8745222635556
 20
1163.774266456437
 30
0.0
 10
114.8697847982154
 20
1167.193786921557
 30
0.0
 10
123.153543339166
 20
1174.080081495911
 30
0.0
 10
129.41348499775
 20
1181.345181254195
 30
0.0
 10
133.0575672950181
 20
1189.265151405418
 30
0.0
 10
134.4359004833325
 20
1195.277476074629
 30
0.0
 10
135.0845063961522
 20
1202.909893551628
 30
0.0
 10
134.9984633102732
 20
1208.568901225366
 30
0.0
 10
134.9999999102278
 20
1211.989336542239
 30
0.0
  0
SPLINE
  5
79
330
1F
100
AcDbEntity
  8
Predefinito
100
AcDbSpline
210
0.0
220
0.0
230
1.0
 70
    24
 71
     2
 72
     6
 73
     3
 74
     0
 42
0.0000000001
 43
0.0000000001
 40
0.0
 40
0.0
 40
0.0
 40
3.0
 40
3.0
 40
3.0
 10
144.9999999102278
 20
1214.989336542239
 30
0.0
 10
144.9999999102278
 20
1213.489336542239
 30
0.0
 10
144.9999999102278
 20
1211.989336542239
 30
0.0
  0
SPLINE
  5
7A
330
1F
100
AcDbEntity
  8
Predefinito
100
AcDbSpline
210
0.0
220
0.0
230
1.0
 70
     8
 71
     3
 72
    20
 73
    16
 74
     0
 42
0.0000000001
 43
0.0000000001
 40
0.0
 40
0.0
 40
0.0
 40
0.0
 40
0.3620405428186156
 40
69.50185795221815
 40
81.77357985609945
 40
82.17741465187056
 40
82.69172651247858
 40
83.54356635240444
 40
84.27282393115172
 40
84.81295497717593
 40
85.82524172707097
 40
86.79574709023967
 40
87.01036289534579
 40
87.27555544720109
 40
90.03244561338879
 40
90.03244561338879
 40
90.03244561338879
 40
90.03244561338879
 10
173.3940267748587
 20
1161.68386012497
 30
0.0
 10
173.5227891217825
 20
1161.683157972745
 30
0.0
 10
193.5918995711029
 20
1150.108652282791
 30
0.0
 10
217.1875904576278
 20
1136.462731109437
 30
0.0
 10
240.8158955198742
 20
1122.843916958054
 30
0.0
 10
244.6165626259692
 20
1120.633945355879
 30
0.0
 10
244.9858440559462
 20
1120.148572205506
 30
0.0
 10
245.2591717955035
 20
1119.504141036842
 30
0.0
 10
245.2372378475891
 20
1118.774937476544
 30
0.0
 10
244.9843837225332
 20
1118.056359057635
 30
0.0
 10
244.4045351780589
 20
1117.405439111437
 30
0.0
 10
243.6974411760466
 20
1117.147115690194
 30
0.0
 10
243.2131994953938
 20
1117.126184245512
 30
0.0
 10
242.1348918270704
 20
1117.106052854833
 30
0.0
 10
241.1274034005964
 20
1117.081247413841
 30
0.0
 10
240.2087804336506
 20
1117.062996598795
 30
0.0
  0
SPLINE
  5
7B
330
1F
100
AcDbEntity
  8
Predefinito
100
AcDbSpline
210
0.0
220
0.0
230
1.0
 70
    24
 71
     2
 72
     6
 73
     3
 74
     0
 42
0.0000000001
 43
0.0000000001
 40
0.0
 40
0.0
 40
0.0
 40
33.38860666168077
 40
33.38860666168077
 40
33.38860666168077
 10
173.3886065719086
 20
1161.68386012497
 30
0.0
 10
156.6943032410682
 20
1161.68386012497
 30
0.0
 10
139.9999999102278
 20
1161.68386012497
 30
0.0
  0
SPLINE
  5
7C
330
1F
100
AcDbEntity
  8
Predefinito
100
AcDbSpline
210
0.0
220
0.0
230
1.0
 70
    24
 71
     2
 72
     6
 73
     3
 74
     0
 42
0.0000000001
 43
0.0000000001
 40
0.0
 40
0.0
 40
0.0
 40
100.2087805233306
 40
100.2087805233306
 40
100.2087805233306
 10
240.2087804335376
 20
1117.062996598795
 30
0.0
 10
190.1043901718723
 20
1117.062996598795
 30
0.0
 10
139.999999910207
 20
1117.062996598795
 30
0.0
  0
SPLINE
  5
7D
330
1F
100
AcDbEntity
  8
Predefinito
100
AcDbSpline
210
0.0
220
0.0
230
1.0
 70
    12
 71
     2
 72
     6
 73
     3
 74
     0
 42
0.0000000001
 43
0.0000000001
 40
0.0
 40
0.0
 40
0.0
 40
96.03262674399768
 40
96.03262674399768
 40
96.03262674399768
 10
236.0189232388028
 20
1116.898224620521
 30
0.0
 41
1.0
 10
188.0323330804564
 20
1115.046163813447
 30
0.0
 41
0.9998124732393256
 10
140.0100163158712
 20
1115.053701719427
 30
0.0
 41
1.0
  0
SPLINE
  5
7E
330
1F
100
AcDbEntity
  8
Predefinito
100
AcDbSpline
210
0.0
220
0.0
230
1.0
 70
     8
 71
     3
 72
    20
 73
    16
 74
     0
 42
0.0000000001
 43
0.0000000001
 40
0.0
 40
0.0
 40
0.0
 40
0.0
 40
2.752562657531104
 40
2.967756610292349
 40
3.117205708901174
 40
3.737909747201676
 40
6.000314554029871
 40
7.895207943411894
 40
8.247004438479138
 40
8.270483924095553
 40
8.28456826597161
 40
8.312718905485019
 40
12.39360607719329
 40
89.6632922292322
 40
89.99980026505094
 40
89.99980026505094
 40
89.99980026505094
 40
89.99980026505094
 10
39.78689221657216
 20
1117.063050145426
 30
0.0
 10
38.8682323280099
 20
1117.081315061364
 30
0.0
 10
37.88284816928667
 20
1117.105777625466
 30
0.0
 10
36.84048386958829
 20
1117.125001468561
 30
0.0
 10
36.5187347933451
 20
1117.136054074696
 30
0.0
 10
35.49236963510802
 20
1117.317040487452
 30
0.0
 10
34.39741203028996
 20
1118.803953711475
 30
0.0
 10
35.03412805306078
 20
1120.372393797289
 30
0.0
 10
35.66178858748044
 20
1120.794665735491
 30
0.0
 10
35.77221164291271
 20
1120.865899275736
 30
0.0
 10
35.79155168357673
 20
1120.875667738211
 30
0.0
 10
36.98103639165168
 20
1121.564240582393
 30
0.0
 10
60.47631044508772
 20
1135.12168431736
 30
0.0
 10
84.0512159936773
 20
1148.746847247547
 30
0.0
 10
106.4602574654574
 20
1161.670676770408
 30
0.0
 10
106.577024591384
 20
1161.680929881606
 30
0.0
  0
SPLINE
  5
7F
330
1F
100
AcDbEntity
  8
Predefinito
100
AcDbSpline
210
0.0
220
0.0
230
1.0
 70
    24
 71
     2
 72
     6
 73
     3
 74
     0
 42
0.0000000001
 43
0.0000000001
 40
0.0
 40
0.0
 40
0.0
 40
33.39402686442853
 40
33.39402686442853
 40
33.39402686442853
 10
106.6059730457993
 20
1161.68386012497
 30
0.0
 10
123.3029864780136
 20
1161.68386012497
 30
0.0
 10
139.9999999102278
 20
1161.68386012497
 30
0.0
  0
SPLINE
  5
80
330
1F
100
AcDbEntity
  8
Predefinito
100
AcDbSpline
210
0.0
220
0.0
230
1.0
 70
    24
 71
     2
 72
     6
 73
     3
 74
     0
 42
0.0000000001
 43
0.0000000001
 40
0.0
 40
0.0
 40
0.0
 40
100.2087805234226
 40
100.2087805234226
 40
100.2087805234226
 10
139.999999910207
 20
1117.062996598795
 30
0.0
 10
89.8956096484957
 20
1117.062996598795
 30
0.0
 10
39.79121938678438
 20
1117.062996598795
 30
0.0
  0
SPLINE
  5
81
330
1F
100
AcDbEntity
  8
Predefinito
100
AcDbSpline
210
0.0
220
0.0
230
1.0
 70
    12
 71
     2
 72
     6
 73
     3
 74
     0
 42
0.0000000001
 43
0.0000000001
 40
0.0
 40
0.0
 40
0.0
 40
98.98748036375846
 40
98.98748036375846
 40
98.98748036375846
 10
139.9999581688278
 20
1115.05370175737
 30
0.0
 41
1.0
 10
90.49964810019716
 20
1115.045908427625
 30
0.0
 41
0.9998009070740114
 10
41.03844380558347
 20
1117.013146937074
 30
0.0
 41
1.0
  0
SPLINE
  5
82
330
1F
100
AcDbEntity
  8
Predefinito
100
AcDbSpline
210
0.0
220
0.0
230
1.0
 70
    24
 71
     2
 72
     6
 73
     3
 74
     0
 42
0.0000000001
 43
0.0000000001
 40
0.0
 40
0.0
 40
0.0
 40
0.3000000000001819
 40
0.3000000000001819
 40
0.3000000000001819
 10
136.3499999102278
 20
1714.999336542239
 30
0.0
 10
136.3499999102278
 20
1715.149336542239
 30
0.0
 10
136.3499999102278
 20
1715.299336542239
 30
0.0
  0
SPLINE
  5
83
330
1F
100
AcDbEntity
  8
Predefinito
100
AcDbSpline
210
0.0
220
0.0
230
1.0
 70
    24
 71
     2
 72
     6
 73
     3
 74
     0
 42
0.0000000001
 43
0.0000000001
 40
0.0
 40
0.0
 40
0.0
 40
0.3000000000001819
 40
0.3000000000001819
 40
0.3000000000001819
 10
143.6499999102278
 20
1715.299336542239
 30
0.0
 10
143.6499999102278
 20
1715.149336542239
 30
0.0
 10
143.6499999102278
 20
1714.999336542239
 30
0.0
  0
SPLINE
  5
84
330
1F
100
AcDbEntity
  8
Predefinito
100
AcDbSpline
210
0.0
220
0.0
230
1.0
 70
    24
 71
     2
 72
     6
 73
     3
 74
     0
 42
0.0000000001
 43
0.0000000001
 40
0.0
 40
0.0
 40
0.0
 40
173.2050807568878
 40
173.2050807568878
 40
173.2050807568878
 10
200.0
 20
1932.297546532159
 30
0.0
 10
113.3974596215561
 20
1932.297546532159
 30
0.0
 10
26.79491924311216
 20
1932.297546532159
 30
0.0
  0
SPLINE
  5
85
330
1F
100
AcDbEntity
  8
Predefinito
100
AcDbSpline
210
0.0
220
0.0
230
1.0
 70
    28
 71
     2
 72
     8
 73
     5
 74
     0
 42
0.0000000001
 43
0.0000000001
 40
729.765793490129
 40
729.765793490129
 40
729.765793490129
 40
837.758040957278
 40
837.758040957278
 40
1047.197551196597
 40
1047.197551196597
 40
1047.197551196597
 10
399.9719563530793
 20
1932.297546532158
 30
0.0
 41
0.9330781191755282
 10
400.8994777339225
 20
1932.297546532159
 30
0.0
 41
0.9309193488263517
 10
373.2050807568873
 20
1932.297546532159
 30
0.0
 41
1.0
 10
315.4700538379249
 20
1932.297546532159
 30
0.0
 41
0.8660254037844397
 10
200.0
 20
1932.297546532159
 30
0.0
 41
1.0
  0
SPLINE
  5
86
330
1F
100
AcDbEntity
  8
Predefinito
100
AcDbSpline
210
0.0
220
0.0
230
1.0
 70
    28
 71
     2
 72
     6
 73
     3
 74
     0
 42
0.0000000001
 43
0.0000000001
 40
-107.9922474671491
 40
-107.9922474671491
 40
-107.9922474671491
 40
0.0
 40
0.0
 40
0.0
 10
0.0018900081473533
 20
1932.297546532158
 30
0.0
 41
0.8678548172931494
 10
-0.2331139905520205
 20
1932.297546532159
 30
0.0
 41
0.8993179560328757
 10
26.79491924311216
 20
1932.297546532159
 30
0.0
 41
1.0
  0
SPLINE
  5
87
330
1F
100
AcDbEntity
  8
Predefinito
100
AcDbSpline
210
0.0
220
0.0
230
1.0
 70
    24
 71
     2
 72
     6
 73
     3
 74
     0
 42
0.0000000001
 43
0.0000000001
 40
0.0
 40
0.0
 40
0.0
 40
26.75052197863767
 40
26.75052197863767
 40
26.75052197863767
 10
26.7949192431121
 20
1931.097546532159
 30
0.0
 10
13.41965825379327
 20
1931.097546532159
 30
0.0
 10
0.0443972644744338
 20
1931.097546532159
 30
0.0
  0
SPLINE
  5
88
330
1F
100
AcDbEntity
  8
Predefinito
100
AcDbSpline
210
0.0
220
0.0
230
1.0
 70
    24
 71
     2
 72
     6
 73
     3
 74
     0
 42
0.0000000001
 43
0.0000000001
 40
0.0
 40
0.0
 40
0.0
 40
173.2050807568878
 40
173.2050807568878
 40
173.2050807568878
 10
26.7949192431121
 20
1931.097546532159
 30
0.0
 10
113.397459621556
 20
1931.097546532159
 30
0.0
 10
199.9999999999999
 20
1931.097546532159
 30
0.0
  0
SPLINE
  5
89
330
1F
100
AcDbEntity
  8
Predefinito
100
AcDbSpline
210
0.0
220
0.0
230
1.0
 70
    24
 71
     2
 72
     6
 73
     3
 74
     0
 42
0.0000000001
 43
0.0000000001
 40
0.0
 40
0.0
 40
0.0
 40
199.9719563530792
 40
199.9719563530792
 40
199.9719563530792
 10
199.9999999999999
 20
1931.097546532159
 30
0.0
 10
299.9859781765396
 20
1931.097546532159
 30
0.0
 10
399.9719563530792
 20
1931.097546532159
 30
0.0
  0
SPLINE
  5
8A
330
1F
100
AcDbEntity
  8
Predefinito
100
AcDbSpline
210
0.0
220
0.0
230
1.0
 70
    24
 71
     2
 72
     6
 73
     3
 74
     0
 42
0.0000000001
 43
0.0000000001
 40
0.0
 40
0.0
 40
0.0
 40
27.96719122244507
 40
27.96719122244507
 40
27.96719122244507
 10
134.9999999102286
 20
1261.805667735496
 30
0.0
 10
121.0164042990061
 20
1261.805667735497
 30
0.0
 10
107.0328086877835
 20
1261.805667735497
 30
0.0
  0
SPLINE
  5
8B
330
1F
100
AcDbEntity
  8
Predefinito
100
AcDbSpline
210
0.0
220
0.0
230
1.0
 70
    24
 71
     2
 72
     6
 73
     3
 74
     0
 42
0.0000000001
 43
0.0000000001
 40
0.0
 40
0.0
 40
0.0
 40
27.82831378152949
 40
27.82831378152949
 40
27.82831378152949
 10
144.9999999102286
 20
1262.034229298263
 30
0.0
 10
158.9141568009933
 20
1262.034229298263
 30
0.0
 10
172.8283136917581
 20
1262.034229298263
 30
0.0
  0
SPLINE
  5
8C
330
1F
100
AcDbEntity
  8
Predefinito
100
AcDbSpline
210
0.0
220
0.0
230
1.0
 70
    12
 71
     2
 72
     8
 73
     5
 74
     0
 42
0.0000000001
 43
0.0000000001
 40
0.0
 40
0.0
 40
0.0
 40
0.0328083787129003
 40
0.0328083787129003
 40
1.43951557507504
 40
1.43951557507504
 40
1.43951557507504
 10
172.9671919303577
 20
1261.805667757988
 30
0.0
 41
1.0
 10
172.9835961197142
 20
1261.805667757989
 30
0.0
 41
1.0
 10
173.0000003090706
 20
1261.805667757989
 30
0.0
 41
1.0
 10
173.0000003090706
 20
1261.805667735496
 30
0.0
 41
0.7377031053343234
 10
144.9999999102285
 20
1261.805667735496
 30
0.0
 41
0.9451996816815526
  0
SPLINE
  5
8D
330
1F
100
AcDbEntity
  8
Predefinito
100
AcDbSpline
210
0.0
220
0.0
230
1.0
 70
    12
 71
     2
 72
     8
 73
     5
 74
     0
 42
0.0000000001
 43
0.0000000001
 40
0.0
 40
0.0
 40
0.0
 40
0.0326701694926612
 40
0.0326701694926612
 40
58.86068018883869
 40
58.86068018883869
 40
58.86068018883869
 10
107.1716869263832
 20
1262.034229278564
 30
0.0
 41
1.0
 10
107.1553518416369
 20
1262.034229278564
 30
0.0
 41
1.0
 10
107.1390167568905
 20
1262.034229278563
 30
0.0
 41
1.0
 10
107.1390167568905
 20
1262.034229298263
 30
0.0
 41
0.7378300441982175
 10
134.9999999102286
 20
1262.034229298263
 30
0.0
 41
0.9449989553292724
  0
SPLINE
  5
8E
330
1F
100
AcDbEntity
  8
Predefinito
100
AcDbSpline
210
0.0
220
0.0
230
1.0
 70
    24
 71
     2
 72
     6
 73
     3
 74
     0
 42
0.0000000001
 43
0.0000000001
 40
0.0
 40
0.0
 40
0.0
 40
1.900008880553116
 40
1.900008880553116
 40
1.900008880553116
 10
136.3500003090707
 20
1815.299336542239
 30
0.0
 10
137.3000047493472
 20
1815.299336542239
 30
0.0
 10
138.2500091896238
 20
1815.299336542239
 30
0.0
  0
SPLINE
  5
8F
330
1F
100
AcDbEntity
  8
Predefinito
100
AcDbSpline
210
0.0
220
0.0
230
1.0
 70
    24
 71
     2
 72
     6
 73
     3
 74
     0
 42
0.0000000001
 43
0.0000000001
 40
0.0
 40
0.0
 40
0.0
 40
1.900285332436567
 40
1.900285332436567
 40
1.900285332436567
 10
143.6500003090707
 20
1815.299336542239
 30
0.0
 10
142.6998576428524
 20
1815.299336542239
 30
0.0
 10
141.7497149766341
 20
1815.299336542239
 30
0.0
  0
SPLINE
  5
90
330
1F
100
AcDbEntity
  8
Predefinito
100
AcDbSpline
210
0.0
220
0.0
230
1.0
 70
    12
 71
     2
 72
     6
 73
     3
 74
     0
 42
0.0000000001
 43
0.0000000001
 40
0.0
 40
0.0
 40
0.0
 40
0.3302973548297851
 40
0.3302973548297851
 40
0.3302973548297851
 10
144.945946255019
 20
1811.646994199897
 30
0.0
 41
1.0
 10
145.0000003090732
 20
1811.489336542239
 30
0.0
 41
0.9863939238320326
 10
145.0000003090731
 20
1811.322669875572
 30
0.0
 41
1.0
  0
SPLINE
  5
91
330
1F
100
AcDbEntity
  8
Predefinito
100
AcDbSpline
210
0.0
220
0.0
230
1.0
 70
    12
 71
     2
 72
     6
 73
     3
 74
     0
 42
0.0000000001
 43
0.0000000001
 40
0.0
 40
0.0
 40
0.0
 40
0.3302973548297937
 40
0.3302973548297937
 40
0.3302973548297937
 10
135.0540543631274
 20
1811.646994199897
 30
0.0
 41
1.0
 10
135.0000003090731
 20
1811.489336542239
 30
0.0
 41
0.9863939238320412
 10
135.0000003090732
 20
1811.322669875572
 30
0.0
 41
1.0
  0
SPLINE
  5
92
330
1F
100
AcDbEntity
  8
Predefinito
100
AcDbSpline
210
0.0
220
0.0
230
1.0
 70
    24
 71
     2
 72
     6
 73
     3
 74
     0
 42
0.0000000001
 43
0.0000000001
 40
0.0
 40
0.0
 40
0.0
 40
3.25021988787293
 40
3.25021988787293
 40
3.25021988787293
 10
141.7497804212002
 20
1811.322669875572
 30
0.0
 10
143.3748903651367
 20
1811.322669875572
 30
0.0
 10
145.0000003090731
 20
1811.322669875572
 30
0.0
  0
SPLINE
  5
93
330
1F
100
AcDbEntity
  8
Predefinito
100
AcDbSpline
210
0.0
220
0.0
230
1.0
 70
    24
 71
     2
 72
     6
 73
     3
 74
     0
 42
0.0000000001
 43
0.0000000001
 40
0.0
 40
0.0
 40
0.0
 40
3.250006673890795
 40
3.250006673890795
 40
3.250006673890795
 10
135.0000003090731
 20
1811.322669875572
 30
0.0
 10
136.6250036460185
 20
1811.322669875572
 30
0.0
 10
138.2500069829639
 20
1811.322669875572
 30
0.0
  0
SPLINE
  5
94
330
1F
100
AcDbEntity
  8
Predefinito
100
AcDbSpline
210
0.0
220
0.0
230
1.0
 70
    24
 71
     2
 72
     6
 73
     3
 74
     0
 42
0.0000000001
 43
0.0000000001
 40
0.0
 40
0.0
 40
0.0
 40
3.533333333333094
 40
3.533333333333094
 40
3.533333333333094
 10
144.945946255019
 20
1811.646994199897
 30
0.0
 10
144.372973282046
 20
1813.318165371068
 30
0.0
 10
143.8000003090731
 20
1814.989336542239
 30
0.0
  0
SPLINE
  5
95
330
1F
100
AcDbEntity
  8
Predefinito
100
AcDbSpline
210
0.0
220
0.0
230
1.0
 70
    24
 71
     2
 72
     6
 73
     3
 74
     0
 42
0.0000000001
 43
0.0000000001
 40
0.0
 40
0.0
 40
0.0
 40
3.196171117266942
 40
3.196171117266942
 40
3.196171117266942
 10
141.749775137752
 20
1811.646994199897
 30
0.0
 10
143.3478606963855
 20
1811.646994199897
 30
0.0
 10
144.945946255019
 20
1811.646994199897
 30
0.0
  0
SPLINE
  5
96
330
1F
100
AcDbEntity
  8
Predefinito
100
AcDbSpline
210
0.0
220
0.0
230
1.0
 70
    24
 71
     2
 72
     6
 73
     3
 74
     0
 42
0.0000000001
 43
0.0000000001
 40
0.0
 40
0.0
 40
0.0
 40
3.195952787122224
 40
3.195952787122224
 40
3.195952787122224
 10
135.0540543631274
 20
1811.646994199897
 30
0.0
 10
136.6520307566885
 20
1811.646994199897
 30
0.0
 10
138.2500071502496
 20
1811.646994199897
 30
0.0
  0
SPLINE
  5
97
330
1F
100
AcDbEntity
  8
Predefinito
100
AcDbSpline
210
0.0
220
0.0
230
1.0
 70
    24
 71
     2
 72
     6
 73
     3
 74
     0
 42
0.0000000001
 43
0.0000000001
 40
0.0
 40
0.0
 40
0.0
 40
3.533333333333094
 40
3.533333333333094
 40
3.533333333333094
 10
136.2000003090732
 20
1814.989336542239
 30
0.0
 10
135.6270273361003
 20
1813.318165371068
 30
0.0
 10
135.0540543631274
 20
1811.646994199897
 30
0.0
  0
SPLINE
  5
98
330
1F
100
AcDbEntity
  8
Predefinito
100
AcDbSpline
210
0.0
220
0.0
230
1.0
 70
    24
 71
     2
 72
     6
 73
     3
 74
     0
 42
0.0000000001
 43
0.0000000001
 40
0.0
 40
0.0
 40
0.0
 40
2.050280250959958
 40
2.050280250959958
 40
2.050280250959958
 10
141.7497200581132
 20
1814.989336542239
 30
0.0
 10
142.7748601835931
 20
1814.989336542239
 30
0.0
 10
143.8000003090731
 20
1814.989336542239
 30
0.0
  0
SPLINE
  5
99
330
1F
100
AcDbEntity
  8
Predefinito
100
AcDbSpline
210
0.0
220
0.0
230
1.0
 70
    24
 71
     2
 72
     6
 73
     3
 74
     0
 42
0.0000000001
 43
0.0000000001
 40
0.0
 40
0.0
 40
0.0
 40
2.050008695814483
 40
2.050008695814483
 40
2.050008695814483
 10
136.2000003090732
 20
1814.989336542239
 30
0.0
 10
137.2250046569804
 20
1814.989336542239
 30
0.0
 10
138.2500090048877
 20
1814.989336542239
 30
0.0
  0
SPLINE
  5
9A
330
1F
100
AcDbEntity
  8
Predefinito
100
AcDbSpline
210
0.0
220
0.0
230
1.0
 70
    24
 71
     2
 72
     6
 73
     3
 74
     0
 42
0.0000000001
 43
0.0000000001
 40
0.0
 40
0.0
 40
0.0
 40
100.0
 40
100.0
 40
100.0
 10
145.0000003090731
 20
1811.322669875572
 30
0.0
 10
145.0000003090729
 20
1761.322669875572
 30
0.0
 10
145.0000003090727
 20
1711.322669875572
 30
0.0
  0
SPLINE
  5
9B
330
1F
100
AcDbEntity
  8
Predefinito
100
AcDbSpline
210
0.0
220
0.0
230
1.0
 70
    24
 71
     2
 72
     6
 73
     3
 74
     0
 42
0.0000000001
 43
0.0000000001
 40
0.0
 40
0.0
 40
0.0
 40
100.0
 40
100.0
 40
100.0
 10
135.0000003090727
 20
1711.322669875572
 30
0.0
 10
135.0000003090729
 20
1761.322669875572
 30
0.0
 10
135.0000003090731
 20
1811.322669875572
 30
0.0
  0
SPLINE
  5
9C
330
1F
100
AcDbEntity
  8
Predefinito
100
AcDbSpline
210
0.0
220
0.0
230
1.0
 70
    24
 71
     2
 72
     6
 73
     3
 74
     0
 42
0.0000000001
 43
0.0000000001
 40
0.0
 40
0.0
 40
0.0
 40
32.9671916212871
 40
32.9671916212871
 40
32.9671916212871
 10
319.9999997807022
 20
1211.805667735496
 30
0.0
 10
303.5164039700586
 20
1211.805667735496
 30
0.0
 10
287.0328081594151
 20
1211.805667735496
 30
0.0
  0
SPLINE
  5
9D
330
1F
100
AcDbEntity
  8
Predefinito
100
AcDbSpline
210
0.0
220
0.0
230
1.0
 70
    24
 71
     2
 72
     6
 73
     3
 74
     0
 42
0.0000000001
 43
0.0000000001
 40
0.0
 40
0.0
 40
0.0
 40
32.82831338268738
 40
32.82831338268738
 40
32.82831338268738
 10
319.9999997807022
 20
1212.034229298263
 30
0.0
 10
336.4141564720459
 20
1212.034229298262
 30
0.0
 10
352.8283131633896
 20
1212.034229298262
 30
0.0
  0
SPLINE
  5
9E
330
1F
100
AcDbEntity
  8
Predefinito
100
AcDbSpline
210
0.0
220
0.0
230
1.0
 70
    12
 71
     2
 72
     8
 73
     5
 74
     0
 42
0.0000000001
 43
0.0000000001
 40
0.0
 40
0.0
 40
0.0
 40
0.0328083787129003
 40
0.0328083787129003
 40
1.6036047055078
 40
1.6036047055078
 40
1.6036047055078
 10
352.9671914019893
 20
1211.805667757988
 30
0.0
 41
1.0
 10
352.9835955913458
 20
1211.805667757989
 30
0.0
 41
1.0
 10
352.9999997807022
 20
1211.805667757989
 30
0.0
 41
1.0
 10
352.9999997807022
 20
1211.805667735496
 30
0.0
 41
0.707106781186548
 10
319.9999997807022
 20
1211.805667735496
 30
0.0
 41
1.0
  0
SPLINE
  5
9F
330
1F
100
AcDbEntity
  8
Predefinito
100
AcDbSpline
210
0.0
220
0.0
230
1.0
 70
    24
 71
     2
 72
     6
 73
     3
 74
     0
 42
0.0000000001
 43
0.0000000001
 40
0.0
 40
0.0
 40
0.0
 40
5.0
 40
5.0
 40
5.0
 10
319.9999997807022
 20
1261.989336542239
 30
0.0
 10
317.4999997807022
 20
1261.989336542239
 30
0.0
 10
314.9999997807022
 20
1261.989336542239
 30
0.0
  0
SPLINE
  5
A0
330
1F
100
AcDbEntity
  8
Predefinito
100
AcDbSpline
210
0.0
220
0.0
230
1.0
 70
    12
 71
     2
 72
     8
 73
     5
 74
     0
 42
0.0000000001
 43
0.0000000001
 40
0.0
 40
0.0
 40
0.0
 40
0.0326701694926896
 40
0.0326701694926896
 40
65.75463727385268
 40
65.75463727385268
 40
65.75463727385268
 10
287.1716863980148
 20
1212.034229278564
 30
0.0
 41
1.0
 10
287.1553513132685
 20
1212.034229278565
 30
0.0
 41
1.0
 10
287.1390162285221
 20
1212.034229278565
 30
0.0
 41
1.0
 10
287.1390162285221
 20
1212.034229298263
 30
0.0
 41
0.707106781186548
 10
319.9999997807022
 20
1212.034229298263
 30
0.0
 41
1.0
  0
SPLINE
  5
A1
330
1F
100
AcDbEntity
  8
Predefinito
100
AcDbSpline
210
0.0
220
0.0
230
1.0
 70
    24
 71
     2
 72
     6
 73
     3
 74
     0
 42
0.0000000001
 43
0.0000000001
 40
0.0
 40
0.0
 40
0.0
 40
5.0
 40
5.0
 40
5.0
 10
319.9999997807022
 20
1261.989336542239
 30
0.0
 10
322.4999997807022
 20
1261.989336542239
 30
0.0
 10
324.9999997807022
 20
1261.989336542239
 30
0.0
  0
SPLINE
  5
A2
330
1F
100
AcDbEntity
  8
Predefinito
100
AcDbSpline
210
0.0
220
0.0
230
1.0
 70
    24
 71
     2
 72
     6
 73
     3
 74
     0
 42
0.0000000001
 43
0.0000000001
 40
0.0
 40
0.0
 40
0.0
 40
3.649999999999977
 40
3.649999999999977
 40
3.649999999999977
 10
316.3499997807022
 20
1765.299336542239
 30
0.0
 10
318.1749997807022
 20
1765.299336542239
 30
0.0
 10
319.9999997807022
 20
1765.299336542239
 30
0.0
  0
SPLINE
  5
A3
330
1F
100
AcDbEntity
  8
Predefinito
100
AcDbSpline
210
0.0
220
0.0
230
1.0
 70
    24
 71
     2
 72
     6
 73
     3
 74
     0
 42
0.0000000001
 43
0.0000000001
 40
0.0
 40
0.0
 40
0.0
 40
3.649999999999977
 40
3.649999999999977
 40
3.649999999999977
 10
323.6499997807022
 20
1765.299336542239
 30
0.0
 10
321.8249997807022
 20
1765.299336542239
 30
0.0
 10
319.9999997807022
 20
1765.299336542239
 30
0.0
  0
SPLINE
  5
A4
330
1F
100
AcDbEntity
  8
Predefinito
100
AcDbSpline
210
0.0
220
0.0
230
1.0
 70
    12
 71
     2
 72
     6
 73
     3
 74
     0
 42
0.0000000001
 43
0.0000000001
 40
0.0
 40
0.0
 40
0.0
 40
0.330297354829777
 40
0.330297354829777
 40
0.330297354829777
 10
324.9459457266505
 20
1761.646994199897
 30
0.0
 41
1.0
 10
324.9999997807046
 20
1761.489336542239
 30
0.0
 41
0.986393923832079
 10
324.9999997807046
 20
1761.322669875572
 30
0.0
 41
1.0
  0
SPLINE
  5
A5
330
1F
100
AcDbEntity
  8
Predefinito
100
AcDbSpline
210
0.0
220
0.0
230
1.0
 70
    12
 71
     2
 72
     6
 73
     3
 74
     0
 42
0.0000000001
 43
0.0000000001
 40
0.0
 40
0.0
 40
0.0
 40
0.3302973548297961
 40
0.3302973548297961
 40
0.3302973548297961
 10
315.0540538347589
 20
1761.646994199897
 30
0.0
 41
1.0
 10
314.9999997807046
 20
1761.489336542238
 30
0.0
 41
0.9863939238319518
 10
314.9999997807047
 20
1761.322669875572
 30
0.0
 41
1.0
  0
SPLINE
  5
A6
330
1F
100
AcDbEntity
  8
Predefinito
100
AcDbSpline
210
0.0
220
0.0
230
1.0
 70
    24
 71
     2
 72
     6
 73
     3
 74
     0
 42
0.0000000001
 43
0.0000000001
 40
0.0
 40
0.0
 40
0.0
 40
10.0
 40
10.0
 40
10.0
 10
314.9999997807047
 20
1761.322669875572
 30
0.0
 10
319.9999997807047
 20
1761.322669875572
 30
0.0
 10
324.9999997807047
 20
1761.322669875572
 30
0.0
  0
SPLINE
  5
A7
330
1F
100
AcDbEntity
  8
Predefinito
100
AcDbSpline
210
0.0
220
0.0
230
1.0
 70
    24
 71
     2
 72
     6
 73
     3
 74
     0
 42
0.0000000001
 43
0.0000000001
 40
0.0
 40
0.0
 40
0.0
 40
3.533333333333094
 40
3.533333333333094
 40
3.533333333333094
 10
324.9459457266505
 20
1761.646994199897
 30
0.0
 10
324.3729727536776
 20
1763.318165371068
 30
0.0
 10
323.7999997807047
 20
1764.989336542239
 30
0.0
  0
SPLINE
  5
A8
330
1F
100
AcDbEntity
  8
Predefinito
100
AcDbSpline
210
0.0
220
0.0
230
1.0
 70
    24
 71
     2
 72
     6
 73
     3
 74
     0
 42
0.0000000001
 43
0.0000000001
 40
0.0
 40
0.0
 40
0.0
 40
9.891891891891646
 40
9.891891891891646
 40
9.891891891891646
 10
315.0540538347589
 20
1761.646994199897
 30
0.0
 10
319.9999997807047
 20
1761.646994199897
 30
0.0
 10
324.9459457266505
 20
1761.646994199897
 30
0.0
  0
SPLINE
  5
A9
330
1F
100
AcDbEntity
  8
Predefinito
100
AcDbSpline
210
0.0
220
0.0
230
1.0
 70
    24
 71
     2
 72
     6
 73
     3
 74
     0
 42
0.0000000001
 43
0.0000000001
 40
0.0
 40
0.0
 40
0.0
 40
3.533333333333113
 40
3.533333333333113
 40
3.533333333333113
 10
316.1999997807047
 20
1764.989336542239
 30
0.0
 10
315.6270268077318
 20
1763.318165371068
 30
0.0
 10
315.0540538347589
 20
1761.646994199897
 30
0.0
  0
SPLINE
  5
AA
330
1F
100
AcDbEntity
  8
Predefinito
100
AcDbSpline
210
0.0
220
0.0
230
1.0
 70
    24
 71
     2
 72
     6
 73
     3
 74
     0
 42
0.0000000001
 43
0.0000000001
 40
0.0
 40
0.0
 40
0.0
 40
5.0
 40
5.0
 40
5.0
 10
319.9999997807028
 20
1264.989336542239
 30
0.0
 10
317.4999997807028
 20
1264.989336542239
 30
0.0
 10
314.9999997807028
 20
1264.989336542239
 30
0.0
  0
SPLINE
  5
AB
330
1F
100
AcDbEntity
  8
Predefinito
100
AcDbSpline
210
0.0
220
0.0
230
1.0
 70
    24
 71
     2
 72
     6
 73
     3
 74
     0
 42
0.0000000001
 43
0.0000000001
 40
0.0
 40
0.0
 40
0.0
 40
5.0
 40
5.0
 40
5.0
 10
324.9999997807028
 20
1264.989336542239
 30
0.0
 10
322.4999997807028
 20
1264.989336542239
 30
0.0
 10
319.9999997807028
 20
1264.989336542239
 30
0.0
  0
SPLINE
  5
AC
330
1F
100
AcDbEntity
  8
Predefinito
100
AcDbSpline
210
0.0
220
0.0
230
1.0
 70
    24
 71
     2
 72
     6
 73
     3
 74
     0
 42
0.0000000001
 43
0.0000000001
 40
0.0
 40
0.0
 40
0.0
 40
7.599999999999966
 40
7.599999999999966
 40
7.599999999999966
 10
316.1999997807047
 20
1764.989336542239
 30
0.0
 10
319.9999997807047
 20
1764.989336542239
 30
0.0
 10
323.7999997807047
 20
1764.989336542239
 30
0.0
  0
SPLINE
  5
AD
330
1F
100
AcDbEntity
  8
Predefinito
100
AcDbSpline
210
0.0
220
0.0
230
1.0
 70
    24
 71
     2
 72
     6
 73
     3
 74
     0
 42
0.0000000001
 43
0.0000000001
 40
0.0
 40
0.0
 40
0.0
 40
496.333333333333
 40
496.333333333333
 40
496.333333333333
 10
324.9999997807047
 20
1761.322669875572
 30
0.0
 10
324.9999997807037
 20
1513.156003208905
 30
0.0
 10
324.9999997807028
 20
1264.989336542239
 30
0.0
  0
SPLINE
  5
AE
330
1F
100
AcDbEntity
  8
Predefinito
100
AcDbSpline
210
0.0
220
0.0
230
1.0
 70
    24
 71
     2
 72
     6
 73
     3
 74
     0
 42
0.0000000001
 43
0.0000000001
 40
0.0
 40
0.0
 40
0.0
 40
496.333333333333
 40
496.333333333333
 40
496.333333333333
 10
314.9999997807028
 20
1264.989336542239
 30
0.0
 10
314.9999997807037
 20
1513.156003208905
 30
0.0
 10
314.9999997807047
 20
1761.322669875572
 30
0.0
  0
SPLINE
  5
AF
330
1F
100
AcDbEntity
  8
Predefinito
100
AcDbSpline
210
0.0
220
0.0
230
1.0
 70
    24
 71
     2
 72
     6
 73
     3
 74
     0
 42
0.0000000001
 43
0.0000000001
 40
0.0
 40
0.0
 40
0.0
 40
32.9671916212871
 40
32.9671916212871
 40
32.9671916212871
 10
139.9999999102278
 20
1161.805667735496
 30
0.0
 10
123.5164040995843
 20
1161.805667735496
 30
0.0
 10
107.0328082889407
 20
1161.805667735496
 30
0.0
  0
SPLINE
  5
B0
330
1F
100
AcDbEntity
  8
Predefinito
100
AcDbSpline
210
0.0
220
0.0
230
1.0
 70
    24
 71
     2
 72
     6
 73
     3
 74
     0
 42
0.0000000001
 43
0.0000000001
 40
0.0
 40
0.0
 40
0.0
 40
32.82831338268741
 40
32.82831338268741
 40
32.82831338268741
 10
139.9999999102278
 20
1162.034229298263
 30
0.0
 10
156.4141566015716
 20
1162.034229298262
 30
0.0
 10
172.8283132929153
 20
1162.034229298262
 30
0.0
  0
SPLINE
  5
B1
330
1F
100
AcDbEntity
  8
Predefinito
100
AcDbSpline
210
0.0
220
0.0
230
1.0
 70
    12
 71
     2
 72
     8
 73
     5
 74
     0
 42
0.0000000001
 43
0.0000000001
 40
0.0
 40
0.0
 40
0.0
 40
0.0328083787128719
 40
0.0328083787128719
 40
1.603604705507772
 40
1.603604705507772
 40
1.603604705507772
 10
172.967191531515
 20
1161.805667757988
 30
0.0
 41
1.0
 10
172.9835957208714
 20
1161.805667757989
 30
0.0
 41
1.0
 10
172.9999999102278
 20
1161.805667757989
 30
0.0
 41
1.0
 10
172.9999999102278
 20
1161.805667735496
 30
0.0
 41
0.707106781186548
 10
139.9999999102278
 20
1161.805667735496
 30
0.0
 41
1.0
  0
SPLINE
  5
B2
330
1F
100
AcDbEntity
  8
Predefinito
100
AcDbSpline
210
0.0
220
0.0
230
1.0
 70
    24
 71
     2
 72
     6
 73
     3
 74
     0
 42
0.0000000001
 43
0.0000000001
 40
0.0
 40
0.0
 40
0.0
 40
5.0
 40
5.0
 40
5.0
 10
139.9999999102278
 20
1211.989336542239
 30
0.0
 10
137.4999999102278
 20
1211.989336542239
 30
0.0
 10
134.9999999102278
 20
1211.989336542239
 30
0.0
  0
SPLINE
  5
B3
330
1F
100
AcDbEntity
  8
Predefinito
100
AcDbSpline
210
0.0
220
0.0
230
1.0
 70
    12
 71
     2
 72
     8
 73
     5
 74
     0
 42
0.0000000001
 43
0.0000000001
 40
0.0
 40
0.0
 40
0.0
 40
0.0326701694926754
 40
0.0326701694926754
 40
65.75463727385267
 40
65.75463727385267
 40
65.75463727385267
 10
107.1716865275404
 20
1162.034229278564
 30
0.0
 41
1.0
 10
107.1553514427941
 20
1162.034229278565
 30
0.0
 41
1.0
 10
107.1390163580477
 20
1162.034229278565
 30
0.0
 41
1.0
 10
107.1390163580477
 20
1162.034229298263
 30
0.0
 41
0.707106781186548
 10
139.9999999102278
 20
1162.034229298263
 30
0.0
 41
1.0
  0
SPLINE
  5
B4
330
1F
100
AcDbEntity
  8
Predefinito
100
AcDbSpline
210
0.0
220
0.0
230
1.0
 70
    24
 71
     2
 72
     6
 73
     3
 74
     0
 42
0.0000000001
 43
0.0000000001
 40
0.0
 40
0.0
 40
0.0
 40
5.0
 40
5.0
 40
5.0
 10
139.9999999102278
 20
1211.989336542239
 30
0.0
 10
142.4999999102278
 20
1211.989336542239
 30
0.0
 10
144.9999999102278
 20
1211.989336542239
 30
0.0
  0
SPLINE
  5
B5
330
1F
100
AcDbEntity
  8
Predefinito
100
AcDbSpline
210
0.0
220
0.0
230
1.0
 70
    12
 71
     2
 72
     6
 73
     3
 74
     0
 42
0.0000000001
 43
0.0000000001
 40
0.0
 40
0.0
 40
0.0
 40
0.3302973548297922
 40
0.3302973548297922
 40
0.3302973548297922
 10
144.9459458561761
 20
1711.646994199897
 30
0.0
 41
1.0
 10
144.9999999102303
 20
1711.489336542238
 30
0.0
 41
0.9863939238320167
 10
144.9999999102303
 20
1711.322669875572
 30
0.0
 41
1.0
  0
SPLINE
  5
B6
330
1F
100
AcDbEntity
  8
Predefinito
100
AcDbSpline
210
0.0
220
0.0
230
1.0
 70
    12
 71
     2
 72
     6
 73
     3
 74
     0
 42
0.0000000001
 43
0.0000000001
 40
0.0
 40
0.0
 40
0.0
 40
0.3302973548297928
 40
0.3302973548297928
 40
0.3302973548297928
 10
135.0540539642845
 20
1711.646994199897
 30
0.0
 41
1.0
 10
134.9999999102303
 20
1711.489336542239
 30
0.0
 41
0.9863939238320152
 10
134.9999999102304
 20
1711.322669875572
 30
0.0
 41
1.0
  0
SPLINE
  5
B7
330
1F
100
AcDbEntity
  8
Predefinito
100
AcDbSpline
210
0.0
220
0.0
230
1.0
 70
    24
 71
     2
 72
     6
 73
     3
 74
     0
 42
0.0000000001
 43
0.0000000001
 40
0.0
 40
0.0
 40
0.0
 40
10.0
 40
10.0
 40
10.0
 10
134.9999999102303
 20
1711.322669875572
 30
0.0
 10
139.9999999102303
 20
1711.322669875572
 30
0.0
 10
144.9999999102303
 20
1711.322669875572
 30
0.0
  0
SPLINE
  5
B8
330
1F
100
AcDbEntity
  8
Predefinito
100
AcDbSpline
210
0.0
220
0.0
230
1.0
 70
    24
 71
     2
 72
     6
 73
     3
 74
     0
 42
0.0000000001
 43
0.0000000001
 40
0.0
 40
0.0
 40
0.0
 40
3.533333333333085
 40
3.533333333333085
 40
3.533333333333085
 10
144.9459458561761
 20
1711.646994199897
 30
0.0
 10
144.3729728832033
 20
1713.318165371068
 30
0.0
 10
143.7999999102304
 20
1714.989336542239
 30
0.0
  0
SPLINE
  5
B9
330
1F
100
AcDbEntity
  8
Predefinito
100
AcDbSpline
210
0.0
220
0.0
230
1.0
 70
    24
 71
     2
 72
     6
 73
     3
 74
     0
 42
0.0000000001
 43
0.0000000001
 40
0.0
 40
0.0
 40
0.0
 40
9.89189189189159
 40
9.89189189189159
 40
9.89189189189159
 10
135.0540539642845
 20
1711.646994199897
 30
0.0
 10
139.9999999102303
 20
1711.646994199897
 30
0.0
 10
144.9459458561761
 20
1711.646994199897
 30
0.0
  0
SPLINE
  5
BA
330
1F
100
AcDbEntity
  8
Predefinito
100
AcDbSpline
210
0.0
220
0.0
230
1.0
 70
    24
 71
     2
 72
     6
 73
     3
 74
     0
 42
0.0000000001
 43
0.0000000001
 40
0.0
 40
0.0
 40
0.0
 40
3.533333333333094
 40
3.533333333333094
 40
3.533333333333094
 10
136.1999999102304
 20
1714.989336542239
 30
0.0
 10
135.6270269372575
 20
1713.318165371068
 30
0.0
 10
135.0540539642845
 20
1711.646994199897
 30
0.0
  0
SPLINE
  5
BB
330
1F
100
AcDbEntity
  8
Predefinito
100
AcDbSpline
210
0.0
220
0.0
230
1.0
 70
    24
 71
     2
 72
     6
 73
     3
 74
     0
 42
0.0000000001
 43
0.0000000001
 40
0.0
 40
0.0
 40
0.0
 40
5.0
 40
5.0
 40
5.0
 10
139.9999999102284
 20
1214.989336542239
 30
0.0
 10
137.4999999102284
 20
1214.989336542239
 30
0.0
 10
134.9999999102284
 20
1214.989336542239
 30
0.0
  0
SPLINE
  5
BC
330
1F
100
AcDbEntity
  8
Predefinito
100
AcDbSpline
210
0.0
220
0.0
230
1.0
 70
    24
 71
     2
 72
     6
 73
     3
 74
     0
 42
0.0000000001
 43
0.0000000001
 40
0.0
 40
0.0
 40
0.0
 40
5.0
 40
5.0
 40
5.0
 10
144.9999999102284
 20
1214.989336542239
 30
0.0
 10
142.4999999102284
 20
1214.989336542239
 30
0.0
 10
139.9999999102284
 20
1214.989336542239
 30
0.0
  0
SPLINE
  5
BD
330
1F
100
AcDbEntity
  8
Predefinito
100
AcDbSpline
210
0.0
220
0.0
230
1.0
 70
    24
 71
     2
 72
     6
 73
     3
 74
     0
 42
0.0000000001
 43
0.0000000001
 40
0.0
 40
0.0
 40
0.0
 40
7.599999999999994
 40
7.599999999999994
 40
7.599999999999994
 10
136.1999999102304
 20
1714.989336542239
 30
0.0
 10
139.9999999102304
 20
1714.989336542239
 30
0.0
 10
143.7999999102304
 20
1714.989336542239
 30
0.0
  0
SPLINE
  5
BE
330
1F
100
AcDbEntity
  8
Predefinito
100
AcDbSpline
210
0.0
220
0.0
230
1.0
 70
    24
 71
     2
 72
     6
 73
     3
 74
     0
 42
0.0000000001
 43
0.0000000001
 40
0.0
 40
0.0
 40
0.0
 40
496.333333333333
 40
496.333333333333
 40
496.333333333333
 10
144.9999999102303
 20
1711.322669875572
 30
0.0
 10
144.9999999102294
 20
1463.156003208905
 30
0.0
 10
144.9999999102284
 20
1214.989336542239
 30
0.0
  0
SPLINE
  5
BF
330
1F
100
AcDbEntity
  8
Predefinito
100
AcDbSpline
210
0.0
220
0.0
230
1.0
 70
    24
 71
     2
 72
     6
 73
     3
 74
     0
 42
0.0000000001
 43
0.0000000001
 40
0.0
 40
0.0
 40
0.0
 40
496.333333333333
 40
496.333333333333
 40
496.333333333333
 10
134.9999999102284
 20
1214.989336542239
 30
0.0
 10
134.9999999102294
 20
1463.156003208905
 30
0.0
 10
134.9999999102303
 20
1711.322669875572
 30
0.0
  0
SPLINE
  5
C0
330
1F
100
AcDbEntity
  8
Predefinito
100
AcDbSpline
210
0.0
220
0.0
230
1.0
 70
    28
 71
     2
 72
    12
 73
     9
 74
     0
 42
0.0000000001
 43
0.0000000001
 40
522.2897764356677
 40
522.2897764356677
 40
522.2897764356677
 40
596.9026041820608
 40
596.9026041820608
 40
746.128255227576
 40
746.128255227576
 40
895.3539062730911
 40
895.3539062730911
 40
968.8009063970555
 40
968.8009063970555
 40
968.8009063970555
 10
342.5000000000009
 20
1967.297546532159
 30
0.0
 41
0.933012701892219
 10
342.5000006098183
 20
1967.297546532158
 30
0.0
 41
0.9330126998958418
 10
323.4086200392834
 20
1967.297546532159
 30
0.0
 41
1.0
 10
282.2724133595224
 20
1967.297546532159
 30
0.0
 41
0.8660254037844378
 10
200.0000000000006
 20
1967.297546532159
 30
0.0
 41
1.0
 10
117.7275866404792
 20
1967.297546532159
 30
0.0
 41
0.8660254037844398
 10
76.59137996071831
 20
1967.297546532159
 30
0.0
 41
1.0
 10
58.30231553451872
 20
1967.297546532158
 30
0.0
 41
0.9038944125768359
 10
57.53163305093885
 20
1967.297546532159
 30
0.0
 41
0.8708581169001233
  0
SPLINE
  5
C1
330
1F
100
AcDbEntity
  8
Predefinito
100
AcDbSpline
210
0.0
220
0.0
230
1.0
 70
    24
 71
     2
 72
     6
 73
     3
 74
     0
 42
0.0000000001
 43
0.0000000001
 40
0.0
 40
0.0
 40
0.0
 40
35.0
 40
35.0
 40
35.0
 10
754.7034102092978
 20
1932.297546551597
 30
0.0
 10
754.7034102092978
 20
1949.797546551597
 30
0.0
 10
754.7034102092978
 20
1967.297546551597
 30
0.0
  0
SPLINE
  5
C2
330
1F
100
AcDbEntity
  8
Predefinito
100
AcDbSpline
210
0.0
220
0.0
230
1.0
 70
    24
 71
     2
 72
     6
 73
     3
 74
     0
 42
0.0000000001
 43
0.0000000001
 40
0.0
 40
0.0
 40
0.0
 40
35.0
 40
35.0
 40
35.0
 10
1039.703410209298
 20
1967.297546551597
 30
0.0
 10
1039.703410209298
 20
1949.797546551597
 30
0.0
 10
1039.703410209298
 20
1932.297546551597
 30
0.0
  0
SPLINE
  5
C3
330
1F
100
AcDbEntity
  8
Predefinito
100
AcDbSpline
210
0.0
220
0.0
230
1.0
 70
    24
 71
     2
 72
     6
 73
     3
 74
     0
 42
0.0000000001
 43
0.0000000001
 40
0.0
 40
0.0
 40
0.0
 40
1.200000000000045
 40
1.200000000000045
 40
1.200000000000045
 10
697.2034102093013
 20
1931.097546551597
 30
0.0
 10
697.2034102093013
 20
1931.697546551597
 30
0.0
 10
697.2034102093013
 20
1932.297546551597
 30
0.0
  0
SPLINE
  5
C4
330
1F
100
AcDbEntity
  8
Predefinito
100
AcDbSpline
210
0.0
220
0.0
230
1.0
 70
    12
 71
     2
 72
     6
 73
     3
 74
     0
 42
0.0000000001
 43
0.0000000001
 40
0.0
 40
0.0
 40
0.0
 40
173.1905474282157
 40
173.1905474282157
 40
173.1905474282157
 10
999.3764017820358
 20
1715.299336561585
 30
0.0
 41
1.0
 10
999.3764475031229
 20
1801.894610275688
 30
0.0
 41
0.999999999999885
 10
999.3765762742856
 20
1888.489883989706
 30
0.0
 41
1.0
  0
SPLINE
  5
C5
330
1F
100
AcDbEntity
  8
Predefinito
100
AcDbSpline
210
0.0
220
0.0
230
1.0
 70
    24
 71
     2
 72
     6
 73
     3
 74
     0
 42
0.0000000001
 43
0.0000000001
 40
0.0
 40
0.0
 40
0.0
 40
42.60766365543612
 40
42.60766365543612
 40
42.60766365543612
 10
999.3765762494908
 20
1888.489882978655
 30
0.0
 10
999.3752503039664
 20
1909.79371476511
 30
0.0
 10
999.3739243584421
 20
1931.097546551565
 30
0.0
  0
SPLINE
  5
C6
330
1F
100
AcDbEntity
  8
Predefinito
100
AcDbSpline
210
0.0
220
0.0
230
1.0
 70
    12
 71
     2
 72
     6
 73
     3
 74
     0
 42
0.0000000001
 43
0.0000000001
 40
0.0
 40
0.0
 40
0.0
 40
115.7982099702783
 40
115.7982099702783
 40
115.7982099702783
 10
795.0303304046392
 20
1815.299336561648
 30
0.0
 41
1.0
 10
795.0303356105353
 20
1873.198441546792
 30
0.0
 41
0.9999999999998931
 10
795.0303943757116
 20
1931.097546531905
 30
0.0
 41
1.0
  0
SPLINE
  5
C7
330
1F
100
AcDbEntity
  8
Predefinito
100
AcDbSpline
210
0.0
220
0.0
230
1.0
 70
    12
 71
     2
 72
     6
 73
     3
 74
     0
 42
0.0000000001
 43
0.0000000001
 40
0.0
 40
0.0
 40
0.0
 40
115.7982099900057
 40
115.7982099900057
 40
115.7982099900057
 10
791.530305236578
 20
1815.299336561651
 30
0.0
 41
1.0
 10
791.5303146321503
 20
1873.198441556668
 30
0.0
 41
0.9999999999996524
 10
791.5304205685403
 20
1931.097546551586
 30
0.0
 41
1.0
  0
SPLINE
  5
C8
330
1F
100
AcDbEntity
  8
Predefinito
100
AcDbSpline
210
0.0
220
0.0
230
1.0
 70
    12
 71
     2
 72
     6
 73
     3
 74
     0
 42
0.0000000001
 43
0.0000000001
 40
0.0
 40
0.0
 40
0.0
 40
165.7982099900795
 40
165.7982099900795
 40
165.7982099900795
 10
898.9533790200949
 20
1765.29933656162
 30
0.0
 41
1.0
 10
898.9533820554719
 20
1848.198441556675
 30
0.0
 41
0.999999999999705
 10
898.9535124141174
 20
1931.097546551629
 30
0.0
 41
1.0
  0
SPLINE
  5
C9
330
1F
100
AcDbEntity
  8
Predefinito
100
AcDbSpline
210
0.0
220
0.0
230
1.0
 70
    12
 71
     2
 72
     6
 73
     3
 74
     0
 42
0.0000000001
 43
0.0000000001
 40
0.0
 40
0.0
 40
0.0
 40
165.7982099707606
 40
165.7982099707606
 40
165.7982099707606
 10
895.4533538520336
 20
1765.299336561625
 30
0.0
 41
1.0
 10
895.4533597516073
 20
1848.198441547057
 30
0.0
 41
0.9999999999990531
 10
895.4535938117011
 20
1931.09754653216
 30
0.0
 41
1.0
  0
SPLINE
  5
CA
330
1F
100
AcDbEntity
  8
Predefinito
100
AcDbSpline
210
0.0
220
0.0
230
1.0
 70
    24
 71
     2
 72
     6
 73
     3
 74
     0
 42
0.0000000001
 43
0.0000000001
 40
0.0
 40
0.0
 40
0.0
 40
200.4175603656754
 40
200.4175603656754
 40
200.4175603656754
 10
893.4891419871741
 20
1217.062996618233
 30
0.0
 10
793.2803618043364
 20
1217.062996618233
 30
0.0
 10
693.0715816214987
 20
1217.062996618233
 30
0.0
  0
SPLINE
  5
CB
330
1F
100
AcDbEntity
  8
Predefinito
100
AcDbSpline
210
0.0
220
0.0
230
1.0
 70
    24
 71
     2
 72
     6
 73
     3
 74
     0
 42
0.0000000001
 43
0.0000000001
 40
0.0
 40
0.0
 40
0.0
 40
66.78805370982002
 40
66.78805370982002
 40
66.78805370982002
 10
759.8863349849607
 20
1261.683860144408
 30
0.0
 10
793.2803618398707
 20
1261.683860144408
 30
0.0
 10
826.6743886947808
 20
1261.683860144408
 30
0.0
  0
SPLINE
  5
CC
330
1F
100
AcDbEntity
  8
Predefinito
100
AcDbSpline
210
0.0
220
0.0
230
1.0
 70
    12
 71
     2
 72
     6
 73
     3
 74
     0
 42
0.0000000001
 43
0.0000000001
 40
0.0
 40
0.0
 40
0.0
 40
0.3302905311836909
 40
0.3302905311836909
 40
0.3302905311836909
 10
788.2803618299502
 20
1811.32266989501
 30
0.0
 41
1.0
 10
788.2804243310773
 20
1811.489326144822
 30
0.0
 41
0.9864555090466443
 10
788.3344158840043
 20
1811.646994219335
 30
0.0
 41
1.0
  0
SPLINE
  5
CD
330
1F
100
AcDbEntity
  8
Predefinito
100
AcDbSpline
210
0.0
220
0.0
230
1.0
 70
    24
 71
     2
 72
     6
 73
     3
 74
     0
 42
0.0000000001
 43
0.0000000001
 40
0.0
 40
0.0
 40
0.0
 40
3.533333333333075
 40
3.533333333333075
 40
3.533333333333075
 10
788.3344158840043
 20
1811.646994219335
 30
0.0
 10
788.9073888569771
 20
1813.318165390506
 30
0.0
 10
789.4803618299501
 20
1814.989336561677
 30
0.0
  0
SPLINE
  5
CE
330
1F
100
AcDbEntity
  8
Predefinito
100
AcDbSpline
210
0.0
220
0.0
230
1.0
 70
    24
 71
     2
 72
     6
 73
     3
 74
     0
 42
0.0000000001
 43
0.0000000001
 40
0.0
 40
0.0
 40
0.0
 40
496.333333333333
 40
496.333333333333
 40
496.333333333333
 10
798.28036182995
 20
1811.32266989501
 30
0.0
 10
798.28036182995
 20
1563.156003228343
 30
0.0
 10
798.28036182995
 20
1314.989336561677
 30
0.0
  0
SPLINE
  5
CF
330
1F
100
AcDbEntity
  8
Predefinito
100
AcDbSpline
210
0.0
220
0.0
230
1.0
 70
    12
 71
     2
 72
     6
 73
     3
 74
     0
 42
0.0000000001
 43
0.0000000001
 40
0.0
 40
0.0
 40
0.0
 40
0.3302905311836019
 40
0.3302905311836019
 40
0.3302905311836019
 10
798.2263077758959
 20
1811.646994219335
 30
0.0
 41
1.0
 10
798.2802993288221
 20
1811.489326144822
 30
0.0
 41
0.9864555090474479
 10
798.28036182995
 20
1811.32266989501
 30
0.0
 41
1.0
  0
SPLINE
  5
D0
330
1F
100
AcDbEntity
  8
Predefinito
100
AcDbSpline
210
0.0
220
0.0
230
1.0
 70
    24
 71
     2
 72
     6
 73
     3
 74
     0
 42
0.0000000001
 43
0.0000000001
 40
0.0
 40
0.0
 40
0.0
 40
3.533333333333113
 40
3.533333333333113
 40
3.533333333333113
 10
797.0803618299501
 20
1814.989336561677
 30
0.0
 10
797.653334802923
 20
1813.318165390506
 30
0.0
 10
798.226307775896
 20
1811.646994219335
 30
0.0
  0
SPLINE
  5
D1
330
1F
100
AcDbEntity
  8
Predefinito
100
AcDbSpline
210
0.0
220
0.0
230
1.0
 70
    24
 71
     2
 72
     6
 73
     3
 74
     0
 42
0.0000000001
 43
0.0000000001
 40
0.0
 40
0.0
 40
0.0
 40
496.333333333333
 40
496.333333333333
 40
496.333333333333
 10
788.2803618299502
 20
1314.989336561677
 30
0.0
 10
788.2803618299502
 20
1563.156003228343
 30
0.0
 10
788.2803618299502
 20
1811.32266989501
 30
0.0
  0
SPLINE
  5
D2
330
1F
100
AcDbEntity
  8
Predefinito
100
AcDbSpline
210
0.0
220
0.0
230
1.0
 70
    24
 71
     2
 72
     6
 73
     3
 74
     0
 42
0.0000000001
 43
0.0000000001
 40
0.0
 40
0.0
 40
0.0
 40
178.5919147219237
 40
178.5919147219237
 40
178.5919147219237
 10
975.5865449530257
 20
1167.062996618233
 30
0.0
 10
886.290587592064
 20
1167.062996618233
 30
0.0
 10
796.9946302311021
 20
1167.062996618234
 30
0.0
  0
SPLINE
  5
D3
330
1F
100
AcDbEntity
  8
Predefinito
100
AcDbSpline
210
0.0
220
0.0
230
1.0
 70
    24
 71
     2
 72
     6
 73
     3
 74
     0
 42
0.0000000001
 43
0.0000000001
 40
0.0
 40
0.0
 40
0.0
 40
66.78805370951363
 40
66.78805370951363
 40
66.78805370951363
 10
863.8093835945563
 20
1211.683860144408
 30
0.0
 10
897.2034104493131
 20
1211.683860144408
 30
0.0
 10
930.5974373040699
 20
1211.683860144408
 30
0.0
  0
SPLINE
  5
D4
330
1F
100
AcDbEntity
  8
Predefinito
100
AcDbSpline
210
0.0
220
0.0
230
1.0
 70
    12
 71
     2
 72
     6
 73
     3
 74
     0
 42
0.0000000001
 43
0.0000000001
 40
0.0
 40
0.0
 40
0.0
 40
0.3302905311836827
 40
0.3302905311836827
 40
0.3302905311836827
 10
892.2034104395733
 20
1761.32266989501
 30
0.0
 41
1.0
 10
892.2034729407011
 20
1761.489326144822
 30
0.0
 41
0.9864555090468841
 10
892.2574644936276
 20
1761.646994219335
 30
0.0
 41
1.0
  0
SPLINE
  5
D5
330
1F
100
AcDbEntity
  8
Predefinito
100
AcDbSpline
210
0.0
220
0.0
230
1.0
 70
    24
 71
     2
 72
     6
 73
     3
 74
     0
 42
0.0000000001
 43
0.0000000001
 40
0.0
 40
0.0
 40
0.0
 40
3.533333333333075
 40
3.533333333333075
 40
3.533333333333075
 10
892.2574644936275
 20
1761.646994219335
 30
0.0
 10
892.8304374666004
 20
1763.318165390506
 30
0.0
 10
893.4034104395732
 20
1764.989336561677
 30
0.0
  0
SPLINE
  5
D6
330
1F
100
AcDbEntity
  8
Predefinito
100
AcDbSpline
210
0.0
220
0.0
230
1.0
 70
    24
 71
     2
 72
     6
 73
     3
 74
     0
 42
0.0000000001
 43
0.0000000001
 40
0.0
 40
0.0
 40
0.0
 40
496.333333333333
 40
496.333333333333
 40
496.333333333333
 10
902.2034104395732
 20
1761.32266989501
 30
0.0
 10
902.2034104395732
 20
1513.156003228343
 30
0.0
 10
902.2034104395732
 20
1264.989336561677
 30
0.0
  0
SPLINE
  5
D7
330
1F
100
AcDbEntity
  8
Predefinito
100
AcDbSpline
210
0.0
220
0.0
230
1.0
 70
    12
 71
     2
 72
     6
 73
     3
 74
     0
 42
0.0000000001
 43
0.0000000001
 40
0.0
 40
0.0
 40
0.0
 40
0.3302905311836373
 40
0.3302905311836373
 40
0.3302905311836373
 10
902.149356385519
 20
1761.646994219335
 30
0.0
 41
1.0
 10
902.2033479384452
 20
1761.489326144822
 30
0.0
 41
0.9864555090472011
 10
902.2034104395732
 20
1761.32266989501
 30
0.0
 41
1.0
  0
SPLINE
  5
D8
330
1F
100
AcDbEntity
  8
Predefinito
100
AcDbSpline
210
0.0
220
0.0
230
1.0
 70
    24
 71
     2
 72
     6
 73
     3
 74
     0
 42
0.0000000001
 43
0.0000000001
 40
0.0
 40
0.0
 40
0.0
 40
3.533333333333113
 40
3.533333333333113
 40
3.533333333333113
 10
901.0034104395734
 20
1764.989336561677
 30
0.0
 10
901.5763834125463
 20
1763.318165390506
 30
0.0
 10
902.1493563855192
 20
1761.646994219335
 30
0.0
  0
SPLINE
  5
D9
330
1F
100
AcDbEntity
  8
Predefinito
100
AcDbSpline
210
0.0
220
0.0
230
1.0
 70
    24
 71
     2
 72
     6
 73
     3
 74
     0
 42
0.0000000001
 43
0.0000000001
 40
0.0
 40
0.0
 40
0.0
 40
496.333333333333
 40
496.333333333333
 40
496.333333333333
 10
892.2034104395733
 20
1264.989336561677
 30
0.0
 10
892.2034104395733
 20
1513.156003228343
 30
0.0
 10
892.2034104395733
 20
1761.32266989501
 30
0.0
  0
SPLINE
  5
DA
330
1F
100
AcDbEntity
  8
Predefinito
100
AcDbSpline
210
0.0
220
0.0
230
1.0
 70
    24
 71
     2
 72
     6
 73
     3
 74
     0
 42
0.0000000001
 43
0.0000000001
 40
0.0
 40
0.0
 40
0.0
 40
200.4175603657709
 40
200.4175603657709
 40
200.4175603657709
 10
1101.335238515654
 20
1117.062996618233
 30
0.0
 10
1001.126458332769
 20
1117.062996618233
 30
0.0
 10
900.9176781498832
 20
1117.062996618233
 30
0.0
  0
SPLINE
  5
DB
330
1F
100
AcDbEntity
  8
Predefinito
100
AcDbSpline
210
0.0
220
0.0
230
1.0
 70
    24
 71
     2
 72
     6
 73
     3
 74
     0
 42
0.0000000001
 43
0.0000000001
 40
0.0
 40
0.0
 40
0.0
 40
66.78805370901205
 40
66.78805370901205
 40
66.78805370901205
 10
967.7324315133094
 20
1161.683860144408
 30
0.0
 10
1001.126458367815
 20
1161.683860144408
 30
0.0
 10
1034.520485222321
 20
1161.683860144408
 30
0.0
  0
SPLINE
  5
DC
330
1F
100
AcDbEntity
  8
Predefinito
100
AcDbSpline
210
0.0
220
0.0
230
1.0
 70
    12
 71
     2
 72
     6
 73
     3
 74
     0
 42
0.0000000001
 43
0.0000000001
 40
0.0
 40
0.0
 40
0.0
 40
0.3302905311837054
 40
0.3302905311837054
 40
0.3302905311837054
 10
996.12645835838
 20
1711.32266989501
 30
0.0
 41
1.0
 10
996.1265208595073
 20
1711.489326144822
 30
0.0
 41
0.9864555090466522
 10
996.1805124124344
 20
1711.646994219335
 30
0.0
 41
1.0
  0
SPLINE
  5
DD
330
1F
100
AcDbEntity
  8
Predefinito
100
AcDbSpline
210
0.0
220
0.0
230
1.0
 70
    24
 71
     2
 72
     6
 73
     3
 74
     0
 42
0.0000000001
 43
0.0000000001
 40
0.0
 40
0.0
 40
0.0
 40
3.533333333333113
 40
3.533333333333113
 40
3.533333333333113
 10
996.1805124124342
 20
1711.646994219335
 30
0.0
 10
996.7534853854071
 20
1713.318165390506
 30
0.0
 10
997.32645835838
 20
1714.989336561677
 30
0.0
  0
SPLINE
  5
DE
330
1F
100
AcDbEntity
  8
Predefinito
100
AcDbSpline
210
0.0
220
0.0
230
1.0
 70
    12
 71
     2
 72
     6
 73
     3
 74
     0
 42
0.0000000001
 43
0.0000000001
 40
0.0
 40
0.0
 40
0.0
 40
0.3302905311836346
 40
0.3302905311836346
 40
0.3302905311836346
 10
1006.072404304326
 20
1711.646994219335
 30
0.0
 41
1.0
 10
1006.126395857252
 20
1711.489326144822
 30
0.0
 41
0.9864555090472071
 10
1006.12645835838
 20
1711.32266989501
 30
0.0
 41
1.0
  0
SPLINE
  5
DF
330
1F
100
AcDbEntity
  8
Predefinito
100
AcDbSpline
210
0.0
220
0.0
230
1.0
 70
    24
 71
     2
 72
     6
 73
     3
 74
     0
 42
0.0000000001
 43
0.0000000001
 40
0.0
 40
0.0
 40
0.0
 40
3.533333333333113
 40
3.533333333333113
 40
3.533333333333113
 10
1004.92645835838
 20
1714.989336561677
 30
0.0
 10
1005.499431331353
 20
1713.318165390506
 30
0.0
 10
1006.072404304326
 20
1711.646994219335
 30
0.0
  0
SPLINE
  5
E0
330
1F
100
AcDbEntity
  8
Predefinito
100
AcDbSpline
210
0.0
220
0.0
230
1.0
 70
    24
 71
     2
 72
     6
 73
     3
 74
     0
 42
0.0000000001
 43
0.0000000001
 40
0.0
 40
0.0
 40
0.0
 40
100.0
 40
100.0
 40
100.0
 10
1097.203410209301
 20
1932.297546551597
 30
0.0
 10
1047.203410209301
 20
1932.297546551597
 30
0.0
 10
997.2034102093012
 20
1932.297546551597
 30
0.0
  0
SPLINE
  5
E1
330
1F
100
AcDbEntity
  8
Predefinito
100
AcDbSpline
210
0.0
220
0.0
230
1.0
 70
    24
 71
     2
 72
     6
 73
     3
 74
     0
 42
0.0000000001
 43
0.0000000001
 40
0.0
 40
0.0
 40
0.0
 40
1.200000000000045
 40
1.200000000000045
 40
1.200000000000045
 10
1097.203410209301
 20
1931.097546551597
 30
0.0
 10
1097.203410209301
 20
1931.697546551597
 30
0.0
 10
1097.203410209301
 20
1932.297546551597
 30
0.0
  0
SPLINE
  5
E2
330
1F
100
AcDbEntity
  8
Predefinito
100
AcDbSpline
210
0.0
220
0.0
230
1.0
 70
    28
 71
     2
 72
     8
 73
     5
 74
     0
 42
0.0000000001
 43
0.0000000001
 40
-422.1515128261285
 40
-422.1515128261285
 40
-422.1515128261285
 40
-314.1592653589793
 40
-314.1592653589793
 40
0.0
 40
0.0
 40
0.0
 10
697.2053002174486
 20
1932.297546551596
 30
0.0
 41
0.8678548172931494
 10
696.9702962187495
 20
1932.297546551597
 30
0.0
 41
0.8993179560328757
 10
723.9983294524134
 20
1932.297546551597
 30
0.0
 41
1.0
 10
823.9983294524134
 20
1932.297546551597
 30
0.0
 41
0.7071067811865476
 10
997.2034102093012
 20
1932.297546551597
 30
0.0
 41
1.0
  0
SPLINE
  5
E3
330
1F
100
AcDbEntity
  8
Predefinito
100
AcDbSpline
210
0.0
220
0.0
230
1.0
 70
    24
 71
     2
 72
     6
 73
     3
 74
     0
 42
0.0000000001
 43
0.0000000001
 40
0.0
 40
0.0
 40
0.0
 40
299.9556027355252
 40
299.9556027355252
 40
299.9556027355252
 10
997.203410209301
 20
1931.097546551597
 30
0.0
 10
847.2256088415384
 20
1931.097546551597
 30
0.0
 10
697.2478074737758
 20
1931.097546551597
 30
0.0
  0
SPLINE
  5
E4
330
1F
100
AcDbEntity
  8
Predefinito
100
AcDbSpline
210
0.0
220
0.0
230
1.0
 70
    24
 71
     2
 72
     6
 73
     3
 74
     0
 42
0.0000000001
 43
0.0000000001
 40
0.0
 40
0.0
 40
0.0
 40
100.0000000000002
 40
100.0000000000002
 40
100.0000000000002
 10
997.203410209301
 20
1931.097546551597
 30
0.0
 10
1047.203410209301
 20
1931.097546551597
 30
0.0
 10
1097.203410209301
 20
1931.097546551597
 30
0.0
  0
SPLINE
  5
E5
330
1F
100
AcDbEntity
  8
Predefinito
100
AcDbSpline
210
0.0
220
0.0
230
1.0
 70
    24
 71
     2
 72
     6
 73
     3
 74
     0
 42
0.0000000001
 43
0.0000000001
 40
0.0
 40
0.0
 40
0.0
 40
65.96719162128693
 40
65.96719162128693
 40
65.96719162128693
 10
826.2475534512371
 20
1261.805667754935
 30
0.0
 10
793.2639576405936
 20
1261.805667754935
 30
0.0
 10
760.2803618299502
 20
1261.805667754935
 30
0.0
  0
SPLINE
  5
E6
330
1F
100
AcDbEntity
  8
Predefinito
100
AcDbSpline
210
0.0
220
0.0
230
1.0
 70
    12
 71
     2
 72
     6
 73
     3
 74
     0
 42
0.0000000001
 43
0.0000000001
 40
0.0
 40
0.0
 40
0.0
 40
0.2809692650866488
 40
0.2809692650866488
 40
0.2809692650866488
 10
760.2803618299502
 20
1261.805667754935
 30
0.0
 41
1.0
 10
760.2813866212115
 20
1261.961601749685
 30
0.0
 41
0.8577743864615558
 10
760.41937827777
 20
1262.034229317701
 30
0.0
 41
1.0
  0
SPLINE
  5
E7
330
1F
100
AcDbEntity
  8
Predefinito
100
AcDbSpline
210
0.0
220
0.0
230
1.0
 70
    12
 71
     2
 72
     6
 73
     3
 74
     0
 42
0.0000000001
 43
0.0000000001
 40
0.0
 40
0.0
 40
0.0
 40
0.2809692650867875
 40
0.2809692650867875
 40
0.2809692650867875
 10
826.1413453821302
 20
1262.034229317701
 30
0.0
 41
1.0
 10
826.279337038689
 20
1261.961601749684
 30
0.0
 41
0.8577743864609426
 10
826.2803618299502
 20
1261.805667754935
 30
0.0
 41
1.0
  0
SPLINE
  5
E8
330
1F
100
AcDbEntity
  8
Predefinito
100
AcDbSpline
210
0.0
220
0.0
230
1.0
 70
    24
 71
     2
 72
     6
 73
     3
 74
     0
 42
0.0000000001
 43
0.0000000001
 40
0.0
 40
0.0
 40
0.0
 40
0.1218076105262753
 40
0.1218076105262753
 40
0.1218076105262753
 10
826.28036182995
 20
1261.805667754935
 30
0.0
 10
826.28036182995
 20
1261.744763949671
 30
0.0
 10
826.28036182995
 20
1261.683860144408
 30
0.0
  0
SPLINE
  5
E9
330
1F
100
AcDbEntity
  8
Predefinito
100
AcDbSpline
210
0.0
220
0.0
230
1.0
 70
    24
 71
     2
 72
     6
 73
     3
 74
     0
 42
0.0000000001
 43
0.0000000001
 40
0.0
 40
0.0
 40
0.0
 40
0.1218076105265027
 40
0.1218076105265027
 40
0.1218076105265027
 10
760.2803618299502
 20
1261.683860144408
 30
0.0
 10
760.2803618299502
 20
1261.744763949671
 30
0.0
 10
760.2803618299502
 20
1261.805667754935
 30
0.0
  0
SPLINE
  5
EA
330
1F
100
AcDbEntity
  8
Predefinito
100
AcDbSpline
210
0.0
220
0.0
230
1.0
 70
    12
 71
     3
 72
    10
 73
     6
 74
     0
 42
0.0000000001
 43
0.0000000001
 40
-72.91935593805343
 40
-72.91935593805343
 40
-72.91935593805343
 40
-72.91935593805343
 40
-44.94153861432807
 40
-11.02485408558609
 40
0.0
 40
0.0
 40
0.0
 40
0.0
 10
788.2803618299502
 20
1311.989336561677
 30
0.0
 41
1.0
 10
788.2803618299502
 20
1304.240373591924
 30
0.0
 41
1.0
 10
788.8597455228676
 20
1286.154907436041
 30
0.0
 41
1.0
 10
773.3695721784172
 20
1270.735230124347
 30
0.0
 41
1.0
 10
762.9971230648971
 20
1263.673480912048
 30
0.0
 41
1.0
 10
760.41937827777
 20
1262.034229317701
 30
0.0
 41
1.0
  0
SPLINE
  5
EB
330
1F
100
AcDbEntity
  8
Predefinito
100
AcDbSpline
210
0.0
220
0.0
230
1.0
 70
    24
 71
     2
 72
     6
 73
     3
 74
     0
 42
0.0000000001
 43
0.0000000001
 40
0.0
 40
0.0
 40
0.0
 40
9.999999999999886
 40
9.999999999999886
 40
9.999999999999886
 10
798.28036182995
 20
1311.989336561677
 30
0.0
 10
793.2803618299502
 20
1311.989336561677
 30
0.0
 10
788.2803618299502
 20
1311.989336561677
 30
0.0
  0
SPLINE
  5
EC
330
1F
100
AcDbEntity
  8
Predefinito
100
AcDbSpline
210
0.0
220
0.0
230
1.0
 70
    12
 71
     3
 72
    10
 73
     6
 74
     0
 42
0.0000000001
 43
0.0000000001
 40
0.0331596762916306
 40
0.0331596762916306
 40
0.0331596762916306
 40
0.0331596762916306
 40
11.02485408558609
 40
44.94153861432807
 40
72.91935593805343
 40
72.91935593805343
 40
72.91935593805343
 40
72.91935593805343
 10
826.118086879044
 20
1262.049023076326
 30
0.0
 41
1.0
 10
823.5482946234619
 20
1263.683903126993
 30
0.0
 41
1.0
 10
813.1841074103004
 20
1270.742242137846
 30
0.0
 41
1.0
 10
797.7009781370327
 20
1286.154907436041
 30
0.0
 41
1.0
 10
798.28036182995
 20
1304.240373591924
 30
0.0
 41
1.0
 10
798.28036182995
 20
1311.989336561677
 30
0.0
 41
1.0
  0
SPLINE
  5
ED
330
1F
100
AcDbEntity
  8
Predefinito
100
AcDbSpline
210
0.0
220
0.0
230
1.0
 70
    24
 71
     2
 72
     6
 73
     3
 74
     0
 42
0.0000000001
 43
0.0000000001
 40
0.0
 40
0.0
 40
0.0
 40
65.68929693486757
 40
65.68929693486757
 40
65.68929693486757
 10
760.41937827777
 20
1262.034229317701
 30
0.0
 10
793.2640267452038
 20
1262.034229317701
 30
0.0
 10
826.1086752126375
 20
1262.034229317701
 30
0.0
  0
SPLINE
  5
EE
330
1F
100
AcDbEntity
  8
Predefinito
100
AcDbSpline
210
0.0
220
0.0
230
1.0
 70
    24
 71
     2
 72
     6
 73
     3
 74
     0
 42
0.0000000001
 43
0.0000000001
 40
0.0
 40
0.0
 40
0.0
 40
3.0
 40
3.0
 40
3.0
 10
798.28036182995
 20
1314.989336561677
 30
0.0
 10
798.28036182995
 20
1313.489336561677
 30
0.0
 10
798.28036182995
 20
1311.989336561677
 30
0.0
  0
SPLINE
  5
EF
330
1F
100
AcDbEntity
  8
Predefinito
100
AcDbSpline
210
0.0
220
0.0
230
1.0
 70
    24
 71
     2
 72
     6
 73
     3
 74
     0
 42
0.0000000001
 43
0.0000000001
 40
0.0
 40
0.0
 40
0.0
 40
3.0
 40
3.0
 40
3.0
 10
788.2803618299502
 20
1311.989336561677
 30
0.0
 10
788.2803618299502
 20
1313.489336561677
 30
0.0
 10
788.2803618299502
 20
1314.989336561677
 30
0.0
  0
SPLINE
  5
F0
330
1F
100
AcDbEntity
  8
Predefinito
100
AcDbSpline
210
0.0
220
0.0
230
1.0
 70
    12
 71
     3
 72
    20
 73
    16
 74
     0
 42
0.0000000001
 43
0.0000000001
 40
0.0
 40
0.0
 40
0.0
 40
0.0
 40
3.066070549457717
 40
3.066070549457717
 40
3.066070549457717
 40
6.164409568300307
 40
6.164409568300307
 40
6.164409568300307
 40
8.258805056864256
 40
8.258805056864256
 40
8.258805056864256
 40
116.1014899728006
 40
116.1014899728006
 40
116.1014899728006
 40
116.4326699468948
 40
116.4326699468948
 40
116.4326699468948
 40
116.4326699468948
 10
893.493469640387
 20
1217.06304260499
 30
0.0
 41
1.0
 10
894.5152626874261
 20
1217.084746301891
 30
0.0
 41
0.999999987375932
 10
895.5370514914077
 20
1217.106648847296
 30
0.0
 41
0.9999999873759322
 10
896.5588360136331
 20
1217.128750240376
 30
0.0
 41
1.0
 10
897.7101477125492
 20
1217.153653330902
 30
0.0
 41
0.8098076841726143
 10
898.5155857505657
 20
1217.97670154267
 30
0.0
 41
0.8098076841726144
 10
898.515585750566
 20
1219.128282539377
 30
0.0
 41
1.0
 10
898.51558569452
 20
1219.860333403095
 30
0.0
 41
0.9106837932290253
 10
898.1495605768315
 20
1220.494308229323
 30
0.0
 41
0.9106837932290256
 10
897.5155863227872
 20
1220.860334338062
 30
0.0
 41
1.0
 10
874.0144324071019
 20
1234.428732318045
 30
0.0
 41
1.0
 10
850.5132784914165
 20
1247.997130298028
 30
0.0
 41
1.0
 10
827.0121245757314
 20
1261.565528278012
 30
0.0
 41
1.0
 10
826.9160816319798
 20
1261.620978697441
 30
0.0
 41
0.9908808512835963
 10
826.8122123032955
 20
1261.659839456798
 30
0.0
 41
0.9908808512835964
 10
826.7033581892439
 20
1261.681047424955
 30
0.0
 41
1.0
  0
SPLINE
  5
F1
330
1F
100
AcDbEntity
  8
Predefinito
100
AcDbSpline
210
0.0
220
0.0
230
1.0
 70
    12
 71
     2
 72
     6
 73
     3
 74
     0
 42
0.0000000001
 43
0.0000000001
 40
0.0
 40
0.0
 40
0.0
 40
96.72095242035714
 40
96.72095242035714
 40
96.72095242035714
 10
793.2803618299502
 20
1215.053701719426
 30
0.0
 41
1.0
 10
841.646970937752
 20
1215.045922503449
 30
0.0
 41
0.9998097910958842
 10
889.9770878906629
 20
1216.924414563892
 30
0.0
 41
1.0
  0
SPLINE
  5
F2
330
1F
100
AcDbEntity
  8
Predefinito
100
AcDbSpline
210
0.0
220
0.0
230
1.0
 70
    24
 71
     2
 72
     6
 73
     3
 74
     0
 42
0.0000000001
 43
0.0000000001
 40
0.0
 40
0.0
 40
0.0
 40
7.299999999999955
 40
7.299999999999955
 40
7.299999999999955
 10
789.6303618299487
 20
1815.299336561677
 30
0.0
 10
793.2803618299487
 20
1815.299336561677
 30
0.0
 10
796.9303618299487
 20
1815.299336561677
 30
0.0
  0
SPLINE
  5
F3
330
1F
100
AcDbEntity
  8
Predefinito
100
AcDbSpline
210
0.0
220
0.0
230
1.0
 70
    24
 71
     2
 72
     6
 73
     3
 74
     0
 42
0.0000000001
 43
0.0000000001
 40
0.0
 40
0.0
 40
0.0
 40
0.3000000000001819
 40
0.3000000000001819
 40
0.3000000000001819
 10
789.6303618299487
 20
1814.999336561677
 30
0.0
 10
789.6303618299487
 20
1815.149336561677
 30
0.0
 10
789.6303618299487
 20
1815.299336561677
 30
0.0
  0
SPLINE
  5
F4
330
1F
100
AcDbEntity
  8
Predefinito
100
AcDbSpline
210
0.0
220
0.0
230
1.0
 70
    24
 71
     2
 72
     6
 73
     3
 74
     0
 42
0.0000000001
 43
0.0000000001
 40
0.0
 40
0.0
 40
0.0
 40
0.3000000000001819
 40
0.3000000000001819
 40
0.3000000000001819
 10
796.9303618299487
 20
1815.299336561677
 30
0.0
 10
796.9303618299487
 20
1815.149336561677
 30
0.0
 10
796.9303618299487
 20
1814.999336561677
 30
0.0
  0
SPLINE
  5
F5
330
1F
100
AcDbEntity
  8
Predefinito
100
AcDbSpline
210
0.0
220
0.0
230
1.0
 70
    24
 71
     2
 72
     6
 73
     3
 74
     0
 42
0.0000000001
 43
0.0000000001
 40
0.0
 40
0.0
 40
0.0
 40
4.945945945945823
 40
4.945945945945823
 40
4.945945945945823
 10
788.3344158840043
 20
1811.646994219335
 30
0.0
 10
790.8073888569772
 20
1811.646994219335
 30
0.0
 10
793.2803618299502
 20
1811.646994219335
 30
0.0
  0
SPLINE
  5
F6
330
1F
100
AcDbEntity
  8
Predefinito
100
AcDbSpline
210
0.0
220
0.0
230
1.0
 70
    24
 71
     2
 72
     6
 73
     3
 74
     0
 42
0.0000000001
 43
0.0000000001
 40
0.0
 40
0.0
 40
0.0
 40
4.999999999999886
 40
4.999999999999886
 40
4.999999999999886
 10
793.2803618299502
 20
1811.32266989501
 30
0.0
 10
795.7803618299502
 20
1811.32266989501
 30
0.0
 10
798.28036182995
 20
1811.32266989501
 30
0.0
  0
SPLINE
  5
F7
330
1F
100
AcDbEntity
  8
Predefinito
100
AcDbSpline
210
0.0
220
0.0
230
1.0
 70
    24
 71
     2
 72
     6
 73
     3
 74
     0
 42
0.0000000001
 43
0.0000000001
 40
0.0
 40
0.0
 40
0.0
 40
4.945945945945823
 40
4.945945945945823
 40
4.945945945945823
 10
793.2803618299502
 20
1811.646994219335
 30
0.0
 10
795.7533348029231
 20
1811.646994219335
 30
0.0
 10
798.226307775896
 20
1811.646994219335
 30
0.0
  0
SPLINE
  5
F8
330
1F
100
AcDbEntity
  8
Predefinito
100
AcDbSpline
210
0.0
220
0.0
230
1.0
 70
    24
 71
     2
 72
     6
 73
     3
 74
     0
 42
0.0000000001
 43
0.0000000001
 40
0.0
 40
0.0
 40
0.0
 40
5.0
 40
5.0
 40
5.0
 10
793.2803618299502
 20
1314.989336561677
 30
0.0
 10
790.7803618299502
 20
1314.989336561677
 30
0.0
 10
788.2803618299502
 20
1314.989336561677
 30
0.0
  0
SPLINE
  5
F9
330
1F
100
AcDbEntity
  8
Predefinito
100
AcDbSpline
210
0.0
220
0.0
230
1.0
 70
    24
 71
     2
 72
     6
 73
     3
 74
     0
 42
0.0000000001
 43
0.0000000001
 40
0.0
 40
0.0
 40
0.0
 40
4.999999999999886
 40
4.999999999999886
 40
4.999999999999886
 10
798.28036182995
 20
1314.989336561677
 30
0.0
 10
795.7803618299502
 20
1314.989336561677
 30
0.0
 10
793.2803618299502
 20
1314.989336561677
 30
0.0
  0
SPLINE
  5
FA
330
1F
100
AcDbEntity
  8
Predefinito
100
AcDbSpline
210
0.0
220
0.0
230
1.0
 70
    24
 71
     2
 72
     6
 73
     3
 74
     0
 42
0.0000000001
 43
0.0000000001
 40
0.0
 40
0.0
 40
0.0
 40
3.800000000000068
 40
3.800000000000068
 40
3.800000000000068
 10
789.4803618299501
 20
1814.989336561677
 30
0.0
 10
791.3803618299501
 20
1814.989336561677
 30
0.0
 10
793.2803618299502
 20
1814.989336561677
 30
0.0
  0
SPLINE
  5
FB
330
1F
100
AcDbEntity
  8
Predefinito
100
AcDbSpline
210
0.0
220
0.0
230
1.0
 70
    24
 71
     2
 72
     6
 73
     3
 74
     0
 42
0.0000000001
 43
0.0000000001
 40
0.0
 40
0.0
 40
0.0
 40
3.799999999999955
 40
3.799999999999955
 40
3.799999999999955
 10
793.2803618299502
 20
1814.989336561677
 30
0.0
 10
795.1803618299501
 20
1814.989336561677
 30
0.0
 10
797.0803618299501
 20
1814.989336561677
 30
0.0
  0
SPLINE
  5
FC
330
1F
100
AcDbEntity
  8
Predefinito
100
AcDbSpline
210
0.0
220
0.0
230
1.0
 70
    24
 71
     2
 72
     6
 73
     3
 74
     0
 42
0.0000000001
 43
0.0000000001
 40
0.0
 40
0.0
 40
0.0
 40
5.0
 40
5.0
 40
5.0
 10
793.2803618299502
 20
1811.32266989501
 30
0.0
 10
790.7803618299502
 20
1811.32266989501
 30
0.0
 10
788.2803618299502
 20
1811.32266989501
 30
0.0
  0
SPLINE
  5
FD
330
1F
100
AcDbEntity
  8
Predefinito
100
AcDbSpline
210
0.0
220
0.0
230
1.0
 70
    24
 71
     2
 72
     6
 73
     3
 74
     0
 42
0.0000000001
 43
0.0000000001
 40
0.0
 40
0.0
 40
0.0
 40
65.96719162131717
 40
65.96719162131717
 40
65.96719162131717
 10
930.1706020608905
 20
1211.805667754935
 30
0.0
 10
897.1870062502319
 20
1211.805667754935
 30
0.0
 10
864.2034104395733
 20
1211.805667754935
 30
0.0
  0
SPLINE
  5
FE
330
1F
100
AcDbEntity
  8
Predefinito
100
AcDbSpline
210
0.0
220
0.0
230
1.0
 70
    12
 71
     2
 72
     6
 73
     3
 74
     0
 42
0.0000000001
 43
0.0000000001
 40
0.0
 40
0.0
 40
0.0
 40
0.28096926508667
 40
0.28096926508667
 40
0.28096926508667
 10
864.2034104395733
 20
1211.805667754935
 30
0.0
 41
1.0
 10
864.2044352308344
 20
1211.961601749684
 30
0.0
 41
0.8577743864623868
 10
864.3424268873932
 20
1212.034229317701
 30
0.0
 41
1.0
  0
SPLINE
  5
FF
330
1F
100
AcDbEntity
  8
Predefinito
100
AcDbSpline
210
0.0
220
0.0
230
1.0
 70
    12
 71
     2
 72
     6
 73
     3
 74
     0
 42
0.0000000001
 43
0.0000000001
 40
0.0
 40
0.0
 40
0.0
 40
0.2809692650866376
 40
0.2809692650866376
 40
0.2809692650866376
 10
930.0643939917534
 20
1212.034229317701
 30
0.0
 41
1.0
 10
930.2023856483119
 20
1211.961601749684
 30
0.0
 41
0.8577743864619717
 10
930.2034104395732
 20
1211.805667754935
 30
0.0
 41
1.0
  0
SPLINE
  5
100
330
1F
100
AcDbEntity
  8
Predefinito
100
AcDbSpline
210
0.0
220
0.0
230
1.0
 70
    24
 71
     2
 72
     6
 73
     3
 74
     0
 42
0.0000000001
 43
0.0000000001
 40
0.0
 40
0.0
 40
0.0
 40
0.1218076105265027
 40
0.1218076105265027
 40
0.1218076105265027
 10
930.2034104395732
 20
1211.805667754935
 30
0.0
 10
930.2034104395732
 20
1211.744763949671
 30
0.0
 10
930.2034104395732
 20
1211.683860144408
 30
0.0
  0
SPLINE
  5
101
330
1F
100
AcDbEntity
  8
Predefinito
100
AcDbSpline
210
0.0
220
0.0
230
1.0
 70
    24
 71
     2
 72
     6
 73
     3
 74
     0
 42
0.0000000001
 43
0.0000000001
 40
0.0
 40
0.0
 40
0.0
 40
0.1218076105267301
 40
0.1218076105267301
 40
0.1218076105267301
 10
864.2034104395733
 20
1211.683860144408
 30
0.0
 10
864.2034104395733
 20
1211.744763949671
 30
0.0
 10
864.2034104395733
 20
1211.805667754935
 30
0.0
  0
SPLINE
  5
102
330
1F
100
AcDbEntity
  8
Predefinito
100
AcDbSpline
210
0.0
220
0.0
230
1.0
 70
    12
 71
     2
 72
     6
 73
     3
 74
     0
 42
0.0000000001
 43
0.0000000001
 40
0.0
 40
0.0
 40
0.0
 40
7.507560962034002
 40
7.507560962034002
 40
7.507560962034002
 10
870.555535802173
 20
1216.246428342643
 30
0.0
 41
1.0
 10
867.5144284268627
 20
1214.043792591805
 30
0.0
 41
0.9995175210050353
 10
864.3424268873932
 20
1212.034229317701
 30
0.0
 41
1.0
  0
SPLINE
  5
103
330
1F
100
AcDbEntity
  8
Predefinito
100
AcDbSpline
210
0.0
220
0.0
230
1.0
 70
    12
 71
     3
 72
     9
 73
     5
 74
     0
 42
0.0000000001
 43
0.0000000001
 40
-72.91935593805343
 40
-72.91935593805343
 40
-72.91935593805343
 40
-72.91935593805343
 40
-44.94153861432807
 40
-30.50924600156041
 40
-30.50924600156041
 40
-30.50924600156041
 40
-30.50924600156041
 10
892.2034104395733
 20
1261.989336561677
 30
0.0
 41
1.0
 10
892.2034104395733
 20
1254.240373591924
 30
0.0
 41
1.0
 10
892.6004041203789
 20
1241.848212980437
 30
0.0
 41
1.0
 10
886.5523222956687
 20
1231.802198496372
 30
0.0
 41
1.0
 10
884.0291338200658
 20
1228.646741561671
 30
0.0
 41
1.0
  0
SPLINE
  5
104
330
1F
100
AcDbEntity
  8
Predefinito
100
AcDbSpline
210
0.0
220
0.0
230
1.0
 70
    24
 71
     2
 72
     6
 73
     3
 74
     0
 42
0.0000000001
 43
0.0000000001
 40
0.0
 40
0.0
 40
0.0
 40
9.999999999999886
 40
9.999999999999886
 40
9.999999999999886
 10
902.2034104395732
 20
1261.989336561677
 30
0.0
 10
897.2034104395732
 20
1261.989336561677
 30
0.0
 10
892.2034104395733
 20
1261.989336561677
 30
0.0
  0
SPLINE
  5
105
330
1F
100
AcDbEntity
  8
Predefinito
100
AcDbSpline
210
0.0
220
0.0
230
1.0
 70
    12
 71
     3
 72
    10
 73
     6
 74
     0
 42
0.0000000001
 43
0.0000000001
 40
0.0331596762916673
 40
0.0331596762916673
 40
0.0331596762916673
 40
0.0331596762916673
 40
11.02485408558609
 40
44.94153861432807
 40
72.91935593805343
 40
72.91935593805343
 40
72.91935593805343
 40
72.91935593805343
 10
930.041135488667
 20
1212.049023076326
 30
0.0
 41
1.0
 10
927.471343233085
 20
1213.683903126993
 30
0.0
 41
1.0
 10
917.1071560199237
 20
1220.742242137846
 30
0.0
 41
1.0
 10
901.6240267466559
 20
1236.154907436041
 30
0.0
 41
1.0
 10
902.2034104395732
 20
1254.240373591924
 30
0.0
 41
1.0
 10
902.2034104395732
 20
1261.989336561677
 30
0.0
 41
1.0
  0
SPLINE
  5
106
330
1F
100
AcDbEntity
  8
Predefinito
100
AcDbSpline
210
0.0
220
0.0
230
1.0
 70
    24
 71
     2
 72
     6
 73
     3
 74
     0
 42
0.0000000001
 43
0.0000000001
 40
0.0
 40
0.0
 40
0.0
 40
65.68929693486757
 40
65.68929693486757
 40
65.68929693486757
 10
864.3424268873932
 20
1212.034229317701
 30
0.0
 10
897.187075354827
 20
1212.034229317701
 30
0.0
 10
930.0317238222608
 20
1212.034229317701
 30
0.0
  0
SPLINE
  5
107
330
1F
100
AcDbEntity
  8
Predefinito
100
AcDbSpline
210
0.0
220
0.0
230
1.0
 70
    24
 71
     2
 72
     6
 73
     3
 74
     0
 42
0.0000000001
 43
0.0000000001
 40
0.0
 40
0.0
 40
0.0
 40
3.0
 40
3.0
 40
3.0
 10
902.2034104395732
 20
1264.989336561677
 30
0.0
 10
902.2034104395732
 20
1263.489336561677
 30
0.0
 10
902.2034104395732
 20
1261.989336561677
 30
0.0
  0
SPLINE
  5
108
330
1F
100
AcDbEntity
  8
Predefinito
100
AcDbSpline
210
0.0
220
0.0
230
1.0
 70
    24
 71
     2
 72
     6
 73
     3
 74
     0
 42
0.0000000001
 43
0.0000000001
 40
0.0
 40
0.0
 40
0.0
 40
3.0
 40
3.0
 40
3.0
 10
892.2034104395733
 20
1261.989336561677
 30
0.0
 10
892.2034104395733
 20
1263.489336561677
 30
0.0
 10
892.2034104395733
 20
1264.989336561677
 30
0.0
  0
SPLINE
  5
109
330
1F
100
AcDbEntity
  8
Predefinito
100
AcDbSpline
210
0.0
220
0.0
230
1.0
 70
    12
 71
     3
 72
    11
 73
     7
 74
     0
 42
0.0000000001
 43
0.0000000001
 40
-87.98575342096044
 40
-87.98575342096044
 40
-87.98575342096044
 40
-87.98575342096044
 40
-0.7720597948699242
 40
-0.7720597948699242
 40
-0.7720597948699242
 40
-0.4408798207755346
 40
-0.4408798207755346
 40
-0.4408798207755346
 40
-0.4408798207755346
 10
987.9521819623483
 20
1178.646741843525
 30
0.0
 41
0.930492575302508
 10
968.946512370017
 20
1189.61967065502
 30
0.0
 41
0.930492575302508
 10
949.9408427776856
 20
1200.592599466516
 30
0.0
 41
0.930492575302508
 10
930.9351731853548
 20
1211.565528278012
 30
0.0
 41
0.930492575302508
 10
930.8391302416027
 20
1211.620978697441
 30
0.0
 41
0.9220072751291323
 10
930.7352609129186
 20
1211.659839456799
 30
0.0
 41
0.9220072751291319
 10
930.626406798867
 20
1211.681047424956
 30
0.0
 41
0.930492575302508
  0
SPLINE
  5
10A
330
1F
100
AcDbEntity
  8
Predefinito
100
AcDbSpline
210
0.0
220
0.0
230
1.0
 70
    12
 71
     2
 72
     6
 73
     3
 74
     0
 42
0.0000000001
 43
0.0000000001
 40
0.0
 40
0.0
 40
0.0
 40
77.28750909590198
 40
77.28750909590198
 40
77.28750909590198
 10
897.2034104395734
 20
1165.053701719427
 30
0.0
 41
1.0
 10
935.8502964904418
 20
1165.047567580614
 30
0.0
 41
0.9998784426458837
 10
974.4785836901543
 20
1166.246428320226
 30
0.0
 41
1.0
  0
SPLINE
  5
10B
330
1F
100
AcDbEntity
  8
Predefinito
100
AcDbSpline
210
0.0
220
0.0
230
1.0
 70
    24
 71
     2
 72
     6
 73
     3
 74
     0
 42
0.0000000001
 43
0.0000000001
 40
0.0
 40
0.0
 40
0.0
 40
7.299999999999955
 40
7.299999999999955
 40
7.299999999999955
 10
893.553410439572
 20
1765.299336561677
 30
0.0
 10
897.2034104395719
 20
1765.299336561677
 30
0.0
 10
900.8534104395719
 20
1765.299336561677
 30
0.0
  0
SPLINE
  5
10C
330
1F
100
AcDbEntity
  8
Predefinito
100
AcDbSpline
210
0.0
220
0.0
230
1.0
 70
    24
 71
     2
 72
     6
 73
     3
 74
     0
 42
0.0000000001
 43
0.0000000001
 40
0.0
 40
0.0
 40
0.0
 40
0.3000000000001819
 40
0.3000000000001819
 40
0.3000000000001819
 10
893.553410439572
 20
1764.999336561677
 30
0.0
 10
893.553410439572
 20
1765.149336561677
 30
0.0
 10
893.553410439572
 20
1765.299336561677
 30
0.0
  0
SPLINE
  5
10D
330
1F
100
AcDbEntity
  8
Predefinito
100
AcDbSpline
210
0.0
220
0.0
230
1.0
 70
    24
 71
     2
 72
     6
 73
     3
 74
     0
 42
0.0000000001
 43
0.0000000001
 40
0.0
 40
0.0
 40
0.0
 40
0.3000000000001819
 40
0.3000000000001819
 40
0.3000000000001819
 10
900.8534104395719
 20
1765.299336561677
 30
0.0
 10
900.8534104395719
 20
1765.149336561677
 30
0.0
 10
900.8534104395719
 20
1764.999336561677
 30
0.0
  0
SPLINE
  5
10E
330
1F
100
AcDbEntity
  8
Predefinito
100
AcDbSpline
210
0.0
220
0.0
230
1.0
 70
    24
 71
     2
 72
     6
 73
     3
 74
     0
 42
0.0000000001
 43
0.0000000001
 40
0.0
 40
0.0
 40
0.0
 40
4.945945945945823
 40
4.945945945945823
 40
4.945945945945823
 10
892.2574644936275
 20
1761.646994219335
 30
0.0
 10
894.7304374666004
 20
1761.646994219335
 30
0.0
 10
897.2034104395733
 20
1761.646994219335
 30
0.0
  0
SPLINE
  5
10F
330
1F
100
AcDbEntity
  8
Predefinito
100
AcDbSpline
210
0.0
220
0.0
230
1.0
 70
    24
 71
     2
 72
     6
 73
     3
 74
     0
 42
0.0000000001
 43
0.0000000001
 40
0.0
 40
0.0
 40
0.0
 40
4.999999999999886
 40
4.999999999999886
 40
4.999999999999886
 10
897.2034104395733
 20
1761.32266989501
 30
0.0
 10
899.7034104395732
 20
1761.32266989501
 30
0.0
 10
902.2034104395732
 20
1761.32266989501
 30
0.0
  0
SPLINE
  5
110
330
1F
100
AcDbEntity
  8
Predefinito
100
AcDbSpline
210
0.0
220
0.0
230
1.0
 70
    24
 71
     2
 72
     6
 73
     3
 74
     0
 42
0.0000000001
 43
0.0000000001
 40
0.0
 40
0.0
 40
0.0
 40
4.945945945945937
 40
4.945945945945937
 40
4.945945945945937
 10
897.2034104395733
 20
1761.646994219335
 30
0.0
 10
899.6763834125463
 20
1761.646994219335
 30
0.0
 10
902.1493563855192
 20
1761.646994219335
 30
0.0
  0
SPLINE
  5
111
330
1F
100
AcDbEntity
  8
Predefinito
100
AcDbSpline
210
0.0
220
0.0
230
1.0
 70
    24
 71
     2
 72
     6
 73
     3
 74
     0
 42
0.0000000001
 43
0.0000000001
 40
0.0
 40
0.0
 40
0.0
 40
5.0
 40
5.0
 40
5.0
 10
897.2034104395733
 20
1264.989336561677
 30
0.0
 10
894.7034104395733
 20
1264.989336561677
 30
0.0
 10
892.2034104395733
 20
1264.989336561677
 30
0.0
  0
SPLINE
  5
112
330
1F
100
AcDbEntity
  8
Predefinito
100
AcDbSpline
210
0.0
220
0.0
230
1.0
 70
    24
 71
     2
 72
     6
 73
     3
 74
     0
 42
0.0000000001
 43
0.0000000001
 40
0.0
 40
0.0
 40
0.0
 40
4.999999999999886
 40
4.999999999999886
 40
4.999999999999886
 10
902.2034104395732
 20
1264.989336561677
 30
0.0
 10
899.7034104395732
 20
1264.989336561677
 30
0.0
 10
897.2034104395733
 20
1264.989336561677
 30
0.0
  0
SPLINE
  5
113
330
1F
100
AcDbEntity
  8
Predefinito
100
AcDbSpline
210
0.0
220
0.0
230
1.0
 70
    24
 71
     2
 72
     6
 73
     3
 74
     0
 42
0.0000000001
 43
0.0000000001
 40
0.0
 40
0.0
 40
0.0
 40
3.800000000000068
 40
3.800000000000068
 40
3.800000000000068
 10
893.4034104395732
 20
1764.989336561677
 30
0.0
 10
895.3034104395733
 20
1764.989336561677
 30
0.0
 10
897.2034104395733
 20
1764.989336561677
 30
0.0
  0
SPLINE
  5
114
330
1F
100
AcDbEntity
  8
Predefinito
100
AcDbSpline
210
0.0
220
0.0
230
1.0
 70
    24
 71
     2
 72
     6
 73
     3
 74
     0
 42
0.0000000001
 43
0.0000000001
 40
0.0
 40
0.0
 40
0.0
 40
3.800000000000068
 40
3.800000000000068
 40
3.800000000000068
 10
897.2034104395733
 20
1764.989336561677
 30
0.0
 10
899.1034104395733
 20
1764.989336561677
 30
0.0
 10
901.0034104395734
 20
1764.989336561677
 30
0.0
  0
SPLINE
  5
115
330
1F
100
AcDbEntity
  8
Predefinito
100
AcDbSpline
210
0.0
220
0.0
230
1.0
 70
    24
 71
     2
 72
     6
 73
     3
 74
     0
 42
0.0000000001
 43
0.0000000001
 40
0.0
 40
0.0
 40
0.0
 40
5.0
 40
5.0
 40
5.0
 10
897.2034104395733
 20
1761.32266989501
 30
0.0
 10
894.7034104395733
 20
1761.32266989501
 30
0.0
 10
892.2034104395733
 20
1761.32266989501
 30
0.0
  0
SPLINE
  5
116
330
1F
100
AcDbEntity
  8
Predefinito
100
AcDbSpline
210
0.0
220
0.0
230
1.0
 70
    24
 71
     2
 72
     6
 73
     3
 74
     0
 42
0.0000000001
 43
0.0000000001
 40
0.0
 40
0.0
 40
0.0
 40
65.96719162128693
 40
65.96719162128693
 40
65.96719162128693
 10
1034.093649979667
 20
1161.805667754935
 30
0.0
 10
1001.110054169023
 20
1161.805667754935
 30
0.0
 10
968.12645835838
 20
1161.805667754935
 30
0.0
  0
SPLINE
  5
117
330
1F
100
AcDbEntity
  8
Predefinito
100
AcDbSpline
210
0.0
220
0.0
230
1.0
 70
    12
 71
     2
 72
     6
 73
     3
 74
     0
 42
0.0000000001
 43
0.0000000001
 40
0.0
 40
0.0
 40
0.0
 40
0.2809692650867266
 40
0.2809692650867266
 40
0.2809692650867266
 10
968.12645835838
 20
1161.805667754935
 30
0.0
 41
1.0
 10
968.1274831496411
 20
1161.961601749685
 30
0.0
 41
0.8577743864613577
 10
968.2654748061999
 20
1162.034229317701
 30
0.0
 41
1.0
  0
SPLINE
  5
118
330
1F
100
AcDbEntity
  8
Predefinito
100
AcDbSpline
210
0.0
220
0.0
230
1.0
 70
    12
 71
     2
 72
     6
 73
     3
 74
     0
 42
0.0000000001
 43
0.0000000001
 40
0.0
 40
0.0
 40
0.0
 40
0.2809692650865419
 40
0.2809692650865419
 40
0.2809692650865419
 10
1033.98744191056
 20
1162.034229317701
 30
0.0
 41
1.0
 10
1034.125433567119
 20
1161.961601749684
 30
0.0
 41
0.8577743864618517
 10
1034.12645835838
 20
1161.805667754935
 30
0.0
 41
1.0
  0
SPLINE
  5
119
330
1F
100
AcDbEntity
  8
Predefinito
100
AcDbSpline
210
0.0
220
0.0
230
1.0
 70
    24
 71
     2
 72
     6
 73
     3
 74
     0
 42
0.0000000001
 43
0.0000000001
 40
0.0
 40
0.0
 40
0.0
 40
0.1218076105265027
 40
0.1218076105265027
 40
0.1218076105265027
 10
1034.12645835838
 20
1161.805667754935
 30
0.0
 10
1034.12645835838
 20
1161.744763949671
 30
0.0
 10
1034.12645835838
 20
1161.683860144408
 30
0.0
  0
SPLINE
  5
11A
330
1F
100
AcDbEntity
  8
Predefinito
100
AcDbSpline
210
0.0
220
0.0
230
1.0
 70
    24
 71
     2
 72
     6
 73
     3
 74
     0
 42
0.0000000001
 43
0.0000000001
 40
0.0
 40
0.0
 40
0.0
 40
0.1218076105265027
 40
0.1218076105265027
 40
0.1218076105265027
 10
968.12645835838
 20
1161.683860144408
 30
0.0
 10
968.12645835838
 20
1161.744763949671
 30
0.0
 10
968.12645835838
 20
1161.805667754935
 30
0.0
  0
SPLINE
  5
11B
330
1F
100
AcDbEntity
  8
Predefinito
100
AcDbSpline
210
0.0
220
0.0
230
1.0
 70
    12
 71
     3
 72
    10
 73
     6
 74
     0
 42
0.0000000001
 43
0.0000000001
 40
-72.91935593805343
 40
-72.91935593805343
 40
-72.91935593805343
 40
-72.91935593805343
 40
-44.94153861432807
 40
-11.02485408558609
 40
0.0
 40
0.0
 40
0.0
 40
0.0
 10
996.12645835838
 20
1211.989336561677
 30
0.0
 41
1.0
 10
996.12645835838
 20
1204.240373591924
 30
0.0
 41
1.0
 10
996.7058420512974
 20
1186.154907436041
 30
0.0
 41
1.0
 10
981.2156687068473
 20
1170.735230124347
 30
0.0
 41
1.0
 10
970.843219593327
 20
1163.673480912048
 30
0.0
 41
1.0
 10
968.2654748061999
 20
1162.034229317701
 30
0.0
 41
1.0
  0
SPLINE
  5
11C
330
1F
100
AcDbEntity
  8
Predefinito
100
AcDbSpline
210
0.0
220
0.0
230
1.0
 70
    24
 71
     2
 72
     6
 73
     3
 74
     0
 42
0.0000000001
 43
0.0000000001
 40
0.0
 40
0.0
 40
0.0
 40
10.0
 40
10.0
 40
10.0
 10
1006.12645835838
 20
1211.989336561677
 30
0.0
 10
1001.12645835838
 20
1211.989336561677
 30
0.0
 10
996.12645835838
 20
1211.989336561677
 30
0.0
  0
SPLINE
  5
11D
330
1F
100
AcDbEntity
  8
Predefinito
100
AcDbSpline
210
0.0
220
0.0
230
1.0
 70
    12
 71
     3
 72
    10
 73
     6
 74
     0
 42
0.0000000001
 43
0.0000000001
 40
0.0331596762916162
 40
0.0331596762916162
 40
0.0331596762916162
 40
0.0331596762916162
 40
11.02485408558609
 40
44.94153861432807
 40
72.91935593805343
 40
72.91935593805343
 40
72.91935593805343
 40
72.91935593805343
 10
1033.964183407474
 20
1162.049023076326
 30
0.0
 41
1.0
 10
1031.394391151892
 20
1163.683903126993
 30
0.0
 41
1.0
 10
1021.03020393873
 20
1170.742242137846
 30
0.0
 41
1.0
 10
1005.547074665463
 20
1186.154907436041
 30
0.0
 41
1.0
 10
1006.12645835838
 20
1204.240373591924
 30
0.0
 41
1.0
 10
1006.12645835838
 20
1211.989336561677
 30
0.0
 41
1.0
  0
SPLINE
  5
11E
330
1F
100
AcDbEntity
  8
Predefinito
100
AcDbSpline
210
0.0
220
0.0
230
1.0
 70
    24
 71
     2
 72
     6
 73
     3
 74
     0
 42
0.0000000001
 43
0.0000000001
 40
0.0
 40
0.0
 40
0.0
 40
65.68929693486768
 40
65.68929693486768
 40
65.68929693486768
 10
968.2654748061999
 20
1162.034229317701
 30
0.0
 10
1001.110123273634
 20
1162.0342293177
 30
0.0
 10
1033.954771741068
 20
1162.0342293177
 30
0.0
  0
SPLINE
  5
11F
330
1F
100
AcDbEntity
  8
Predefinito
100
AcDbSpline
210
0.0
220
0.0
230
1.0
 70
    24
 71
     2
 72
     6
 73
     3
 74
     0
 42
0.0000000001
 43
0.0000000001
 40
0.0
 40
0.0
 40
0.0
 40
3.0
 40
3.0
 40
3.0
 10
1006.12645835838
 20
1214.989336561677
 30
0.0
 10
1006.12645835838
 20
1213.489336561677
 30
0.0
 10
1006.12645835838
 20
1211.989336561677
 30
0.0
  0
SPLINE
  5
120
330
1F
100
AcDbEntity
  8
Predefinito
100
AcDbSpline
210
0.0
220
0.0
230
1.0
 70
    24
 71
     2
 72
     6
 73
     3
 74
     0
 42
0.0000000001
 43
0.0000000001
 40
0.0
 40
0.0
 40
0.0
 40
3.0
 40
3.0
 40
3.0
 10
996.12645835838
 20
1211.989336561677
 30
0.0
 10
996.12645835838
 20
1213.489336561677
 30
0.0
 10
996.12645835838
 20
1214.989336561677
 30
0.0
  0
SPLINE
  5
121
330
1F
100
AcDbEntity
  8
Predefinito
100
AcDbSpline
210
0.0
220
0.0
230
1.0
 70
    12
 71
     3
 72
    20
 73
    16
 74
     0
 42
0.0000000001
 43
0.0000000001
 40
0.0
 40
0.0
 40
0.0
 40
0.0
 40
3.066070549457604
 40
3.066070549457604
 40
3.066070549457604
 40
6.164409568300014
 40
6.164409568300014
 40
6.164409568300014
 40
8.258805056863912
 40
8.258805056863912
 40
8.258805056863912
 40
116.1014899728002
 40
116.1014899728002
 40
116.1014899728002
 40
116.4326699468949
 40
116.4326699468949
 40
116.4326699468949
 40
116.4326699468949
 10
1101.339566168817
 20
1117.06304260499
 30
0.0
 41
1.0
 10
1102.361359215857
 20
1117.084746301891
 30
0.0
 41
0.999999987375932
 10
1103.383148019836
 20
1117.106648847297
 30
0.0
 41
0.9999999873759322
 10
1104.404932542063
 20
1117.128750240376
 30
0.0
 41
1.0
 10
1105.556244240979
 20
1117.153653330903
 30
0.0
 41
0.8098076841727192
 10
1106.361682278995
 20
1117.97670154267
 30
0.0
 41
0.809807684172719
 10
1106.361682278996
 20
1119.128282539377
 30
0.0
 41
1.0
 10
1106.361682222949
 20
1119.860333403095
 30
0.0
 41
0.910683793229129
 10
1105.995657105262
 20
1120.494308229323
 30
0.0
 41
0.910683793229129
 10
1105.361682851217
 20
1120.860334338062
 30
0.0
 41
1.0
 10
1081.860528935532
 20
1134.428732318045
 30
0.0
 41
1.0
 10
1058.359375019847
 20
1147.997130298028
 30
0.0
 41
1.0
 10
1034.858221104161
 20
1161.565528278012
 30
0.0
 41
1.0
 10
1034.76217816041
 20
1161.62097869744
 30
0.0
 41
0.9908808512836954
 10
1034.658308831726
 20
1161.6598394568
 30
0.0
 41
0.9908808512836949
 10
1034.549454717673
 20
1161.681047424955
 30
0.0
 41
1.0
  0
SPLINE
  5
122
330
1F
100
AcDbEntity
  8
Predefinito
100
AcDbSpline
210
0.0
220
0.0
230
1.0
 70
    12
 71
     2
 72
     6
 73
     3
 74
     0
 42
0.0000000001
 43
0.0000000001
 40
0.0
 40
0.0
 40
0.0
 40
96.72095242035743
 40
96.72095242035743
 40
96.72095242035743
 10
1001.12645835838
 20
1115.053701719426
 30
0.0
 41
1.0
 10
1049.493067466182
 20
1115.045922503449
 30
0.0
 41
0.9998097910958844
 10
1097.823184419093
 20
1116.924414563891
 30
0.0
 41
1.0
  0
SPLINE
  5
123
330
1F
100
AcDbEntity
  8
Predefinito
100
AcDbSpline
210
0.0
220
0.0
230
1.0
 70
    24
 71
     2
 72
     6
 73
     3
 74
     0
 42
0.0000000001
 43
0.0000000001
 40
0.0
 40
0.0
 40
0.0
 40
7.300000000000068
 40
7.300000000000068
 40
7.300000000000068
 10
997.4764583583786
 20
1715.299336561677
 30
0.0
 10
1001.126458358379
 20
1715.299336561677
 30
0.0
 10
1004.776458358379
 20
1715.299336561677
 30
0.0
  0
SPLINE
  5
124
330
1F
100
AcDbEntity
  8
Predefinito
100
AcDbSpline
210
0.0
220
0.0
230
1.0
 70
    24
 71
     2
 72
     6
 73
     3
 74
     0
 42
0.0000000001
 43
0.0000000001
 40
0.0
 40
0.0
 40
0.0
 40
0.3000000000001819
 40
0.3000000000001819
 40
0.3000000000001819
 10
997.4764583583786
 20
1714.999336561677
 30
0.0
 10
997.4764583583786
 20
1715.149336561677
 30
0.0
 10
997.4764583583786
 20
1715.299336561677
 30
0.0
  0
SPLINE
  5
125
330
1F
100
AcDbEntity
  8
Predefinito
100
AcDbSpline
210
0.0
220
0.0
230
1.0
 70
    24
 71
     2
 72
     6
 73
     3
 74
     0
 42
0.0000000001
 43
0.0000000001
 40
0.0
 40
0.0
 40
0.0
 40
0.3000000000001819
 40
0.3000000000001819
 40
0.3000000000001819
 10
1004.776458358379
 20
1715.299336561677
 30
0.0
 10
1004.776458358379
 20
1715.149336561677
 30
0.0
 10
1004.776458358379
 20
1714.999336561677
 30
0.0
  0
SPLINE
  5
126
330
1F
100
AcDbEntity
  8
Predefinito
100
AcDbSpline
210
0.0
220
0.0
230
1.0
 70
    24
 71
     2
 72
     6
 73
     3
 74
     0
 42
0.0000000001
 43
0.0000000001
 40
0.0
 40
0.0
 40
0.0
 40
4.945945945945823
 40
4.945945945945823
 40
4.945945945945823
 10
996.1805124124342
 20
1711.646994219335
 30
0.0
 10
998.6534853854071
 20
1711.646994219335
 30
0.0
 10
1001.12645835838
 20
1711.646994219335
 30
0.0
  0
SPLINE
  5
127
330
1F
100
AcDbEntity
  8
Predefinito
100
AcDbSpline
210
0.0
220
0.0
230
1.0
 70
    24
 71
     2
 72
     6
 73
     3
 74
     0
 42
0.0000000001
 43
0.0000000001
 40
0.0
 40
0.0
 40
0.0
 40
5.0
 40
5.0
 40
5.0
 10
1001.12645835838
 20
1711.32266989501
 30
0.0
 10
1003.62645835838
 20
1711.32266989501
 30
0.0
 10
1006.12645835838
 20
1711.32266989501
 30
0.0
  0
SPLINE
  5
128
330
1F
100
AcDbEntity
  8
Predefinito
100
AcDbSpline
210
0.0
220
0.0
230
1.0
 70
    24
 71
     2
 72
     6
 73
     3
 74
     0
 42
0.0000000001
 43
0.0000000001
 40
0.0
 40
0.0
 40
0.0
 40
4.945945945945937
 40
4.945945945945937
 40
4.945945945945937
 10
1001.12645835838
 20
1711.646994219335
 30
0.0
 10
1003.599431331353
 20
1711.646994219335
 30
0.0
 10
1006.072404304326
 20
1711.646994219335
 30
0.0
  0
SPLINE
  5
129
330
1F
100
AcDbEntity
  8
Predefinito
100
AcDbSpline
210
0.0
220
0.0
230
1.0
 70
    24
 71
     2
 72
     6
 73
     3
 74
     0
 42
0.0000000001
 43
0.0000000001
 40
0.0
 40
0.0
 40
0.0
 40
5.0
 40
5.0
 40
5.0
 10
1001.12645835838
 20
1214.989336561677
 30
0.0
 10
998.62645835838
 20
1214.989336561677
 30
0.0
 10
996.12645835838
 20
1214.989336561677
 30
0.0
  0
SPLINE
  5
12A
330
1F
100
AcDbEntity
  8
Predefinito
100
AcDbSpline
210
0.0
220
0.0
230
1.0
 70
    24
 71
     2
 72
     6
 73
     3
 74
     0
 42
0.0000000001
 43
0.0000000001
 40
0.0
 40
0.0
 40
0.0
 40
5.0
 40
5.0
 40
5.0
 10
1006.12645835838
 20
1214.989336561677
 30
0.0
 10
1003.62645835838
 20
1214.989336561677
 30
0.0
 10
1001.12645835838
 20
1214.989336561677
 30
0.0
  0
SPLINE
  5
12B
330
1F
100
AcDbEntity
  8
Predefinito
100
AcDbSpline
210
0.0
220
0.0
230
1.0
 70
    24
 71
     2
 72
     6
 73
     3
 74
     0
 42
0.0000000001
 43
0.0000000001
 40
0.0
 40
0.0
 40
0.0
 40
3.799999999999955
 40
3.799999999999955
 40
3.799999999999955
 10
997.32645835838
 20
1714.989336561677
 30
0.0
 10
999.22645835838
 20
1714.989336561677
 30
0.0
 10
1001.12645835838
 20
1714.989336561677
 30
0.0
  0
SPLINE
  5
12C
330
1F
100
AcDbEntity
  8
Predefinito
100
AcDbSpline
210
0.0
220
0.0
230
1.0
 70
    24
 71
     2
 72
     6
 73
     3
 74
     0
 42
0.0000000001
 43
0.0000000001
 40
0.0
 40
0.0
 40
0.0
 40
3.800000000000068
 40
3.800000000000068
 40
3.800000000000068
 10
1001.12645835838
 20
1714.989336561677
 30
0.0
 10
1003.02645835838
 20
1714.989336561677
 30
0.0
 10
1004.92645835838
 20
1714.989336561677
 30
0.0
  0
SPLINE
  5
12D
330
1F
100
AcDbEntity
  8
Predefinito
100
AcDbSpline
210
0.0
220
0.0
230
1.0
 70
    24
 71
     2
 72
     6
 73
     3
 74
     0
 42
0.0000000001
 43
0.0000000001
 40
0.0
 40
0.0
 40
0.0
 40
5.0
 40
5.0
 40
5.0
 10
1001.12645835838
 20
1711.32266989501
 30
0.0
 10
998.62645835838
 20
1711.32266989501
 30
0.0
 10
996.12645835838
 20
1711.32266989501
 30
0.0
  0
SPLINE
  5
12E
330
1F
100
AcDbEntity
  8
Predefinito
100
AcDbSpline
210
0.0
220
0.0
230
1.0
 70
    24
 71
     2
 72
     6
 73
     3
 74
     0
 42
0.0000000001
 43
0.0000000001
 40
0.0
 40
0.0
 40
0.0
 40
284.968366949062
 40
284.968366949062
 40
284.968366949062
 10
1039.703410209298
 20
1967.297546551597
 30
0.0
 10
897.2192267347668
 20
1967.297546551597
 30
0.0
 10
754.7350432602358
 20
1967.297546551597
 30
0.0
  0
SPLINE
  5
12F
330
1F
100
AcDbEntity
  8
Predefinito
100
AcDbSpline
210
0.0
220
0.0
230
1.0
 70
    12
 71
     3
 72
     8
 73
     4
 74
     0
 42
0.0000000001
 43
0.0000000001
 40
190.4378481920388
 40
190.4378481920388
 40
190.4378481920388
 40
190.4378481920388
 40
290.4914130083088
 40
290.4914130083088
 40
290.4914130083088
 40
290.4914130083088
 10
694.0429588264474
 20
1217.0240906369
 30
0.0
 41
1.185959334021429
 10
727.3678611738349
 20
1215.700216512418
 30
0.0
 41
1.185959334021429
 10
759.9291735578602
 20
1215.053701719427
 30
0.0
 41
1.185959334021429
 10
793.2803618299504
 20
1215.053701719427
 30
0.0
 41
1.185959334021429
  0
SPLINE
  5
130
330
1F
100
AcDbEntity
  8
Predefinito
100
AcDbSpline
210
0.0
220
0.0
230
1.0
 70
    12
 71
     3
 72
    20
 73
    16
 74
     0
 42
0.0000000001
 43
0.0000000001
 40
98.74698731632687
 40
98.74698731632687
 40
98.74698731632687
 40
98.74698731632687
 40
99.08070285492789
 40
99.08070285492789
 40
99.08070285492789
 40
180.4910887525976
 40
180.4910887525976
 40
180.4910887525976
 40
182.5728654337806
 40
182.5728654337806
 40
182.5728654337806
 40
185.6703569836187
 40
185.6703569836187
 40
185.6703569836187
 40
188.7364275061523
 40
188.7364275061523
 40
188.7364275061523
 40
188.7364275061523
 10
759.8573654706566
 20
1261.681047424955
 30
0.0
 41
1.090865901949207
 10
759.7498380561264
 20
1261.660097936705
 30
0.0
 41
1.055540505605691
 10
759.6457988728481
 20
1261.621646602171
 30
0.0
 41
1.030266080537601
 10
759.5485990841689
 20
1261.565528278012
 30
0.0
 41
1.015042626744939
 10
736.0474451684835
 20
1247.997130298028
 30
0.0
 41
1.015042626744939
 10
712.5462912527984
 20
1234.428732318045
 30
0.0
 41
1.015042626744939
 10
689.0451373371131
 20
1220.860334338061
 30
0.0
 41
1.015042626744939
 10
688.3949446809008
 20
1220.48494457375
 30
0.0
 41
0.9672407058423004
 10
688.045137909334
 20
1219.841248504635
 30
0.0
 41
1.01853848566638
 10
688.045137909334
 20
1219.128282539377
 30
0.0
 41
1.16893596621718
 10
688.045137909334
 20
1217.978793120838
 30
0.0
 41
0.9441620814719612
 10
688.8484864879669
 20
1217.153698526305
 30
0.0
 41
0.9407399284037328
 10
690.0018876462672
 20
1217.128750240376
 30
0.0
 41
1.158669507012491
 10
691.0236721530712
 20
1217.106648847627
 30
0.0
 41
1.158669507012491
 10
692.0454609878964
 20
1217.084746301562
 30
0.0
 41
1.158669507012491
 10
693.0672540195133
 20
1217.063042604991
 30
0.0
 41
1.158669507012491
  0
SPLINE
  5
131
330
1F
100
AcDbEntity
  8
Predefinito
100
AcDbSpline
210
0.0
220
0.0
230
1.0
 70
    12
 71
     3
 72
     8
 73
     4
 74
     0
 42
0.0000000001
 43
0.0000000001
 40
190.4378481920388
 40
190.4378481920388
 40
190.4378481920388
 40
190.4378481920388
 40
290.4914130083088
 40
290.4914130083088
 40
290.4914130083088
 40
290.4914130083088
 10
797.9660074360706
 20
1167.024090636901
 30
0.0
 41
1.185959334021429
 10
831.2909097834583
 20
1165.700216512418
 30
0.0
 41
1.185959334021429
 10
863.8522221674833
 20
1165.053701719427
 30
0.0
 41
1.185959334021429
 10
897.2034104395733
 20
1165.053701719427
 30
0.0
 41
1.185959334021429
  0
SPLINE
  5
132
330
1F
100
AcDbEntity
  8
Predefinito
100
AcDbSpline
210
0.0
220
0.0
230
1.0
 70
    12
 71
     3
 72
    20
 73
    16
 74
     0
 42
0.0000000001
 43
0.0000000001
 40
98.74698731632681
 40
98.74698731632681
 40
98.74698731632681
 40
98.74698731632681
 40
99.08070285492789
 40
99.08070285492789
 40
99.08070285492789
 40
180.4910887525976
 40
180.4910887525976
 40
180.4910887525976
 40
182.5728654337806
 40
182.5728654337806
 40
182.5728654337806
 40
185.6703569836187
 40
185.6703569836187
 40
185.6703569836187
 40
188.7364275061523
 40
188.7364275061523
 40
188.7364275061523
 40
188.7364275061523
 10
863.7804140802797
 20
1211.681047424955
 30
0.0
 41
1.090865901949225
 10
863.6728866657498
 20
1211.660097936706
 30
0.0
 41
1.055540505605699
 10
863.5688474824714
 20
1211.621646602171
 30
0.0
 41
1.030266080537604
 10
863.4716476937922
 20
1211.565528278012
 30
0.0
 41
1.015042626744939
 10
839.970493778107
 20
1197.997130298028
 30
0.0
 41
1.015042626744939
 10
816.4693398624213
 20
1184.428732318045
 30
0.0
 41
1.015042626744939
 10
792.9681859467362
 20
1170.860334338061
 30
0.0
 41
1.015042626744939
 10
792.3179932905243
 20
1170.48494457375
 30
0.0
 41
0.9672407058423004
 10
791.968186518957
 20
1169.841248504635
 30
0.0
 41
1.01853848566638
 10
791.9681865189574
 20
1169.128282539377
 30
0.0
 41
1.16893596621718
 10
791.9681865189573
 20
1167.978793120837
 30
0.0
 41
0.9441620814719612
 10
792.77153509759
 20
1167.153698526305
 30
0.0
 41
0.9407399284037328
 10
793.9249362558905
 20
1167.128750240376
 30
0.0
 41
1.158669507012491
 10
794.9467207626943
 20
1167.106648847627
 30
0.0
 41
1.158669507012491
 10
795.9685095975193
 20
1167.084746301562
 30
0.0
 41
1.158669507012491
 10
796.9903026291366
 20
1167.063042604991
 30
0.0
 41
1.158669507012491
  0
SPLINE
  5
133
330
1F
100
AcDbEntity
  8
Predefinito
100
AcDbSpline
210
0.0
220
0.0
230
1.0
 70
    12
 71
     3
 72
     8
 73
     4
 74
     0
 42
0.0000000001
 43
0.0000000001
 40
190.4378481920615
 40
190.4378481920615
 40
190.4378481920615
 40
190.4378481920615
 40
290.4914130083088
 40
290.4914130083088
 40
290.4914130083088
 40
290.4914130083088
 10
901.8890553549004
 20
1117.024090636899
 30
0.0
 41
1.185959334021429
 10
935.21395770228
 20
1115.700216512418
 30
0.0
 41
1.185959334021429
 10
967.7752700862978
 20
1115.053701719427
 30
0.0
 41
1.185959334021429
 10
1001.12645835838
 20
1115.053701719427
 30
0.0
 41
1.185959334021429
  0
SPLINE
  5
134
330
1F
100
AcDbEntity
  8
Predefinito
100
AcDbSpline
210
0.0
220
0.0
230
1.0
 70
    12
 71
     3
 72
    20
 73
    16
 74
     0
 42
0.0000000001
 43
0.0000000001
 40
98.74698731632687
 40
98.74698731632687
 40
98.74698731632687
 40
98.74698731632687
 40
99.08070285492789
 40
99.08070285492789
 40
99.08070285492789
 40
180.4910887525976
 40
180.4910887525976
 40
180.4910887525976
 40
182.5728654337806
 40
182.5728654337806
 40
182.5728654337806
 40
185.6703569836187
 40
185.6703569836187
 40
185.6703569836187
 40
188.7364275061516
 40
188.7364275061516
 40
188.7364275061516
 40
188.7364275061516
 10
967.7034619990862
 20
1161.681047424955
 30
0.0
 41
1.090865901949207
 10
967.5959345845564
 20
1161.660097936705
 30
0.0
 41
1.055540505605691
 10
967.4918954012782
 20
1161.621646602171
 30
0.0
 41
1.030266080537601
 10
967.394695612599
 20
1161.565528278012
 30
0.0
 41
1.015042626744939
 10
943.8935416969134
 20
1147.997130298028
 30
0.0
 41
1.015042626744939
 10
920.3923877812283
 20
1134.428732318045
 30
0.0
 41
1.015042626744939
 10
896.891233865543
 20
1120.860334338061
 30
0.0
 41
1.015042626744939
 10
896.2410412093308
 20
1120.48494457375
 30
0.0
 41
0.9672407058423004
 10
895.8912344377641
 20
1119.841248504635
 30
0.0
 41
1.01853848566638
 10
895.891234437764
 20
1119.128282539377
 30
0.0
 41
1.16893596621718
 10
895.8912344377638
 20
1117.978793120838
 30
0.0
 41
0.9441620814719612
 10
896.694583016397
 20
1117.153698526305
 30
0.0
 41
0.9407399284037328
 10
897.847984174697
 20
1117.128750240376
 30
0.0
 41
1.158669507012491
 10
898.869768681501
 20
1117.106648847627
 30
0.0
 41
1.158669507012491
 10
899.8915575163257
 20
1117.084746301561
 30
0.0
 41
1.158669507012491
 10
900.9133505479424
 20
1117.063042604991
 30
0.0
 41
1.158669507012491
  0
SPLINE
  5
135
330
1F
100
AcDbEntity
  8
Predefinito
100
AcDbSpline
210
0.0
220
0.0
230
1.0
 70
    12
 71
     2
 72
     6
 73
     3
 74
     0
 42
0.0000000001
 43
0.0000000001
 40
0.0
 40
0.0
 40
0.0
 40
45.71878255903918
 40
45.71878255903918
 40
45.71878255903918
 10
688.0451379093341
 20
140.0000003093033
 30
0.0
 41
1.0
 10
688.0451295369477
 20
163.225854952614
 30
0.0
 41
0.9764997992577235
 10
697.8210507694744
 20
184.2941175285292
 30
0.0
 41
1.0
  0
SPLINE
  5
136
330
1F
100
AcDbEntity
  8
Predefinito
100
AcDbSpline
210
0.0
220
0.0
230
1.0
 70
    12
 71
     2
 72
     6
 73
     3
 74
     0
 42
0.0000000001
 43
0.0000000001
 40
0.0
 40
0.0
 40
0.0
 40
155.9207648591309
 40
155.9207648591309
 40
155.9207648591309
 10
783.910546719899
 20
35.18274640568812
 30
0.0
 41
1.0
 10
688.0453601970019
 20
43.752531731902
 30
0.0
 41
0.7379164494720706
 10
688.0451379093341
 20
140.0000003093032
 30
0.0
 41
1.0
  0
SPLINE
  5
137
330
1F
100
AcDbEntity
  8
Predefinito
100
AcDbSpline
210
0.0
220
0.0
230
1.0
 70
    12
 71
     2
 72
     8
 73
     5
 74
     0
 42
0.0000000001
 43
0.0000000001
 40
0.0
 40
0.0
 40
0.0
 40
100.8197607850554
 40
100.8197607850554
 40
201.6395215701108
 40
201.6395215701108
 40
201.6395215701108
 10
811.1138907952803
 20
380.5231138858996
 30
0.0
 41
1.0
 10
842.5475760010435
 20
425.2352128076543
 30
0.0
 41
0.887446318072474
 10
897.2033017358938
 20
425.2352391298806
 30
0.0
 41
1.0
 10
951.8590274707436
 20
425.2352654521065
 30
0.0
 41
0.887446318072474
 10
983.292755743233
 20
380.523196807331
 30
0.0
 41
1.0
  0
SPLINE
  5
138
330
1F
100
AcDbEntity
  8
Predefinito
100
AcDbSpline
210
0.0
220
0.0
230
1.0
 70
    12
 71
     2
 72
     6
 73
     3
 74
     0
 42
0.0000000001
 43
0.0000000001
 40
0.0
 40
0.0
 40
0.0
 40
45.7188779497466
 40
45.7188779497466
 40
45.7188779497466
 10
1096.585778168062
 20
184.2942256747235
 30
0.0
 41
1.0
 10
1106.361640270009
 20
163.2258931320601
 30
0.0
 41
0.976500418495635
 10
1106.361682278996
 20
139.999999909995
 30
0.0
 41
1.0
  0
SPLINE
  5
139
330
1F
100
AcDbEntity
  8
Predefinito
100
AcDbSpline
210
0.0
220
0.0
230
1.0
 70
    12
 71
     2
 72
     6
 73
     3
 74
     0
 42
0.0000000001
 43
0.0000000001
 40
0.0
 40
0.0
 40
0.0
 40
155.9208543814537
 40
155.9208543814537
 40
155.9208543814537
 10
1106.361682278996
 20
139.9999999099949
 30
0.0
 41
1.0
 10
1106.361616197449
 20
43.75237099519387
 30
0.0
 41
0.7379153299155377
 10
1010.496255450544
 20
35.18273386218681
 30
0.0
 41
1.0
  0
SPLINE
  5
13A
330
1F
100
AcDbEntity
  8
Predefinito
100
AcDbSpline
210
0.0
220
0.0
230
1.0
 70
    12
 71
     2
 72
     6
 73
     3
 74
     0
 42
0.0000000001
 43
0.0000000001
 40
0.0
 40
0.0
 40
0.0
 40
209.4395102393198
 40
209.4395102393198
 40
209.4395102393198
 10
1097.203410209301
 20
199.9999999999998
 30
0.0
 41
1.0
 10
1097.203410209302
 20
84.52994616207442
 30
0.0
 41
0.8660254037844372
 10
997.2034102093012
 20
26.79491924311196
 30
0.0
 41
1.0
  0
SPLINE
  5
13B
330
1F
100
AcDbEntity
  8
Predefinito
100
AcDbSpline
210
0.0
220
0.0
230
1.0
 70
    12
 71
     2
 72
     8
 73
     5
 74
     0
 42
0.0000000001
 43
0.0000000001
 40
0.0
 40
0.0
 40
0.0
 40
209.4395102393191
 40
209.4395102393191
 40
418.8790204786382
 40
418.8790204786382
 40
418.8790204786382
 10
797.2034102093015
 20
373.2050807568877
 30
0.0
 41
1.0
 10
897.2034102093016
 20
430.9401076758496
 30
0.0
 41
0.8660254037844396
 10
997.2034102093012
 20
373.2050807568871
 30
0.0
 41
1.0
 10
1097.203410209301
 20
315.4700538379246
 30
0.0
 41
0.8660254037844395
 10
1097.203410209301
 20
199.9999999999998
 30
0.0
 41
1.0
  0
SPLINE
  5
13C
330
1F
100
AcDbEntity
  8
Predefinito
100
AcDbSpline
210
0.0
220
0.0
230
1.0
 70
    12
 71
     2
 72
     8
 73
     5
 74
     0
 42
0.0000000001
 43
0.0000000001
 40
0.0
 40
0.0
 40
0.0
 40
314.1592653589793
 40
314.1592653589793
 40
628.3185307179588
 40
628.3185307179588
 40
628.3185307179588
 10
797.2034102093014
 20
373.2050807568876
 30
0.0
 41
1.0
 10
623.9983294524137
 20
273.2050807568878
 30
0.0
 41
0.7071067811865478
 10
723.9983294524134
 20
100.0
 30
0.0
 41
1.0
 10
823.9983294524133
 20
-73.20508075688771
 30
0.0
 41
0.7071067811865481
 10
997.2034102093012
 20
26.79491924311193
 30
0.0
 41
1.0
  0
SPLINE
  5
13D
330
1F
100
AcDbEntity
  8
Predefinito
100
AcDbSpline
210
0.0
220
0.0
230
1.0
 70
    15
 71
     2
 72
    14
 73
    11
 74
     0
 42
0.0000000001
 43
0.0000000001
 40
447.6769531365456
 40
447.6769531365456
 40
447.6769531365456
 40
596.9026041820608
 40
596.9026041820608
 40
746.128255227576
 40
746.128255227576
 40
895.3539062730911
 40
895.3539062730911
 40
1119.192382841364
 40
1119.192382841364
 40
1343.030859409637
 40
1343.030859409637
 40
1343.030859409637
 10
825.9534102092979
 20
323.4086200392831
 30
0.0
 41
1.0
 10
897.2034102092979
 20
364.5448267190442
 30
0.0
 41
0.8660254037844378
 10
968.453410209298
 20
323.4086200392832
 30
0.0
 41
1.0
 10
1039.703410209298
 20
282.2724133595223
 30
0.0
 41
0.8660254037844378
 10
1039.703410209298
 20
200.0000000000004
 30
0.0
 41
1.0
 10
1039.703410209298
 20
117.727586640479
 30
0.0
 41
0.8660254037844398
 10
968.4534102092979
 20
76.59137996071814
 30
0.0
 41
1.0
 10
845.0447901700154
 20
5.341379960718067
 30
0.0
 41
0.7071067811865476
 10
773.7947901700154
 20
128.7500000000005
 30
0.0
 41
1.0
 10
702.5447901700153
 20
252.1586200392829
 30
0.0
 41
0.7071067811865476
 10
825.9534102092979
 20
323.4086200392831
 30
0.0
 41
1.0
  0
VIEWPORT
  5
147
330
143
100
AcDbEntity
 67
     1
  8
0
100
AcDbViewport
 10
6.0
 20
4.5
 30
0.0
 40
12.696
 41
9.522
 68
     1
 69
     1
 12
6.0
 22
4.5
 13
0.0
 23
0.0
 14
0.5
 24
0.5
 15
0.5
 25
0.5
 16
0.0
 26
0.0
 36
1.0
 17
0.0
 27
0.0
 37
0.0
 42
50.0
 43
0.0
 44
0.0
 45
9.522
 50
0.0
 51
0.0
 72
   100
 90
   557152
  1

281
     0
 71
     1
 74
     0
110
0.0
120
0.0
130
0.0
111
1.0
121
0.0
131
0.0
112
0.0
122
1.0
132
0.0
 79
     0
146
0.0
170
     0
  0
ENDSEC
  0
SECTION
  2
OBJECTS
  0
DICTIONARY
  5
C
330
0
100
AcDbDictionary
281
     1
  3
ACAD_GROUP
350
D
  3
ACAD_LAYOUT
350
1A
  3
ACAD_MLEADERSTYLE
350
16D
  3
ACAD_MLINESTYLE
350
17
  3
ACAD_PLOTSETTINGS
350
19
  3
ACAD_PLOTSTYLENAME
350
E
  3
ACAD_SCALELIST
350
148
  3
ACAD_TABLESTYLE
350
16C
  3
ACAD_VISUALSTYLE
350
2A
  3
AcDbVariableDictionary
350
16A
  0
DICTIONARY
  5
D
102
{ACAD_REACTORS
330
C
102
}
330
C
100
AcDbDictionary
281
     1
  0
DICTIONARY
  5
1A
102
{ACAD_REACTORS
330
C
102
}
330
C
100
AcDbDictionary
281
     1
  3
Layout1
350
13F
  3
Layout2
350
144
  3
Model
350
22
  0
DICTIONARY
  5
16D
102
{ACAD_REACTORS
330
C
102
}
330
C
100
AcDbDictionary
281
     1
  0
DICTIONARY
  5
17
102
{ACAD_REACTORS
330
C
102
}
330
C
100
AcDbDictionary
281
     1
  3
Standard
350
18
  0
DICTIONARY
  5
19
102
{ACAD_REACTORS
330
C
102
}
330
C
100
AcDbDictionary
281
     1
  0
ACDBDICTIONARYWDFLT
  5
E
102
{ACAD_REACTORS
330
C
102
}
330
C
100
AcDbDictionary
281
     1
  3
Normal
350
F
100
AcDbDictionaryWithDefault
340
F
  0
DICTIONARY
  5
148
102
{ACAD_REACTORS
330
C
102
}
330
C
100
AcDbDictionary
281
     1
  3
A0
350
149
  3
A1
350
14A
  3
A2
350
14B
  3
A3
350
14C
  3
A4
350
14D
  3
A5
350
14E
  3
A6
350
14F
  3
A7
350
150
  3
A8
350
151
  3
A9
350
152
  3
B0
350
153
  3
B1
350
154
  3
B2
350
155
  3
B3
350
156
  3
B4
350
157
  3
B5
350
158
  3
B6
350
159
  3
B7
350
15A
  3
B8
350
15B
  3
B9
350
15C
  3
C0
350
15D
  3
C1
350
15E
  3
C2
350
15F
  3
C3
350
160
  3
C4
350
161
  3
C5
350
162
  3
C6
350
163
  3
C7
350
164
  3
C8
350
165
  3
C9
350
166
  3
D0
350
167
  3
D1
350
168
  3
D2
350
169
  0
DICTIONARY
  5
16C
102
{ACAD_REACTORS
330
C
102
}
330
C
100
AcDbDictionary
281
     1
  0
DICTIONARY
  5
2A
102
{ACAD_REACTORS
330
C
102
}
330
C
100
AcDbDictionary
281
     1
  3
2dWireframe
350
2F
  3
3D Hidden
350
31
  3
3dWireframe
350
30
  3
Basic
350
32
  3
Brighten
350
36
  3
ColorChange
350
3A
  3
Conceptual
350
34
  3
Dim
350
35
  3
Facepattern
350
39
  3
Flat
350
2B
  3
FlatWithEdges
350
2C
  3
Gouraud
350
2D
  3
GouraudWithEdges
350
2E
  3
Linepattern
350
38
  3
Realistic
350
33
  3
Thicken
350
37
  0
DICTIONARY
  5
16A
102
{ACAD_REACTORS
330
C
102
}
330
C
100
AcDbDictionary
281
     1
  3
CANNOSCALE
350
16B
  0
LAYOUT
  5
13F
102
{ACAD_REACTORS
330
1A
102
}
330
1A
100
AcDbPlotSettings
  1

  2
none_device
  4
Letter_(8.50_x_11.00_Inches)
  6

 40
6.35
 41
6.35
 42
6.35000508
 43
6.35000508
 44
215.9
 45
279.4
 46
0.0
 47
0.0
 48
0.0
 49
0.0
140
0.0
141
0.0
142
1.0
143
1.0
 70
   688
 72
     0
 73
     1
 74
     5
  7

 75
    16
 76
     0
 77
     2
 78
   300
147
1.0
148
0.0
149
0.0
100
AcDbLayout
  1
Layout1
 70
     1
 71
     1
 10
0.0
 20
0.0
 11
0.0
 21
0.0
 12
0.0
 22
0.0
 32
0.0
 14
0.0
 24
0.0
 34
0.0
 15
0.0
 25
0.0
 35
0.0
146
0.0
 13
0.0
 23
0.0
 33
0.0
 16
1.0
 26
0.0
 36
0.0
 17
0.0
 27
1.0
 37
0.0
 76
     0
330
13E
331
142
  0
LAYOUT
  5
144
102
{ACAD_REACTORS
330
1A
102
}
330
1A
100
AcDbPlotSettings
  1

  2
none_device
  4
Letter_(8.50_x_11.00_Inches)
  6

 40
6.35
 41
6.35
 42
6.35000508
 43
6.35000508
 44
215.9
 45
279.4
 46
0.0
 47
0.0
 48
0.0
 49
0.0
140
0.0
141
0.0
142
1.0
143
1.0
 70
   688
 72
     0
 73
     1
 74
     5
  7

 75
    16
 76
     0
 77
     2
 78
   300
147
1.0
148
0.0
149
0.0
100
AcDbLayout
  1
Layout2
 70
     1
 71
     2
 10
0.0
 20
0.0
 11
0.0
 21
0.0
 12
0.0
 22
0.0
 32
0.0
 14
0.0
 24
0.0
 34
0.0
 15
0.0
 25
0.0
 35
0.0
146
0.0
 13
0.0
 23
0.0
 33
0.0
 16
1.0
 26
0.0
 36
0.0
 17
0.0
 27
1.0
 37
0.0
 76
     0
330
143
331
147
  0
LAYOUT
  5
22
102
{ACAD_REACTORS
330
1A
102
}
330
1A
100
AcDbPlotSettings
  1

  2
none_device
  4

  6

 40
0.0
 41
0.0
 42
0.0
 43
0.0
 44
0.0
 45
0.0
 46
0.0
 47
0.0
 48
0.0
 49
0.0
140
0.0
141
0.0
142
1.0
143
1.0
 70
  1712
 72
     0
 73
     0
 74
     0
  7

 75
     0
 76
     0
 77
     2
 78
   300
147
1.0
148
0.0
149
0.0
100
AcDbLayout
  1
Model
 70
     1
 71
     0
 10
0.0
 20
0.0
 11
12.0
 21
9.0
 12
0.0
 22
0.0
 32
0.0
 14
0.0
 24
0.2152375563970402
 34
0.0
 15
1106.361682278996
 25
1967.297546551597
 35
0.0
146
0.0
 13
0.0
 23
0.0
 33
0.0
 16
1.0
 26
0.0
 36
0.0
 17
0.0
 27
1.0
 37
0.0
 76
     0
330
1F
331
29
  0
MLINESTYLE
  5
18
102
{ACAD_REACTORS
330
17
102
}
330
17
100
AcDbMlineStyle
  2
Standard
 70
     0
  3

 62
   256
 51
90.0
 52
90.0
 71
     2
 49
0.5
 62
   256
  6
BYLAYER
 49
-0.5
 62
   256
  6
BYLAYER
  0
ACDBPLACEHOLDER
  5
F
102
{ACAD_REACTORS
330
E
102
}
330
E
  0
SCALE
  5
149
102
{ACAD_REACTORS
330
148
102
}
330
148
100
AcDbScale
 70
     0
300
1:1
140
1.0
141
1.0
290
     1
  0
SCALE
  5
14A
102
{ACAD_REACTORS
330
148
102
}
330
148
100
AcDbScale
 70
     0
300
1:2
140
1.0
141
2.0
290
     0
  0
SCALE
  5
14B
102
{ACAD_REACTORS
330
148
102
}
330
148
100
AcDbScale
 70
     0
300
1:4
140
1.0
141
4.0
290
     0
  0
SCALE
  5
14C
102
{ACAD_REACTORS
330
148
102
}
330
148
100
AcDbScale
 70
     0
300
1:5
140
1.0
141
5.0
290
     0
  0
SCALE
  5
14D
102
{ACAD_REACTORS
330
148
102
}
330
148
100
AcDbScale
 70
     0
300
1:8
140
1.0
141
8.0
290
     0
  0
SCALE
  5
14E
102
{ACAD_REACTORS
330
148
102
}
330
148
100
AcDbScale
 70
     0
300
1:10
140
1.0
141
10.0
290
     0
  0
SCALE
  5
14F
102
{ACAD_REACTORS
330
148
102
}
330
148
100
AcDbScale
 70
     0
300
1:16
140
1.0
141
16.0
290
     0
  0
SCALE
  5
150
102
{ACAD_REACTORS
330
148
102
}
330
148
100
AcDbScale
 70
     0
300
1:20
140
1.0
141
20.0
290
     0
  0
SCALE
  5
151
102
{ACAD_REACTORS
330
148
102
}
330
148
100
AcDbScale
 70
     0
300
1:30
140
1.0
141
30.0
290
     0
  0
SCALE
  5
152
102
{ACAD_REACTORS
330
148
102
}
330
148
100
AcDbScale
 70
     0
300
1:40
140
1.0
141
40.0
290
     0
  0
SCALE
  5
153
102
{ACAD_REACTORS
330
148
102
}
330
148
100
AcDbScale
 70
     0
300
1:50
140
1.0
141
50.0
290
     0
  0
SCALE
  5
154
102
{ACAD_REACTORS
330
148
102
}
330
148
100
AcDbScale
 70
     0
300
1:100
140
1.0
141
100.0
290
     0
  0
SCALE
  5
155
102
{ACAD_REACTORS
330
148
102
}
330
148
100
AcDbScale
 70
     0
300
2:1
140
2.0
141
1.0
290
     0
  0
SCALE
  5
156
102
{ACAD_REACTORS
330
148
102
}
330
148
100
AcDbScale
 70
     0
300
4:1
140
4.0
141
1.0
290
     0
  0
SCALE
  5
157
102
{ACAD_REACTORS
330
148
102
}
330
148
100
AcDbScale
 70
     0
300
8:1
140
8.0
141
1.0
290
     0
  0
SCALE
  5
158
102
{ACAD_REACTORS
330
148
102
}
330
148
100
AcDbScale
 70
     0
300
10:1
140
10.0
141
1.0
290
     0
  0
SCALE
  5
159
102
{ACAD_REACTORS
330
148
102
}
330
148
100
AcDbScale
 70
     0
300
100:1
140
100.0
141
1.0
290
     0
  0
SCALE
  5
15A
102
{ACAD_REACTORS
330
148
102
}
330
148
100
AcDbScale
 70
     0
300
1/128" = 1'-0"
140
0.0078125
141
12.0
290
     0
  0
SCALE
  5
15B
102
{ACAD_REACTORS
330
148
102
}
330
148
100
AcDbScale
 70
     0
300
1/64" = 1'-0"
140
0.015625
141
12.0
290
     0
  0
SCALE
  5
15C
102
{ACAD_REACTORS
330
148
102
}
330
148
100
AcDbScale
 70
     0
300
1/32" = 1'-0"
140
0.03125
141
12.0
290
     0
  0
SCALE
  5
15D
102
{ACAD_REACTORS
330
148
102
}
330
148
100
AcDbScale
 70
     0
300
1/16" = 1'-0"
140
0.0625
141
12.0
290
     0
  0
SCALE
  5
15E
102
{ACAD_REACTORS
330
148
102
}
330
148
100
AcDbScale
 70
     0
300
3/32" = 1'-0"
140
0.09375
141
12.0
290
     0
  0
SCALE
  5
15F
102
{ACAD_REACTORS
330
148
102
}
330
148
100
AcDbScale
 70
     0
300
1/8" = 1'-0"
140
0.125
141
12.0
290
     0
  0
SCALE
  5
160
102
{ACAD_REACTORS
330
148
102
}
330
148
100
AcDbScale
 70
     0
300
3/16" = 1'-0"
140
0.1875
141
12.0
290
     0
  0
SCALE
  5
161
102
{ACAD_REACTORS
330
148
102
}
330
148
100
AcDbScale
 70
     0
300
1/4" = 1'-0"
140
0.25
141
12.0
290
     0
  0
SCALE
  5
162
102
{ACAD_REACTORS
330
148
102
}
330
148
100
AcDbScale
 70
     0
300
3/8" = 1'-0"
140
0.375
141
12.0
290
     0
  0
SCALE
  5
163
102
{ACAD_REACTORS
330
148
102
}
330
148
100
AcDbScale
 70
     0
300
1/2" = 1'-0"
140
0.5
141
12.0
290
     0
  0
SCALE
  5
164
102
{ACAD_REACTORS
330
148
102
}
330
148
100
AcDbScale
 70
     0
300
3/4" = 1'-0"
140
0.75
141
12.0
290
     0
  0
SCALE
  5
165
102
{ACAD_REACTORS
330
148
102
}
330
148
100
AcDbScale
 70
     0
300
1" = 1'-0"
140
1.0
141
12.0
290
     0
  0
SCALE
  5
166
102
{ACAD_REACTORS
330
148
102
}
330
148
100
AcDbScale
 70
     0
300
1-1/2" = 1'-0"
140
1.5
141
12.0
290
     0
  0
SCALE
  5
167
102
{ACAD_REACTORS
330
148
102
}
330
148
100
AcDbScale
 70
     0
300
3" = 1'-0"
140
3.0
141
12.0
290
     0
  0
SCALE
  5
168
102
{ACAD_REACTORS
330
148
102
}
330
148
100
AcDbScale
 70
     0
300
6" = 1'-0"
140
6.0
141
12.0
290
     0
  0
SCALE
  5
169
102
{ACAD_REACTORS
330
148
102
}
330
148
100
AcDbScale
 70
     0
300
1'-0" = 1'-0"
140
12.0
141
12.0
290
     0
  0
VISUALSTYLE
  5
2F
102
{ACAD_REACTORS
330
2A
102
}
330
2A
100
AcDbVisualStyle
  2
2dWireframe
 70
     4
 71
     0
 72
     2
 73
     0
 90
        0
 40
-0.6
 41
-30.0
 62
     5
 63
     7
421
 16777215
 74
     1
 91
        4
 64
     7
 65
   257
 75
     1
175
     1
 42
1.0
 92
        0
 66
   257
 43
1.0
 76
     1
 77
     6
 78
     2
 67
     7
 79
     5
170
     0
171
     0
290
     0
174
     0
 93
        1
 44
0.0
173
     0
291
     0
 45
0.0
1001
ACAD
1000
AcDbSavedByObjectVersion
1070
     0
  0
VISUALSTYLE
  5
31
102
{ACAD_REACTORS
330
2A
102
}
330
2A
100
AcDbVisualStyle
  2
3D Hidden
 70
     6
 71
     1
 72
     2
 73
     2
 90
        0
 40
-0.6
 41
-30.0
 62
     5
 63
     7
421
 16777215
 74
     2
 91
        2
 64
     7
 65
   257
 75
     2
175
     1
 42
40.0
 92
        0
 66
   257
 43
1.0
 76
     1
 77
     6
 78
     2
 67
     7
 79
     3
170
     0
171
     0
290
     0
174
     0
 93
        1
 44
0.0
173
     0
291
     0
 45
0.0
1001
ACAD
1000
AcDbSavedByObjectVersion
1070
     0
  0
VISUALSTYLE
  5
30
102
{ACAD_REACTORS
330
2A
102
}
330
2A
100
AcDbVisualStyle
  2
3dWireframe
 70
     5
 71
     0
 72
     2
 73
     0
 90
        0
 40
-0.6
 41
-30.0
 62
     5
 63
     7
421
 16777215
 74
     1
 91
        4
 64
     7
 65
   257
 75
     1
175
     1
 42
1.0
 92
        0
 66
   257
 43
1.0
 76
     1
 77
     6
 78
     2
 67
     7
 79
     5
170
     0
171
     0
290
     0
174
     0
 93
        1
 44
0.0
173
     0
291
     0
 45
0.0
1001
ACAD
1000
AcDbSavedByObjectVersion
1070
     0
  0
VISUALSTYLE
  5
32
102
{ACAD_REACTORS
330
2A
102
}
330
2A
100
AcDbVisualStyle
  2
Basic
 70
     7
 71
     1
 72
     0
 73
     1
 90
        0
 40
-0.6
 41
-30.0
 62
     5
 63
     7
421
 16777215
 74
     0
 91
        4
 64
     7
 65
   257
 75
     1
175
     1
 42
1.0
 92
        8
 66
     7
 43
1.0
 76
     1
 77
     6
 78
     2
 67
     7
 79
     5
170
     0
171
     0
290
     0
174
     0
 93
        1
 44
0.0
173
     0
291
     1
 45
0.0
1001
ACAD
1000
AcDbSavedByObjectVersion
1070
     0
  0
VISUALSTYLE
  5
36
102
{ACAD_REACTORS
330
2A
102
}
330
2A
100
AcDbVisualStyle
  2
Brighten
 70
    12
 71
     2
 72
     2
 73
     0
 90
        0
 40
-0.6
 41
-30.0
 62
     5
 63
     7
421
 16777215
 74
     1
 91
        4
 64
     7
 65
   257
 75
     1
175
     1
 42
1.0
 92
        8
 66
     7
 43
1.0
 76
     1
 77
     6
 78
     2
 67
     7
 79
     5
170
     0
171
     0
290
     0
174
     0
 93
        1
 44
50.0
173
     0
291
     1
 45
0.0
1001
ACAD
1000
AcDbSavedByObjectVersion
1070
     0
  0
VISUALSTYLE
  5
3A
102
{ACAD_REACTORS
330
2A
102
}
330
2A
100
AcDbVisualStyle
  2
ColorChange
 70
    16
 71
     2
 72
     2
 73
     3
 90
        0
 40
-0.6
 41
-30.0
 62
     5
 63
     8
421
  8421504
 74
     1
 91
        4
 64
     7
 65
   257
 75
     1
175
     1
 42
1.0
 92
        8
 66
     8
424
  8421504
 43
1.0
 76
     1
 77
     6
 78
     2
 67
     7
 79
     5
170
     0
171
     0
290
     0
174
     0
 93
        1
 44
0.0
173
     0
291
     1
 45
0.0
1001
ACAD
1000
AcDbSavedByObjectVersion
1070
     0
  0
VISUALSTYLE
  5
34
102
{ACAD_REACTORS
330
2A
102
}
330
2A
100
AcDbVisualStyle
  2
Conceptual
 70
     9
 71
     3
 72
     2
 73
     0
 90
        0
 40
-0.6
 41
-30.0
 62
     5
 63
     7
421
 16777215
 74
     2
 91
        2
 64
     7
 65
   257
 75
     1
175
     1
 42
40.0
 92
        8
 66
     7
 43
1.0
 76
     1
 77
     6
 78
     2
 67
     7
 79
     3
170
     0
171
     0
290
     0
174
     0
 93
        1
 44
0.0
173
     0
291
     0
 45
0.0
1001
ACAD
1000
AcDbSavedByObjectVersion
1070
     0
  0
VISUALSTYLE
  5
35
102
{ACAD_REACTORS
330
2A
102
}
330
2A
100
AcDbVisualStyle
  2
Dim
 70
    11
 71
     2
 72
     2
 73
     0
 90
        0
 40
-0.6
 41
-30.0
 62
     5
 63
     7
421
 16777215
 74
     1
 91
        4
 64
     7
 65
   257
 75
     1
175
     1
 42
1.0
 92
        8
 66
     7
 43
1.0
 76
     1
 77
     6
 78
     2
 67
     7
 79
     5
170
     0
171
     0
290
     0
174
     0
 93
        1
 44
-50.0
173
     0
291
     1
 45
0.0
1001
ACAD
1000
AcDbSavedByObjectVersion
1070
     0
  0
VISUALSTYLE
  5
39
102
{ACAD_REACTORS
330
2A
102
}
330
2A
100
AcDbVisualStyle
  2
Facepattern
 70
    15
 71
     2
 72
     2
 73
     0
 90
        0
 40
-0.6
 41
-30.0
 62
     5
 63
     7
421
 16777215
 74
     1
 91
        4
 64
     7
 65
   257
 75
     1
175
     1
 42
1.0
 92
        8
 66
     7
 43
1.0
 76
     1
 77
     6
 78
     2
 67
     7
 79
     5
170
     0
171
     0
290
     0
174
     0
 93
        1
 44
0.0
173
     0
291
     1
 45
0.0
1001
ACAD
1000
AcDbSavedByObjectVersion
1070
     0
  0
VISUALSTYLE
  5
2B
102
{ACAD_REACTORS
330
2A
102
}
330
2A
100
AcDbVisualStyle
  2
Flat
 70
     0
 71
     2
 72
     1
 73
     1
 90
        2
 40
-0.6
 41
30.0
 62
     5
 63
     7
421
 16777215
 74
     0
 91
        4
 64
     7
 65
   257
 75
     1
175
     1
 42
1.0
 92
        8
 66
     7
 43
1.0
 76
     1
 77
     6
 78
     2
 67
     7
 79
     5
170
     0
171
     0
290
     0
174
     0
 93
       13
 44
0.0
173
     0
291
     1
 45
0.0
1001
ACAD
1000
AcDbSavedByObjectVersion
1070
     0
  0
VISUALSTYLE
  5
2C
102
{ACAD_REACTORS
330
2A
102
}
330
2A
100
AcDbVisualStyle
  2
FlatWithEdges
 70
     1
 71
     2
 72
     1
 73
     1
 90
        2
 40
-0.6
 41
30.0
 62
     5
 63
     7
421
 16777215
 74
     1
 91
        4
 64
     7
 65
   257
 75
     1
175
     1
 42
1.0
 92
        0
 66
   257
 43
1.0
 76
     1
 77
     6
 78
     2
 67
     7
 79
     5
170
     0
171
     0
290
     0
174
     0
 93
       13
 44
0.0
173
     0
291
     1
 45
0.0
1001
ACAD
1000
AcDbSavedByObjectVersion
1070
     0
  0
VISUALSTYLE
  5
2D
102
{ACAD_REACTORS
330
2A
102
}
330
2A
100
AcDbVisualStyle
  2
Gouraud
 70
     2
 71
     2
 72
     2
 73
     1
 90
        2
 40
-0.6
 41
30.0
 62
     5
 63
     7
421
 16777215
 74
     0
 91
        4
 64
     7
 65
   257
 75
     1
175
     1
 42
1.0
 92
        0
 66
     7
 43
1.0
 76
     1
 77
     6
 78
     2
 67
     7
 79
     5
170
     0
171
     0
290
     0
174
     0
 93
       13
 44
0.0
173
     0
291
     1
 45
0.0
1001
ACAD
1000
AcDbSavedByObjectVersion
1070
     0
  0
VISUALSTYLE
  5
2E
102
{ACAD_REACTORS
330
2A
102
}
330
2A
100
AcDbVisualStyle
  2
GouraudWithEdges
 70
     3
 71
     2
 72
     2
 73
     1
 90
        2
 40
-0.6
 41
30.0
 62
     5
 63
     7
421
 16777215
 74
     1
 91
        4
 64
     7
 65
   257
 75
     1
175
     1
 42
1.0
 92
        0
 66
   257
 43
1.0
 76
     1
 77
     6
 78
     2
 67
     7
 79
     5
170
     0
171
     0
290
     0
174
     0
 93
       13
 44
0.0
173
     0
291
     1
 45
0.0
1001
ACAD
1000
AcDbSavedByObjectVersion
1070
     0
  0
VISUALSTYLE
  5
38
102
{ACAD_REACTORS
330
2A
102
}
330
2A
100
AcDbVisualStyle
  2
Linepattern
 70
    14
 71
     2
 72
     2
 73
     0
 90
        0
 40
-0.6
 41
-30.0
 62
     5
 63
     7
421
 16777215
 74
     1
 91
        4
 64
     7
 65
   257
 75
     7
175
     7
 42
1.0
 92
        8
 66
     7
 43
1.0
 76
     1
 77
     6
 78
     2
 67
     7
 79
     5
170
     0
171
     0
290
     0
174
     0
 93
        1
 44
0.0
173
     0
291
     1
 45
0.0
1001
ACAD
1000
AcDbSavedByObjectVersion
1070
     0
  0
VISUALSTYLE
  5
33
102
{ACAD_REACTORS
330
2A
102
}
330
2A
100
AcDbVisualStyle
  2
Realistic
 70
     8
 71
     2
 72
     2
 73
     0
 90
        0
 40
-0.6
 41
-30.0
 62
     5
 63
     7
421
 16777215
 74
     1
 91
        0
 64
     7
 65
   257
 75
     1
175
     1
 42
1.0
 92
        8
 66
     8
424
  7895160
 43
1.0
 76
     1
 77
     6
 78
     2
 67
     7
 79
     5
170
     0
171
     0
290
     0
174
     0
 93
       13
 44
0.0
173
     0
291
     0
 45
0.0
1001
ACAD
1000
AcDbSavedByObjectVersion
1070
     0
  0
VISUALSTYLE
  5
37
102
{ACAD_REACTORS
330
2A
102
}
330
2A
100
AcDbVisualStyle
  2
Thicken
 70
    13
 71
     2
 72
     2
 73
     0
 90
        0
 40
-0.6
 41
-30.0
 62
     5
 63
     7
421
 16777215
 74
     1
 91
        4
 64
     7
 65
   257
 75
     1
175
     1
 42
1.0
 92
       12
 66
     7
 43
1.0
 76
     1
 77
     6
 78
     2
 67
     7
 79
     5
170
     0
171
     0
290
     0
174
     0
 93
        1
 44
0.0
173
     0
291
     1
 45
0.0
1001
ACAD
1000
AcDbSavedByObjectVersion
1070
     0
  0
DICTIONARYVAR
  5
16B
102
{ACAD_REACTORS
330
16A
102
}
330
16A
100
DictionaryVariables
280
     0
  1
1:1
  0
ENDSEC
  0
EOF
