  0
SECTION
  2
HEADER
  9
$ACADVER
  1
AC1018
  9
$ACADMAINTVER
 70
     0
  9
$DWGCODEPAGE
  3
ANSI_1252
  9
$INSBASE
 10
0.0
 20
0.0
 30
0.0
  9
$EXTMIN
 10
447.0010808167074
 20
0.0000000347544926
 30
0.0
  9
$EXTMAX
 10
1349.227273169014
 20
1899.155659264738
 30
0.0
  9
$LIMMIN
 10
0.0
 20
0.0
  9
$LIMMAX
 10
12.0
 20
9.0
  9
$ORTHOMODE
 70
     0
  9
$REGENMODE
 70
     1
  9
$FILLMODE
 70
     1
  9
$QTEXTMODE
 70
     0
  9
$MIRRTEXT
 70
     1
  9
$LTSCALE
 40
1.0
  9
$ATTMODE
 70
     1
  9
$TEXTSIZE
 40
0.2
  9
$TRACEWID
 40
0.05
  9
$TEXTSTYLE
  7
Standard
  9
$CLAYER
  8
Predefinito
  9
$CELTYPE
  6
ByLayer
  9
$CECOLOR
 62
   256
  9
$CELTSCALE
 40
1.0
  9
$DISPSILH
 70
     0
  9
$DIMSCALE
 40
1.0
  9
$DIMASZ
 40
0.18
  9
$DIMEXO
 40
0.0625
  9
$DIMDLI
 40
0.38
  9
$DIMRND
 40
0.0
  9
$DIMDLE
 40
0.0
  9
$DIMEXE
 40
0.18
  9
$DIMTP
 40
0.0
  9
$DIMTM
 40
0.0
  9
$DIMTXT
 40
0.18
  9
$DIMCEN
 40
0.09
  9
$DIMTSZ
 40
0.0
  9
$DIMTOL
 70
     0
  9
$DIMLIM
 70
     0
  9
$DIMTIH
 70
     1
  9
$DIMTOH
 70
     1
  9
$DIMSE1
 70
     0
  9
$DIMSE2
 70
     0
  9
$DIMTAD
 70
     0
  9
$DIMZIN
 70
     0
  9
$DIMBLK
  1

  9
$DIMASO
 70
     1
  9
$DIMSHO
 70
     1
  9
$DIMPOST
  1

  9
$DIMAPOST
  1

  9
$DIMALT
 70
     0
  9
$DIMALTD
 70
     2
  9
$DIMALTF
 40
25.4
  9
$DIMLFAC
 40
1.0
  9
$DIMTOFL
 70
     0
  9
$DIMTVP
 40
0.0
  9
$DIMTIX
 70
     0
  9
$DIMSOXD
 70
     0
  9
$DIMSAH
 70
     0
  9
$DIMBLK1
  1

  9
$DIMBLK2
  1

  9
$DIMSTYLE
  2
Standard
  9
$DIMCLRD
 70
     0
  9
$DIMCLRE
 70
     0
  9
$DIMCLRT
 70
     0
  9
$DIMTFAC
 40
1.0
  9
$DIMGAP
 40
0.09
  9
$DIMJUST
 70
     0
  9
$DIMSD1
 70
     0
  9
$DIMSD2
 70
     0
  9
$DIMTOLJ
 70
     1
  9
$DIMTZIN
 70
     0
  9
$DIMALTZ
 70
     0
  9
$DIMALTTZ
 70
     0
  9
$DIMUPT
 70
     0
  9
$DIMDEC
 70
     4
  9
$DIMTDEC
 70
     4
  9
$DIMALTU
 70
     2
  9
$DIMALTTD
 70
     2
  9
$DIMTXSTY
  7
Standard
  9
$DIMAUNIT
 70
     0
  9
$DIMADEC
 70
     0
  9
$DIMALTRND
 40
0.0
  9
$DIMAZIN
 70
     0
  9
$DIMDSEP
 70
    46
  9
$DIMATFIT
 70
     3
  9
$DIMFRAC
 70
     0
  9
$DIMLDRBLK
  1

  9
$DIMLUNIT
 70
     2
  9
$DIMLWD
 70
    -2
  9
$DIMLWE
 70
    -2
  9
$DIMTMOVE
 70
     2
  9
$LUNITS
 70
     2
  9
$LUPREC
 70
     3
  9
$SKETCHINC
 40
0.1
  9
$FILLETRAD
 40
0.5
  9
$AUNITS
 70
     0
  9
$AUPREC
 70
     0
  9
$MENU
  1
.
  9
$ELEVATION
 40
0.0
  9
$PELEVATION
 40
0.0
  9
$THICKNESS
 40
0.0
  9
$LIMCHECK
 70
     0
  9
$CHAMFERA
 40
0.5
  9
$CHAMFERB
 40
0.5
  9
$CHAMFERC
 40
1.0
  9
$CHAMFERD
 40
0.0
  9
$SKPOLY
 70
     0
  9
$TDCREATE
 40
2457903.735610231
  9
$TDUCREATE
 40
2457903.652276898
  9
$TDUPDATE
 40
2457903.735610243
  9
$TDUUPDATE
 40
2457903.65227691
  9
$TDINDWG
 40
0.0000000116
  9
$TDUSRTIMER
 40
0.0000000116
  9
$USRTIMER
 70
     1
  9
$ANGBASE
 50
0.0
  9
$ANGDIR
 70
     0
  9
$PDMODE
 70
     0
  9
$PDSIZE
 40
0.0
  9
$PLINEWID
 40
0.0
  9
$SPLFRAME
 70
     0
  9
$SPLINETYPE
 70
     6
  9
$SPLINESEGS
 70
     8
  9
$HANDSEED
  5
C6
  9
$SURFTAB1
 70
     6
  9
$SURFTAB2
 70
     6
  9
$SURFTYPE
 70
     6
  9
$SURFU
 70
     6
  9
$SURFV
 70
     6
  9
$UCSBASE
  2

  9
$UCSNAME
  2

  9
$UCSORG
 10
0.0
 20
0.0
 30
0.0
  9
$UCSXDIR
 10
1.0
 20
0.0
 30
0.0
  9
$UCSYDIR
 10
0.0
 20
1.0
 30
0.0
  9
$UCSORTHOREF
  2

  9
$UCSORTHOVIEW
 70
     0
  9
$UCSORGTOP
 10
0.0
 20
0.0
 30
0.0
  9
$UCSORGBOTTOM
 10
0.0
 20
0.0
 30
0.0
  9
$UCSORGLEFT
 10
0.0
 20
0.0
 30
0.0
  9
$UCSORGRIGHT
 10
0.0
 20
0.0
 30
0.0
  9
$UCSORGFRONT
 10
0.0
 20
0.0
 30
0.0
  9
$UCSORGBACK
 10
0.0
 20
0.0
 30
0.0
  9
$PUCSBASE
  2

  9
$PUCSNAME
  2

  9
$PUCSORG
 10
0.0
 20
0.0
 30
0.0
  9
$PUCSXDIR
 10
1.0
 20
0.0
 30
0.0
  9
$PUCSYDIR
 10
0.0
 20
1.0
 30
0.0
  9
$PUCSORTHOREF
  2

  9
$PUCSORTHOVIEW
 70
     0
  9
$PUCSORGTOP
 10
0.0
 20
0.0
 30
0.0
  9
$PUCSORGBOTTOM
 10
0.0
 20
0.0
 30
0.0
  9
$PUCSORGLEFT
 10
0.0
 20
0.0
 30
0.0
  9
$PUCSORGRIGHT
 10
0.0
 20
0.0
 30
0.0
  9
$PUCSORGFRONT
 10
0.0
 20
0.0
 30
0.0
  9
$PUCSORGBACK
 10
0.0
 20
0.0
 30
0.0
  9
$USERI1
 70
     0
  9
$USERI2
 70
     0
  9
$USERI3
 70
     0
  9
$USERI4
 70
     0
  9
$USERI5
 70
     0
  9
$USERR1
 40
0.0
  9
$USERR2
 40
0.0
  9
$USERR3
 40
0.0
  9
$USERR4
 40
0.0
  9
$USERR5
 40
0.0
  9
$WORLDVIEW
 70
     1
  9
$SHADEDGE
 70
     3
  9
$SHADEDIF
 70
    70
  9
$TILEMODE
 70
     0
  9
$MAXACTVP
 70
    64
  9
$PINSBASE
 10
0.0
 20
0.0
 30
0.0
  9
$PLIMCHECK
 70
     0
  9
$PEXTMIN
 10
0.0
 20
0.0
 30
0.0
  9
$PEXTMAX
 10
0.0
 20
0.0
 30
0.0
  9
$PLIMMIN
 10
0.0
 20
0.0
  9
$PLIMMAX
 10
12.0
 20
9.0
  9
$UNITMODE
 70
     0
  9
$VISRETAIN
 70
     1
  9
$PLINEGEN
 70
     0
  9
$PSLTSCALE
 70
     1
  9
$TREEDEPTH
 70
  3020
  9
$CMLSTYLE
  2
Standard
  9
$CMLJUST
 70
     0
  9
$CMLSCALE
 40
1.0
  9
$PROXYGRAPHICS
 70
     1
  9
$MEASUREMENT
 70
     0
  9
$CELWEIGHT
370
    -1
  9
$ENDCAPS
280
     0
  9
$JOINSTYLE
280
     0
  9
$LWDISPLAY
290
     0
  9
$INSUNITS
 70
     4
  9
$HYPERLINKBASE
  1

  9
$STYLESHEET
  1

  9
$XEDIT
290
     1
  9
$CEPSNTYPE
380
     0
  9
$PSTYLEMODE
290
     1
  9
$FINGERPRINTGUID
  2
{003D04CD-C0F1-41DC-9587-303E2B1DEA99}
  9
$VERSIONGUID
  2
{FAEB1C32-E019-11D5-929B-00C0DF256EC4}
  9
$EXTNAMES
290
     1
  9
$PSVPSCALE
 40
0.0
  9
$OLESTARTUP
290
     0
  9
$SORTENTS
280
   127
  9
$INDEXCTL
280
     0
  9
$HIDETEXT
280
     1
  9
$XCLIPFRAME
290
     0
  9
$HALOGAP
280
     0
  9
$OBSCOLOR
 70
   257
  9
$OBSLTYPE
280
     0
  9
$INTERSECTIONDISPLAY
280
     0
  9
$INTERSECTIONCOLOR
 70
   257
  9
$DIMASSOC
280
     2
  9
$PROJECTNAME
  1

  0
ENDSEC
  0
SECTION
  2
CLASSES
  0
CLASS
  1
ACDBDICTIONARYWDFLT
  2
AcDbDictionaryWithDefault
  3
ObjectDBX Classes
 90
        0
 91
        4
280
     0
281
     0
  0
CLASS
  1
VISUALSTYLE
  2
AcDbVisualStyle
  3
ObjectDBX Classes
 90
     4095
 91
        4
280
     0
281
     0
  0
CLASS
  1
SCALE
  2
AcDbScale
  3
ObjectDBX Classes
 90
     1153
 91
        4
280
     0
281
     0
  0
CLASS
  1
DICTIONARYVAR
  2
AcDbDictionaryVar
  3
ObjectDBX Classes
 90
        0
 91
        4
280
     0
281
     0
  0
ENDSEC
  0
SECTION
  2
TABLES
  0
TABLE
  2
VPORT
  5
8
330
0
100
AcDbSymbolTable
 70
     1
  0
VPORT
  5
29
330
8
100
AcDbSymbolTableRecord
100
AcDbViewportTableRecord
  2
*Active
 70
     0
 10
0.0
 20
0.0
 11
1.0
 21
1.0
 12
898.1141769928608
 22
949.5778296497463
 13
0.0
 23
0.0
 14
0.5
 24
0.5
 15
0.5
 25
0.5
 16
0.0
 26
0.0
 36
1.0
 17
0.0
 27
0.0
 37
0.0
 40
1937.138772414583
 41
0.4750670056808911
 42
50.0
 43
0.0
 44
0.0
 50
0.0
 51
0.0
 71
     0
 72
   100
 73
     1
 74
     3
 75
     0
 76
     0
 77
     0
 78
     0
281
     0
 65
     1
110
0.0
120
0.0
130
0.0
111
1.0
121
0.0
131
0.0
112
0.0
122
1.0
132
0.0
 79
     0
146
0.0
  0
ENDTAB
  0
TABLE
  2
LTYPE
  5
5
330
0
100
AcDbSymbolTable
 70
     1
  0
LTYPE
  5
14
330
5
100
AcDbSymbolTableRecord
100
AcDbLinetypeTableRecord
  2
ByBlock
 70
     0
  3

 72
    65
 73
     0
 40
0.0
  0
LTYPE
  5
15
330
5
100
AcDbSymbolTableRecord
100
AcDbLinetypeTableRecord
  2
ByLayer
 70
     0
  3

 72
    65
 73
     0
 40
0.0
  0
LTYPE
  5
16
330
5
100
AcDbSymbolTableRecord
100
AcDbLinetypeTableRecord
  2
Continuous
 70
     0
  3
Solid line
 72
    65
 73
     0
 40
0.0
  0
ENDTAB
  0
TABLE
  2
LAYER
  5
2
330
0
100
AcDbSymbolTable
 70
     2
  0
LAYER
  5
10
330
2
100
AcDbSymbolTableRecord
100
AcDbLayerTableRecord
  2
0
 70
     0
 62
     7
  6
Continuous
370
    -3
390
F
  0
LAYER
  5
3B
330
2
100
AcDbSymbolTableRecord
100
AcDbLayerTableRecord
  2
Predefinito
 70
     0
 62
     7
  6
Continuous
370
    -3
390
F
  0
ENDTAB
  0
TABLE
  2
STYLE
  5
3
330
0
100
AcDbSymbolTable
 70
     1
  0
STYLE
  5
11
330
3
100
AcDbSymbolTableRecord
100
AcDbTextStyleTableRecord
  2
Standard
 70
     0
 40
0.0
 41
1.0
 50
0.0
 71
     0
 42
0.2
  3
txt
  4

  0
ENDTAB
  0
TABLE
  2
VIEW
  5
6
330
0
100
AcDbSymbolTable
 70
     0
  0
ENDTAB
  0
TABLE
  2
UCS
  5
7
330
0
100
AcDbSymbolTable
 70
     0
  0
ENDTAB
  0
TABLE
  2
APPID
  5
9
330
0
100
AcDbSymbolTable
 70
     1
  0
APPID
  5
12
330
9
100
AcDbSymbolTableRecord
100
AcDbRegAppTableRecord
  2
ACAD
 70
     0
  0
ENDTAB
  0
TABLE
  2
DIMSTYLE
  5
A
330
0
100
AcDbSymbolTable
 70
     1
100
AcDbDimStyleTable
  0
DIMSTYLE
105
27
330
A
100
AcDbSymbolTableRecord
100
AcDbDimStyleTableRecord
  2
Standard
 70
     0
340
11
  0
ENDTAB
  0
TABLE
  2
BLOCK_RECORD
  5
1
330
0
100
AcDbSymbolTable
 70
     3
  0
BLOCK_RECORD
  5
1F
330
1
100
AcDbSymbolTableRecord
100
AcDbBlockTableRecord
  2
*Model_Space
340
22
  0
BLOCK_RECORD
  5
9B
330
1
100
AcDbSymbolTableRecord
100
AcDbBlockTableRecord
  2
*Paper_Space
340
9C
  0
BLOCK_RECORD
  5
23
330
1
100
AcDbSymbolTableRecord
100
AcDbBlockTableRecord
  2
*Paper_Space0
340
26
  0
BLOCK_RECORD
  5
1B
330
1
100
AcDbSymbolTableRecord
100
AcDbBlockTableRecord
  2
*Paper_Space1
340
1E
  0
BLOCK_RECORD
  5
96
330
1
100
AcDbSymbolTableRecord
100
AcDbBlockTableRecord
  2
*Paper_Space2
340
97
  0
ENDTAB
  0
ENDSEC
  0
SECTION
  2
BLOCKS
  0
BLOCK
  5
20
330
1F
100
AcDbEntity
  8
0
100
AcDbBlockBegin
  2
*Model_Space
 70
     0
 10
0.0
 20
0.0
 30
0.0
  3
*Model_Space
  1

  0
ENDBLK
  5
21
330
1F
100
AcDbEntity
  8
0
100
AcDbBlockEnd
  0
BLOCK
  5
9D
330
9B
100
AcDbEntity
 67
     1
  8
0
100
AcDbBlockBegin
  2
*Paper_Space
 70
     0
 10
0.0
 20
0.0
 30
0.0
  3
*Paper_Space
  1

  0
ENDBLK
  5
9E
330
9B
100
AcDbEntity
 67
     1
  8
0
100
AcDbBlockEnd
  0
BLOCK
  5
24
330
23
100
AcDbEntity
  8
0
100
AcDbBlockBegin
  2
*Paper_Space0
 70
     0
 10
0.0
 20
0.0
 30
0.0
  3
*Paper_Space0
  1

  0
ENDBLK
  5
25
330
23
100
AcDbEntity
  8
0
100
AcDbBlockEnd
  0
BLOCK
  5
1C
330
1B
100
AcDbEntity
  8
0
100
AcDbBlockBegin
  2
*Paper_Space1
 70
     0
 10
0.0
 20
0.0
 30
0.0
  3
*Paper_Space1
  1

  0
ENDBLK
  5
1D
330
1B
100
AcDbEntity
  8
0
100
AcDbBlockEnd
  0
BLOCK
  5
98
330
96
100
AcDbEntity
  8
0
100
AcDbBlockBegin
  2
*Paper_Space2
 70
     0
 10
0.0
 20
0.0
 30
0.0
  3
*Paper_Space2
  1

  0
VIEWPORT
  5
9A
330
96
100
AcDbEntity
  8
0
100
AcDbViewport
 10
6.0
 20
4.5
 30
0.0
 40
12.696
 41
9.522
 68
     1
 69
     1
 12
6.0
 22
4.5
 13
0.0
 23
0.0
 14
0.5
 24
0.5
 15
0.5
 25
0.5
 16
0.0
 26
0.0
 36
1.0
 17
0.0
 27
0.0
 37
0.0
 42
50.0
 43
0.0
 44
0.0
 45
9.522
 50
0.0
 51
0.0
 72
   100
 90
   557152
  1

281
     0
 71
     1
 74
     0
110
0.0
120
0.0
130
0.0
111
1.0
121
0.0
131
0.0
112
0.0
122
1.0
132
0.0
 79
     0
146
0.0
170
     0
  0
ENDBLK
  5
99
330
96
100
AcDbEntity
  8
0
100
AcDbBlockEnd
  0
ENDSEC
  0
SECTION
  2
ENTITIES
  0
SPLINE
  5
3C
330
1F
100
AcDbEntity
  8
Predefinito
100
AcDbSpline
210
0.0
220
0.0
230
1.0
 70
    12
 71
     2
 72
     8
 73
     5
 74
     0
 42
0.0000000001
 43
0.0000000001
 40
0.0
 40
0.0
 40
0.0
 40
116.2389281828224
 40
116.2389281828224
 40
232.4778563656446
 40
232.4778563656446
 40
232.4778563656446
 10
1250.917198455122
 20
172.3100629632185
 30
0.0
 41
1.0
 10
1250.917198455121
 20
98.31006296321843
 30
0.0
 41
0.7071067811865466
 10
1176.917198455121
 20
98.31006296321979
 30
0.0
 41
1.0
 10
1102.917198455121
 20
98.31006296322133
 30
0.0
 41
0.7071067811865497
 10
1102.917198455122
 20
172.3100629632211
 30
0.0
 41
1.0
  0
SPLINE
  5
3D
330
1F
100
AcDbEntity
  8
Predefinito
100
AcDbSpline
210
0.0
220
0.0
230
1.0
 70
    12
 71
     2
 72
     8
 73
     5
 74
     0
 42
0.0000000001
 43
0.0000000001
 40
0.0
 40
0.0
 40
0.0
 40
116.2389281828224
 40
116.2389281828224
 40
232.4778563656446
 40
232.4778563656446
 40
232.4778563656446
 10
1102.917198455122
 20
172.3100629632211
 30
0.0
 41
1.0
 10
1102.917198455123
 20
246.3100629632212
 30
0.0
 41
0.7071067811865466
 10
1176.917198455123
 20
246.3100629632197
 30
0.0
 41
1.0
 10
1250.917198455123
 20
246.3100629632185
 30
0.0
 41
0.7071067811865466
 10
1250.917198455122
 20
172.3100629632185
 30
0.0
 41
1.0
  0
SPLINE
  5
3E
330
1F
100
AcDbEntity
  8
Predefinito
100
AcDbSpline
210
0.0
220
0.0
230
1.0
 70
    12
 71
     2
 72
     8
 73
     5
 74
     0
 42
0.0000000001
 43
0.0000000001
 40
0.0
 40
0.0
 40
0.0
 40
270.6640206449128
 40
270.6640206449128
 40
541.3280412898256
 40
541.3280412898256
 40
541.3280412898256
 10
1349.227273169014
 20
172.3100629632181
 30
0.0
 41
1.0
 10
1349.227261383577
 20
0.0000000347544679
 30
0.0
 41
0.7071068053684268
 10
1176.917198455113
 20
0.0000000347544926
 30
0.0
 41
1.0
 10
1004.607135526649
 20
0.0000000347545081
 30
0.0
 41
0.7071068053684268
 10
1004.607123741212
 20
172.3100629632181
 30
0.0
 41
1.0
  0
SPLINE
  5
3F
330
1F
100
AcDbEntity
  8
Predefinito
100
AcDbSpline
210
0.0
220
0.0
230
1.0
 70
    12
 71
     2
 72
     8
 73
     5
 74
     0
 42
0.0000000001
 43
0.0000000001
 40
0.0
 40
0.0
 40
0.0
 40
270.6640206449126
 40
270.6640206449126
 40
541.3280412898251
 40
541.3280412898251
 40
541.3280412898251
 10
1004.607123741212
 20
172.3100629632181
 30
0.0
 41
1.0
 10
1004.607135526649
 20
344.6201258916815
 30
0.0
 41
0.707106805368427
 10
1176.917198455113
 20
344.6201258916815
 30
0.0
 41
1.0
 10
1349.227261383577
 20
344.6201258916816
 30
0.0
 41
0.707106805368427
 10
1349.227273169014
 20
172.3100629632181
 30
0.0
 41
1.0
  0
SPLINE
  5
40
330
1F
100
AcDbEntity
  8
Predefinito
100
AcDbSpline
210
0.0
220
0.0
230
1.0
 70
    12
 71
     2
 72
     8
 73
     5
 74
     0
 42
0.0000000001
 43
0.0000000001
 40
0.0
 40
0.0
 40
0.0
 40
119.0621772955888
 40
119.0621772955888
 40
238.1243545911776
 40
238.1243545911776
 40
238.1243545911776
 10
1252.714557548406
 20
172.3100629632186
 30
0.0
 41
1.0
 10
1252.714521599513
 20
96.51273981883476
 30
0.0
 41
0.7071069488686028
 10
1176.917198455121
 20
96.512739818836
 30
0.0
 41
1.0
 10
1101.119875310728
 20
96.5127398188372
 30
0.0
 41
0.7071069488686028
 10
1101.119839361838
 20
172.310062963221
 30
0.0
 41
1.0
  0
SPLINE
  5
41
330
1F
100
AcDbEntity
  8
Predefinito
100
AcDbSpline
210
0.0
220
0.0
230
1.0
 70
    12
 71
     2
 72
     8
 73
     5
 74
     0
 42
0.0000000001
 43
0.0000000001
 40
0.0
 40
0.0
 40
0.0
 40
119.0621772955888
 40
119.0621772955888
 40
238.1243545911776
 40
238.1243545911776
 40
238.1243545911776
 10
1101.119839361838
 20
172.3100629632211
 30
0.0
 41
1.0
 10
1101.119875310731
 20
248.1073861076049
 30
0.0
 41
0.7071069488686026
 10
1176.917198455123
 20
248.1073861076037
 30
0.0
 41
1.0
 10
1252.714521599515
 20
248.1073861076024
 30
0.0
 41
0.7071069488686026
 10
1252.714557548406
 20
172.3100629632186
 30
0.0
 41
1.0
  0
SPLINE
  5
42
330
1F
100
AcDbEntity
  8
Predefinito
100
AcDbSpline
210
0.0
220
0.0
230
1.0
 70
    24
 71
     2
 72
     6
 73
     3
 74
     0
 42
0.0000000001
 43
0.0000000001
 40
0.0
 40
0.0
 40
0.0
 40
10.0
 40
10.0
 40
10.0
 10
1171.917198455122
 20
1195.155659264737
 30
0.0
 10
1176.917198455122
 20
1195.155659264737
 30
0.0
 10
1181.917198455122
 20
1195.155659264737
 30
0.0
  0
SPLINE
  5
43
330
1F
100
AcDbEntity
  8
Predefinito
100
AcDbSpline
210
0.0
220
0.0
230
1.0
 70
    24
 71
     2
 72
     6
 73
     3
 74
     0
 42
0.0000000001
 43
0.0000000001
 40
0.0
 40
0.0
 40
0.0
 40
3.299999999999955
 40
3.299999999999955
 40
3.299999999999955
 10
1171.917198455122
 20
1191.855659264737
 30
0.0
 10
1171.917198455122
 20
1193.505659264737
 30
0.0
 10
1171.917198455122
 20
1195.155659264737
 30
0.0
  0
SPLINE
  5
44
330
1F
100
AcDbEntity
  8
Predefinito
100
AcDbSpline
210
0.0
220
0.0
230
1.0
 70
    24
 71
     2
 72
     6
 73
     3
 74
     0
 42
0.0000000001
 43
0.0000000001
 40
0.0
 40
0.0
 40
0.0
 40
3.299999999999955
 40
3.299999999999955
 40
3.299999999999955
 10
1181.917198455122
 20
1195.155659264737
 30
0.0
 10
1181.917198455122
 20
1193.505659264737
 30
0.0
 10
1181.917198455122
 20
1191.855659264737
 30
0.0
  0
SPLINE
  5
45
330
1F
100
AcDbEntity
  8
Predefinito
100
AcDbSpline
210
0.0
220
0.0
230
1.0
 70
    24
 71
     2
 72
     6
 73
     3
 74
     0
 42
0.0000000001
 43
0.0000000001
 40
0.0
 40
0.0
 40
0.0
 40
106.6992963183263
 40
106.6992963183263
 40
106.6992963183263
 10
1123.567550295958
 20
1130.057616261382
 30
0.0
 10
1176.917198455122
 20
1130.057616261382
 30
0.0
 10
1230.266846614285
 20
1130.057616261382
 30
0.0
  0
SPLINE
  5
46
330
1F
100
AcDbEntity
  8
Predefinito
100
AcDbSpline
210
0.0
220
0.0
230
1.0
 70
    12
 71
     3
 72
    10
 73
     6
 74
     0
 42
0.0000000001
 43
0.0000000001
 40
0.057068192184711
 40
0.057068192184711
 40
0.057068192184711
 40
0.057068192184711
 40
40.82003014921302
 40
75.70552709197545
 40
104.482516183727
 40
104.482516183727
 40
104.482516183727
 40
104.482516183727
 10
1230.226999427405
 20
1130.08054620954
 30
0.0
 41
1.0
 10
1220.739409436147
 20
1135.53920903256
 30
0.0
 41
1.0
 10
1202.904742284208
 20
1144.552454057707
 30
0.0
 41
1.0
 10
1181.337814762204
 20
1166.021230139101
 30
0.0
 41
1.0
 10
1181.917198455122
 20
1184.106696294984
 30
0.0
 41
1.0
 10
1181.917198455122
 20
1191.855659264737
 30
0.0
 41
1.0
  0
SPLINE
  5
47
330
1F
100
AcDbEntity
  8
Predefinito
100
AcDbSpline
210
0.0
220
0.0
230
1.0
 70
    12
 71
     3
 72
    10
 73
     6
 74
     0
 42
0.0000000001
 43
0.0000000001
 40
-104.482516183727
 40
-104.482516183727
 40
-104.482516183727
 40
-104.482516183727
 40
-75.70552709197545
 40
-40.82003014921302
 40
-0.0570681921847251
 40
-0.0570681921847251
 40
-0.0570681921847251
 40
-0.0570681921847251
 10
1171.917198455122
 20
1191.855659264737
 30
0.0
 41
1.0
 10
1171.917198455122
 20
1184.106696294984
 30
0.0
 41
1.0
 10
1172.496582148039
 20
1166.021230139101
 30
0.0
 41
1.0
 10
1150.929654626036
 20
1144.552454057707
 30
0.0
 41
1.0
 10
1133.094987474097
 20
1135.53920903256
 30
0.0
 41
1.0
 10
1123.607397482838
 20
1130.08054620954
 30
0.0
 41
1.0
  0
SPLINE
  5
48
330
1F
100
AcDbEntity
  8
Predefinito
100
AcDbSpline
210
0.0
220
0.0
230
1.0
 70
    24
 71
     2
 72
     6
 73
     3
 74
     0
 42
0.0000000001
 43
0.0000000001
 40
0.0
 40
0.0
 40
0.0
 40
0.2120539789386839
 40
0.2120539789386839
 40
0.2120539789386839
 10
1123.417198455122
 20
1129.602649171184
 30
0.0
 10
1123.417198455122
 20
1129.708676160654
 30
0.0
 10
1123.417198455122
 20
1129.814703150123
 30
0.0
  0
SPLINE
  5
49
330
1F
100
AcDbEntity
  8
Predefinito
100
AcDbSpline
210
0.0
220
0.0
230
1.0
 70
    24
 71
     2
 72
     6
 73
     3
 74
     0
 42
0.0000000001
 43
0.0000000001
 40
0.0
 40
0.0
 40
0.0
 40
0.2120539789386839
 40
0.2120539789386839
 40
0.2120539789386839
 10
1230.417198455122
 20
1129.814703150123
 30
0.0
 10
1230.417198455122
 20
1129.708676160654
 30
0.0
 10
1230.417198455122
 20
1129.602649171184
 30
0.0
  0
SPLINE
  5
4A
330
1F
100
AcDbEntity
  8
Predefinito
100
AcDbSpline
210
0.0
220
0.0
230
1.0
 70
    12
 71
     2
 72
     6
 73
     3
 74
     0
 42
0.0000000001
 43
0.0000000001
 40
0.0
 40
0.0
 40
0.0
 40
0.3005898762345819
 40
0.3005898762345819
 40
0.3005898762345819
 10
1230.266846614285
 20
1130.057616261382
 30
0.0
 41
1.0
 10
1230.416437443835
 20
1129.982219049836
 30
0.0
 41
0.8526832100166875
 10
1230.417198455122
 20
1129.814703150123
 30
0.0
 41
1.0
  0
SPLINE
  5
4B
330
1F
100
AcDbEntity
  8
Predefinito
100
AcDbSpline
210
0.0
220
0.0
230
1.0
 70
    12
 71
     2
 72
     6
 73
     3
 74
     0
 42
0.0000000001
 43
0.0000000001
 40
0.0
 40
0.0
 40
0.0
 40
0.3005898762344559
 40
0.3005898762344559
 40
0.3005898762344559
 10
1123.417198455122
 20
1129.814703150123
 30
0.0
 41
1.0
 10
1123.417959466409
 20
1129.982219049835
 30
0.0
 41
0.8526832100187322
 10
1123.567550295958
 20
1130.057616261382
 30
0.0
 41
1.0
  0
SPLINE
  5
4C
330
1F
100
AcDbEntity
  8
Predefinito
100
AcDbSpline
210
0.0
220
0.0
230
1.0
 70
    24
 71
     2
 72
     6
 73
     3
 74
     0
 42
0.0000000001
 43
0.0000000001
 40
0.0
 40
0.0
 40
0.0
 40
107.0
 40
107.0
 40
107.0
 10
1230.417198455122
 20
1129.814703150123
 30
0.0
 10
1176.917198455122
 20
1129.814703150123
 30
0.0
 10
1123.417198455122
 20
1129.814703150123
 30
0.0
  0
SPLINE
  5
4D
330
1F
100
AcDbEntity
  8
Predefinito
100
AcDbSpline
210
0.0
220
0.0
230
1.0
 70
    12
 71
     2
 72
     6
 73
     3
 74
     0
 42
0.0000000001
 43
0.0000000001
 40
0.0
 40
0.0
 40
0.0
 40
163.4710631292175
 40
163.4710631292175
 40
163.4710631292175
 10
1176.917198455113
 20
1056.071314082407
 30
0.0
 41
1.0
 10
1258.65670677835
 20
1056.066287737252
 30
0.0
 41
0.9999270213479272
 10
1340.372476453982
 20
1058.036118315712
 30
0.0
 41
1.0
  0
SPLINE
  5
4E
330
1F
100
AcDbEntity
  8
Predefinito
100
AcDbSpline
210
0.0
220
0.0
230
1.0
 70
    12
 71
     2
 72
     6
 73
     3
 74
     0
 42
0.0000000001
 43
0.0000000001
 40
0.0
 40
0.0
 40
0.0
 40
165.7193838636729
 40
165.7193838636729
 40
165.7193838636729
 10
1011.214259123178
 20
1058.090544601941
 30
0.0
 41
1.0
 10
1094.053364424429
 20
1056.066279674027
 30
0.0
 41
0.9999250187012749
 10
1176.917198455113
 20
1056.071314082406
 30
0.0
 41
1.0
  0
SPLINE
  5
4F
330
1F
100
AcDbEntity
  8
Predefinito
100
AcDbSpline
210
0.0
220
0.0
230
1.0
 70
    12
 71
     3
 72
    23
 73
    19
 74
     0
 42
0.0000000001
 43
0.0000000001
 40
0.0
 40
0.0
 40
0.0
 40
0.0
 40
3.111859190100225
 40
3.111859190100225
 40
3.111859190100225
 40
6.210198209006387
 40
6.210198209006387
 40
6.210198209006387
 40
8.304593311398778
 40
8.304593311398778
 40
8.304593311398778
 40
187.1813954001111
 40
187.1813954001111
 40
187.1813954001111
 40
187.2837251990497
 40
187.2837251990497
 40
187.2837251990497
 40
187.3463615931202
 40
187.3463615931202
 40
187.3463615931202
 40
187.3463615931202
 10
1344.159378741074
 20
1058.128393073282
 30
0.0
 41
1.0
 10
1345.196431355057
 20
1058.150414848938
 30
0.0
 41
0.9999999869940372
 10
1346.233479598859
 20
1058.172641472614
 30
0.0
 41
0.9999999869940365
 10
1347.270523432017
 20
1058.195072943437
 30
0.0
 41
1.0
 10
1348.421835130963
 20
1058.219976033926
 30
0.0
 41
0.8098076841648646
 10
1349.227273169013
 20
1059.043024245701
 30
0.0
 41
0.8098076841648644
 10
1349.227273169014
 20
1060.194605242438
 30
0.0
 41
1.0
 10
1349.227273169014
 20
1060.926656050007
 30
0.0
 41
0.9106836025229765
 10
1348.861247765229
 20
1061.560630646221
 30
0.0
 41
0.9106836025229764
 10
1348.227273169014
 20
1061.926656050006
 30
0.0
 41
1.0
 10
1309.18905371293
 20
1084.465382561659
 30
0.0
 41
1.0
 10
1270.150834256847
 20
1107.004109073313
 30
0.0
 41
1.0
 10
1231.112614800763
 20
1129.542835584966
 30
0.0
 41
1.0
 10
1231.083055239304
 20
1129.559886102987
 30
0.0
 41
0.9991410973168833
 10
1231.052668533636
 20
1129.57541465595
 30
0.0
 41
0.999141097316883
 10
1231.021532981427
 20
1129.589381231304
 30
0.0
 41
1.0
 10
1231.002365934448
 20
1129.598041658417
 30
0.0
 41
0.985441438726745
 10
1230.981817443594
 20
1129.602529220267
 30
0.0
 41
0.9854414387267447
 10
1230.960784978256
 20
1129.602647919518
 30
0.0
 41
1.0
  0
SPLINE
  5
50
330
1F
100
AcDbEntity
  8
Predefinito
100
AcDbSpline
210
0.0
220
0.0
230
1.0
 70
    12
 71
     3
 72
    23
 73
    19
 74
     0
 42
0.0000000001
 43
0.0000000001
 40
0.0
 40
0.0
 40
0.0
 40
0.0
 40
0.0626362092941618
 40
0.0626362092941618
 40
0.0626362092941618
 40
0.1649660082328866
 40
0.1649660082328866
 40
0.1649660082328866
 40
179.0417680969452
 40
179.0417680969452
 40
179.0417680969452
 40
181.1361631993376
 40
181.1361631993376
 40
181.1361631993376
 40
184.234502218244
 40
184.234502218244
 40
184.234502218244
 40
187.3463614083428
 40
187.3463614083428
 40
187.3463614083428
 40
187.3463614083428
 10
1122.873611747205
 20
1129.602647918756
 30
0.0
 41
1.0
 10
1122.852579345003
 20
1129.60252919345
 30
0.0
 41
0.9854415265227928
 10
1122.832030918478
 20
1129.59804163226
 30
0.0
 41
0.9854415265227927
 10
1122.812863928798
 20
1129.589381231304
 30
0.0
 41
1.0
 10
1122.78172837659
 20
1129.575414655949
 30
0.0
 41
0.99914109731692
 10
1122.751341670921
 20
1129.559886102988
 30
0.0
 41
0.9991410973169207
 10
1122.721782109462
 20
1129.542835584966
 30
0.0
 41
1.0
 10
1083.683562653378
 20
1107.004109073313
 30
0.0
 41
1.0
 10
1044.645343197295
 20
1084.465382561659
 30
0.0
 41
1.0
 10
1005.607123741212
 20
1061.926656050006
 30
0.0
 41
1.0
 10
1004.973149144996
 20
1061.560630646222
 30
0.0
 41
0.9106836025229518
 10
1004.607123741212
 20
1060.926656050007
 30
0.0
 41
0.9106836025229517
 10
1004.607123741212
 20
1060.194605242438
 30
0.0
 41
1.0
 10
1004.607123741212
 20
1059.043024245701
 30
0.0
 41
0.8098076841648381
 10
1005.412561779262
 20
1058.219976033925
 30
0.0
 41
0.8098076841648382
 10
1006.563873478209
 20
1058.195072943436
 30
0.0
 41
1.0
 10
1007.600917311365
 20
1058.172641472613
 30
0.0
 41
0.9999999869940374
 10
1008.637965555167
 20
1058.150414848939
 30
0.0
 41
0.9999999869940366
 10
1009.67501816915
 20
1058.128393073283
 30
0.0
 41
1.0
  0
SPLINE
  5
51
330
1F
100
AcDbEntity
  8
Predefinito
100
AcDbSpline
210
0.0
220
0.0
230
1.0
 70
    12
 71
     2
 72
    10
 73
     7
 74
     0
 42
0.0000000001
 43
0.0000000001
 40
75.2026746002205
 40
75.2026746002205
 40
75.2026746002205
 40
108.901339781482
 40
108.901339781482
 40
109.137985573614
 40
109.137985573614
 40
109.3746313657459
 40
109.3746313657459
 40
109.3746313657459
 10
1252.420484950236
 20
1865.155659264737
 30
0.0
 41
1.0
 10
1252.567521249212
 20
1882.004350284413
 30
0.0
 41
1.0
 10
1252.714557548188
 20
1898.853041304088
 30
0.0
 41
1.0
 10
1252.715103088851
 20
1898.977845604294
 30
0.0
 41
0.9238780366272585
 10
1252.62723818442
 20
1899.066480639882
 30
0.0
 41
1.0
 10
1252.539373279989
 20
1899.155115675471
 30
0.0
 41
0.9238780366272585
 10
1252.414568971269
 20
1899.155659264737
 30
0.0
 41
1.0
  0
SPLINE
  5
52
330
1F
100
AcDbEntity
  8
Predefinito
100
AcDbSpline
210
0.0
220
0.0
230
1.0
 70
    12
 71
     2
 72
    10
 73
     7
 74
     0
 42
0.0000000001
 43
0.0000000001
 40
0.0
 40
0.0
 40
0.0
 40
0.236645792131978
 40
0.236645792131978
 40
0.473291584263956
 40
0.473291584263956
 40
34.17195676552545
 40
34.17195676552545
 40
34.17195676552545
 10
1101.419827938975
 20
1899.155659264737
 30
0.0
 41
1.0
 10
1101.295023630254
 20
1899.155115675471
 30
0.0
 41
0.9238780366274392
 10
1101.207158725824
 20
1899.066480639882
 30
0.0
 41
1.0
 10
1101.119293821393
 20
1898.977845604294
 30
0.0
 41
0.9238780366274392
 10
1101.119839362055
 20
1898.853041304088
 30
0.0
 41
1.0
 10
1101.266875661031
 20
1882.004350284413
 30
0.0
 41
1.0
 10
1101.413911960007
 20
1865.155659264737
 30
0.0
 41
1.0
  0
SPLINE
  5
53
330
1F
100
AcDbEntity
  8
Predefinito
100
AcDbSpline
210
0.0
220
0.0
230
1.0
 70
    24
 71
     2
 72
     6
 73
     3
 74
     0
 42
0.0000000001
 43
0.0000000001
 40
0.0
 40
0.0
 40
0.0
 40
151.0065729902285
 40
151.0065729902285
 40
151.0065729902285
 10
1101.413911960007
 20
1865.155659264737
 30
0.0
 10
1176.917198455122
 20
1865.155659264737
 30
0.0
 10
1252.420484950236
 20
1865.155659264737
 30
0.0
  0
SPLINE
  5
54
330
1F
100
AcDbEntity
  8
Predefinito
100
AcDbSpline
210
0.0
220
0.0
230
1.0
 70
    24
 71
     2
 72
     6
 73
     3
 74
     0
 42
0.0000000001
 43
0.0000000001
 40
0.0
 40
0.0
 40
0.0
 40
5.0
 40
5.0
 40
5.0
 10
1176.917198455122
 20
1691.48899259807
 30
0.0
 10
1174.417198455122
 20
1691.48899259807
 30
0.0
 10
1171.917198455122
 20
1691.48899259807
 30
0.0
  0
SPLINE
  5
55
330
1F
100
AcDbEntity
  8
Predefinito
100
AcDbSpline
210
0.0
220
0.0
230
1.0
 70
    24
 71
     2
 72
     6
 73
     3
 74
     0
 42
0.0000000001
 43
0.0000000001
 40
0.0
 40
0.0
 40
0.0
 40
3.800000000000068
 40
3.800000000000068
 40
3.800000000000068
 10
1180.717198455122
 20
1695.155659264737
 30
0.0
 10
1178.817198455122
 20
1695.155659264737
 30
0.0
 10
1176.917198455122
 20
1695.155659264737
 30
0.0
  0
SPLINE
  5
56
330
1F
100
AcDbEntity
  8
Predefinito
100
AcDbSpline
210
0.0
220
0.0
230
1.0
 70
    24
 71
     2
 72
     6
 73
     3
 74
     0
 42
0.0000000001
 43
0.0000000001
 40
0.0
 40
0.0
 40
0.0
 40
4.945945945945823
 40
4.945945945945823
 40
4.945945945945823
 10
1176.917198455122
 20
1691.813316922395
 30
0.0
 10
1179.390171428095
 20
1691.813316922395
 30
0.0
 10
1181.863144401068
 20
1691.813316922395
 30
0.0
  0
SPLINE
  5
57
330
1F
100
AcDbEntity
  8
Predefinito
100
AcDbSpline
210
0.0
220
0.0
230
1.0
 70
    24
 71
     2
 72
     6
 73
     3
 74
     0
 42
0.0000000001
 43
0.0000000001
 40
0.0
 40
0.0
 40
0.0
 40
5.0
 40
5.0
 40
5.0
 10
1176.917198455122
 20
1691.48899259807
 30
0.0
 10
1179.417198455122
 20
1691.48899259807
 30
0.0
 10
1181.917198455122
 20
1691.48899259807
 30
0.0
  0
SPLINE
  5
58
330
1F
100
AcDbEntity
  8
Predefinito
100
AcDbSpline
210
0.0
220
0.0
230
1.0
 70
    24
 71
     2
 72
     6
 73
     3
 74
     0
 42
0.0000000001
 43
0.0000000001
 40
0.0
 40
0.0
 40
0.0
 40
4.945945945945823
 40
4.945945945945823
 40
4.945945945945823
 10
1171.971252509176
 20
1691.813316922395
 30
0.0
 10
1174.444225482149
 20
1691.813316922395
 30
0.0
 10
1176.917198455122
 20
1691.813316922395
 30
0.0
  0
SPLINE
  5
59
330
1F
100
AcDbEntity
  8
Predefinito
100
AcDbSpline
210
0.0
220
0.0
230
1.0
 70
    12
 71
     2
 72
     6
 73
     3
 74
     0
 42
0.0000000001
 43
0.0000000001
 40
0.0
 40
0.0
 40
0.0
 40
170.0000000142332
 40
170.0000000142332
 40
170.0000000142332
 10
1178.667211055756
 20
1695.155659264737
 30
0.0
 41
1.0
 10
1178.667197199998
 20
1780.155659271852
 30
0.0
 41
0.9999999999999978
 10
1178.667172148385
 20
1865.155659278965
 30
0.0
 41
1.0
  0
SPLINE
  5
5A
330
1F
100
AcDbEntity
  8
Predefinito
100
AcDbSpline
210
0.0
220
0.0
230
1.0
 70
    12
 71
     2
 72
     6
 73
     3
 74
     0
 42
0.0000000001
 43
0.0000000001
 40
0.0
 40
0.0
 40
0.0
 40
170.0000000000114
 40
170.0000000000114
 40
170.0000000000114
 10
1175.167178869247
 20
1695.155659264737
 30
0.0
 41
1.0
 10
1175.167200489931
 20
1780.15565926474
 30
0.0
 41
0.9999999999999972
 10
1175.16723486605
 20
1865.155659264739
 30
0.0
 41
1.0
  0
SPLINE
  5
5B
330
1F
100
AcDbEntity
  8
Predefinito
100
AcDbSpline
210
0.0
220
0.0
230
1.0
 70
    24
 71
     3
 72
     8
 73
     4
 74
     0
 42
0.0000000001
 43
0.0000000001
 40
0.0
 40
0.0
 40
0.0
 40
0.0
 40
334.4757084287529
 40
334.4757084287529
 40
334.4757084287529
 40
334.4757084287529
 10
1344.155052669662
 20
1058.128347112044
 30
0.0
 10
1232.663149860076
 20
1058.128347112048
 30
0.0
 10
1121.171247050491
 20
1058.128347112042
 30
0.0
 10
1009.679344240909
 20
1058.128347112044
 30
0.0
  0
SPLINE
  5
5C
330
1F
100
AcDbEntity
  8
Predefinito
100
AcDbSpline
210
0.0
220
0.0
230
1.0
 70
    24
 71
     2
 72
     6
 73
     3
 74
     0
 42
0.0000000001
 43
0.0000000001
 40
0.0
 40
0.0
 40
0.0
 40
108.0859585464398
 40
108.0859585464398
 40
108.0859585464398
 10
1122.87421909472
 20
1129.602649171184
 30
0.0
 10
1176.917198367939
 20
1129.602649171184
 30
0.0
 10
1230.960177641159
 20
1129.602649171184
 30
0.0
  0
SPLINE
  5
5D
330
1F
100
AcDbEntity
  8
Predefinito
100
AcDbSpline
210
0.0
220
0.0
230
1.0
 70
    24
 71
     2
 72
     6
 73
     3
 74
     0
 42
0.0000000001
 43
0.0000000001
 40
0.0
 40
0.0
 40
0.0
 40
496.333333333333
 40
496.333333333333
 40
496.333333333333
 10
1171.917198455122
 20
1195.155659264737
 30
0.0
 10
1171.917198455122
 20
1443.322325931403
 30
0.0
 10
1171.917198455122
 20
1691.48899259807
 30
0.0
  0
SPLINE
  5
5E
330
1F
100
AcDbEntity
  8
Predefinito
100
AcDbSpline
210
0.0
220
0.0
230
1.0
 70
    24
 71
     2
 72
     6
 73
     3
 74
     0
 42
0.0000000001
 43
0.0000000001
 40
0.0
 40
0.0
 40
0.0
 40
3.53333333333286
 40
3.53333333333286
 40
3.53333333333286
 10
1180.717198455122
 20
1695.155659264737
 30
0.0
 10
1181.290171428095
 20
1693.484488093566
 30
0.0
 10
1181.863144401068
 20
1691.813316922395
 30
0.0
  0
SPLINE
  5
5F
330
1F
100
AcDbEntity
  8
Predefinito
100
AcDbSpline
210
0.0
220
0.0
230
1.0
 70
    12
 71
     2
 72
     6
 73
     3
 74
     0
 42
0.0000000001
 43
0.0000000001
 40
0.0
 40
0.0
 40
0.0
 40
0.3302905311838995
 40
0.3302905311838995
 40
0.3302905311838995
 10
1181.863144401068
 20
1691.813316922395
 30
0.0
 41
1.0
 10
1181.917135953994
 20
1691.655648847883
 30
0.0
 41
0.9864555090471324
 10
1181.917198455122
 20
1691.48899259807
 30
0.0
 41
1.0
  0
SPLINE
  5
60
330
1F
100
AcDbEntity
  8
Predefinito
100
AcDbSpline
210
0.0
220
0.0
230
1.0
 70
    24
 71
     2
 72
     6
 73
     3
 74
     0
 42
0.0000000001
 43
0.0000000001
 40
0.0
 40
0.0
 40
0.0
 40
496.333333333333
 40
496.333333333333
 40
496.333333333333
 10
1181.917198455122
 20
1691.48899259807
 30
0.0
 10
1181.917198455122
 20
1443.322325931403
 30
0.0
 10
1181.917198455122
 20
1195.155659264737
 30
0.0
  0
SPLINE
  5
61
330
1F
100
AcDbEntity
  8
Predefinito
100
AcDbSpline
210
0.0
220
0.0
230
1.0
 70
    24
 71
     2
 72
     6
 73
     3
 74
     0
 42
0.0000000001
 43
0.0000000001
 40
0.0
 40
0.0
 40
0.0
 40
3.53333333333286
 40
3.53333333333286
 40
3.53333333333286
 10
1171.971252509176
 20
1691.813316922395
 30
0.0
 10
1172.544225482149
 20
1693.484488093566
 30
0.0
 10
1173.117198455122
 20
1695.155659264737
 30
0.0
  0
SPLINE
  5
62
330
1F
100
AcDbEntity
  8
Predefinito
100
AcDbSpline
210
0.0
220
0.0
230
1.0
 70
    12
 71
     2
 72
     6
 73
     3
 74
     0
 42
0.0000000001
 43
0.0000000001
 40
0.0
 40
0.0
 40
0.0
 40
0.3302905311839112
 40
0.3302905311839112
 40
0.3302905311839112
 10
1171.917198455122
 20
1691.48899259807
 30
0.0
 41
1.0
 10
1171.917260956249
 20
1691.655648847883
 30
0.0
 41
0.9864555090469819
 10
1171.971252509176
 20
1691.813316922395
 30
0.0
 41
1.0
  0
SPLINE
  5
63
330
1F
100
AcDbEntity
  8
Predefinito
100
AcDbSpline
210
0.0
220
0.0
230
1.0
 70
    12
 71
     2
 72
     8
 73
     5
 74
     0
 42
0.0000000001
 43
0.0000000001
 40
0.0
 40
0.0
 40
0.0
 40
29.11854694214065
 40
29.11854694214065
 40
170.0000000006228
 40
170.0000000006228
 40
170.0000000006228
 10
617.5681570402812
 20
1865.155659264737
 30
0.0
 41
1.0
 10
617.5680301536947
 20
1850.59638579393
 30
0.0
 41
0.999999999970154
 10
617.5681282386208
 20
1836.0371123229
 30
0.0
 41
1.0
 10
617.5683772634998
 20
1765.596385794037
 30
0.0
 41
0.9999999999986778
 10
617.5683971940581
 20
1695.155659264737
 30
0.0
 41
1.0
  0
SPLINE
  5
64
330
1F
100
AcDbEntity
  8
Predefinito
100
AcDbSpline
210
0.0
220
0.0
230
1.0
 70
    24
 71
     2
 72
     6
 73
     3
 74
     0
 42
0.0000000001
 43
0.0000000001
 40
0.0
 40
0.0
 40
0.0
 40
5.0
 40
5.0
 40
5.0
 10
614.3100750179775
 20
1195.155659264737
 30
0.0
 10
616.8100750179775
 20
1195.155659264737
 30
0.0
 10
619.3100750179775
 20
1195.155659264737
 30
0.0
  0
SPLINE
  5
65
330
1F
100
AcDbEntity
  8
Predefinito
100
AcDbSpline
210
0.0
220
0.0
230
1.0
 70
    24
 71
     2
 72
     6
 73
     3
 74
     0
 42
0.0000000001
 43
0.0000000001
 40
0.0
 40
0.0
 40
0.0
 40
5.0
 40
5.0
 40
5.0
 10
619.3100750179775
 20
1195.155659264737
 30
0.0
 10
621.8100750179775
 20
1195.155659264737
 30
0.0
 10
624.3100750179775
 20
1195.155659264737
 30
0.0
  0
SPLINE
  5
66
330
1F
100
AcDbEntity
  8
Predefinito
100
AcDbSpline
210
0.0
220
0.0
230
1.0
 70
    24
 71
     2
 72
     6
 73
     3
 74
     0
 42
0.0000000001
 43
0.0000000001
 40
0.0
 40
0.0
 40
0.0
 40
53.34964815916319
 40
53.34964815916319
 40
53.34964815916319
 10
565.9604268588143
 20
1130.057616261382
 30
0.0
 10
592.635250938396
 20
1130.057616261382
 30
0.0
 10
619.3100750179775
 20
1130.057616261382
 30
0.0
  0
SPLINE
  5
67
330
1F
100
AcDbEntity
  8
Predefinito
100
AcDbSpline
210
0.0
220
0.0
230
1.0
 70
    24
 71
     2
 72
     6
 73
     3
 74
     0
 42
0.0000000001
 43
0.0000000001
 40
0.0
 40
0.0
 40
0.0
 40
53.5
 40
53.5
 40
53.5
 10
672.8100750179775
 20
1129.814703150123
 30
0.0
 10
646.0600750179775
 20
1129.814703150123
 30
0.0
 10
619.3100750179775
 20
1129.814703150123
 30
0.0
  0
SPLINE
  5
68
330
1F
100
AcDbEntity
  8
Predefinito
100
AcDbSpline
210
0.0
220
0.0
230
1.0
 70
    24
 71
     2
 72
     6
 73
     3
 74
     0
 42
0.0000000001
 43
0.0000000001
 40
0.0
 40
0.0
 40
0.0
 40
0.2120539789386839
 40
0.2120539789386839
 40
0.2120539789386839
 10
619.3100750179775
 20
1129.814703150123
 30
0.0
 10
619.3100750179775
 20
1129.708676160654
 30
0.0
 10
619.3100750179775
 20
1129.602649171184
 30
0.0
  0
SPLINE
  5
69
330
1F
100
AcDbEntity
  8
Predefinito
100
AcDbSpline
210
0.0
220
0.0
230
1.0
 70
    24
 71
     2
 72
     6
 73
     3
 74
     0
 42
0.0000000001
 43
0.0000000001
 40
0.0
 40
0.0
 40
0.0
 40
0.2429131112592131
 40
0.2429131112592131
 40
0.2429131112592131
 10
619.3100750179775
 20
1130.057616261382
 30
0.0
 10
619.3100750179775
 20
1129.936159705753
 30
0.0
 10
619.3100750179775
 20
1129.814703150123
 30
0.0
  0
SPLINE
  5
6A
330
1F
100
AcDbEntity
  8
Predefinito
100
AcDbSpline
210
0.0
220
0.0
230
1.0
 70
    24
 71
     2
 72
     6
 73
     3
 74
     0
 42
0.0000000001
 43
0.0000000001
 40
0.0
 40
0.0
 40
0.0
 40
53.34964815916319
 40
53.34964815916319
 40
53.34964815916319
 10
619.3100750179775
 20
1130.057616261382
 30
0.0
 10
645.984899097559
 20
1130.057616261382
 30
0.0
 10
672.6597231771407
 20
1130.057616261382
 30
0.0
  0
SPLINE
  5
6B
330
1F
100
AcDbEntity
  8
Predefinito
100
AcDbSpline
210
0.0
220
0.0
230
1.0
 70
    24
 71
     2
 72
     6
 73
     3
 74
     0
 42
0.0000000001
 43
0.0000000001
 40
0.0
 40
0.0
 40
0.0
 40
53.5
 40
53.5
 40
53.5
 10
619.3100750179775
 20
1129.814703150123
 30
0.0
 10
592.5600750179775
 20
1129.814703150123
 30
0.0
 10
565.8100750179775
 20
1129.814703150123
 30
0.0
  0
SPLINE
  5
6C
330
1F
100
AcDbEntity
  8
Predefinito
100
AcDbSpline
210
0.0
220
0.0
230
1.0
 70
    24
 71
     2
 72
     6
 73
     3
 74
     0
 42
0.0000000001
 43
0.0000000001
 40
0.0
 40
0.0
 40
0.0
 40
2.086677787781355
 40
2.086677787781355
 40
2.086677787781355
 10
619.3100750179776
 20
1056.071314082407
 30
0.0
 10
619.3100750179776
 20
1057.114652976298
 30
0.0
 10
619.3100750179776
 20
1058.157991870188
 30
0.0
  0
SPLINE
  5
6D
330
1F
100
AcDbEntity
  8
Predefinito
100
AcDbSpline
210
0.0
220
0.0
230
1.0
 70
    24
 71
     2
 72
     6
 73
     3
 74
     0
 42
0.0000000001
 43
0.0000000001
 40
0.0
 40
0.0
 40
0.0
 40
75.5032864951138
 40
75.5032864951138
 40
75.5032864951138
 10
543.8067885228642
 20
1865.155659264739
 30
0.0
 10
581.5584317704211
 20
1865.155659264738
 30
0.0
 10
619.310075017978
 20
1865.155659264737
 30
0.0
  0
SPLINE
  5
6E
330
1F
100
AcDbEntity
  8
Predefinito
100
AcDbSpline
210
0.0
220
0.0
230
1.0
 70
    24
 71
     2
 72
     6
 73
     3
 74
     0
 42
0.0000000001
 43
0.0000000001
 40
0.0
 40
0.0
 40
0.0
 40
75.50328649511462
 40
75.50328649511462
 40
75.50328649511462
 10
619.310075017978
 20
1865.155659264737
 30
0.0
 10
657.0617182655353
 20
1865.155659264736
 30
0.0
 10
694.8133615130926
 20
1865.155659264735
 30
0.0
  0
SPLINE
  5
6F
330
1F
100
AcDbEntity
  8
Predefinito
100
AcDbSpline
210
0.0
220
0.0
230
1.0
 70
    24
 71
     2
 72
     6
 73
     3
 74
     0
 42
0.0000000001
 43
0.0000000001
 40
0.0
 40
0.0
 40
0.0
 40
496.333333333333
 40
496.333333333333
 40
496.333333333333
 10
614.3100750179781
 20
1195.155659264737
 30
0.0
 10
614.310075017979
 20
1443.322325931403
 30
0.0
 10
614.31007501798
 20
1691.48899259807
 30
0.0
  0
SPLINE
  5
70
330
1F
100
AcDbEntity
  8
Predefinito
100
AcDbSpline
210
0.0
220
0.0
230
1.0
 70
    24
 71
     2
 72
     6
 73
     3
 74
     0
 42
0.0000000001
 43
0.0000000001
 40
0.0
 40
0.0
 40
0.0
 40
496.333333333333
 40
496.333333333333
 40
496.333333333333
 10
624.31007501798
 20
1691.48899259807
 30
0.0
 10
624.310075017979
 20
1443.322325931403
 30
0.0
 10
624.3100750179781
 20
1195.155659264737
 30
0.0
  0
SPLINE
  5
71
330
1F
100
AcDbEntity
  8
Predefinito
100
AcDbSpline
210
0.0
220
0.0
230
1.0
 70
    24
 71
     2
 72
     6
 73
     3
 74
     0
 42
0.0000000001
 43
0.0000000001
 40
0.0
 40
0.0
 40
0.0
 40
7.600000000000023
 40
7.600000000000023
 40
7.600000000000023
 10
623.1100750179801
 20
1695.155659264737
 30
0.0
 10
619.3100750179801
 20
1695.155659264737
 30
0.0
 10
615.5100750179801
 20
1695.155659264737
 30
0.0
  0
SPLINE
  5
72
330
1F
100
AcDbEntity
  8
Predefinito
100
AcDbSpline
210
0.0
220
0.0
230
1.0
 70
    24
 71
     2
 72
     6
 73
     3
 74
     0
 42
0.0000000001
 43
0.0000000001
 40
0.0
 40
0.0
 40
0.0
 40
3.53333333333287
 40
3.53333333333287
 40
3.53333333333287
 10
615.5100750179801
 20
1695.155659264737
 30
0.0
 10
614.9371020450071
 20
1693.484488093566
 30
0.0
 10
614.3641290720343
 20
1691.813316922395
 30
0.0
  0
SPLINE
  5
73
330
1F
100
AcDbEntity
  8
Predefinito
100
AcDbSpline
210
0.0
220
0.0
230
1.0
 70
    24
 71
     2
 72
     6
 73
     3
 74
     0
 42
0.0000000001
 43
0.0000000001
 40
0.0
 40
0.0
 40
0.0
 40
9.89189189189156
 40
9.89189189189156
 40
9.89189189189156
 10
614.3641290720343
 20
1691.813316922395
 30
0.0
 10
619.3100750179801
 20
1691.813316922395
 30
0.0
 10
624.2560209639258
 20
1691.813316922395
 30
0.0
  0
SPLINE
  5
74
330
1F
100
AcDbEntity
  8
Predefinito
100
AcDbSpline
210
0.0
220
0.0
230
1.0
 70
    24
 71
     2
 72
     6
 73
     3
 74
     0
 42
0.0000000001
 43
0.0000000001
 40
0.0
 40
0.0
 40
0.0
 40
3.53333333333286
 40
3.53333333333286
 40
3.53333333333286
 10
624.2560209639258
 20
1691.813316922395
 30
0.0
 10
623.6830479909529
 20
1693.484488093566
 30
0.0
 10
623.1100750179801
 20
1695.155659264737
 30
0.0
  0
SPLINE
  5
75
330
1F
100
AcDbEntity
  8
Predefinito
100
AcDbSpline
210
0.0
220
0.0
230
1.0
 70
    24
 71
     2
 72
     6
 73
     3
 74
     0
 42
0.0000000001
 43
0.0000000001
 40
0.0
 40
0.0
 40
0.0
 40
10.0
 40
10.0
 40
10.0
 10
614.31007501798
 20
1691.48899259807
 30
0.0
 10
619.31007501798
 20
1691.48899259807
 30
0.0
 10
624.31007501798
 20
1691.48899259807
 30
0.0
  0
SPLINE
  5
76
330
1F
100
AcDbEntity
  8
Predefinito
100
AcDbSpline
210
0.0
220
0.0
230
1.0
 70
    12
 71
     2
 72
     6
 73
     3
 74
     0
 42
0.0000000001
 43
0.0000000001
 40
0.0
 40
0.0
 40
0.0
 40
0.3302973548300235
 40
0.3302973548300235
 40
0.3302973548300235
 10
614.3641290720343
 20
1691.813316922395
 30
0.0
 41
1.0
 10
614.31007501798
 20
1691.655659264737
 30
0.0
 41
0.9863939238320455
 10
614.31007501798
 20
1691.48899259807
 30
0.0
 41
1.0
  0
SPLINE
  5
77
330
1F
100
AcDbEntity
  8
Predefinito
100
AcDbSpline
210
0.0
220
0.0
230
1.0
 70
    12
 71
     2
 72
     6
 73
     3
 74
     0
 42
0.0000000001
 43
0.0000000001
 40
0.0
 40
0.0
 40
0.0
 40
0.3302973548300018
 40
0.3302973548300018
 40
0.3302973548300018
 10
624.2560209639258
 20
1691.813316922395
 30
0.0
 41
1.0
 10
624.31007501798
 20
1691.655659264737
 30
0.0
 41
0.9863939238321222
 10
624.31007501798
 20
1691.48899259807
 30
0.0
 41
1.0
  0
SPLINE
  5
78
330
1F
100
AcDbEntity
  8
Predefinito
100
AcDbSpline
210
0.0
220
0.0
230
1.0
 70
    12
 71
     2
 72
     6
 73
     3
 74
     0
 42
0.0000000001
 43
0.0000000001
 40
0.0
 40
0.0
 40
0.0
 40
98.87539762516124
 40
98.87539762516124
 40
98.87539762516124
 10
621.0595759525895
 20
1865.155659260716
 30
0.0
 41
1.0
 10
621.0595834931262
 20
1815.717960447729
 30
0.0
 41
0.999999999987637
 10
621.0600826921326
 20
1766.280261637261
 30
0.0
 41
1.0
  0
SPLINE
  5
79
330
1F
100
AcDbEntity
  8
Predefinito
100
AcDbSpline
210
0.0
220
0.0
230
1.0
 70
    12
 71
     2
 72
     6
 73
     3
 74
     0
 42
0.0000000001
 43
0.0000000001
 40
0.0
 40
0.0
 40
0.0
 40
71.12460237299013
 40
71.12460237299013
 40
71.12460237299013
 10
621.0600826926529
 20
1766.280261637261
 30
0.0
 41
1.0
 10
621.0602783348933
 20
1730.717960451255
 30
0.0
 41
0.9999999999979347
 10
621.060329424661
 20
1695.155659264748
 30
0.0
 41
1.0
  0
SPLINE
  5
7A
330
1F
100
AcDbEntity
  8
Predefinito
100
AcDbSpline
210
0.0
220
0.0
230
1.0
 70
    24
 71
     2
 72
     6
 73
     3
 74
     0
 42
0.0000000001
 43
0.0000000001
 40
0.0
 40
0.0
 40
0.0
 40
3.299999999999955
 40
3.299999999999955
 40
3.299999999999955
 10
624.3100750179775
 20
1195.155659264737
 30
0.0
 10
624.3100750179775
 20
1193.505659264737
 30
0.0
 10
624.3100750179775
 20
1191.855659264737
 30
0.0
  0
SPLINE
  5
7B
330
1F
100
AcDbEntity
  8
Predefinito
100
AcDbSpline
210
0.0
220
0.0
230
1.0
 70
     8
 71
     3
 72
    15
 73
    11
 74
     0
 42
0.0000000001
 43
0.0000000001
 40
0.0
 40
0.0
 40
0.0
 40
0.0
 40
18.91431678428115
 40
30.0739316830606
 40
40.77701730283268
 40
49.92443657344612
 40
57.66269433793719
 40
64.81925665394043
 40
72.80535995009679
 40
84.69732683453667
 40
84.69732683453667
 40
84.69732683453667
 40
84.69732683453667
 10
566.0002740858989
 20
1130.080546188867
 30
0.0
 10
571.4604062431346
 20
1133.228585638992
 30
0.0
 10
580.3148687617768
 20
1137.949438831393
 30
0.0
 10
591.7814103073016
 20
1145.260195763
 30
0.0
 10
599.9284251206303
 20
1151.660033182039
 30
0.0
 10
606.3020354891703
 20
1158.319341211129
 30
0.0
 10
610.7530736649168
 20
1165.045003591336
 30
0.0
 10
613.3408225037907
 20
1172.276695968049
 30
0.0
 10
614.4080015310334
 20
1181.265143096624
 30
0.0
 10
614.3167177292496
 20
1187.890169751271
 30
0.0
 10
614.3100750179775
 20
1191.855659264737
 30
0.0
  0
SPLINE
  5
7C
330
1F
100
AcDbEntity
  8
Predefinito
100
AcDbSpline
210
0.0
220
0.0
230
1.0
 70
    24
 71
     2
 72
     6
 73
     3
 74
     0
 42
0.0000000001
 43
0.0000000001
 40
0.0
 40
0.0
 40
0.0
 40
0.2120539789389113
 40
0.2120539789389113
 40
0.2120539789389113
 10
672.8100750179775
 20
1129.814703150123
 30
0.0
 10
672.8100750179775
 20
1129.708676160654
 30
0.0
 10
672.8100750179775
 20
1129.602649171184
 30
0.0
  0
SPLINE
  5
7D
330
1F
100
AcDbEntity
  8
Predefinito
100
AcDbSpline
210
0.0
220
0.0
230
1.0
 70
    12
 71
     2
 72
     6
 73
     3
 74
     0
 42
0.0000000001
 43
0.0000000001
 40
0.0
 40
0.0
 40
0.0
 40
0.2968828767981269
 40
0.2968828767981269
 40
0.2968828767981269
 10
672.6597231771407
 20
1130.057616261382
 30
0.0
 41
1.0
 10
672.7984808623094
 20
1129.975517094702
 30
0.0
 41
0.8851884618971049
 10
672.8095528173039
 20
1129.814671267353
 30
0.0
 41
1.0
  0
SPLINE
  5
7E
330
1F
100
AcDbEntity
  8
Predefinito
100
AcDbSpline
210
0.0
220
0.0
230
1.0
 70
    24
 71
     2
 72
     6
 73
     3
 74
     0
 42
0.0000000001
 43
0.0000000001
 40
0.0
 40
0.0
 40
0.0
 40
3.299999999999955
 40
3.299999999999955
 40
3.299999999999955
 10
614.3100750179775
 20
1191.855659264737
 30
0.0
 10
614.3100750179775
 20
1193.505659264737
 30
0.0
 10
614.3100750179775
 20
1195.155659264737
 30
0.0
  0
SPLINE
  5
7F
330
1F
100
AcDbEntity
  8
Predefinito
100
AcDbSpline
210
0.0
220
0.0
230
1.0
 70
     8
 71
     3
 72
    15
 73
    11
 74
     0
 42
0.0000000001
 43
0.0000000001
 40
0.0
 40
0.0
 40
0.0
 40
0.0
 40
11.94436789217122
 40
19.98215244100546
 40
26.95598305017067
 40
34.66693211089277
 40
43.92075194398038
 40
54.51997819406979
 40
65.78474375607344
 40
84.6972315776427
 40
84.6972315776427
 40
84.6972315776427
 40
84.6972315776427
 10
624.3100750179775
 20
1191.855659264737
 30
0.0
 10
624.3041204870688
 20
1187.872890555012
 30
0.0
 10
624.2096870194425
 20
1181.212431529266
 30
0.0
 10
625.2891721803919
 20
1172.251944531436
 30
0.0
 10
627.8667046973524
 20
1165.074549584867
 30
0.0
 10
632.2728269344575
 20
1158.364152210064
 30
0.0
 10
638.6425732917211
 20
1151.707469185536
 30
0.0
 10
646.809874335805
 20
1145.27887094022
 30
0.0
 10
658.2764471028269
 20
1137.965848930273
 30
0.0
 10
667.1594802465692
 20
1133.227845454958
 30
0.0
 10
672.6198759476907
 20
1130.080546188674
 30
0.0
  0
SPLINE
  5
80
330
1F
100
AcDbEntity
  8
Predefinito
100
AcDbSpline
210
0.0
220
0.0
230
1.0
 70
    24
 71
     2
 72
     6
 73
     3
 74
     0
 42
0.0000000001
 43
0.0000000001
 40
0.0
 40
0.0
 40
0.0
 40
0.2120539789389113
 40
0.2120539789389113
 40
0.2120539789389113
 10
565.8100750179775
 20
1129.602649171184
 30
0.0
 10
565.8100750179775
 20
1129.708676160654
 30
0.0
 10
565.8100750179775
 20
1129.814703150123
 30
0.0
  0
SPLINE
  5
81
330
1F
100
AcDbEntity
  8
Predefinito
100
AcDbSpline
210
0.0
220
0.0
230
1.0
 70
    12
 71
     2
 72
     6
 73
     3
 74
     0
 42
0.0000000001
 43
0.0000000001
 40
0.0
 40
0.0
 40
0.0
 40
0.2968828767982589
 40
0.2968828767982589
 40
0.2968828767982589
 10
565.8105972186512
 20
1129.814671267353
 30
0.0
 41
1.0
 10
565.8216691736453
 20
1129.975517094702
 30
0.0
 41
0.8851884618960404
 10
565.9604268588143
 20
1130.057616261382
 30
0.0
 41
1.0
  0
SPLINE
  5
82
330
1F
100
AcDbEntity
  8
Predefinito
100
AcDbSpline
210
0.0
220
0.0
230
1.0
 70
    12
 71
     2
 72
     6
 73
     3
 74
     0
 42
0.0000000001
 43
0.0000000001
 40
0.0
 40
0.0
 40
0.0
 40
165.8921523929782
 40
165.8921523929782
 40
165.8921523929782
 10
619.3100750179776
 20
1056.071314082406
 30
0.0
 41
1.0
 10
536.3598444038181
 20
1056.066349426141
 30
0.0
 41
0.9999248741221055
 10
453.4344179895929
 20
1058.094757079693
 30
0.0
 41
1.0
  0
SPLINE
  5
83
330
1F
100
AcDbEntity
  8
Predefinito
100
AcDbSpline
210
0.0
220
0.0
230
1.0
 70
    24
 71
     2
 72
     6
 73
     3
 74
     0
 42
0.0000000001
 43
0.0000000001
 40
0.0
 40
0.0
 40
0.0
 40
54.04297935706556
 40
54.04297935706556
 40
54.04297935706556
 10
565.267095660912
 20
1129.602649171184
 30
0.0
 10
592.2885853394448
 20
1129.602649171184
 30
0.0
 10
619.3100750179776
 20
1129.602649171184
 30
0.0
  0
SPLINE
  5
84
330
1F
100
AcDbEntity
  8
Predefinito
100
AcDbSpline
210
0.0
220
0.0
230
1.0
 70
    24
 71
     2
 72
     6
 73
     3
 74
     0
 42
0.0000000001
 43
0.0000000001
 40
0.0
 40
0.0
 40
0.0
 40
167.237854225906
 40
167.237854225906
 40
167.237854225906
 10
452.0722207920716
 20
1058.128347112044
 30
0.0
 10
535.6911479050245
 20
1058.128347112044
 30
0.0
 10
619.3100750179776
 20
1058.128347112044
 30
0.0
  0
SPLINE
  5
85
330
1F
100
AcDbEntity
  8
Predefinito
100
AcDbSpline
210
0.0
220
0.0
230
1.0
 70
     8
 71
     3
 72
    19
 73
    15
 74
     0
 42
0.0000000001
 43
0.0000000001
 40
0.0
 40
0.0
 40
0.0
 40
0.0
 40
3.109321630634474
 40
3.228811442482678
 40
4.068095224924214
 40
5.462188161215531
 40
6.86115251336711
 40
8.17536882592941
 40
8.493553160529304
 40
8.726922954656628
 40
9.100314916935368
 40
15.95707131229091
 40
143.528199051415
 40
143.705436627247
 40
143.705436627247
 40
143.705436627247
 40
143.705436627247
 10
452.072220802414
 20
1058.128347112044
 30
0.0
 10
451.036350317809
 20
1058.156536989008
 30
0.0
 10
449.9594917828734
 20
1058.163971123681
 30
0.0
 10
448.6045244412288
 20
1058.207776703653
 30
0.0
 10
447.8346402637446
 20
1058.438797714775
 30
0.0
 10
446.9808179483453
 20
1059.39761612452
 30
0.0
 10
446.9421353989733
 20
1060.855656458063
 30
0.0
 10
447.5932651852801
 20
1061.700756504968
 30
0.0
 10
448.1361631464221
 20
1062.005249193986
 30
0.0
 10
448.403215918782
 20
1062.159618012168
 30
0.0
 10
450.5576865297637
 20
1063.403329993058
 30
0.0
 10
489.4719633108857
 20
1085.870381034679
 30
0.0
 10
528.3281293540346
 20
1108.304386710792
 30
0.0
 10
565.2069129216286
 20
1129.595877989519
 30
0.0
 10
565.2670956589068
 20
1129.602649171184
 30
0.0
  0
SPLINE
  5
86
330
1F
100
AcDbEntity
  8
Predefinito
100
AcDbSpline
210
0.0
220
0.0
230
1.0
 70
    12
 71
     2
 72
     6
 73
     3
 74
     0
 42
0.0000000001
 43
0.0000000001
 40
0.0
 40
0.0
 40
0.0
 40
163.6253974149218
 40
163.6253974149218
 40
163.6253974149218
 10
782.9196434233709
 20
1058.039825584255
 30
0.0
 41
1.0
 10
701.1267609453129
 20
1056.066377730791
 30
0.0
 41
0.9999268985056261
 10
619.3100750179776
 20
1056.071314082407
 30
0.0
 41
1.0
  0
SPLINE
  5
87
330
1F
100
AcDbEntity
  8
Predefinito
100
AcDbSpline
210
0.0
220
0.0
230
1.0
 70
    24
 71
     2
 72
     6
 73
     3
 74
     0
 42
0.0000000001
 43
0.0000000001
 40
0.0
 40
0.0
 40
0.0
 40
54.03958701549084
 40
54.03958701549084
 40
54.03958701549084
 10
619.3100750179776
 20
1129.602649171184
 30
0.0
 10
646.329868525723
 20
1129.602649171184
 30
0.0
 10
673.3496620334683
 20
1129.602649171184
 30
0.0
  0
SPLINE
  5
88
330
1F
100
AcDbEntity
  8
Predefinito
100
AcDbSpline
210
0.0
220
0.0
230
1.0
 70
    24
 71
     2
 72
     6
 73
     3
 74
     0
 42
0.0000000001
 43
0.0000000001
 40
0.0
 40
0.0
 40
0.0
 40
167.2378542180533
 40
167.2378542180533
 40
167.2378542180533
 10
786.547929236031
 20
1058.128347112044
 30
0.0
 10
702.9290021270043
 20
1058.128347112044
 30
0.0
 10
619.3100750179776
 20
1058.128347112044
 30
0.0
  0
SPLINE
  5
89
330
1F
100
AcDbEntity
  8
Predefinito
100
AcDbSpline
210
0.0
220
0.0
230
1.0
 70
     8
 71
     3
 72
    15
 73
    11
 74
     0
 42
0.0000000001
 43
0.0000000001
 40
0.0
 40
0.0
 40
0.0
 40
0.0
 40
135.306227296648
 40
135.7959637792486
 40
136.3219707268016
 40
137.8767277753988
 40
139.4392756095889
 40
140.4348108608032
 40
140.593392706263
 40
143.705641223589
 40
143.705641223589
 40
143.705641223589
 40
143.705641223589
 10
673.3530543770479
 20
1129.602649171184
 30
0.0
 10
712.4337119658685
 20
1107.103446261679
 30
0.0
 10
751.618674831785
 20
1084.429976503524
 30
0.0
 10
790.9744119196948
 20
1061.719030099642
 30
0.0
 10
791.5329024213065
 20
1061.044593457948
 30
0.0
 10
791.7960404848616
 20
1059.771879063866
 30
0.0
 10
790.9756482090672
 20
1058.533736157784
 30
0.0
 10
790.0966902953368
 20
1058.215470443557
 30
0.0
 10
788.6755248046687
 20
1058.155429077578
 30
0.0
 10
787.5848582793473
 20
1058.162391204974
 30
0.0
 10
786.5479292335415
 20
1058.128347112044
 30
0.0
  0
SPLINE
  5
8A
330
1F
100
AcDbEntity
  8
Predefinito
100
AcDbSpline
210
0.0
220
0.0
230
1.0
 70
    24
 71
     2
 72
     6
 73
     3
 74
     0
 42
0.0000000001
 43
0.0000000001
 40
0.0
 40
0.0
 40
0.0
 40
0.0527700054365141
 40
0.0527700054365141
 40
0.0527700054365141
 10
619.310075017978
 20
1899.155659264737
 30
0.0
 10
619.2836900152597
 20
1899.155659264737
 30
0.0
 10
619.2573050125415
 20
1899.155659264737
 30
0.0
  0
SPLINE
  5
8B
330
1F
100
AcDbEntity
  8
Predefinito
100
AcDbSpline
210
0.0
220
0.0
230
1.0
 70
    12
 71
     3
 72
    11
 73
     7
 74
     0
 42
0.0000000001
 43
0.0000000001
 40
0.0
 40
0.0
 40
0.0
 40
0.0
 40
33.6935812097505
 40
33.6935812097505
 40
33.92527366795265
 40
34.17221964761433
 40
34.17221964761433
 40
34.17221964761433
 40
34.17221964761433
 10
543.8067885228642
 20
1865.155659264739
 30
0.0
 41
1.0
 10
543.7087791120331
 20
1876.386425351879
 30
0.0
 41
1.0
 10
543.6107697012027
 20
1887.617191439127
 30
0.0
 41
1.0
 10
543.5120863328839
 20
1898.925185404846
 30
0.0
 41
1.0
 10
543.5729946870429
 20
1899.08513239395
 30
0.0
 41
1.0
 10
543.7303886240086
 20
1899.155659103683
 30
0.0
 41
1.0
 10
543.812703916996
 20
1899.155659264738
 30
0.0
 41
1.0
  0
SPLINE
  5
8C
330
1F
100
AcDbEntity
  8
Predefinito
100
AcDbSpline
210
0.0
220
0.0
230
1.0
 70
    12
 71
     3
 72
    11
 73
     7
 74
     0
 42
0.0000000001
 43
0.0000000001
 40
0.0
 40
0.0
 40
0.0
 40
0.0
 40
0.2351650072107248
 40
0.478638437863836
 40
0.478638437863836
 40
34.17221964761444
 40
34.17221964761444
 40
34.17221964761444
 40
34.17221964761444
 10
694.8074461189622
 20
1899.155659264734
 30
0.0
 41
1.0
 10
694.8858344366743
 20
1899.155659111317
 30
0.0
 41
1.0
 10
695.0433812982455
 20
1899.089053922556
 30
0.0
 41
1.0
 10
695.1080979720995
 20
1898.929112246131
 30
0.0
 41
1.0
 10
695.0093803347559
 20
1887.617191439123
 30
0.0
 41
1.0
 10
694.9113709239243
 20
1876.386425351875
 30
0.0
 41
1.0
 10
694.8133615130926
 20
1865.155659264735
 30
0.0
 41
1.0
  0
POLYLINE
  5
8D
330
1F
100
AcDbEntity
  8
Predefinito
100
AcDb2dPolyline
 66
     1
 10
0.0
 20
0.0
 30
0.0
  0
VERTEX
  5
8E
330
8D
100
AcDbEntity
  8
Predefinito
100
AcDbVertex
100
AcDb2dVertex
 10
543.812703916996
 20
1899.155659264738
 30
0.0
  0
VERTEX
  5
8F
330
8D
100
AcDbEntity
  8
Predefinito
100
AcDbVertex
100
AcDb2dVertex
 10
695.0182376828031
 20
1899.155659264738
 30
0.0
  0
SEQEND
  5
90
330
8D
100
AcDbEntity
  8
Predefinito
  0
POLYLINE
  5
91
330
1F
100
AcDbEntity
  8
Predefinito
100
AcDb2dPolyline
 66
     1
 10
0.0
 20
0.0
 30
0.0
  0
VERTEX
  5
92
330
91
100
AcDbEntity
  8
Predefinito
100
AcDbVertex
100
AcDb2dVertex
 10
1101.419827938975
 20
1899.155659264737
 30
0.0
  0
VERTEX
  5
93
330
91
100
AcDbEntity
  8
Predefinito
100
AcDbVertex
100
AcDb2dVertex
 10
1252.414568971269
 20
1899.155659264737
 30
0.0
  0
SEQEND
  5
94
330
91
100
AcDbEntity
  8
Predefinito
  0
SPLINE
  5
95
330
1F
100
AcDbEntity
  8
Predefinito
100
AcDbSpline
210
0.0
220
0.0
230
1.0
 70
    24
 71
     2
 72
     6
 73
     3
 74
     0
 42
0.0000000001
 43
0.0000000001
 40
0.0
 40
0.0
 40
0.0
 40
3.800000000000068
 40
3.800000000000068
 40
3.800000000000068
 10
1176.917198455122
 20
1695.155659264737
 30
0.0
 10
1175.017198455122
 20
1695.155659264737
 30
0.0
 10
1173.117198455122
 20
1695.155659264737
 30
0.0
  0
VIEWPORT
  5
9F
330
9B
100
AcDbEntity
 67
     1
  8
0
100
AcDbViewport
 10
6.0
 20
4.5
 30
0.0
 40
12.696
 41
9.522
 68
     1
 69
     1
 12
6.0
 22
4.5
 13
0.0
 23
0.0
 14
0.5
 24
0.5
 15
0.5
 25
0.5
 16
0.0
 26
0.0
 36
1.0
 17
0.0
 27
0.0
 37
0.0
 42
50.0
 43
0.0
 44
0.0
 45
9.522
 50
0.0
 51
0.0
 72
   100
 90
   557152
  1

281
     0
 71
     1
 74
     0
110
0.0
120
0.0
130
0.0
111
1.0
121
0.0
131
0.0
112
0.0
122
1.0
132
0.0
 79
     0
146
0.0
170
     0
  0
ENDSEC
  0
SECTION
  2
OBJECTS
  0
DICTIONARY
  5
C
330
0
100
AcDbDictionary
281
     1
  3
ACAD_GROUP
350
D
  3
ACAD_LAYOUT
350
1A
  3
ACAD_MLEADERSTYLE
350
C5
  3
ACAD_MLINESTYLE
350
17
  3
ACAD_PLOTSETTINGS
350
19
  3
ACAD_PLOTSTYLENAME
350
E
  3
ACAD_SCALELIST
350
A0
  3
ACAD_TABLESTYLE
350
C4
  3
ACAD_VISUALSTYLE
350
2A
  3
AcDbVariableDictionary
350
C2
  0
DICTIONARY
  5
D
102
{ACAD_REACTORS
330
C
102
}
330
C
100
AcDbDictionary
281
     1
  0
DICTIONARY
  5
1A
102
{ACAD_REACTORS
330
C
102
}
330
C
100
AcDbDictionary
281
     1
  3
Layout1
350
97
  3
Layout2
350
9C
  3
Model
350
22
  0
DICTIONARY
  5
C5
102
{ACAD_REACTORS
330
C
102
}
330
C
100
AcDbDictionary
281
     1
  0
DICTIONARY
  5
17
102
{ACAD_REACTORS
330
C
102
}
330
C
100
AcDbDictionary
281
     1
  3
Standard
350
18
  0
DICTIONARY
  5
19
102
{ACAD_REACTORS
330
C
102
}
330
C
100
AcDbDictionary
281
     1
  0
ACDBDICTIONARYWDFLT
  5
E
102
{ACAD_REACTORS
330
C
102
}
330
C
100
AcDbDictionary
281
     1
  3
Normal
350
F
100
AcDbDictionaryWithDefault
340
F
  0
DICTIONARY
  5
A0
102
{ACAD_REACTORS
330
C
102
}
330
C
100
AcDbDictionary
281
     1
  3
A0
350
A1
  3
A1
350
A2
  3
A2
350
A3
  3
A3
350
A4
  3
A4
350
A5
  3
A5
350
A6
  3
A6
350
A7
  3
A7
350
A8
  3
A8
350
A9
  3
A9
350
AA
  3
B0
350
AB
  3
B1
350
AC
  3
B2
350
AD
  3
B3
350
AE
  3
B4
350
AF
  3
B5
350
B0
  3
B6
350
B1
  3
B7
350
B2
  3
B8
350
B3
  3
B9
350
B4
  3
C0
350
B5
  3
C1
350
B6
  3
C2
350
B7
  3
C3
350
B8
  3
C4
350
B9
  3
C5
350
BA
  3
C6
350
BB
  3
C7
350
BC
  3
C8
350
BD
  3
C9
350
BE
  3
D0
350
BF
  3
D1
350
C0
  3
D2
350
C1
  0
DICTIONARY
  5
C4
102
{ACAD_REACTORS
330
C
102
}
330
C
100
AcDbDictionary
281
     1
  0
DICTIONARY
  5
2A
102
{ACAD_REACTORS
330
C
102
}
330
C
100
AcDbDictionary
281
     1
  3
2dWireframe
350
2F
  3
3D Hidden
350
31
  3
3dWireframe
350
30
  3
Basic
350
32
  3
Brighten
350
36
  3
ColorChange
350
3A
  3
Conceptual
350
34
  3
Dim
350
35
  3
Facepattern
350
39
  3
Flat
350
2B
  3
FlatWithEdges
350
2C
  3
Gouraud
350
2D
  3
GouraudWithEdges
350
2E
  3
Linepattern
350
38
  3
Realistic
350
33
  3
Thicken
350
37
  0
DICTIONARY
  5
C2
102
{ACAD_REACTORS
330
C
102
}
330
C
100
AcDbDictionary
281
     1
  3
CANNOSCALE
350
C3
  0
LAYOUT
  5
97
102
{ACAD_REACTORS
330
1A
102
}
330
1A
100
AcDbPlotSettings
  1

  2
none_device
  4
Letter_(8.50_x_11.00_Inches)
  6

 40
6.35
 41
6.35
 42
6.35000508
 43
6.35000508
 44
215.9
 45
279.4
 46
0.0
 47
0.0
 48
0.0
 49
0.0
140
0.0
141
0.0
142
1.0
143
1.0
 70
   688
 72
     0
 73
     1
 74
     5
  7

 75
    16
 76
     0
 77
     2
 78
   300
147
1.0
148
0.0
149
0.0
100
AcDbLayout
  1
Layout1
 70
     1
 71
     1
 10
0.0
 20
0.0
 11
0.0
 21
0.0
 12
0.0
 22
0.0
 32
0.0
 14
0.0
 24
0.0
 34
0.0
 15
0.0
 25
0.0
 35
0.0
146
0.0
 13
0.0
 23
0.0
 33
0.0
 16
1.0
 26
0.0
 36
0.0
 17
0.0
 27
1.0
 37
0.0
 76
     0
330
96
331
9A
  0
LAYOUT
  5
9C
102
{ACAD_REACTORS
330
1A
102
}
330
1A
100
AcDbPlotSettings
  1

  2
none_device
  4
Letter_(8.50_x_11.00_Inches)
  6

 40
6.35
 41
6.35
 42
6.35000508
 43
6.35000508
 44
215.9
 45
279.4
 46
0.0
 47
0.0
 48
0.0
 49
0.0
140
0.0
141
0.0
142
1.0
143
1.0
 70
   688
 72
     0
 73
     1
 74
     5
  7

 75
    16
 76
     0
 77
     2
 78
   300
147
1.0
148
0.0
149
0.0
100
AcDbLayout
  1
Layout2
 70
     1
 71
     2
 10
0.0
 20
0.0
 11
0.0
 21
0.0
 12
0.0
 22
0.0
 32
0.0
 14
0.0
 24
0.0
 34
0.0
 15
0.0
 25
0.0
 35
0.0
146
0.0
 13
0.0
 23
0.0
 33
0.0
 16
1.0
 26
0.0
 36
0.0
 17
0.0
 27
1.0
 37
0.0
 76
     0
330
9B
331
9F
  0
LAYOUT
  5
22
102
{ACAD_REACTORS
330
1A
102
}
330
1A
100
AcDbPlotSettings
  1

  2
none_device
  4

  6

 40
0.0
 41
0.0
 42
0.0
 43
0.0
 44
0.0
 45
0.0
 46
0.0
 47
0.0
 48
0.0
 49
0.0
140
0.0
141
0.0
142
1.0
143
1.0
 70
  1712
 72
     0
 73
     0
 74
     0
  7

 75
     0
 76
     0
 77
     2
 78
   300
147
1.0
148
0.0
149
0.0
100
AcDbLayout
  1
Model
 70
     1
 71
     0
 10
0.0
 20
0.0
 11
12.0
 21
9.0
 12
0.0
 22
0.0
 32
0.0
 14
447.0010808167074
 24
0.0000000347544926
 34
0.0
 15
1349.227273169014
 25
1899.155659264738
 35
0.0
146
0.0
 13
0.0
 23
0.0
 33
0.0
 16
1.0
 26
0.0
 36
0.0
 17
0.0
 27
1.0
 37
0.0
 76
     0
330
1F
331
29
  0
MLINESTYLE
  5
18
102
{ACAD_REACTORS
330
17
102
}
330
17
100
AcDbMlineStyle
  2
Standard
 70
     0
  3

 62
   256
 51
90.0
 52
90.0
 71
     2
 49
0.5
 62
   256
  6
BYLAYER
 49
-0.5
 62
   256
  6
BYLAYER
  0
ACDBPLACEHOLDER
  5
F
102
{ACAD_REACTORS
330
E
102
}
330
E
  0
SCALE
  5
A1
102
{ACAD_REACTORS
330
A0
102
}
330
A0
100
AcDbScale
 70
     0
300
1:1
140
1.0
141
1.0
290
     1
  0
SCALE
  5
A2
102
{ACAD_REACTORS
330
A0
102
}
330
A0
100
AcDbScale
 70
     0
300
1:2
140
1.0
141
2.0
290
     0
  0
SCALE
  5
A3
102
{ACAD_REACTORS
330
A0
102
}
330
A0
100
AcDbScale
 70
     0
300
1:4
140
1.0
141
4.0
290
     0
  0
SCALE
  5
A4
102
{ACAD_REACTORS
330
A0
102
}
330
A0
100
AcDbScale
 70
     0
300
1:5
140
1.0
141
5.0
290
     0
  0
SCALE
  5
A5
102
{ACAD_REACTORS
330
A0
102
}
330
A0
100
AcDbScale
 70
     0
300
1:8
140
1.0
141
8.0
290
     0
  0
SCALE
  5
A6
102
{ACAD_REACTORS
330
A0
102
}
330
A0
100
AcDbScale
 70
     0
300
1:10
140
1.0
141
10.0
290
     0
  0
SCALE
  5
A7
102
{ACAD_REACTORS
330
A0
102
}
330
A0
100
AcDbScale
 70
     0
300
1:16
140
1.0
141
16.0
290
     0
  0
SCALE
  5
A8
102
{ACAD_REACTORS
330
A0
102
}
330
A0
100
AcDbScale
 70
     0
300
1:20
140
1.0
141
20.0
290
     0
  0
SCALE
  5
A9
102
{ACAD_REACTORS
330
A0
102
}
330
A0
100
AcDbScale
 70
     0
300
1:30
140
1.0
141
30.0
290
     0
  0
SCALE
  5
AA
102
{ACAD_REACTORS
330
A0
102
}
330
A0
100
AcDbScale
 70
     0
300
1:40
140
1.0
141
40.0
290
     0
  0
SCALE
  5
AB
102
{ACAD_REACTORS
330
A0
102
}
330
A0
100
AcDbScale
 70
     0
300
1:50
140
1.0
141
50.0
290
     0
  0
SCALE
  5
AC
102
{ACAD_REACTORS
330
A0
102
}
330
A0
100
AcDbScale
 70
     0
300
1:100
140
1.0
141
100.0
290
     0
  0
SCALE
  5
AD
102
{ACAD_REACTORS
330
A0
102
}
330
A0
100
AcDbScale
 70
     0
300
2:1
140
2.0
141
1.0
290
     0
  0
SCALE
  5
AE
102
{ACAD_REACTORS
330
A0
102
}
330
A0
100
AcDbScale
 70
     0
300
4:1
140
4.0
141
1.0
290
     0
  0
SCALE
  5
AF
102
{ACAD_REACTORS
330
A0
102
}
330
A0
100
AcDbScale
 70
     0
300
8:1
140
8.0
141
1.0
290
     0
  0
SCALE
  5
B0
102
{ACAD_REACTORS
330
A0
102
}
330
A0
100
AcDbScale
 70
     0
300
10:1
140
10.0
141
1.0
290
     0
  0
SCALE
  5
B1
102
{ACAD_REACTORS
330
A0
102
}
330
A0
100
AcDbScale
 70
     0
300
100:1
140
100.0
141
1.0
290
     0
  0
SCALE
  5
B2
102
{ACAD_REACTORS
330
A0
102
}
330
A0
100
AcDbScale
 70
     0
300
1/128" = 1'-0"
140
0.0078125
141
12.0
290
     0
  0
SCALE
  5
B3
102
{ACAD_REACTORS
330
A0
102
}
330
A0
100
AcDbScale
 70
     0
300
1/64" = 1'-0"
140
0.015625
141
12.0
290
     0
  0
SCALE
  5
B4
102
{ACAD_REACTORS
330
A0
102
}
330
A0
100
AcDbScale
 70
     0
300
1/32" = 1'-0"
140
0.03125
141
12.0
290
     0
  0
SCALE
  5
B5
102
{ACAD_REACTORS
330
A0
102
}
330
A0
100
AcDbScale
 70
     0
300
1/16" = 1'-0"
140
0.0625
141
12.0
290
     0
  0
SCALE
  5
B6
102
{ACAD_REACTORS
330
A0
102
}
330
A0
100
AcDbScale
 70
     0
300
3/32" = 1'-0"
140
0.09375
141
12.0
290
     0
  0
SCALE
  5
B7
102
{ACAD_REACTORS
330
A0
102
}
330
A0
100
AcDbScale
 70
     0
300
1/8" = 1'-0"
140
0.125
141
12.0
290
     0
  0
SCALE
  5
B8
102
{ACAD_REACTORS
330
A0
102
}
330
A0
100
AcDbScale
 70
     0
300
3/16" = 1'-0"
140
0.1875
141
12.0
290
     0
  0
SCALE
  5
B9
102
{ACAD_REACTORS
330
A0
102
}
330
A0
100
AcDbScale
 70
     0
300
1/4" = 1'-0"
140
0.25
141
12.0
290
     0
  0
SCALE
  5
BA
102
{ACAD_REACTORS
330
A0
102
}
330
A0
100
AcDbScale
 70
     0
300
3/8" = 1'-0"
140
0.375
141
12.0
290
     0
  0
SCALE
  5
BB
102
{ACAD_REACTORS
330
A0
102
}
330
A0
100
AcDbScale
 70
     0
300
1/2" = 1'-0"
140
0.5
141
12.0
290
     0
  0
SCALE
  5
BC
102
{ACAD_REACTORS
330
A0
102
}
330
A0
100
AcDbScale
 70
     0
300
3/4" = 1'-0"
140
0.75
141
12.0
290
     0
  0
SCALE
  5
BD
102
{ACAD_REACTORS
330
A0
102
}
330
A0
100
AcDbScale
 70
     0
300
1" = 1'-0"
140
1.0
141
12.0
290
     0
  0
SCALE
  5
BE
102
{ACAD_REACTORS
330
A0
102
}
330
A0
100
AcDbScale
 70
     0
300
1-1/2" = 1'-0"
140
1.5
141
12.0
290
     0
  0
SCALE
  5
BF
102
{ACAD_REACTORS
330
A0
102
}
330
A0
100
AcDbScale
 70
     0
300
3" = 1'-0"
140
3.0
141
12.0
290
     0
  0
SCALE
  5
C0
102
{ACAD_REACTORS
330
A0
102
}
330
A0
100
AcDbScale
 70
     0
300
6" = 1'-0"
140
6.0
141
12.0
290
     0
  0
SCALE
  5
C1
102
{ACAD_REACTORS
330
A0
102
}
330
A0
100
AcDbScale
 70
     0
300
1'-0" = 1'-0"
140
12.0
141
12.0
290
     0
  0
VISUALSTYLE
  5
2F
102
{ACAD_REACTORS
330
2A
102
}
330
2A
100
AcDbVisualStyle
  2
2dWireframe
 70
     4
 71
     0
 72
     2
 73
     0
 90
        0
 40
-0.6
 41
-30.0
 62
     5
 63
     7
421
 16777215
 74
     1
 91
        4
 64
     7
 65
   257
 75
     1
175
     1
 42
1.0
 92
        0
 66
   257
 43
1.0
 76
     1
 77
     6
 78
     2
 67
     7
 79
     5
170
     0
171
     0
290
     0
174
     0
 93
        1
 44
0.0
173
     0
291
     0
 45
0.0
1001
ACAD
1000
AcDbSavedByObjectVersion
1070
     0
  0
VISUALSTYLE
  5
31
102
{ACAD_REACTORS
330
2A
102
}
330
2A
100
AcDbVisualStyle
  2
3D Hidden
 70
     6
 71
     1
 72
     2
 73
     2
 90
        0
 40
-0.6
 41
-30.0
 62
     5
 63
     7
421
 16777215
 74
     2
 91
        2
 64
     7
 65
   257
 75
     2
175
     1
 42
40.0
 92
        0
 66
   257
 43
1.0
 76
     1
 77
     6
 78
     2
 67
     7
 79
     3
170
     0
171
     0
290
     0
174
     0
 93
        1
 44
0.0
173
     0
291
     0
 45
0.0
1001
ACAD
1000
AcDbSavedByObjectVersion
1070
     0
  0
VISUALSTYLE
  5
30
102
{ACAD_REACTORS
330
2A
102
}
330
2A
100
AcDbVisualStyle
  2
3dWireframe
 70
     5
 71
     0
 72
     2
 73
     0
 90
        0
 40
-0.6
 41
-30.0
 62
     5
 63
     7
421
 16777215
 74
     1
 91
        4
 64
     7
 65
   257
 75
     1
175
     1
 42
1.0
 92
        0
 66
   257
 43
1.0
 76
     1
 77
     6
 78
     2
 67
     7
 79
     5
170
     0
171
     0
290
     0
174
     0
 93
        1
 44
0.0
173
     0
291
     0
 45
0.0
1001
ACAD
1000
AcDbSavedByObjectVersion
1070
     0
  0
VISUALSTYLE
  5
32
102
{ACAD_REACTORS
330
2A
102
}
330
2A
100
AcDbVisualStyle
  2
Basic
 70
     7
 71
     1
 72
     0
 73
     1
 90
        0
 40
-0.6
 41
-30.0
 62
     5
 63
     7
421
 16777215
 74
     0
 91
        4
 64
     7
 65
   257
 75
     1
175
     1
 42
1.0
 92
        8
 66
     7
 43
1.0
 76
     1
 77
     6
 78
     2
 67
     7
 79
     5
170
     0
171
     0
290
     0
174
     0
 93
        1
 44
0.0
173
     0
291
     1
 45
0.0
1001
ACAD
1000
AcDbSavedByObjectVersion
1070
     0
  0
VISUALSTYLE
  5
36
102
{ACAD_REACTORS
330
2A
102
}
330
2A
100
AcDbVisualStyle
  2
Brighten
 70
    12
 71
     2
 72
     2
 73
     0
 90
        0
 40
-0.6
 41
-30.0
 62
     5
 63
     7
421
 16777215
 74
     1
 91
        4
 64
     7
 65
   257
 75
     1
175
     1
 42
1.0
 92
        8
 66
     7
 43
1.0
 76
     1
 77
     6
 78
     2
 67
     7
 79
     5
170
     0
171
     0
290
     0
174
     0
 93
        1
 44
50.0
173
     0
291
     1
 45
0.0
1001
ACAD
1000
AcDbSavedByObjectVersion
1070
     0
  0
VISUALSTYLE
  5
3A
102
{ACAD_REACTORS
330
2A
102
}
330
2A
100
AcDbVisualStyle
  2
ColorChange
 70
    16
 71
     2
 72
     2
 73
     3
 90
        0
 40
-0.6
 41
-30.0
 62
     5
 63
     8
421
  8421504
 74
     1
 91
        4
 64
     7
 65
   257
 75
     1
175
     1
 42
1.0
 92
        8
 66
     8
424
  8421504
 43
1.0
 76
     1
 77
     6
 78
     2
 67
     7
 79
     5
170
     0
171
     0
290
     0
174
     0
 93
        1
 44
0.0
173
     0
291
     1
 45
0.0
1001
ACAD
1000
AcDbSavedByObjectVersion
1070
     0
  0
VISUALSTYLE
  5
34
102
{ACAD_REACTORS
330
2A
102
}
330
2A
100
AcDbVisualStyle
  2
Conceptual
 70
     9
 71
     3
 72
     2
 73
     0
 90
        0
 40
-0.6
 41
-30.0
 62
     5
 63
     7
421
 16777215
 74
     2
 91
        2
 64
     7
 65
   257
 75
     1
175
     1
 42
40.0
 92
        8
 66
     7
 43
1.0
 76
     1
 77
     6
 78
     2
 67
     7
 79
     3
170
     0
171
     0
290
     0
174
     0
 93
        1
 44
0.0
173
     0
291
     0
 45
0.0
1001
ACAD
1000
AcDbSavedByObjectVersion
1070
     0
  0
VISUALSTYLE
  5
35
102
{ACAD_REACTORS
330
2A
102
}
330
2A
100
AcDbVisualStyle
  2
Dim
 70
    11
 71
     2
 72
     2
 73
     0
 90
        0
 40
-0.6
 41
-30.0
 62
     5
 63
     7
421
 16777215
 74
     1
 91
        4
 64
     7
 65
   257
 75
     1
175
     1
 42
1.0
 92
        8
 66
     7
 43
1.0
 76
     1
 77
     6
 78
     2
 67
     7
 79
     5
170
     0
171
     0
290
     0
174
     0
 93
        1
 44
-50.0
173
     0
291
     1
 45
0.0
1001
ACAD
1000
AcDbSavedByObjectVersion
1070
     0
  0
VISUALSTYLE
  5
39
102
{ACAD_REACTORS
330
2A
102
}
330
2A
100
AcDbVisualStyle
  2
Facepattern
 70
    15
 71
     2
 72
     2
 73
     0
 90
        0
 40
-0.6
 41
-30.0
 62
     5
 63
     7
421
 16777215
 74
     1
 91
        4
 64
     7
 65
   257
 75
     1
175
     1
 42
1.0
 92
        8
 66
     7
 43
1.0
 76
     1
 77
     6
 78
     2
 67
     7
 79
     5
170
     0
171
     0
290
     0
174
     0
 93
        1
 44
0.0
173
     0
291
     1
 45
0.0
1001
ACAD
1000
AcDbSavedByObjectVersion
1070
     0
  0
VISUALSTYLE
  5
2B
102
{ACAD_REACTORS
330
2A
102
}
330
2A
100
AcDbVisualStyle
  2
Flat
 70
     0
 71
     2
 72
     1
 73
     1
 90
        2
 40
-0.6
 41
30.0
 62
     5
 63
     7
421
 16777215
 74
     0
 91
        4
 64
     7
 65
   257
 75
     1
175
     1
 42
1.0
 92
        8
 66
     7
 43
1.0
 76
     1
 77
     6
 78
     2
 67
     7
 79
     5
170
     0
171
     0
290
     0
174
     0
 93
       13
 44
0.0
173
     0
291
     1
 45
0.0
1001
ACAD
1000
AcDbSavedByObjectVersion
1070
     0
  0
VISUALSTYLE
  5
2C
102
{ACAD_REACTORS
330
2A
102
}
330
2A
100
AcDbVisualStyle
  2
FlatWithEdges
 70
     1
 71
     2
 72
     1
 73
     1
 90
        2
 40
-0.6
 41
30.0
 62
     5
 63
     7
421
 16777215
 74
     1
 91
        4
 64
     7
 65
   257
 75
     1
175
     1
 42
1.0
 92
        0
 66
   257
 43
1.0
 76
     1
 77
     6
 78
     2
 67
     7
 79
     5
170
     0
171
     0
290
     0
174
     0
 93
       13
 44
0.0
173
     0
291
     1
 45
0.0
1001
ACAD
1000
AcDbSavedByObjectVersion
1070
     0
  0
VISUALSTYLE
  5
2D
102
{ACAD_REACTORS
330
2A
102
}
330
2A
100
AcDbVisualStyle
  2
Gouraud
 70
     2
 71
     2
 72
     2
 73
     1
 90
        2
 40
-0.6
 41
30.0
 62
     5
 63
     7
421
 16777215
 74
     0
 91
        4
 64
     7
 65
   257
 75
     1
175
     1
 42
1.0
 92
        0
 66
     7
 43
1.0
 76
     1
 77
     6
 78
     2
 67
     7
 79
     5
170
     0
171
     0
290
     0
174
     0
 93
       13
 44
0.0
173
     0
291
     1
 45
0.0
1001
ACAD
1000
AcDbSavedByObjectVersion
1070
     0
  0
VISUALSTYLE
  5
2E
102
{ACAD_REACTORS
330
2A
102
}
330
2A
100
AcDbVisualStyle
  2
GouraudWithEdges
 70
     3
 71
     2
 72
     2
 73
     1
 90
        2
 40
-0.6
 41
30.0
 62
     5
 63
     7
421
 16777215
 74
     1
 91
        4
 64
     7
 65
   257
 75
     1
175
     1
 42
1.0
 92
        0
 66
   257
 43
1.0
 76
     1
 77
     6
 78
     2
 67
     7
 79
     5
170
     0
171
     0
290
     0
174
     0
 93
       13
 44
0.0
173
     0
291
     1
 45
0.0
1001
ACAD
1000
AcDbSavedByObjectVersion
1070
     0
  0
VISUALSTYLE
  5
38
102
{ACAD_REACTORS
330
2A
102
}
330
2A
100
AcDbVisualStyle
  2
Linepattern
 70
    14
 71
     2
 72
     2
 73
     0
 90
        0
 40
-0.6
 41
-30.0
 62
     5
 63
     7
421
 16777215
 74
     1
 91
        4
 64
     7
 65
   257
 75
     7
175
     7
 42
1.0
 92
        8
 66
     7
 43
1.0
 76
     1
 77
     6
 78
     2
 67
     7
 79
     5
170
     0
171
     0
290
     0
174
     0
 93
        1
 44
0.0
173
     0
291
     1
 45
0.0
1001
ACAD
1000
AcDbSavedByObjectVersion
1070
     0
  0
VISUALSTYLE
  5
33
102
{ACAD_REACTORS
330
2A
102
}
330
2A
100
AcDbVisualStyle
  2
Realistic
 70
     8
 71
     2
 72
     2
 73
     0
 90
        0
 40
-0.6
 41
-30.0
 62
     5
 63
     7
421
 16777215
 74
     1
 91
        0
 64
     7
 65
   257
 75
     1
175
     1
 42
1.0
 92
        8
 66
     8
424
  7895160
 43
1.0
 76
     1
 77
     6
 78
     2
 67
     7
 79
     5
170
     0
171
     0
290
     0
174
     0
 93
       13
 44
0.0
173
     0
291
     0
 45
0.0
1001
ACAD
1000
AcDbSavedByObjectVersion
1070
     0
  0
VISUALSTYLE
  5
37
102
{ACAD_REACTORS
330
2A
102
}
330
2A
100
AcDbVisualStyle
  2
Thicken
 70
    13
 71
     2
 72
     2
 73
     0
 90
        0
 40
-0.6
 41
-30.0
 62
     5
 63
     7
421
 16777215
 74
     1
 91
        4
 64
     7
 65
   257
 75
     1
175
     1
 42
1.0
 92
       12
 66
     7
 43
1.0
 76
     1
 77
     6
 78
     2
 67
     7
 79
     5
170
     0
171
     0
290
     0
174
     0
 93
        1
 44
0.0
173
     0
291
     1
 45
0.0
1001
ACAD
1000
AcDbSavedByObjectVersion
1070
     0
  0
DICTIONARYVAR
  5
C3
102
{ACAD_REACTORS
330
C2
102
}
330
C2
100
DictionaryVariables
280
     0
  1
1:1
  0
ENDSEC
  0
EOF
