  0
SECTION
  2
HEADER
  9
$ACADVER
  1
AC1018
  9
$ACADMAINTVER
 70
     0
  9
$DWGCODEPAGE
  3
ANSI_1252
  9
$INSBASE
 10
0.0
 20
0.0
 30
0.0
  9
$EXTMIN
 10
290.0045992981737
 20
0.0000000073217166
 30
0.0
  9
$EXTMAX
 10
841.0191697819664
 20
1725.345379699548
 30
0.0
  9
$LIMMIN
 10
0.0
 20
0.0
  9
$LIMMAX
 10
12.0
 20
9.0
  9
$ORTHOMODE
 70
     0
  9
$REGENMODE
 70
     1
  9
$FILLMODE
 70
     1
  9
$QTEXTMODE
 70
     0
  9
$MIRRTEXT
 70
     1
  9
$LTSCALE
 40
1.0
  9
$ATTMODE
 70
     1
  9
$TEXTSIZE
 40
0.2
  9
$TRACEWID
 40
0.05
  9
$TEXTSTYLE
  7
Standard
  9
$CLAYER
  8
Predefinito
  9
$CELTYPE
  6
ByLayer
  9
$CECOLOR
 62
   256
  9
$CELTSCALE
 40
1.0
  9
$DISPSILH
 70
     0
  9
$DIMSCALE
 40
1.0
  9
$DIMASZ
 40
0.18
  9
$DIMEXO
 40
0.0625
  9
$DIMDLI
 40
0.38
  9
$DIMRND
 40
0.0
  9
$DIMDLE
 40
0.0
  9
$DIMEXE
 40
0.18
  9
$DIMTP
 40
0.0
  9
$DIMTM
 40
0.0
  9
$DIMTXT
 40
0.18
  9
$DIMCEN
 40
0.09
  9
$DIMTSZ
 40
0.0
  9
$DIMTOL
 70
     0
  9
$DIMLIM
 70
     0
  9
$DIMTIH
 70
     1
  9
$DIMTOH
 70
     1
  9
$DIMSE1
 70
     0
  9
$DIMSE2
 70
     0
  9
$DIMTAD
 70
     0
  9
$DIMZIN
 70
     0
  9
$DIMBLK
  1

  9
$DIMASO
 70
     1
  9
$DIMSHO
 70
     1
  9
$DIMPOST
  1

  9
$DIMAPOST
  1

  9
$DIMALT
 70
     0
  9
$DIMALTD
 70
     2
  9
$DIMALTF
 40
25.4
  9
$DIMLFAC
 40
1.0
  9
$DIMTOFL
 70
     0
  9
$DIMTVP
 40
0.0
  9
$DIMTIX
 70
     0
  9
$DIMSOXD
 70
     0
  9
$DIMSAH
 70
     0
  9
$DIMBLK1
  1

  9
$DIMBLK2
  1

  9
$DIMSTYLE
  2
Standard
  9
$DIMCLRD
 70
     0
  9
$DIMCLRE
 70
     0
  9
$DIMCLRT
 70
     0
  9
$DIMTFAC
 40
1.0
  9
$DIMGAP
 40
0.09
  9
$DIMJUST
 70
     0
  9
$DIMSD1
 70
     0
  9
$DIMSD2
 70
     0
  9
$DIMTOLJ
 70
     1
  9
$DIMTZIN
 70
     0
  9
$DIMALTZ
 70
     0
  9
$DIMALTTZ
 70
     0
  9
$DIMUPT
 70
     0
  9
$DIMDEC
 70
     4
  9
$DIMTDEC
 70
     4
  9
$DIMALTU
 70
     2
  9
$DIMALTTD
 70
     2
  9
$DIMTXSTY
  7
Standard
  9
$DIMAUNIT
 70
     0
  9
$DIMADEC
 70
     0
  9
$DIMALTRND
 40
0.0
  9
$DIMAZIN
 70
     0
  9
$DIMDSEP
 70
    46
  9
$DIMATFIT
 70
     3
  9
$DIMFRAC
 70
     0
  9
$DIMLDRBLK
  1

  9
$DIMLUNIT
 70
     2
  9
$DIMLWD
 70
    -2
  9
$DIMLWE
 70
    -2
  9
$DIMTMOVE
 70
     2
  9
$LUNITS
 70
     2
  9
$LUPREC
 70
     3
  9
$SKETCHINC
 40
0.1
  9
$FILLETRAD
 40
0.5
  9
$AUNITS
 70
     0
  9
$AUPREC
 70
     0
  9
$MENU
  1
.
  9
$ELEVATION
 40
0.0
  9
$PELEVATION
 40
0.0
  9
$THICKNESS
 40
0.0
  9
$LIMCHECK
 70
     0
  9
$CHAMFERA
 40
0.5
  9
$CHAMFERB
 40
0.5
  9
$CHAMFERC
 40
1.0
  9
$CHAMFERD
 40
0.0
  9
$SKPOLY
 70
     0
  9
$TDCREATE
 40
2457903.73755941
  9
$TDUCREATE
 40
2457903.654226076
  9
$TDUPDATE
 40
2457903.737559421
  9
$TDUUPDATE
 40
2457903.654226088
  9
$TDINDWG
 40
0.0000000116
  9
$TDUSRTIMER
 40
0.0000000116
  9
$USRTIMER
 70
     1
  9
$ANGBASE
 50
0.0
  9
$ANGDIR
 70
     0
  9
$PDMODE
 70
     0
  9
$PDSIZE
 40
0.0
  9
$PLINEWID
 40
0.0
  9
$SPLFRAME
 70
     0
  9
$SPLINETYPE
 70
     6
  9
$SPLINESEGS
 70
     8
  9
$HANDSEED
  5
99
  9
$SURFTAB1
 70
     6
  9
$SURFTAB2
 70
     6
  9
$SURFTYPE
 70
     6
  9
$SURFU
 70
     6
  9
$SURFV
 70
     6
  9
$UCSBASE
  2

  9
$UCSNAME
  2

  9
$UCSORG
 10
0.0
 20
0.0
 30
0.0
  9
$UCSXDIR
 10
1.0
 20
0.0
 30
0.0
  9
$UCSYDIR
 10
0.0
 20
1.0
 30
0.0
  9
$UCSORTHOREF
  2

  9
$UCSORTHOVIEW
 70
     0
  9
$UCSORGTOP
 10
0.0
 20
0.0
 30
0.0
  9
$UCSORGBOTTOM
 10
0.0
 20
0.0
 30
0.0
  9
$UCSORGLEFT
 10
0.0
 20
0.0
 30
0.0
  9
$UCSORGRIGHT
 10
0.0
 20
0.0
 30
0.0
  9
$UCSORGFRONT
 10
0.0
 20
0.0
 30
0.0
  9
$UCSORGBACK
 10
0.0
 20
0.0
 30
0.0
  9
$PUCSBASE
  2

  9
$PUCSNAME
  2

  9
$PUCSORG
 10
0.0
 20
0.0
 30
0.0
  9
$PUCSXDIR
 10
1.0
 20
0.0
 30
0.0
  9
$PUCSYDIR
 10
0.0
 20
1.0
 30
0.0
  9
$PUCSORTHOREF
  2

  9
$PUCSORTHOVIEW
 70
     0
  9
$PUCSORGTOP
 10
0.0
 20
0.0
 30
0.0
  9
$PUCSORGBOTTOM
 10
0.0
 20
0.0
 30
0.0
  9
$PUCSORGLEFT
 10
0.0
 20
0.0
 30
0.0
  9
$PUCSORGRIGHT
 10
0.0
 20
0.0
 30
0.0
  9
$PUCSORGFRONT
 10
0.0
 20
0.0
 30
0.0
  9
$PUCSORGBACK
 10
0.0
 20
0.0
 30
0.0
  9
$USERI1
 70
     0
  9
$USERI2
 70
     0
  9
$USERI3
 70
     0
  9
$USERI4
 70
     0
  9
$USERI5
 70
     0
  9
$USERR1
 40
0.0
  9
$USERR2
 40
0.0
  9
$USERR3
 40
0.0
  9
$USERR4
 40
0.0
  9
$USERR5
 40
0.0
  9
$WORLDVIEW
 70
     1
  9
$SHADEDGE
 70
     3
  9
$SHADEDIF
 70
    70
  9
$TILEMODE
 70
     1
  9
$MAXACTVP
 70
    64
  9
$PINSBASE
 10
0.0
 20
0.0
 30
0.0
  9
$PLIMCHECK
 70
     0
  9
$PEXTMIN
 10
1.000000000000000E+20
 20
1.000000000000000E+20
 30
1.000000000000000E+20
  9
$PEXTMAX
 10
-1.000000000000000E+20
 20
-1.000000000000000E+20
 30
-1.000000000000000E+20
  9
$PLIMMIN
 10
0.0
 20
0.0
  9
$PLIMMAX
 10
12.0
 20
9.0
  9
$UNITMODE
 70
     0
  9
$VISRETAIN
 70
     1
  9
$PLINEGEN
 70
     0
  9
$PSLTSCALE
 70
     1
  9
$TREEDEPTH
 70
  3020
  9
$CMLSTYLE
  2
Standard
  9
$CMLJUST
 70
     0
  9
$CMLSCALE
 40
1.0
  9
$PROXYGRAPHICS
 70
     1
  9
$MEASUREMENT
 70
     0
  9
$CELWEIGHT
370
    -1
  9
$ENDCAPS
280
     0
  9
$JOINSTYLE
280
     0
  9
$LWDISPLAY
290
     0
  9
$INSUNITS
 70
     4
  9
$HYPERLINKBASE
  1

  9
$STYLESHEET
  1

  9
$XEDIT
290
     1
  9
$CEPSNTYPE
380
     0
  9
$PSTYLEMODE
290
     1
  9
$FINGERPRINTGUID
  2
{56041C4D-6D63-4222-9754-5BA3ED700E3D}
  9
$VERSIONGUID
  2
{FAEB1C32-E019-11D5-929B-00C0DF256EC4}
  9
$EXTNAMES
290
     1
  9
$PSVPSCALE
 40
0.0
  9
$OLESTARTUP
290
     0
  9
$SORTENTS
280
   127
  9
$INDEXCTL
280
     0
  9
$HIDETEXT
280
     1
  9
$XCLIPFRAME
290
     0
  9
$HALOGAP
280
     0
  9
$OBSCOLOR
 70
   257
  9
$OBSLTYPE
280
     0
  9
$INTERSECTIONDISPLAY
280
     0
  9
$INTERSECTIONCOLOR
 70
   257
  9
$DIMASSOC
280
     2
  9
$PROJECTNAME
  1

  0
ENDSEC
  0
SECTION
  2
CLASSES
  0
CLASS
  1
ACDBDICTIONARYWDFLT
  2
AcDbDictionaryWithDefault
  3
ObjectDBX Classes
 90
        0
 91
        4
280
     0
281
     0
  0
CLASS
  1
VISUALSTYLE
  2
AcDbVisualStyle
  3
ObjectDBX Classes
 90
     4095
 91
        4
280
     0
281
     0
  0
ENDSEC
  0
SECTION
  2
TABLES
  0
TABLE
  2
VPORT
  5
8
330
0
100
AcDbSymbolTable
 70
     1
  0
VPORT
  5
29
330
8
100
AcDbSymbolTableRecord
100
AcDbViewportTableRecord
  2
*Active
 70
     0
 10
0.0
 20
0.0
 11
1.0
 21
1.0
 12
565.51188454007
 22
862.6726898534348
 13
0.0
 23
0.0
 14
0.5
 24
0.5
 15
0.5
 25
0.5
 16
0.0
 26
0.0
 36
1.0
 17
0.0
 27
0.0
 37
0.0
 40
1759.852287286071
 41
0.319364793257849
 42
50.0
 43
0.0
 44
0.0
 50
0.0
 51
0.0
 71
     0
 72
   100
 73
     1
 74
     3
 75
     0
 76
     0
 77
     0
 78
     0
281
     0
 65
     1
110
0.0
120
0.0
130
0.0
111
1.0
121
0.0
131
0.0
112
0.0
122
1.0
132
0.0
 79
     0
146
0.0
  0
ENDTAB
  0
TABLE
  2
LTYPE
  5
5
330
0
100
AcDbSymbolTable
 70
     1
  0
LTYPE
  5
14
330
5
100
AcDbSymbolTableRecord
100
AcDbLinetypeTableRecord
  2
ByBlock
 70
     0
  3

 72
    65
 73
     0
 40
0.0
  0
LTYPE
  5
15
330
5
100
AcDbSymbolTableRecord
100
AcDbLinetypeTableRecord
  2
ByLayer
 70
     0
  3

 72
    65
 73
     0
 40
0.0
  0
LTYPE
  5
16
330
5
100
AcDbSymbolTableRecord
100
AcDbLinetypeTableRecord
  2
Continuous
 70
     0
  3
Solid line
 72
    65
 73
     0
 40
0.0
  0
ENDTAB
  0
TABLE
  2
LAYER
  5
2
330
0
100
AcDbSymbolTable
 70
     2
  0
LAYER
  5
10
330
2
100
AcDbSymbolTableRecord
100
AcDbLayerTableRecord
  2
0
 70
     0
 62
     7
  6
Continuous
370
    -3
390
F
  0
LAYER
  5
3B
330
2
100
AcDbSymbolTableRecord
100
AcDbLayerTableRecord
  2
Predefinito
 70
     0
 62
     7
  6
Continuous
370
    -3
390
F
  0
ENDTAB
  0
TABLE
  2
STYLE
  5
3
330
0
100
AcDbSymbolTable
 70
     1
  0
STYLE
  5
11
330
3
100
AcDbSymbolTableRecord
100
AcDbTextStyleTableRecord
  2
Standard
 70
     0
 40
0.0
 41
1.0
 50
0.0
 71
     0
 42
0.2
  3
txt
  4

  0
ENDTAB
  0
TABLE
  2
VIEW
  5
6
330
0
100
AcDbSymbolTable
 70
     0
  0
ENDTAB
  0
TABLE
  2
UCS
  5
7
330
0
100
AcDbSymbolTable
 70
     0
  0
ENDTAB
  0
TABLE
  2
APPID
  5
9
330
0
100
AcDbSymbolTable
 70
     1
  0
APPID
  5
12
330
9
100
AcDbSymbolTableRecord
100
AcDbRegAppTableRecord
  2
ACAD
 70
     0
  0
ENDTAB
  0
TABLE
  2
DIMSTYLE
  5
A
330
0
100
AcDbSymbolTable
 70
     1
100
AcDbDimStyleTable
  0
DIMSTYLE
105
27
330
A
100
AcDbSymbolTableRecord
100
AcDbDimStyleTableRecord
  2
Standard
 70
     0
340
11
  0
ENDTAB
  0
TABLE
  2
BLOCK_RECORD
  5
1
330
0
100
AcDbSymbolTable
 70
     1
  0
BLOCK_RECORD
  5
1F
330
1
100
AcDbSymbolTableRecord
100
AcDbBlockTableRecord
  2
*Model_Space
340
22
  0
BLOCK_RECORD
  5
1B
330
1
100
AcDbSymbolTableRecord
100
AcDbBlockTableRecord
  2
*Paper_Space
340
1E
  0
BLOCK_RECORD
  5
23
330
1
100
AcDbSymbolTableRecord
100
AcDbBlockTableRecord
  2
*Paper_Space0
340
26
  0
ENDTAB
  0
ENDSEC
  0
SECTION
  2
BLOCKS
  0
BLOCK
  5
20
330
1F
100
AcDbEntity
  8
0
100
AcDbBlockBegin
  2
*Model_Space
 70
     0
 10
0.0
 20
0.0
 30
0.0
  3
*Model_Space
  1

  0
ENDBLK
  5
21
330
1F
100
AcDbEntity
  8
0
100
AcDbBlockEnd
  0
BLOCK
  5
1C
330
1B
100
AcDbEntity
 67
     1
  8
0
100
AcDbBlockBegin
  2
*Paper_Space
 70
     0
 10
0.0
 20
0.0
 30
0.0
  3
*Paper_Space
  1

  0
ENDBLK
  5
1D
330
1B
100
AcDbEntity
 67
     1
  8
0
100
AcDbBlockEnd
  0
BLOCK
  5
24
330
23
100
AcDbEntity
  8
0
100
AcDbBlockBegin
  2
*Paper_Space0
 70
     0
 10
0.0
 20
0.0
 30
0.0
  3
*Paper_Space0
  1

  0
ENDBLK
  5
25
330
23
100
AcDbEntity
  8
0
100
AcDbBlockEnd
  0
ENDSEC
  0
SECTION
  2
ENTITIES
  0
SPLINE
  5
3C
330
1F
100
AcDbEntity
  8
Predefinito
100
AcDbSpline
210
0.0
220
0.0
230
1.0
 70
    12
 71
     2
 72
     6
 73
     3
 74
     0
 42
0.0000000001
 43
0.0000000001
 40
0.0
 40
0.0
 40
0.0
 40
169.6900000000189
 40
169.6900000000189
 40
169.6900000000189
 10
393.485385119915
 20
1527.957342780111
 30
0.0
 41
1.0
 10
393.485391723238
 20
1612.802342780123
 30
0.0
 41
0.9999999999999395
 10
393.4854573568016
 20
1697.647342780111
 30
0.0
 41
1.0
  0
SPLINE
  5
3D
330
1F
100
AcDbEntity
  8
Predefinito
100
AcDbSpline
210
0.0
220
0.0
230
1.0
 70
    12
 71
     2
 72
     6
 73
     3
 74
     0
 42
0.0000000001
 43
0.0000000001
 40
0.0
 40
0.0
 40
0.0
 40
0.27311996660462
 40
0.27311996660462
 40
0.27311996660462
 10
362.2367658540659
 20
974.4667606001723
 30
0.0
 41
1.0
 10
362.2517544896575
 20
974.6123669434991
 30
0.0
 41
0.9023814028214501
 10
362.3744201911571
 20
974.6922355361344
 30
0.0
 41
1.0
  0
SPLINE
  5
3E
330
1F
100
AcDbEntity
  8
Predefinito
100
AcDbSpline
210
0.0
220
0.0
230
1.0
 70
    24
 71
     2
 72
     6
 73
     3
 74
     0
 42
0.0000000001
 43
0.0000000001
 40
0.0
 40
0.0
 40
0.0
 40
0.121807610526389
 40
0.121807610526389
 40
0.121807610526389
 10
362.2354037433372
 20
974.3418663628419
 30
0.0
 10
362.2354037433372
 20
974.402770168105
 30
0.0
 10
362.2354037433372
 20
974.4636739733683
 30
0.0
  0
SPLINE
  5
3F
330
1F
100
AcDbEntity
  8
Predefinito
100
AcDbSpline
210
0.0
220
0.0
230
1.0
 70
     8
 71
     3
 72
    13
 73
     9
 74
     0
 42
0.0000000001
 43
0.0000000001
 40
0.0
 40
0.0
 40
0.0
 40
0.0
 40
10.11984014321856
 40
16.82218037760602
 40
22.70614913570975
 40
28.59619527024295
 40
42.97226817576831
 40
61.04753165984739
 40
61.04753165984739
 40
61.04753165984739
 40
61.04753165984739
 10
400.2354037433372
 20
1024.647342780111
 30
0.0
 10
400.2373106578132
 20
1021.27405115149
 30
0.0
 10
400.1522643390205
 20
1015.665005937643
 30
0.0
 10
400.7775981665573
 20
1008.108148820185
 30
0.0
 10
402.1235882527243
 20
1002.082291612539
 30
0.0
 10
405.7465580007915
 20
994.0804501308851
 30
0.0
 10
414.1922640534
 20
984.2936960585031
 30
0.0
 10
422.9942346239619
 20
977.9507848434538
 30
0.0
 10
428.0731287727031
 20
974.7070292940507
 30
0.0
  0
SPLINE
  5
40
330
1F
100
AcDbEntity
  8
Predefinito
100
AcDbSpline
210
0.0
220
0.0
230
1.0
 70
    24
 71
     2
 72
     6
 73
     3
 74
     0
 42
0.0000000001
 43
0.0000000001
 40
0.0
 40
0.0
 40
0.0
 40
3.0
 40
3.0
 40
3.0
 10
390.2354037433372
 20
1024.647342780111
 30
0.0
 10
390.2354037433372
 20
1026.147342780111
 30
0.0
 10
390.2354037433372
 20
1027.647342780111
 30
0.0
  0
SPLINE
  5
41
330
1F
100
AcDbEntity
  8
Predefinito
100
AcDbSpline
210
0.0
220
0.0
230
1.0
 70
    12
 71
     2
 72
     6
 73
     3
 74
     0
 42
0.0000000001
 43
0.0000000001
 40
0.0
 40
0.0
 40
0.0
 40
0.2731199666046936
 40
0.2731199666046936
 40
0.2731199666046936
 10
428.0963872955173
 20
974.6922355361344
 30
0.0
 41
1.0
 10
428.2190529970172
 20
974.6123669434993
 30
0.0
 41
0.9023814028204963
 10
428.2340416326084
 20
974.4667606001723
 30
0.0
 41
1.0
  0
SPLINE
  5
42
330
1F
100
AcDbEntity
  8
Predefinito
100
AcDbSpline
210
0.0
220
0.0
230
1.0
 70
    24
 71
     2
 72
     6
 73
     3
 74
     0
 42
0.0000000001
 43
0.0000000001
 40
0.0
 40
0.0
 40
0.0
 40
0.121807610526389
 40
0.121807610526389
 40
0.121807610526389
 10
428.2354037433372
 20
974.4636739733683
 30
0.0
 10
428.2354037433372
 20
974.402770168105
 30
0.0
 10
428.2354037433372
 20
974.3418663628419
 30
0.0
  0
SPLINE
  5
43
330
1F
100
AcDbEntity
  8
Predefinito
100
AcDbSpline
210
0.0
220
0.0
230
1.0
 70
     8
 71
     3
 72
    14
 73
    10
 74
     0
 42
0.0000000001
 43
0.0000000001
 40
0.0
 40
0.0
 40
0.0
 40
0.0
 40
9.656586339249897
 40
18.10883709666304
 40
32.34201512086378
 40
38.10460783553967
 40
44.08114815613959
 40
50.78447797405854
 40
61.04762965483213
 40
61.04762965483213
 40
61.04762965483213
 40
61.04762965483213
 10
362.3976787189763
 20
974.7070292935559
 30
0.0
 10
365.1099260966649
 20
976.4322726943086
 30
0.0
 10
370.1051886313251
 20
979.8517931594341
 30
0.0
 10
378.3889471722752
 20
986.738087733784
 30
0.0
 10
384.6488888308593
 20
994.003187492069
 30
0.0
 10
388.2929711281272
 20
1001.92315764329
 30
0.0
 10
389.6713043164419
 20
1007.935482312503
 30
0.0
 10
390.3199102292616
 20
1015.567899789501
 30
0.0
 10
390.2338671433824
 20
1021.226907463237
 30
0.0
 10
390.2354037433372
 20
1024.647342780111
 30
0.0
  0
SPLINE
  5
44
330
1F
100
AcDbEntity
  8
Predefinito
100
AcDbSpline
210
0.0
220
0.0
230
1.0
 70
    24
 71
     2
 72
     6
 73
     3
 74
     0
 42
0.0000000001
 43
0.0000000001
 40
0.0
 40
0.0
 40
0.0
 40
3.0
 40
3.0
 40
3.0
 10
400.2354037433372
 20
1027.647342780111
 30
0.0
 10
400.2354037433372
 20
1026.147342780111
 30
0.0
 10
400.2354037433372
 20
1024.647342780111
 30
0.0
  0
SPLINE
  5
45
330
1F
100
AcDbEntity
  8
Predefinito
100
AcDbSpline
210
0.0
220
0.0
230
1.0
 70
    24
 71
     2
 72
     6
 73
     3
 74
     0
 42
0.0000000001
 43
0.0000000001
 40
0.0
 40
0.0
 40
0.0
 40
27.69803652951214
 40
27.69803652951214
 40
27.69803652951214
 10
327.1797560414785
 20
1697.647342780111
 30
0.0
 10
327.1797560414785
 20
1711.496361044867
 30
0.0
 10
327.1797560414785
 20
1725.345379309623
 30
0.0
  0
SPLINE
  5
46
330
1F
100
AcDbEntity
  8
Predefinito
100
AcDbSpline
210
0.0
220
0.0
230
1.0
 70
    24
 71
     2
 72
     6
 73
     3
 74
     0
 42
0.0000000001
 43
0.0000000001
 40
0.0
 40
0.0
 40
0.0
 40
27.69803652951214
 40
27.69803652951214
 40
27.69803652951214
 10
463.2910514451959
 20
1725.345379309623
 30
0.0
 10
463.2910514451959
 20
1711.496361044867
 30
0.0
 10
463.2910514451959
 20
1697.647342780111
 30
0.0
  0
SPLINE
  5
47
330
1F
100
AcDbEntity
  8
Predefinito
100
AcDbSpline
210
0.0
220
0.0
230
1.0
 70
     8
 71
     3
 72
    20
 73
    16
 74
     0
 42
0.0000000001
 43
0.0000000001
 40
0.0
 40
0.0
 40
0.0
 40
0.0
 40
0.3620405428317965
 40
69.50185795223204
 40
81.77357985611269
 40
82.17741465188342
 40
82.69172651249013
 40
83.54356635241844
 40
84.2728239311644
 40
84.81295497719182
 40
85.8252417270907
 40
86.79574709025734
 40
87.01036289536368
 40
87.27555544722118
 40
90.03244561339136
 40
90.03244561339136
 40
90.03244561339136
 40
90.03244561339136
 10
428.6294306079679
 20
974.3418663628418
 30
0.0
 10
428.7581929548966
 20
974.3411642106129
 30
0.0
 10
448.8273034042101
 20
962.7666585206404
 30
0.0
 10
472.4229942907493
 20
949.1207373473009
 30
0.0
 10
496.0512993529976
 20
935.5019231959242
 30
0.0
 10
499.8519664590901
 20
933.2919515937417
 30
0.0
 10
500.2212478890642
 20
932.8065784433667
 30
0.0
 10
500.4945756286165
 20
932.1621472747033
 30
0.0
 10
500.4726416806956
 20
931.4329437144052
 30
0.0
 10
500.2197875556345
 20
930.7143652954944
 30
0.0
 10
499.6399390111591
 20
930.0634453492927
 30
0.0
 10
498.9328450091404
 20
929.8051219280618
 30
0.0
 10
498.4486033284878
 20
929.7841904833836
 30
0.0
 10
497.3702956601686
 20
929.7640590927032
 30
0.0
 10
496.3628072337002
 20
929.7392536517125
 30
0.0
 10
495.4441842667602
 20
929.721002836667
 30
0.0
  0
SPLINE
  5
48
330
1F
100
AcDbEntity
  8
Predefinito
100
AcDbSpline
210
0.0
220
0.0
230
1.0
 70
    24
 71
     2
 72
     6
 73
     3
 74
     0
 42
0.0000000001
 43
0.0000000001
 40
0.0
 40
0.0
 40
0.0
 40
33.38860666190408
 40
33.38860666190408
 40
33.38860666190408
 10
428.6240104052413
 20
974.3418663628418
 30
0.0
 10
411.9297070742892
 20
974.3418663628418
 30
0.0
 10
395.2354037433372
 20
974.3418663628418
 30
0.0
  0
SPLINE
  5
49
330
1F
100
AcDbEntity
  8
Predefinito
100
AcDbSpline
210
0.0
220
0.0
230
1.0
 70
    24
 71
     2
 72
     6
 73
     3
 74
     0
 42
0.0000000001
 43
0.0000000001
 40
0.0
 40
0.0
 40
0.0
 40
100.2087805234459
 40
100.2087805234459
 40
100.2087805234459
 10
495.4441842667622
 20
929.7210028366671
 30
0.0
 10
445.3397940050393
 20
929.7210028366671
 30
0.0
 10
395.2354037433164
 20
929.7210028366671
 30
0.0
  0
SPLINE
  5
4A
330
1F
100
AcDbEntity
  8
Predefinito
100
AcDbSpline
210
0.0
220
0.0
230
1.0
 70
    12
 71
     2
 72
     6
 73
     3
 74
     0
 42
0.0000000001
 43
0.0000000001
 40
0.0
 40
0.0
 40
0.0
 40
96.04253433412
 40
96.04253433412
 40
96.04253433412
 10
491.2543270719144
 20
929.5562308583935
 30
0.0
 41
1.0
 10
443.2627849388939
 20
927.7039795361014
 30
0.0
 41
0.9998124350325825
 10
395.2355125664992
 20
927.7117083277856
 30
0.0
 41
1.0
  0
SPLINE
  5
4B
330
1F
100
AcDbEntity
  8
Predefinito
100
AcDbSpline
210
0.0
220
0.0
230
1.0
 70
     8
 71
     3
 72
    20
 73
    16
 74
     0
 42
0.0000000001
 43
0.0000000001
 40
0.0
 40
0.0
 40
0.0
 40
0.0
 40
2.752562657526365
 40
2.967756610288071
 40
3.117205708897053
 40
3.73790974719692
 40
6.000314554017383
 40
7.895207943402324
 40
8.24700443847164
 40
8.270483924088195
 40
8.284568265964403
 40
8.312718905477832
 40
12.39360607718635
 40
89.66329222922509
 40
89.9998002650468
 40
89.9998002650468
 40
89.9998002650468
 40
89.9998002650468
 10
295.0222960496815
 20
929.7210563832974
 30
0.0
 10
294.1036361611211
 20
929.7393212992367
 30
0.0
 10
293.1182520023987
 20
929.7637838633415
 30
0.0
 10
292.0758877027022
 20
929.783007706433
 30
0.0
 10
291.7541386264579
 20
929.7940603125678
 30
0.0
 10
290.7277734682268
 20
929.9750467253194
 30
0.0
 10
289.6328158633978
 20
931.4619599493402
 30
0.0
 10
290.2695318861677
 20
933.0304000351516
 30
0.0
 10
290.8971924205901
 20
933.4526719733565
 30
0.0
 10
291.0076154760184
 20
933.5239055136033
 30
0.0
 10
291.0269555166827
 20
933.5336739760817
 30
0.0
 10
292.2164402247571
 20
934.2222468202614
 30
0.0
 10
315.7117142781935
 20
947.7796905552282
 30
0.0
 10
339.2866198267967
 20
961.4048534853973
 30
0.0
 10
361.6956612985662
 20
974.3286830082786
 30
0.0
 10
361.8124284244934
 20
974.338936119478
 30
0.0
  0
SPLINE
  5
4C
330
1F
100
AcDbEntity
  8
Predefinito
100
AcDbSpline
210
0.0
220
0.0
230
1.0
 70
    24
 71
     2
 72
     6
 73
     3
 74
     0
 42
0.0000000001
 43
0.0000000001
 40
0.0
 40
0.0
 40
0.0
 40
33.3940268646376
 40
33.3940268646376
 40
33.3940268646376
 10
361.8413768786996
 20
974.3418663628418
 30
0.0
 10
378.5383903110184
 20
974.3418663628418
 30
0.0
 10
395.2354037433372
 20
974.3418663628418
 30
0.0
  0
SPLINE
  5
4D
330
1F
100
AcDbEntity
  8
Predefinito
100
AcDbSpline
210
0.0
220
0.0
230
1.0
 70
    24
 71
     2
 72
     6
 73
     3
 74
     0
 42
0.0000000001
 43
0.0000000001
 40
0.0
 40
0.0
 40
0.0
 40
100.208780523402
 40
100.208780523402
 40
100.208780523402
 10
395.2354037433163
 20
929.7210028366671
 30
0.0
 10
345.1310134816154
 20
929.7210028366671
 30
0.0
 10
295.0266232199143
 20
929.7210028366671
 30
0.0
  0
SPLINE
  5
4E
330
1F
100
AcDbEntity
  8
Predefinito
100
AcDbSpline
210
0.0
220
0.0
230
1.0
 70
    12
 71
     2
 72
     6
 73
     3
 74
     0
 42
0.0000000001
 43
0.0000000001
 40
0.0
 40
0.0
 40
0.0
 40
98.98741328009645
 40
98.98741328009645
 40
98.98741328009645
 10
395.2352949201752
 20
927.7117083277858
 30
0.0
 41
1.0
 10
345.7350184017137
 20
927.7039158026547
 30
0.0
 41
0.9998009071955419
 10
296.2738476386934
 20
929.6711531749461
 30
0.0
 41
1.0
  0
SPLINE
  5
4F
330
1F
100
AcDbEntity
  8
Predefinito
100
AcDbSpline
210
0.0
220
0.0
230
1.0
 70
    24
 71
     2
 72
     6
 73
     3
 74
     0
 42
0.0000000001
 43
0.0000000001
 40
0.0
 40
0.0
 40
0.0
 40
0.3000000000001819
 40
0.3000000000001819
 40
0.3000000000001819
 10
391.5854037433372
 20
1527.657342780111
 30
0.0
 10
391.5854037433372
 20
1527.807342780111
 30
0.0
 10
391.5854037433372
 20
1527.957342780111
 30
0.0
  0
SPLINE
  5
50
330
1F
100
AcDbEntity
  8
Predefinito
100
AcDbSpline
210
0.0
220
0.0
230
1.0
 70
    24
 71
     2
 72
     6
 73
     3
 74
     0
 42
0.0000000001
 43
0.0000000001
 40
0.0
 40
0.0
 40
0.0
 40
0.3000000000001819
 40
0.3000000000001819
 40
0.3000000000001819
 10
398.8854037433372
 20
1527.957342780111
 30
0.0
 10
398.8854037433372
 20
1527.807342780111
 30
0.0
 10
398.8854037433372
 20
1527.657342780111
 30
0.0
  0
SPLINE
  5
51
330
1F
100
AcDbEntity
  8
Predefinito
100
AcDbSpline
210
0.0
220
0.0
230
1.0
 70
    12
 71
     2
 72
     6
 73
     3
 74
     0
 42
0.0000000001
 43
0.0000000001
 40
0.0
 40
0.0
 40
0.0
 40
169.6900000163192
 40
169.6900000163192
 40
169.6900000163192
 10
396.9859367227182
 20
1527.957342780019
 30
0.0
 41
1.0
 10
396.9857689817327
 20
1612.802342791109
 30
0.0
 41
0.9999999999452616
 10
396.983825752559
 20
1697.647342780112
 30
0.0
 41
1.0
  0
SPLINE
  5
52
330
1F
100
AcDbEntity
  8
Predefinito
100
AcDbSpline
210
0.0
220
0.0
230
1.0
 70
    24
 71
     2
 72
     6
 73
     3
 74
     0
 42
0.0000000001
 43
0.0000000001
 40
0.0
 40
0.0
 40
0.0
 40
32.96719162128711
 40
32.96719162128711
 40
32.96719162128711
 10
395.2354037433372
 20
974.4636739733683
 30
0.0
 10
378.7518079326936
 20
974.4636739733683
 30
0.0
 10
362.2682121220501
 20
974.4636739733683
 30
0.0
  0
SPLINE
  5
53
330
1F
100
AcDbEntity
  8
Predefinito
100
AcDbSpline
210
0.0
220
0.0
230
1.0
 70
    24
 71
     2
 72
     6
 73
     3
 74
     0
 42
0.0000000001
 43
0.0000000001
 40
0.0
 40
0.0
 40
0.0
 40
32.82831338268741
 40
32.82831338268741
 40
32.82831338268741
 10
395.2354037433372
 20
974.6922355361344
 30
0.0
 10
411.6495604346809
 20
974.6922355361344
 30
0.0
 10
428.0637171260246
 20
974.6922355361343
 30
0.0
  0
SPLINE
  5
54
330
1F
100
AcDbEntity
  8
Predefinito
100
AcDbSpline
210
0.0
220
0.0
230
1.0
 70
    24
 71
     2
 72
     6
 73
     3
 74
     0
 42
0.0000000001
 43
0.0000000001
 40
0.0
 40
0.0
 40
0.0
 40
0.2285615627661173
 40
0.2285615627661173
 40
0.2285615627661173
 10
395.2354037433372
 20
974.6922355361344
 30
0.0
 10
395.2354037433372
 20
974.5779547547513
 30
0.0
 10
395.2354037433372
 20
974.4636739733683
 30
0.0
  0
SPLINE
  5
55
330
1F
100
AcDbEntity
  8
Predefinito
100
AcDbSpline
210
0.0
220
0.0
230
1.0
 70
    24
 71
     2
 72
     6
 73
     3
 74
     0
 42
0.0000000001
 43
0.0000000001
 40
0.0
 40
0.0
 40
0.0
 40
0.1515057390611219
 40
0.1515057390611219
 40
0.1515057390611219
 10
395.2354037433372
 20
974.4636739733683
 30
0.0
 10
395.2354037433372
 20
974.3879211038377
 30
0.0
 10
395.2354037433372
 20
974.3121682343071
 30
0.0
  0
SPLINE
  5
56
330
1F
100
AcDbEntity
  8
Predefinito
100
AcDbSpline
210
0.0
220
0.0
230
1.0
 70
    12
 71
     2
 72
     8
 73
     5
 74
     0
 42
0.0000000001
 43
0.0000000001
 40
0.0
 40
0.0
 40
0.0
 40
0.0328083787129003
 40
0.0328083787129003
 40
1.6036047055078
 40
1.6036047055078
 40
1.6036047055078
 10
428.2025953646243
 20
974.4636740684509
 30
0.0
 41
1.0
 10
428.2189995539808
 20
974.4636740684512
 30
0.0
 41
1.0
 10
428.2354037433372
 20
974.4636740684513
 30
0.0
 41
1.0
 10
428.2354037433371
 20
974.4636739733681
 30
0.0
 41
0.707106781186548
 10
395.2354037433372
 20
974.4636739733683
 30
0.0
 41
1.0
  0
SPLINE
  5
57
330
1F
100
AcDbEntity
  8
Predefinito
100
AcDbSpline
210
0.0
220
0.0
230
1.0
 70
    12
 71
     2
 72
     8
 73
     5
 74
     0
 42
0.0000000001
 43
0.0000000001
 40
0.0
 40
0.0
 40
0.0
 40
0.0326701694926612
 40
0.0326701694926612
 40
65.75463727385265
 40
65.75463727385265
 40
65.75463727385265
 10
362.4070903606498
 20
974.6922354698181
 30
0.0
 41
1.0
 10
362.3907552759034
 20
974.6922354698179
 30
0.0
 41
1.0
 10
362.3744201911571
 20
974.6922354698178
 30
0.0
 41
1.0
 10
362.3744201911571
 20
974.6922355361345
 30
0.0
 41
0.707106781186548
 10
395.2354037433372
 20
974.6922355361344
 30
0.0
 41
1.0
  0
SPLINE
  5
58
330
1F
100
AcDbEntity
  8
Predefinito
100
AcDbSpline
210
0.0
220
0.0
230
1.0
 70
    24
 71
     2
 72
     6
 73
     3
 74
     0
 42
0.0000000001
 43
0.0000000001
 40
0.0
 40
0.0
 40
0.0
 40
68.05564770185872
 40
68.05564770185872
 40
68.05564770185872
 10
463.2910514451959
 20
1697.647342780111
 30
0.0
 10
429.2632275942665
 20
1697.647342780111
 30
0.0
 10
395.2354037433372
 20
1697.647342780111
 30
0.0
  0
SPLINE
  5
59
330
1F
100
AcDbEntity
  8
Predefinito
100
AcDbSpline
210
0.0
220
0.0
230
1.0
 70
    24
 71
     2
 72
     6
 73
     3
 74
     0
 42
0.0000000001
 43
0.0000000001
 40
0.0
 40
0.0
 40
0.0
 40
68.05564770185869
 40
68.05564770185869
 40
68.05564770185869
 10
395.2354037433372
 20
1697.647342780111
 30
0.0
 10
361.2075798924079
 20
1697.647342780111
 30
0.0
 10
327.1797560414785
 20
1697.647342780111
 30
0.0
  0
SPLINE
  5
5A
330
1F
100
AcDbEntity
  8
Predefinito
100
AcDbSpline
210
0.0
220
0.0
230
1.0
 70
    24
 71
     2
 72
     6
 73
     3
 74
     0
 42
0.0000000001
 43
0.0000000001
 40
0.0
 40
0.0
 40
0.0
 40
68.05564770185872
 40
68.05564770185872
 40
68.05564770185872
 10
395.2354037433372
 20
1725.345379309623
 30
0.0
 10
429.2632275942665
 20
1725.345379309623
 30
0.0
 10
463.2910514451959
 20
1725.345379309623
 30
0.0
  0
SPLINE
  5
5B
330
1F
100
AcDbEntity
  8
Predefinito
100
AcDbSpline
210
0.0
220
0.0
230
1.0
 70
    24
 71
     2
 72
     6
 73
     3
 74
     0
 42
0.0000000001
 43
0.0000000001
 40
0.0
 40
0.0
 40
0.0
 40
68.05564770185869
 40
68.05564770185869
 40
68.05564770185869
 10
327.1797560414785
 20
1725.345379309623
 30
0.0
 10
361.2075798924079
 20
1725.345379309623
 30
0.0
 10
395.2354037433372
 20
1725.345379309623
 30
0.0
  0
SPLINE
  5
5C
330
1F
100
AcDbEntity
  8
Predefinito
100
AcDbSpline
210
0.0
220
0.0
230
1.0
 70
    12
 71
     3
 72
    11
 73
     7
 74
     0
 42
0.0000000001
 43
0.0000000001
 40
0.0
 40
0.0
 40
0.0
 40
0.0
 40
0.115519146943484
 40
0.115519146943484
 40
0.115519146943484
 40
0.2805159458174136
 40
0.2805159458174136
 40
0.2805159458174136
 40
0.2805159458174136
 10
395.2354037463665
 20
974.2235344964456
 30
0.0
 41
1.0
 10
395.2354037463752
 20
974.2620408787601
 30
0.0
 41
1.0
 10
395.2354037463838
 20
974.3005472610746
 30
0.0
 41
1.0
 10
395.2354037463925
 20
974.3390536433891
 30
0.0
 41
1.0
 10
395.2354037433372
 20
974.3475363920473
 30
0.0
 41
1.000000000711059
 10
395.2354037433372
 20
974.3363333869643
 30
0.0
 41
1.000000001422117
 10
395.2354037433373
 20
974.3121682343073
 30
0.0
 41
1.000000002133175
  0
SPLINE
  5
5D
330
1F
100
AcDbEntity
  8
Predefinito
100
AcDbSpline
210
0.0
220
0.0
230
1.0
 70
    24
 71
     2
 72
     6
 73
     3
 74
     0
 42
0.0000000001
 43
0.0000000001
 40
0.0
 40
0.0
 40
0.0
 40
1.979257502671771
 40
1.979257502671771
 40
1.979257502671771
 10
395.2354037433372
 20
927.7417913207524
 30
0.0
 10
395.2354037433372
 20
928.7314200720883
 30
0.0
 10
395.2354037433372
 20
929.7210488234242
 30
0.0
  0
SPLINE
  5
5E
330
1F
100
AcDbEntity
  8
Predefinito
100
AcDbSpline
210
0.0
220
0.0
230
1.0
 70
    24
 71
     2
 72
     6
 73
     3
 74
     0
 42
0.0000000001
 43
0.0000000001
 40
0.0
 40
0.0
 40
0.0
 40
3.650000000000006
 40
3.650000000000006
 40
3.650000000000006
 10
391.5854037433372
 20
1527.957342780111
 30
0.0
 10
393.4104037433372
 20
1527.957342780111
 30
0.0
 10
395.2354037433372
 20
1527.957342780111
 30
0.0
  0
SPLINE
  5
5F
330
1F
100
AcDbEntity
  8
Predefinito
100
AcDbSpline
210
0.0
220
0.0
230
1.0
 70
    24
 71
     2
 72
     6
 73
     3
 74
     0
 42
0.0000000001
 43
0.0000000001
 40
0.0
 40
0.0
 40
0.0
 40
3.650000000000006
 40
3.650000000000006
 40
3.650000000000006
 10
398.8854037433372
 20
1527.957342780111
 30
0.0
 10
397.0604037433372
 20
1527.957342780111
 30
0.0
 10
395.2354037433372
 20
1527.957342780111
 30
0.0
  0
SPLINE
  5
60
330
1F
100
AcDbEntity
  8
Predefinito
100
AcDbSpline
210
0.0
220
0.0
230
1.0
 70
    12
 71
     2
 72
     6
 73
     3
 74
     0
 42
0.0000000001
 43
0.0000000001
 40
0.0
 40
0.0
 40
0.0
 40
0.330297354830015
 40
0.330297354830015
 40
0.330297354830015
 10
400.1813496892855
 20
1524.305000437769
 30
0.0
 41
1.0
 10
400.2354037433397
 20
1524.147342780111
 30
0.0
 41
0.9863939238321207
 10
400.2354037433397
 20
1523.980676113444
 30
0.0
 41
1.0
  0
SPLINE
  5
61
330
1F
100
AcDbEntity
  8
Predefinito
100
AcDbSpline
210
0.0
220
0.0
230
1.0
 70
    12
 71
     2
 72
     6
 73
     3
 74
     0
 42
0.0000000001
 43
0.0000000001
 40
0.0
 40
0.0
 40
0.0
 40
0.3302973548300157
 40
0.3302973548300157
 40
0.3302973548300157
 10
390.2894577973939
 20
1524.305000437769
 30
0.0
 41
1.0
 10
390.2354037433397
 20
1524.147342780111
 30
0.0
 41
0.9863939238321191
 10
390.2354037433397
 20
1523.980676113444
 30
0.0
 41
1.0
  0
SPLINE
  5
62
330
1F
100
AcDbEntity
  8
Predefinito
100
AcDbSpline
210
0.0
220
0.0
230
1.0
 70
    24
 71
     2
 72
     6
 73
     3
 74
     0
 42
0.0000000001
 43
0.0000000001
 40
0.0
 40
0.0
 40
0.0
 40
10.0
 40
10.0
 40
10.0
 10
390.2354037433397
 20
1523.980676113444
 30
0.0
 10
395.2354037433397
 20
1523.980676113444
 30
0.0
 10
400.2354037433397
 20
1523.980676113444
 30
0.0
  0
SPLINE
  5
63
330
1F
100
AcDbEntity
  8
Predefinito
100
AcDbSpline
210
0.0
220
0.0
230
1.0
 70
    24
 71
     2
 72
     6
 73
     3
 74
     0
 42
0.0000000001
 43
0.0000000001
 40
0.0
 40
0.0
 40
0.0
 40
3.533333333332874
 40
3.533333333332874
 40
3.533333333332874
 10
400.1813496892855
 20
1524.305000437769
 30
0.0
 10
399.6083767163126
 20
1525.97617160894
 30
0.0
 10
399.0354037433397
 20
1527.647342780111
 30
0.0
  0
SPLINE
  5
64
330
1F
100
AcDbEntity
  8
Predefinito
100
AcDbSpline
210
0.0
220
0.0
230
1.0
 70
    24
 71
     2
 72
     6
 73
     3
 74
     0
 42
0.0000000001
 43
0.0000000001
 40
0.0
 40
0.0
 40
0.0
 40
9.89189189189159
 40
9.89189189189159
 40
9.89189189189159
 10
390.2894577973939
 20
1524.305000437769
 30
0.0
 10
395.2354037433397
 20
1524.305000437769
 30
0.0
 10
400.1813496892855
 20
1524.305000437769
 30
0.0
  0
SPLINE
  5
65
330
1F
100
AcDbEntity
  8
Predefinito
100
AcDbSpline
210
0.0
220
0.0
230
1.0
 70
    24
 71
     2
 72
     6
 73
     3
 74
     0
 42
0.0000000001
 43
0.0000000001
 40
0.0
 40
0.0
 40
0.0
 40
3.533333333332879
 40
3.533333333332879
 40
3.533333333332879
 10
391.4354037433397
 20
1527.647342780111
 30
0.0
 10
390.8624307703668
 20
1525.97617160894
 30
0.0
 10
390.2894577973939
 20
1524.305000437769
 30
0.0
  0
SPLINE
  5
66
330
1F
100
AcDbEntity
  8
Predefinito
100
AcDbSpline
210
0.0
220
0.0
230
1.0
 70
    24
 71
     2
 72
     6
 73
     3
 74
     0
 42
0.0000000001
 43
0.0000000001
 40
0.0
 40
0.0
 40
0.0
 40
5.0
 40
5.0
 40
5.0
 10
395.2354037433378
 20
1027.647342780111
 30
0.0
 10
392.7354037433378
 20
1027.647342780111
 30
0.0
 10
390.2354037433378
 20
1027.647342780111
 30
0.0
  0
SPLINE
  5
67
330
1F
100
AcDbEntity
  8
Predefinito
100
AcDbSpline
210
0.0
220
0.0
230
1.0
 70
    24
 71
     2
 72
     6
 73
     3
 74
     0
 42
0.0000000001
 43
0.0000000001
 40
0.0
 40
0.0
 40
0.0
 40
5.0
 40
5.0
 40
5.0
 10
400.2354037433378
 20
1027.647342780111
 30
0.0
 10
397.7354037433378
 20
1027.647342780111
 30
0.0
 10
395.2354037433378
 20
1027.647342780111
 30
0.0
  0
SPLINE
  5
68
330
1F
100
AcDbEntity
  8
Predefinito
100
AcDbSpline
210
0.0
220
0.0
230
1.0
 70
    24
 71
     2
 72
     6
 73
     3
 74
     0
 42
0.0000000001
 43
0.0000000001
 40
0.0
 40
0.0
 40
0.0
 40
7.59999999999998
 40
7.59999999999998
 40
7.59999999999998
 10
391.4354037433397
 20
1527.647342780111
 30
0.0
 10
395.2354037433397
 20
1527.647342780111
 30
0.0
 10
399.0354037433397
 20
1527.647342780111
 30
0.0
  0
SPLINE
  5
69
330
1F
100
AcDbEntity
  8
Predefinito
100
AcDbSpline
210
0.0
220
0.0
230
1.0
 70
    24
 71
     2
 72
     6
 73
     3
 74
     0
 42
0.0000000001
 43
0.0000000001
 40
0.0
 40
0.0
 40
0.0
 40
496.333333333333
 40
496.333333333333
 40
496.333333333333
 10
400.2354037433397
 20
1523.980676113444
 30
0.0
 10
400.2354037433387
 20
1275.814009446777
 30
0.0
 10
400.2354037433378
 20
1027.647342780111
 30
0.0
  0
SPLINE
  5
6A
330
1F
100
AcDbEntity
  8
Predefinito
100
AcDbSpline
210
0.0
220
0.0
230
1.0
 70
    24
 71
     2
 72
     6
 73
     3
 74
     0
 42
0.0000000001
 43
0.0000000001
 40
0.0
 40
0.0
 40
0.0
 40
496.333333333333
 40
496.333333333333
 40
496.333333333333
 10
390.2354037433378
 20
1027.647342780111
 30
0.0
 10
390.2354037433387
 20
1275.814009446777
 30
0.0
 10
390.2354037433397
 20
1523.980676113444
 30
0.0
  0
SPLINE
  5
6B
330
1F
100
AcDbEntity
  8
Predefinito
100
AcDbSpline
210
0.0
220
0.0
230
1.0
 70
    24
 71
     2
 72
     6
 73
     3
 74
     0
 42
0.0000000001
 43
0.0000000001
 40
0.0
 40
0.0
 40
0.0
 40
200.4175609313126
 40
200.4175609313126
 40
200.4175609313126
 10
835.9927263394035
 20
929.7210032265923
 30
0.0
 10
735.7839458737471
 20
929.7210032265923
 30
0.0
 10
635.5751654080909
 20
929.7210032265923
 30
0.0
  0
SPLINE
  5
6C
330
1F
100
AcDbEntity
  8
Predefinito
100
AcDbSpline
210
0.0
220
0.0
230
1.0
 70
    24
 71
     2
 72
     6
 73
     3
 74
     0
 42
0.0000000001
 43
0.0000000001
 40
0.0
 40
0.0
 40
0.0
 40
66.7880535737142
 40
66.7880535737142
 40
66.7880535737142
 10
702.3899191495104
 20
974.3418667527669
 30
0.0
 10
735.7839459363676
 20
974.3418667527669
 30
0.0
 10
769.1779727232247
 20
974.3418667527669
 30
0.0
  0
SPLINE
  5
6D
330
1F
100
AcDbEntity
  8
Predefinito
100
AcDbSpline
210
0.0
220
0.0
230
1.0
 70
    12
 71
     2
 72
     6
 73
     3
 74
     0
 42
0.0000000001
 43
0.0000000001
 40
0.0
 40
0.0
 40
0.0
 40
169.6900000001139
 40
169.6900000001139
 40
169.6900000001139
 10
737.5339144468307
 20
1527.957343169977
 30
0.0
 41
1.0
 10
737.533924680232
 20
1612.802343170044
 30
0.0
 41
0.9999999999998161
 10
737.5340378081572
 20
1697.647343170036
 30
0.0
 41
1.0
  0
SPLINE
  5
6E
330
1F
100
AcDbEntity
  8
Predefinito
100
AcDbSpline
210
0.0
220
0.0
230
1.0
 70
    12
 71
     2
 72
     6
 73
     3
 74
     0
 42
0.0000000001
 43
0.0000000001
 40
0.0
 40
0.0
 40
0.0
 40
169.6900000002751
 40
169.6900000002751
 40
169.6900000002751
 10
734.0338892638683
 20
1527.957343169944
 30
0.0
 41
1.0
 10
734.0339070279989
 20
1612.802343170115
 30
0.0
 41
0.999999999999385
 10
734.0341129867052
 20
1697.647343170037
 30
0.0
 41
1.0
  0
SPLINE
  5
6F
330
1F
100
AcDbEntity
  8
Predefinito
100
AcDbSpline
210
0.0
220
0.0
230
1.0
 70
    12
 71
     2
 72
     6
 73
     3
 74
     0
 42
0.0000000001
 43
0.0000000001
 40
0.0
 40
0.0
 40
0.0
 40
0.3302905311839007
 40
0.3302905311839007
 40
0.3302905311839007
 10
730.7839458613503
 20
1523.980676503369
 30
0.0
 41
1.0
 10
730.784008362478
 20
1524.147332753181
 30
0.0
 41
0.9864555090469628
 10
730.8379999154045
 20
1524.305000827694
 30
0.0
 41
1.0
  0
SPLINE
  5
70
330
1F
100
AcDbEntity
  8
Predefinito
100
AcDbSpline
210
0.0
220
0.0
230
1.0
 70
    24
 71
     2
 72
     6
 73
     3
 74
     0
 42
0.0000000001
 43
0.0000000001
 40
0.0
 40
0.0
 40
0.0
 40
3.533333333332879
 40
3.533333333332879
 40
3.533333333332879
 10
730.8379999154045
 20
1524.305000827694
 30
0.0
 10
731.4109728883773
 20
1525.976171998865
 30
0.0
 10
731.9839458613502
 20
1527.647343170036
 30
0.0
  0
SPLINE
  5
71
330
1F
100
AcDbEntity
  8
Predefinito
100
AcDbSpline
210
0.0
220
0.0
230
1.0
 70
    24
 71
     2
 72
     6
 73
     3
 74
     0
 42
0.0000000001
 43
0.0000000001
 40
0.0
 40
0.0
 40
0.0
 40
496.3333333333328
 40
496.3333333333328
 40
496.3333333333328
 10
740.7839458613503
 20
1523.980676503369
 30
0.0
 10
740.7839458613503
 20
1275.814009836703
 30
0.0
 10
740.7839458613503
 20
1027.647343170036
 30
0.0
  0
SPLINE
  5
72
330
1F
100
AcDbEntity
  8
Predefinito
100
AcDbSpline
210
0.0
220
0.0
230
1.0
 70
    12
 71
     2
 72
     6
 73
     3
 74
     0
 42
0.0000000001
 43
0.0000000001
 40
0.0
 40
0.0
 40
0.0
 40
0.3302905311839259
 40
0.3302905311839259
 40
0.3302905311839259
 10
740.729891807296
 20
1524.305000827694
 30
0.0
 41
1.0
 10
740.7838833602226
 20
1524.147332753181
 30
0.0
 41
0.9864555090467942
 10
740.7839458613503
 20
1523.980676503369
 30
0.0
 41
1.0
  0
SPLINE
  5
73
330
1F
100
AcDbEntity
  8
Predefinito
100
AcDbSpline
210
0.0
220
0.0
230
1.0
 70
    24
 71
     2
 72
     6
 73
     3
 74
     0
 42
0.0000000001
 43
0.0000000001
 40
0.0
 40
0.0
 40
0.0
 40
3.533333333332879
 40
3.533333333332879
 40
3.533333333332879
 10
739.5839458613502
 20
1527.647343170036
 30
0.0
 10
740.1569188343232
 20
1525.976171998865
 30
0.0
 10
740.7298918072961
 20
1524.305000827694
 30
0.0
  0
SPLINE
  5
74
330
1F
100
AcDbEntity
  8
Predefinito
100
AcDbSpline
210
0.0
220
0.0
230
1.0
 70
    24
 71
     2
 72
     6
 73
     3
 74
     0
 42
0.0000000001
 43
0.0000000001
 40
0.0
 40
0.0
 40
0.0
 40
496.3333333333328
 40
496.3333333333328
 40
496.3333333333328
 10
730.7839458613503
 20
1027.647343170036
 30
0.0
 10
730.7839458613503
 20
1275.814009836703
 30
0.0
 10
730.7839458613503
 20
1523.980676503369
 30
0.0
  0
SPLINE
  5
75
330
1F
100
AcDbEntity
  8
Predefinito
100
AcDbSpline
210
0.0
220
0.0
230
1.0
 70
    24
 71
     2
 72
     6
 73
     3
 74
     0
 42
0.0000000001
 43
0.0000000001
 40
0.0
 40
0.0
 40
0.0
 40
65.9671916212871
 40
65.9671916212871
 40
65.9671916212871
 10
768.7511374826373
 20
974.4636743632933
 30
0.0
 10
735.7675416719937
 20
974.4636743632934
 30
0.0
 10
702.7839458613503
 20
974.4636743632934
 30
0.0
  0
SPLINE
  5
76
330
1F
100
AcDbEntity
  8
Predefinito
100
AcDbSpline
210
0.0
220
0.0
230
1.0
 70
    12
 71
     2
 72
     6
 73
     3
 74
     0
 42
0.0000000001
 43
0.0000000001
 40
0.0
 40
0.0
 40
0.0
 40
0.2809692650867389
 40
0.2809692650867389
 40
0.2809692650867389
 10
702.7839458613503
 20
974.4636743632934
 30
0.0
 41
1.0
 10
702.7849706526113
 20
974.6196083580435
 30
0.0
 41
0.857774386461041
 10
702.9229623091701
 20
974.6922359260595
 30
0.0
 41
1.0
  0
SPLINE
  5
77
330
1F
100
AcDbEntity
  8
Predefinito
100
AcDbSpline
210
0.0
220
0.0
230
1.0
 70
    12
 71
     2
 72
     6
 73
     3
 74
     0
 42
0.0000000001
 43
0.0000000001
 40
0.0
 40
0.0
 40
0.0
 40
0.2809692650867827
 40
0.2809692650867827
 40
0.2809692650867827
 10
768.6449294135303
 20
974.6922359260595
 30
0.0
 41
1.0
 10
768.7829210700893
 20
974.6196083580434
 30
0.0
 41
0.8577743864607836
 10
768.7839458613503
 20
974.4636743632934
 30
0.0
 41
1.0
  0
SPLINE
  5
78
330
1F
100
AcDbEntity
  8
Predefinito
100
AcDbSpline
210
0.0
220
0.0
230
1.0
 70
    24
 71
     2
 72
     6
 73
     3
 74
     0
 42
0.0000000001
 43
0.0000000001
 40
0.0
 40
0.0
 40
0.0
 40
0.1218076105265027
 40
0.1218076105265027
 40
0.1218076105265027
 10
768.7839458613503
 20
974.4636743632934
 30
0.0
 10
768.7839458613503
 20
974.4027705580302
 30
0.0
 10
768.7839458613503
 20
974.3418667527669
 30
0.0
  0
SPLINE
  5
79
330
1F
100
AcDbEntity
  8
Predefinito
100
AcDbSpline
210
0.0
220
0.0
230
1.0
 70
    24
 71
     2
 72
     6
 73
     3
 74
     0
 42
0.0000000001
 43
0.0000000001
 40
0.0
 40
0.0
 40
0.0
 40
0.121807610526389
 40
0.121807610526389
 40
0.121807610526389
 10
702.7839458613503
 20
974.341866752767
 30
0.0
 10
702.7839458613503
 20
974.4027705580302
 30
0.0
 10
702.7839458613503
 20
974.4636743632934
 30
0.0
  0
SPLINE
  5
7A
330
1F
100
AcDbEntity
  8
Predefinito
100
AcDbSpline
210
0.0
220
0.0
230
1.0
 70
    12
 71
     3
 72
    10
 73
     6
 74
     0
 42
0.0000000001
 43
0.0000000001
 40
-72.91935593805343
 40
-72.91935593805343
 40
-72.91935593805343
 40
-72.91935593805343
 40
-44.94153861432807
 40
-11.02485408558609
 40
0.0
 40
0.0
 40
0.0
 40
0.0
 10
730.7839458613503
 20
1024.647343170036
 30
0.0
 41
1.0
 10
730.7839458613503
 20
1016.898380200283
 30
0.0
 41
1.0
 10
731.3633295542676
 20
998.8129140443997
 30
0.0
 41
1.0
 10
715.8731562098174
 20
983.393236732706
 30
0.0
 41
1.0
 10
705.5007070962972
 20
976.3314875204076
 30
0.0
 41
1.0
 10
702.9229623091701
 20
974.6922359260595
 30
0.0
 41
1.0
  0
SPLINE
  5
7B
330
1F
100
AcDbEntity
  8
Predefinito
100
AcDbSpline
210
0.0
220
0.0
230
1.0
 70
    12
 71
     3
 72
    10
 73
     6
 74
     0
 42
0.0000000001
 43
0.0000000001
 40
0.0331596762916603
 40
0.0331596762916603
 40
0.0331596762916603
 40
0.0331596762916603
 40
11.02485408558609
 40
44.94153861432807
 40
72.91935593805343
 40
72.91935593805343
 40
72.91935593805343
 40
72.91935593805343
 10
768.6216709104441
 20
974.7070296846846
 30
0.0
 41
1.0
 10
766.051878654862
 20
976.3419097353518
 30
0.0
 41
1.0
 10
755.6876914417006
 20
983.400248746205
 30
0.0
 41
1.0
 10
740.2045621684329
 20
998.8129140443997
 30
0.0
 41
1.0
 10
740.7839458613503
 20
1016.898380200283
 30
0.0
 41
1.0
 10
740.7839458613503
 20
1024.647343170036
 30
0.0
 41
1.0
  0
SPLINE
  5
7C
330
1F
100
AcDbEntity
  8
Predefinito
100
AcDbSpline
210
0.0
220
0.0
230
1.0
 70
    24
 71
     2
 72
     6
 73
     3
 74
     0
 42
0.0000000001
 43
0.0000000001
 40
0.0
 40
0.0
 40
0.0
 40
65.68929693486757
 40
65.68929693486757
 40
65.68929693486757
 10
702.9229623091701
 20
974.6922359260595
 30
0.0
 10
735.7676107766039
 20
974.6922359260595
 30
0.0
 10
768.6122592440377
 20
974.6922359260595
 30
0.0
  0
SPLINE
  5
7D
330
1F
100
AcDbEntity
  8
Predefinito
100
AcDbSpline
210
0.0
220
0.0
230
1.0
 70
    24
 71
     2
 72
     6
 73
     3
 74
     0
 42
0.0000000001
 43
0.0000000001
 40
0.0
 40
0.0
 40
0.0
 40
3.0
 40
3.0
 40
3.0
 10
740.7839458613503
 20
1027.647343170036
 30
0.0
 10
740.7839458613503
 20
1026.147343170036
 30
0.0
 10
740.7839458613503
 20
1024.647343170036
 30
0.0
  0
SPLINE
  5
7E
330
1F
100
AcDbEntity
  8
Predefinito
100
AcDbSpline
210
0.0
220
0.0
230
1.0
 70
    24
 71
     2
 72
     6
 73
     3
 74
     0
 42
0.0000000001
 43
0.0000000001
 40
0.0
 40
0.0
 40
0.0
 40
3.0
 40
3.0
 40
3.0
 10
730.7839458613503
 20
1024.647343170036
 30
0.0
 10
730.7839458613503
 20
1026.147343170036
 30
0.0
 10
730.7839458613503
 20
1027.647343170036
 30
0.0
  0
SPLINE
  5
7F
330
1F
100
AcDbEntity
  8
Predefinito
100
AcDbSpline
210
0.0
220
0.0
230
1.0
 70
    24
 71
     2
 72
     6
 73
     3
 74
     0
 42
0.0000000001
 43
0.0000000001
 40
0.0
 40
0.0
 40
0.0
 40
27.69803652951214
 40
27.69803652951214
 40
27.69803652951214
 10
803.839593563209
 20
1725.345379699548
 30
0.0
 10
803.839593563209
 20
1711.496361434792
 30
0.0
 10
803.839593563209
 20
1697.647343170036
 30
0.0
  0
SPLINE
  5
80
330
1F
100
AcDbEntity
  8
Predefinito
100
AcDbSpline
210
0.0
220
0.0
230
1.0
 70
    24
 71
     2
 72
     6
 73
     3
 74
     0
 42
0.0000000001
 43
0.0000000001
 40
0.0
 40
0.0
 40
0.0
 40
27.69803652951214
 40
27.69803652951214
 40
27.69803652951214
 10
667.7282981594915
 20
1697.647343170036
 30
0.0
 10
667.7282981594915
 20
1711.496361434792
 30
0.0
 10
667.7282981594915
 20
1725.345379699548
 30
0.0
  0
SPLINE
  5
81
330
1F
100
AcDbEntity
  8
Predefinito
100
AcDbSpline
210
0.0
220
0.0
230
1.0
 70
    24
 71
     2
 72
     6
 73
     3
 74
     0
 42
0.0000000001
 43
0.0000000001
 40
0.0
 40
0.0
 40
0.0
 40
136.1112954037175
 40
136.1112954037175
 40
136.1112954037175
 10
803.839593563209
 20
1697.647343170036
 30
0.0
 10
735.7839458613503
 20
1697.647343170036
 30
0.0
 10
667.7282981594915
 20
1697.647343170036
 30
0.0
  0
SPLINE
  5
82
330
1F
100
AcDbEntity
  8
Predefinito
100
AcDbSpline
210
0.0
220
0.0
230
1.0
 70
    24
 71
     2
 72
     6
 73
     3
 74
     0
 42
0.0000000001
 43
0.0000000001
 40
0.0
 40
0.0
 40
0.0
 40
136.1112954037175
 40
136.1112954037175
 40
136.1112954037175
 10
667.7282981594915
 20
1725.345379699548
 30
0.0
 10
735.7839458613503
 20
1725.345379699548
 30
0.0
 10
803.839593563209
 20
1725.345379699548
 30
0.0
  0
SPLINE
  5
83
330
1F
100
AcDbEntity
  8
Predefinito
100
AcDbSpline
210
0.0
220
0.0
230
1.0
 70
    12
 71
     3
 72
    20
 73
    16
 74
     0
 42
0.0000000001
 43
0.0000000001
 40
0.0
 40
0.0
 40
0.0
 40
0.0
 40
3.066070549457035
 40
3.066070549457035
 40
3.066070549457035
 40
6.164409568299821
 40
6.164409568299821
 40
6.164409568299821
 40
8.258805056863658
 40
8.258805056863658
 40
8.258805056863658
 40
116.1014899728
 40
116.1014899728
 40
116.1014899728
 40
116.4326699468941
 40
116.4326699468941
 40
116.4326699468941
 40
116.4326699468941
 10
835.9970536717879
 20
929.7210492133499
 30
0.0
 41
1.0
 10
837.0188467188266
 20
929.7427529102499
 30
0.0
 41
0.999999987375932
 10
838.0406355228075
 20
929.7646554556557
 30
0.0
 41
0.9999999873759322
 10
839.0624200450333
 20
929.7867568487349
 30
0.0
 41
1.0
 10
840.2137317439488
 20
929.8116599392617
 30
0.0
 41
0.8098076841727578
 10
841.0191697819658
 20
930.6347081510286
 30
0.0
 41
0.8098076841727578
 10
841.0191697819664
 20
931.7862891477363
 30
0.0
 41
1.0
 10
841.0191697259196
 20
932.5183400114543
 30
0.0
 41
0.9106837932290149
 10
840.6531446082324
 20
933.1523148376821
 30
0.0
 41
0.910683793229015
 10
840.0191703541872
 20
933.5183409464204
 30
0.0
 41
1.0
 10
816.518016438502
 20
947.086738926404
 30
0.0
 41
1.0
 10
793.0168625228166
 20
960.6551369063873
 30
0.0
 41
1.0
 10
769.5157086071314
 20
974.2235348863708
 30
0.0
 41
1.0
 10
769.41966566338
 20
974.2789853057997
 30
0.0
 41
0.9908808512837074
 10
769.3157963346957
 20
974.3178460651582
 30
0.0
 41
0.9908808512837068
 10
769.2069422206441
 20
974.3390540333145
 30
0.0
 41
1.0
  0
SPLINE
  5
84
330
1F
100
AcDbEntity
  8
Predefinito
100
AcDbSpline
210
0.0
220
0.0
230
1.0
 70
    12
 71
     2
 72
     6
 73
     3
 74
     0
 42
0.0000000001
 43
0.0000000001
 40
0.0
 40
0.0
 40
0.0
 40
96.7396241285657
 40
96.7396241285657
 40
96.7396241285657
 10
735.7839458613503
 20
927.7117083277858
 30
0.0
 41
1.0
 10
784.1598943467734
 20
927.7039286769203
 30
0.0
 41
0.9998097185750555
 10
832.4993296166297
 20
929.5831439862079
 30
0.0
 41
1.0
  0
SPLINE
  5
85
330
1F
100
AcDbEntity
  8
Predefinito
100
AcDbSpline
210
0.0
220
0.0
230
1.0
 70
    24
 71
     2
 72
     6
 73
     3
 74
     0
 42
0.0000000001
 43
0.0000000001
 40
0.0
 40
0.0
 40
0.0
 40
7.300000000000011
 40
7.300000000000011
 40
7.300000000000011
 10
732.1339458613488
 20
1527.957343170036
 30
0.0
 10
735.7839458613488
 20
1527.957343170036
 30
0.0
 10
739.4339458613488
 20
1527.957343170036
 30
0.0
  0
SPLINE
  5
86
330
1F
100
AcDbEntity
  8
Predefinito
100
AcDbSpline
210
0.0
220
0.0
230
1.0
 70
    24
 71
     2
 72
     6
 73
     3
 74
     0
 42
0.0000000001
 43
0.0000000001
 40
0.0
 40
0.0
 40
0.0
 40
0.3000000000001819
 40
0.3000000000001819
 40
0.3000000000001819
 10
732.1339458613488
 20
1527.657343170036
 30
0.0
 10
732.1339458613488
 20
1527.807343170036
 30
0.0
 10
732.1339458613488
 20
1527.957343170036
 30
0.0
  0
SPLINE
  5
87
330
1F
100
AcDbEntity
  8
Predefinito
100
AcDbSpline
210
0.0
220
0.0
230
1.0
 70
    24
 71
     2
 72
     6
 73
     3
 74
     0
 42
0.0000000001
 43
0.0000000001
 40
0.0
 40
0.0
 40
0.0
 40
0.3000000000001819
 40
0.3000000000001819
 40
0.3000000000001819
 10
739.4339458613488
 20
1527.957343170036
 30
0.0
 10
739.4339458613488
 20
1527.807343170036
 30
0.0
 10
739.4339458613488
 20
1527.657343170036
 30
0.0
  0
SPLINE
  5
88
330
1F
100
AcDbEntity
  8
Predefinito
100
AcDbSpline
210
0.0
220
0.0
230
1.0
 70
    24
 71
     2
 72
     6
 73
     3
 74
     0
 42
0.0000000001
 43
0.0000000001
 40
0.0
 40
0.0
 40
0.0
 40
4.945945945945823
 40
4.945945945945823
 40
4.945945945945823
 10
730.8379999154045
 20
1524.305000827694
 30
0.0
 10
733.3109728883774
 20
1524.305000827694
 30
0.0
 10
735.7839458613503
 20
1524.305000827694
 30
0.0
  0
SPLINE
  5
89
330
1F
100
AcDbEntity
  8
Predefinito
100
AcDbSpline
210
0.0
220
0.0
230
1.0
 70
    24
 71
     2
 72
     6
 73
     3
 74
     0
 42
0.0000000001
 43
0.0000000001
 40
0.0
 40
0.0
 40
0.0
 40
5.0
 40
5.0
 40
5.0
 10
735.7839458613503
 20
1523.980676503369
 30
0.0
 10
738.2839458613503
 20
1523.980676503369
 30
0.0
 10
740.7839458613503
 20
1523.980676503369
 30
0.0
  0
SPLINE
  5
8A
330
1F
100
AcDbEntity
  8
Predefinito
100
AcDbSpline
210
0.0
220
0.0
230
1.0
 70
    24
 71
     2
 72
     6
 73
     3
 74
     0
 42
0.0000000001
 43
0.0000000001
 40
0.0
 40
0.0
 40
0.0
 40
4.945945945945823
 40
4.945945945945823
 40
4.945945945945823
 10
735.7839458613503
 20
1524.305000827694
 30
0.0
 10
738.2569188343232
 20
1524.305000827694
 30
0.0
 10
740.7298918072961
 20
1524.305000827694
 30
0.0
  0
SPLINE
  5
8B
330
1F
100
AcDbEntity
  8
Predefinito
100
AcDbSpline
210
0.0
220
0.0
230
1.0
 70
    24
 71
     2
 72
     6
 73
     3
 74
     0
 42
0.0000000001
 43
0.0000000001
 40
0.0
 40
0.0
 40
0.0
 40
5.0
 40
5.0
 40
5.0
 10
735.7839458613503
 20
1027.647343170036
 30
0.0
 10
733.2839458613503
 20
1027.647343170036
 30
0.0
 10
730.7839458613503
 20
1027.647343170036
 30
0.0
  0
SPLINE
  5
8C
330
1F
100
AcDbEntity
  8
Predefinito
100
AcDbSpline
210
0.0
220
0.0
230
1.0
 70
    24
 71
     2
 72
     6
 73
     3
 74
     0
 42
0.0000000001
 43
0.0000000001
 40
0.0
 40
0.0
 40
0.0
 40
5.0
 40
5.0
 40
5.0
 10
740.7839458613503
 20
1027.647343170036
 30
0.0
 10
738.2839458613503
 20
1027.647343170036
 30
0.0
 10
735.7839458613503
 20
1027.647343170036
 30
0.0
  0
SPLINE
  5
8D
330
1F
100
AcDbEntity
  8
Predefinito
100
AcDbSpline
210
0.0
220
0.0
230
1.0
 70
    24
 71
     2
 72
     6
 73
     3
 74
     0
 42
0.0000000001
 43
0.0000000001
 40
0.0
 40
0.0
 40
0.0
 40
3.800000000000011
 40
3.800000000000011
 40
3.800000000000011
 10
731.9839458613502
 20
1527.647343170036
 30
0.0
 10
733.8839458613502
 20
1527.647343170036
 30
0.0
 10
735.7839458613503
 20
1527.647343170036
 30
0.0
  0
SPLINE
  5
8E
330
1F
100
AcDbEntity
  8
Predefinito
100
AcDbSpline
210
0.0
220
0.0
230
1.0
 70
    24
 71
     2
 72
     6
 73
     3
 74
     0
 42
0.0000000001
 43
0.0000000001
 40
0.0
 40
0.0
 40
0.0
 40
3.800000000000011
 40
3.800000000000011
 40
3.800000000000011
 10
735.7839458613503
 20
1527.647343170036
 30
0.0
 10
737.6839458613503
 20
1527.647343170036
 30
0.0
 10
739.5839458613502
 20
1527.647343170036
 30
0.0
  0
SPLINE
  5
8F
330
1F
100
AcDbEntity
  8
Predefinito
100
AcDbSpline
210
0.0
220
0.0
230
1.0
 70
    24
 71
     2
 72
     6
 73
     3
 74
     0
 42
0.0000000001
 43
0.0000000001
 40
0.0
 40
0.0
 40
0.0
 40
5.0
 40
5.0
 40
5.0
 10
735.7839458613503
 20
1523.980676503369
 30
0.0
 10
733.2839458613503
 20
1523.980676503369
 30
0.0
 10
730.7839458613503
 20
1523.980676503369
 30
0.0
  0
SPLINE
  5
90
330
1F
100
AcDbEntity
  8
Predefinito
100
AcDbSpline
210
0.0
220
0.0
230
1.0
 70
    12
 71
     3
 72
     8
 73
     4
 74
     0
 42
0.0000000001
 43
0.0000000001
 40
190.4378481920615
 40
190.4378481920615
 40
190.4378481920615
 40
190.4378481920615
 40
290.4914130083088
 40
290.4914130083088
 40
290.4914130083088
 40
290.4914130083088
 10
636.5465428578703
 20
929.6820972452581
 30
0.0
 41
1.185959334021429
 10
669.8714452052499
 20
928.3582231207768
 30
0.0
 41
1.185959334021429
 10
702.4327575892679
 20
927.7117083277859
 30
0.0
 41
1.185959334021429
 10
735.7839458613503
 20
927.7117083277859
 30
0.0
 41
1.185959334021429
  0
SPLINE
  5
91
330
1F
100
AcDbEntity
  8
Predefinito
100
AcDbSpline
210
0.0
220
0.0
230
1.0
 70
    12
 71
     3
 72
    20
 73
    16
 74
     0
 42
0.0000000001
 43
0.0000000001
 40
98.74698731632687
 40
98.74698731632687
 40
98.74698731632687
 40
98.74698731632687
 40
99.08070285492789
 40
99.08070285492789
 40
99.08070285492789
 40
180.4910887525976
 40
180.4910887525976
 40
180.4910887525976
 40
182.5728654337806
 40
182.5728654337806
 40
182.5728654337806
 40
185.6703569836187
 40
185.6703569836187
 40
185.6703569836187
 40
188.7364275061523
 40
188.7364275061523
 40
188.7364275061523
 40
188.7364275061523
 10
702.3609495020564
 20
974.3390540333143
 30
0.0
 41
1.090865901949207
 10
702.2534220875264
 20
974.3181045450643
 30
0.0
 41
1.055540505605691
 10
702.1493829042483
 20
974.2796532105303
 30
0.0
 41
1.030266080537601
 10
702.0521831155692
 20
974.2235348863708
 30
0.0
 41
1.015042626744939
 10
678.5510291998838
 20
960.6551369063872
 30
0.0
 41
1.015042626744939
 10
655.0498752841985
 20
947.0867389264038
 30
0.0
 41
1.015042626744939
 10
631.5487213685133
 20
933.5183409464205
 30
0.0
 41
1.015042626744939
 10
630.8985287123011
 20
933.1429511821093
 30
0.0
 41
0.9672407058423004
 10
630.5487219407343
 20
932.4992551129936
 30
0.0
 41
1.01853848566638
 10
630.5487219407343
 20
931.7862891477363
 30
0.0
 41
1.16893596621718
 10
630.5487219407341
 20
930.6367997291967
 30
0.0
 41
0.9441620814719612
 10
631.3520705193672
 20
929.8117051346643
 30
0.0
 41
0.9407399284037328
 10
632.5054716776673
 20
929.7867568487346
 30
0.0
 41
1.158669507012491
 10
633.5272561844713
 20
929.7646554559856
 30
0.0
 41
1.158669507012491
 10
634.5490450192963
 20
929.7427529099203
 30
0.0
 41
1.158669507012491
 10
635.5708380509133
 20
929.7210492133495
 30
0.0
 41
1.158669507012491
  0
SPLINE
  5
92
330
1F
100
AcDbEntity
  8
Predefinito
100
AcDbSpline
210
0.0
220
0.0
230
1.0
 70
    28
 71
     3
 72
    11
 73
     7
 74
     0
 42
0.0000000001
 43
0.0000000001
 40
105.7272124767531
 40
105.7272124767531
 40
105.7272124767531
 40
105.7272124767531
 40
105.8569481335828
 40
105.8569481335828
 40
105.8569481335828
 40
106.1853136046268
 40
106.1853136046268
 40
106.1853136046268
 40
106.1853136046268
 10
735.7839455180176
 20
974.3121686242322
 30
0.0
 41
1.09086590194921
 10
735.7839455180176
 20
974.3363337768894
 30
0.0
 41
1.09086590194921
 10
735.7839455180176
 20
974.3475367819726
 30
0.0
 41
1.09086590194921
 10
735.7839455180176
 20
974.3390540333141
 30
0.0
 41
1.09086590194921
 10
735.7839455180098
 20
974.3181045450642
 30
0.0
 41
1.055540505605691
 10
735.7839455180097
 20
974.2796532105302
 30
0.0
 41
1.030266080537602
 10
735.7839455180176
 20
974.2235348863711
 30
0.0
 41
1.015042626744941
  0
SPLINE
  5
93
330
1F
100
AcDbEntity
  8
Predefinito
100
AcDbSpline
210
0.0
220
0.0
230
1.0
 70
    12
 71
     2
 72
    12
 73
     9
 74
     0
 42
0.0000000001
 43
0.0000000001
 40
0.0
 40
0.0
 40
0.0
 40
82.65155893748441
 40
82.65155893748441
 40
165.3031178749688
 40
165.3031178749688
 40
247.9546768124532
 40
247.9546768124532
 40
330.6062357499376
 40
330.6062357499376
 40
330.6062357499376
 10
630.5487219407343
 20
105.2352386191968
 30
0.0
 41
1.0
 10
630.5487158556081
 20
148.8250999093872
 30
0.0
 41
0.9238795191554635
 10
661.3714002135001
 20
179.6477885700449
 30
0.0
 41
1.0
 10
692.1940845713921
 20
210.4704772307026
 30
0.0
 41
0.9238795191554635
 10
735.783945861583
 20
210.4704772306062
 30
0.0
 41
1.0
 10
779.3738071517738
 20
210.4704772305098
 30
0.0
 41
0.9238795191554635
 10
810.1964915095294
 20
179.6477885697157
 30
0.0
 41
1.0
 10
841.0191758672851
 20
148.8250999089217
 30
0.0
 41
0.9238795191554635
 10
841.0191697819662
 20
105.2352386187313
 30
0.0
 41
1.0
  0
SPLINE
  5
94
330
1F
100
AcDbEntity
  8
Predefinito
100
AcDbSpline
210
0.0
220
0.0
230
1.0
 70
    12
 71
     2
 72
    12
 73
     9
 74
     0
 42
0.0000000001
 43
0.0000000001
 40
0.0
 40
0.0
 40
0.0
 40
82.65155893748445
 40
82.65155893748445
 40
165.3031178749689
 40
165.3031178749689
 40
247.9546768124534
 40
247.9546768124534
 40
330.6062357499378
 40
330.6062357499378
 40
330.6062357499378
 10
841.0191697819662
 20
105.2352386187312
 30
0.0
 41
1.0
 10
841.0191758670921
 20
61.64537732854077
 30
0.0
 41
0.9238795191554635
 10
810.1964915092003
 20
30.82268866788304
 30
0.0
 41
1.0
 10
779.3738071513081
 20
0.0000000072253191
 30
0.0
 41
0.9238795191554635
 10
735.7839458611174
 20
0.0000000073217166
 30
0.0
 41
1.0
 10
692.1940845709264
 20
0.0000000074181289
 30
0.0
 41
0.9238795191554635
 10
661.3714002131709
 20
30.82268866821222
 30
0.0
 41
1.0
 10
630.5487158554151
 20
61.64537732900629
 30
0.0
 41
0.9238795191554635
 10
630.5487219407341
 20
105.2352386191967
 30
0.0
 41
1.0
  0
SPLINE
  5
95
330
1F
100
AcDbEntity
  8
Predefinito
100
AcDbSpline
210
0.0
220
0.0
230
1.0
 70
    12
 71
     2
 72
     8
 73
     5
 74
     0
 42
0.0000000001
 43
0.0000000001
 40
0.0
 40
0.0
 40
0.0
 40
106.9015614277272
 40
106.9015614277272
 40
213.8031228554544
 40
213.8031228554544
 40
213.8031228554544
 10
803.839593563209
 20
105.235238618964
 30
0.0
 41
1.0
 10
803.8395935632088
 20
173.2908863208227
 30
0.0
 41
0.707106781186548
 10
735.7839458613503
 20
173.2908863208227
 30
0.0
 41
1.0
 10
667.7282981594915
 20
173.2908863208227
 30
0.0
 41
0.7071067811865478
 10
667.7282981594915
 20
105.235238618964
 30
0.0
 41
1.0
  0
SPLINE
  5
96
330
1F
100
AcDbEntity
  8
Predefinito
100
AcDbSpline
210
0.0
220
0.0
230
1.0
 70
    12
 71
     2
 72
     8
 73
     5
 74
     0
 42
0.0000000001
 43
0.0000000001
 40
0.0
 40
0.0
 40
0.0
 40
106.9015614277272
 40
106.9015614277272
 40
213.8031228554544
 40
213.8031228554544
 40
213.8031228554544
 10
667.7282981594915
 20
105.235238618964
 30
0.0
 41
1.0
 10
667.7282981594915
 20
37.17959091710533
 30
0.0
 41
0.7071067811865478
 10
735.7839458613503
 20
37.17959091710532
 30
0.0
 41
1.0
 10
803.8395935632088
 20
37.17959091710534
 30
0.0
 41
0.7071067811865483
 10
803.839593563209
 20
105.235238618964
 30
0.0
 41
1.0
  0
ENDSEC
  0
SECTION
  2
OBJECTS
  0
DICTIONARY
  5
C
330
0
100
AcDbDictionary
281
     1
  3
ACAD_GROUP
350
D
  3
ACAD_LAYOUT
350
1A
  3
ACAD_MLEADERSTYLE
350
98
  3
ACAD_MLINESTYLE
350
17
  3
ACAD_PLOTSETTINGS
350
19
  3
ACAD_PLOTSTYLENAME
350
E
  3
ACAD_TABLESTYLE
350
97
  3
ACAD_VISUALSTYLE
350
2A
  0
DICTIONARY
  5
D
102
{ACAD_REACTORS
330
C
102
}
330
C
100
AcDbDictionary
281
     1
  0
DICTIONARY
  5
1A
102
{ACAD_REACTORS
330
C
102
}
330
C
100
AcDbDictionary
281
     1
  3
Layout1
350
1E
  3
Layout2
350
26
  3
Model
350
22
  0
DICTIONARY
  5
98
102
{ACAD_REACTORS
330
C
102
}
330
C
100
AcDbDictionary
281
     1
  0
DICTIONARY
  5
17
102
{ACAD_REACTORS
330
C
102
}
330
C
100
AcDbDictionary
281
     1
  3
Standard
350
18
  0
DICTIONARY
  5
19
102
{ACAD_REACTORS
330
C
102
}
330
C
100
AcDbDictionary
281
     1
  0
ACDBDICTIONARYWDFLT
  5
E
102
{ACAD_REACTORS
330
C
102
}
330
C
100
AcDbDictionary
281
     1
  3
Normal
350
F
100
AcDbDictionaryWithDefault
340
F
  0
DICTIONARY
  5
97
102
{ACAD_REACTORS
330
C
102
}
330
C
100
AcDbDictionary
281
     1
  0
DICTIONARY
  5
2A
102
{ACAD_REACTORS
330
C
102
}
330
C
100
AcDbDictionary
281
     1
  3
2dWireframe
350
2F
  3
3D Hidden
350
31
  3
3dWireframe
350
30
  3
Basic
350
32
  3
Brighten
350
36
  3
ColorChange
350
3A
  3
Conceptual
350
34
  3
Dim
350
35
  3
Facepattern
350
39
  3
Flat
350
2B
  3
FlatWithEdges
350
2C
  3
Gouraud
350
2D
  3
GouraudWithEdges
350
2E
  3
Linepattern
350
38
  3
Realistic
350
33
  3
Thicken
350
37
  0
LAYOUT
  5
1E
102
{ACAD_REACTORS
330
1A
102
}
330
1A
100
AcDbPlotSettings
  1

  2
none_device
  4

  6

 40
0.0
 41
0.0
 42
0.0
 43
0.0
 44
0.0
 45
0.0
 46
0.0
 47
0.0
 48
0.0
 49
0.0
140
0.0
141
0.0
142
1.0
143
1.0
 70
   688
 72
     0
 73
     0
 74
     5
  7

 75
    16
 76
     0
 77
     2
 78
   300
147
1.0
148
0.0
149
0.0
100
AcDbLayout
  1
Layout1
 70
     1
 71
     1
 10
0.0
 20
0.0
 11
12.0
 21
9.0
 12
0.0
 22
0.0
 32
0.0
 14
1.000000000000000E+20
 24
1.000000000000000E+20
 34
1.000000000000000E+20
 15
-1.000000000000000E+20
 25
-1.000000000000000E+20
 35
-1.000000000000000E+20
146
0.0
 13
0.0
 23
0.0
 33
0.0
 16
1.0
 26
0.0
 36
0.0
 17
0.0
 27
1.0
 37
0.0
 76
     0
330
1B
  0
LAYOUT
  5
26
102
{ACAD_REACTORS
330
1A
102
}
330
1A
100
AcDbPlotSettings
  1

  2
none_device
  4

  6

 40
0.0
 41
0.0
 42
0.0
 43
0.0
 44
0.0
 45
0.0
 46
0.0
 47
0.0
 48
0.0
 49
0.0
140
0.0
141
0.0
142
1.0
143
1.0
 70
   688
 72
     0
 73
     0
 74
     5
  7

 75
    16
 76
     0
 77
     2
 78
   300
147
1.0
148
0.0
149
0.0
100
AcDbLayout
  1
Layout2
 70
     1
 71
     2
 10
0.0
 20
0.0
 11
0.0
 21
0.0
 12
0.0
 22
0.0
 32
0.0
 14
0.0
 24
0.0
 34
0.0
 15
0.0
 25
0.0
 35
0.0
146
0.0
 13
0.0
 23
0.0
 33
0.0
 16
1.0
 26
0.0
 36
0.0
 17
0.0
 27
1.0
 37
0.0
 76
     0
330
23
  0
LAYOUT
  5
22
102
{ACAD_REACTORS
330
1A
102
}
330
1A
100
AcDbPlotSettings
  1

  2
none_device
  4

  6

 40
0.0
 41
0.0
 42
0.0
 43
0.0
 44
0.0
 45
0.0
 46
0.0
 47
0.0
 48
0.0
 49
0.0
140
0.0
141
0.0
142
1.0
143
1.0
 70
  1712
 72
     0
 73
     0
 74
     0
  7

 75
     0
 76
     0
 77
     2
 78
   300
147
1.0
148
0.0
149
0.0
100
AcDbLayout
  1
Model
 70
     1
 71
     0
 10
0.0
 20
0.0
 11
12.0
 21
9.0
 12
0.0
 22
0.0
 32
0.0
 14
290.0045992981737
 24
0.0000000073217166
 34
0.0
 15
841.0191697819664
 25
1725.345379699548
 35
0.0
146
0.0
 13
0.0
 23
0.0
 33
0.0
 16
1.0
 26
0.0
 36
0.0
 17
0.0
 27
1.0
 37
0.0
 76
     0
330
1F
331
29
  0
MLINESTYLE
  5
18
102
{ACAD_REACTORS
330
17
102
}
330
17
100
AcDbMlineStyle
  2
Standard
 70
     0
  3

 62
   256
 51
90.0
 52
90.0
 71
     2
 49
0.5
 62
   256
  6
BYLAYER
 49
-0.5
 62
   256
  6
BYLAYER
  0
ACDBPLACEHOLDER
  5
F
102
{ACAD_REACTORS
330
E
102
}
330
E
  0
VISUALSTYLE
  5
2F
102
{ACAD_REACTORS
330
2A
102
}
330
2A
100
AcDbVisualStyle
  2
2dWireframe
 70
     4
 71
     0
 72
     2
 73
     0
 90
        0
 40
-0.6
 41
-30.0
 62
     5
 63
     7
421
 16777215
 74
     1
 91
        4
 64
     7
 65
   257
 75
     1
175
     1
 42
1.0
 92
        0
 66
   257
 43
1.0
 76
     1
 77
     6
 78
     2
 67
     7
 79
     5
170
     0
171
     0
290
     0
174
     0
 93
        1
 44
0.0
173
     0
291
     0
 45
0.0
1001
ACAD
1000
AcDbSavedByObjectVersion
1070
     0
  0
VISUALSTYLE
  5
31
102
{ACAD_REACTORS
330
2A
102
}
330
2A
100
AcDbVisualStyle
  2
3D Hidden
 70
     6
 71
     1
 72
     2
 73
     2
 90
        0
 40
-0.6
 41
-30.0
 62
     5
 63
     7
421
 16777215
 74
     2
 91
        2
 64
     7
 65
   257
 75
     2
175
     1
 42
40.0
 92
        0
 66
   257
 43
1.0
 76
     1
 77
     6
 78
     2
 67
     7
 79
     3
170
     0
171
     0
290
     0
174
     0
 93
        1
 44
0.0
173
     0
291
     0
 45
0.0
1001
ACAD
1000
AcDbSavedByObjectVersion
1070
     0
  0
VISUALSTYLE
  5
30
102
{ACAD_REACTORS
330
2A
102
}
330
2A
100
AcDbVisualStyle
  2
3dWireframe
 70
     5
 71
     0
 72
     2
 73
     0
 90
        0
 40
-0.6
 41
-30.0
 62
     5
 63
     7
421
 16777215
 74
     1
 91
        4
 64
     7
 65
   257
 75
     1
175
     1
 42
1.0
 92
        0
 66
   257
 43
1.0
 76
     1
 77
     6
 78
     2
 67
     7
 79
     5
170
     0
171
     0
290
     0
174
     0
 93
        1
 44
0.0
173
     0
291
     0
 45
0.0
1001
ACAD
1000
AcDbSavedByObjectVersion
1070
     0
  0
VISUALSTYLE
  5
32
102
{ACAD_REACTORS
330
2A
102
}
330
2A
100
AcDbVisualStyle
  2
Basic
 70
     7
 71
     1
 72
     0
 73
     1
 90
        0
 40
-0.6
 41
-30.0
 62
     5
 63
     7
421
 16777215
 74
     0
 91
        4
 64
     7
 65
   257
 75
     1
175
     1
 42
1.0
 92
        8
 66
     7
 43
1.0
 76
     1
 77
     6
 78
     2
 67
     7
 79
     5
170
     0
171
     0
290
     0
174
     0
 93
        1
 44
0.0
173
     0
291
     1
 45
0.0
1001
ACAD
1000
AcDbSavedByObjectVersion
1070
     0
  0
VISUALSTYLE
  5
36
102
{ACAD_REACTORS
330
2A
102
}
330
2A
100
AcDbVisualStyle
  2
Brighten
 70
    12
 71
     2
 72
     2
 73
     0
 90
        0
 40
-0.6
 41
-30.0
 62
     5
 63
     7
421
 16777215
 74
     1
 91
        4
 64
     7
 65
   257
 75
     1
175
     1
 42
1.0
 92
        8
 66
     7
 43
1.0
 76
     1
 77
     6
 78
     2
 67
     7
 79
     5
170
     0
171
     0
290
     0
174
     0
 93
        1
 44
50.0
173
     0
291
     1
 45
0.0
1001
ACAD
1000
AcDbSavedByObjectVersion
1070
     0
  0
VISUALSTYLE
  5
3A
102
{ACAD_REACTORS
330
2A
102
}
330
2A
100
AcDbVisualStyle
  2
ColorChange
 70
    16
 71
     2
 72
     2
 73
     3
 90
        0
 40
-0.6
 41
-30.0
 62
     5
 63
     8
421
  8421504
 74
     1
 91
        4
 64
     7
 65
   257
 75
     1
175
     1
 42
1.0
 92
        8
 66
     8
424
  8421504
 43
1.0
 76
     1
 77
     6
 78
     2
 67
     7
 79
     5
170
     0
171
     0
290
     0
174
     0
 93
        1
 44
0.0
173
     0
291
     1
 45
0.0
1001
ACAD
1000
AcDbSavedByObjectVersion
1070
     0
  0
VISUALSTYLE
  5
34
102
{ACAD_REACTORS
330
2A
102
}
330
2A
100
AcDbVisualStyle
  2
Conceptual
 70
     9
 71
     3
 72
     2
 73
     0
 90
        0
 40
-0.6
 41
-30.0
 62
     5
 63
     7
421
 16777215
 74
     2
 91
        2
 64
     7
 65
   257
 75
     1
175
     1
 42
40.0
 92
        8
 66
     7
 43
1.0
 76
     1
 77
     6
 78
     2
 67
     7
 79
     3
170
     0
171
     0
290
     0
174
     0
 93
        1
 44
0.0
173
     0
291
     0
 45
0.0
1001
ACAD
1000
AcDbSavedByObjectVersion
1070
     0
  0
VISUALSTYLE
  5
35
102
{ACAD_REACTORS
330
2A
102
}
330
2A
100
AcDbVisualStyle
  2
Dim
 70
    11
 71
     2
 72
     2
 73
     0
 90
        0
 40
-0.6
 41
-30.0
 62
     5
 63
     7
421
 16777215
 74
     1
 91
        4
 64
     7
 65
   257
 75
     1
175
     1
 42
1.0
 92
        8
 66
     7
 43
1.0
 76
     1
 77
     6
 78
     2
 67
     7
 79
     5
170
     0
171
     0
290
     0
174
     0
 93
        1
 44
-50.0
173
     0
291
     1
 45
0.0
1001
ACAD
1000
AcDbSavedByObjectVersion
1070
     0
  0
VISUALSTYLE
  5
39
102
{ACAD_REACTORS
330
2A
102
}
330
2A
100
AcDbVisualStyle
  2
Facepattern
 70
    15
 71
     2
 72
     2
 73
     0
 90
        0
 40
-0.6
 41
-30.0
 62
     5
 63
     7
421
 16777215
 74
     1
 91
        4
 64
     7
 65
   257
 75
     1
175
     1
 42
1.0
 92
        8
 66
     7
 43
1.0
 76
     1
 77
     6
 78
     2
 67
     7
 79
     5
170
     0
171
     0
290
     0
174
     0
 93
        1
 44
0.0
173
     0
291
     1
 45
0.0
1001
ACAD
1000
AcDbSavedByObjectVersion
1070
     0
  0
VISUALSTYLE
  5
2B
102
{ACAD_REACTORS
330
2A
102
}
330
2A
100
AcDbVisualStyle
  2
Flat
 70
     0
 71
     2
 72
     1
 73
     1
 90
        2
 40
-0.6
 41
30.0
 62
     5
 63
     7
421
 16777215
 74
     0
 91
        4
 64
     7
 65
   257
 75
     1
175
     1
 42
1.0
 92
        8
 66
     7
 43
1.0
 76
     1
 77
     6
 78
     2
 67
     7
 79
     5
170
     0
171
     0
290
     0
174
     0
 93
       13
 44
0.0
173
     0
291
     1
 45
0.0
1001
ACAD
1000
AcDbSavedByObjectVersion
1070
     0
  0
VISUALSTYLE
  5
2C
102
{ACAD_REACTORS
330
2A
102
}
330
2A
100
AcDbVisualStyle
  2
FlatWithEdges
 70
     1
 71
     2
 72
     1
 73
     1
 90
        2
 40
-0.6
 41
30.0
 62
     5
 63
     7
421
 16777215
 74
     1
 91
        4
 64
     7
 65
   257
 75
     1
175
     1
 42
1.0
 92
        0
 66
   257
 43
1.0
 76
     1
 77
     6
 78
     2
 67
     7
 79
     5
170
     0
171
     0
290
     0
174
     0
 93
       13
 44
0.0
173
     0
291
     1
 45
0.0
1001
ACAD
1000
AcDbSavedByObjectVersion
1070
     0
  0
VISUALSTYLE
  5
2D
102
{ACAD_REACTORS
330
2A
102
}
330
2A
100
AcDbVisualStyle
  2
Gouraud
 70
     2
 71
     2
 72
     2
 73
     1
 90
        2
 40
-0.6
 41
30.0
 62
     5
 63
     7
421
 16777215
 74
     0
 91
        4
 64
     7
 65
   257
 75
     1
175
     1
 42
1.0
 92
        0
 66
     7
 43
1.0
 76
     1
 77
     6
 78
     2
 67
     7
 79
     5
170
     0
171
     0
290
     0
174
     0
 93
       13
 44
0.0
173
     0
291
     1
 45
0.0
1001
ACAD
1000
AcDbSavedByObjectVersion
1070
     0
  0
VISUALSTYLE
  5
2E
102
{ACAD_REACTORS
330
2A
102
}
330
2A
100
AcDbVisualStyle
  2
GouraudWithEdges
 70
     3
 71
     2
 72
     2
 73
     1
 90
        2
 40
-0.6
 41
30.0
 62
     5
 63
     7
421
 16777215
 74
     1
 91
        4
 64
     7
 65
   257
 75
     1
175
     1
 42
1.0
 92
        0
 66
   257
 43
1.0
 76
     1
 77
     6
 78
     2
 67
     7
 79
     5
170
     0
171
     0
290
     0
174
     0
 93
       13
 44
0.0
173
     0
291
     1
 45
0.0
1001
ACAD
1000
AcDbSavedByObjectVersion
1070
     0
  0
VISUALSTYLE
  5
38
102
{ACAD_REACTORS
330
2A
102
}
330
2A
100
AcDbVisualStyle
  2
Linepattern
 70
    14
 71
     2
 72
     2
 73
     0
 90
        0
 40
-0.6
 41
-30.0
 62
     5
 63
     7
421
 16777215
 74
     1
 91
        4
 64
     7
 65
   257
 75
     7
175
     7
 42
1.0
 92
        8
 66
     7
 43
1.0
 76
     1
 77
     6
 78
     2
 67
     7
 79
     5
170
     0
171
     0
290
     0
174
     0
 93
        1
 44
0.0
173
     0
291
     1
 45
0.0
1001
ACAD
1000
AcDbSavedByObjectVersion
1070
     0
  0
VISUALSTYLE
  5
33
102
{ACAD_REACTORS
330
2A
102
}
330
2A
100
AcDbVisualStyle
  2
Realistic
 70
     8
 71
     2
 72
     2
 73
     0
 90
        0
 40
-0.6
 41
-30.0
 62
     5
 63
     7
421
 16777215
 74
     1
 91
        0
 64
     7
 65
   257
 75
     1
175
     1
 42
1.0
 92
        8
 66
     8
424
  7895160
 43
1.0
 76
     1
 77
     6
 78
     2
 67
     7
 79
     5
170
     0
171
     0
290
     0
174
     0
 93
       13
 44
0.0
173
     0
291
     0
 45
0.0
1001
ACAD
1000
AcDbSavedByObjectVersion
1070
     0
  0
VISUALSTYLE
  5
37
102
{ACAD_REACTORS
330
2A
102
}
330
2A
100
AcDbVisualStyle
  2
Thicken
 70
    13
 71
     2
 72
     2
 73
     0
 90
        0
 40
-0.6
 41
-30.0
 62
     5
 63
     7
421
 16777215
 74
     1
 91
        4
 64
     7
 65
   257
 75
     1
175
     1
 42
1.0
 92
       12
 66
     7
 43
1.0
 76
     1
 77
     6
 78
     2
 67
     7
 79
     5
170
     0
171
     0
290
     0
174
     0
 93
        1
 44
0.0
173
     0
291
     1
 45
0.0
1001
ACAD
1000
AcDbSavedByObjectVersion
1070
     0
  0
ENDSEC
  0
EOF
