  0
SECTION
  2
HEADER
  9
$ACADVER
  1
AC1015
  9
$ACADMAINTVER
 70
    20
  9
$DWGCODEPAGE
  3
ANSI_1252
  9
$INSBASE
 10
0.0
 20
0.0
 30
0.0
  9
$EXTMIN
 10
-110.1499999999999
 20
-1286.817546181145
 30
0.0
  9
$EXTMAX
 10
889.0955704860857
 20
911.9249999999999
 30
0.0
  9
$LIMMIN
 10
0.0
 20
0.0
  9
$LIMMAX
 10
0.0
 20
0.0
  9
$ORTHOMODE
 70
     0
  9
$REGENMODE
 70
     1
  9
$FILLMODE
 70
     1
  9
$QTEXTMODE
 70
     0
  9
$MIRRTEXT
 70
     1
  9
$LTSCALE
 40
1.0
  9
$ATTMODE
 70
     1
  9
$TEXTSIZE
 40
0.0
  9
$TRACEWID
 40
0.05
  9
$TEXTSTYLE
  7
STANDARD
  9
$CLAYER
  8
0
  9
$CELTYPE
  6
CONTINUOUS
  9
$CECOLOR
 62
   256
  9
$CELTSCALE
 40
1.0
  9
$DISPSILH
 70
     0
  9
$DIMSCALE
 40
1.0
  9
$DIMASZ
 40
6.0
  9
$DIMEXO
 40
1.0
  9
$DIMDLI
 40
0.38
  9
$DIMRND
 40
0.0
  9
$DIMDLE
 40
1.0
  9
$DIMEXE
 40
0.18
  9
$DIMTP
 40
0.0
  9
$DIMTM
 40
0.0
  9
$DIMTXT
 40
3.5
  9
$DIMCEN
 40
0.09
  9
$DIMTSZ
 40
0.0
  9
$DIMTOL
 70
     0
  9
$DIMLIM
 70
     0
  9
$DIMTIH
 70
     1
  9
$DIMTOH
 70
     1
  9
$DIMSE1
 70
     0
  9
$DIMSE2
 70
     0
  9
$DIMTAD
 70
     1
  9
$DIMZIN
 70
     0
  9
$DIMBLK
  1

  9
$DIMASO
 70
     1
  9
$DIMSHO
 70
     1
  9
$DIMPOST
  1

  9
$DIMAPOST
  1

  9
$DIMALT
 70
     0
  9
$DIMALTD
 70
     2
  9
$DIMALTF
 40
0.0394
  9
$DIMLFAC
 40
20.0
  9
$DIMTOFL
 70
     0
  9
$DIMTVP
 40
0.0
  9
$DIMTIX
 70
     0
  9
$DIMSOXD
 70
     0
  9
$DIMSAH
 70
     0
  9
$DIMBLK1
  1

  9
$DIMBLK2
  1

  9
$DIMSTYLE
  2
STANDARD
  9
$DIMCLRD
 70
     0
  9
$DIMCLRE
 70
     0
  9
$DIMCLRT
 70
     0
  9
$DIMTFAC
 40
1.0
  9
$DIMGAP
 40
1.0
  9
$DIMJUST
 70
     0
  9
$DIMSD1
 70
     0
  9
$DIMSD2
 70
     0
  9
$DIMTOLJ
 70
     1
  9
$DIMTZIN
 70
     0
  9
$DIMALTZ
 70
     0
  9
$DIMALTTZ
 70
     0
  9
$DIMUPT
 70
     0
  9
$DIMDEC
 70
     4
  9
$DIMTDEC
 70
     4
  9
$DIMALTU
 70
     2
  9
$DIMALTTD
 70
     2
  9
$DIMTXSTY
  7
STANDARD
  9
$DIMAUNIT
 70
     0
  9
$DIMADEC
 70
     0
  9
$DIMALTRND
 40
0.0
  9
$DIMAZIN
 70
     0
  9
$DIMDSEP
 70
    46
  9
$DIMATFIT
 70
     3
  9
$DIMFRAC
 70
     0
  9
$DIMLDRBLK
  1

  9
$DIMLUNIT
 70
     2
  9
$DIMLWD
 70
    -2
  9
$DIMLWE
 70
    -2
  9
$DIMTMOVE
 70
     0
  9
$LUNITS
 70
     2
  9
$LUPREC
 70
     2
  9
$SKETCHINC
 40
0.1
  9
$FILLETRAD
 40
0.0
  9
$AUNITS
 70
     0
  9
$AUPREC
 70
     2
  9
$MENU
  1
acad
  9
$ELEVATION
 40
0.0
  9
$PELEVATION
 40
0.0
  9
$THICKNESS
 40
0.0
  9
$LIMCHECK
 70
     0
  9
$CHAMFERA
 40
0.0
  9
$CHAMFERB
 40
0.0
  9
$CHAMFERC
 40
0.0
  9
$CHAMFERD
 40
0.0
  9
$SKPOLY
 70
     0
  9
$TDCREATE
 40
2444972.041666667
  9
$TDUCREATE
 40
2444972.000000000
  9
$TDUPDATE
 40
2454148.706740626
  9
$TDUUPDATE
 40
2454148.665073958
  9
$TDINDWG
 40
0.0003351042
  9
$TDUSRTIMER
 40
0.0003351042
  9
$USRTIMER
 70
     1
  9
$ANGBASE
 50
0.0
  9
$ANGDIR
 70
     0
  9
$PDMODE
 70
     0
  9
$PDSIZE
 40
-1.0
  9
$PLINEWID
 40
0.0
  9
$SPLFRAME
 70
     0
  9
$SPLINETYPE
 70
     6
  9
$SPLINESEGS
 70
     8
  9
$HANDSEED
  5
2A2
  9
$SURFTAB1
 70
     6
  9
$SURFTAB2
 70
     6
  9
$SURFTYPE
 70
     6
  9
$SURFU
 70
     6
  9
$SURFV
 70
     6
  9
$UCSBASE
  2

  9
$UCSNAME
  2

  9
$UCSORG
 10
0.0
 20
0.0
 30
0.0
  9
$UCSXDIR
 10
1.0
 20
0.0
 30
0.0
  9
$UCSYDIR
 10
0.0
 20
1.0
 30
0.0
  9
$UCSORTHOREF
  2

  9
$UCSORTHOVIEW
 70
     1
  9
$UCSORGTOP
 10
0.0
 20
0.0
 30
0.0
  9
$UCSORGBOTTOM
 10
0.0
 20
0.0
 30
0.0
  9
$UCSORGLEFT
 10
0.0
 20
0.0
 30
0.0
  9
$UCSORGRIGHT
 10
0.0
 20
0.0
 30
0.0
  9
$UCSORGFRONT
 10
0.0
 20
0.0
 30
0.0
  9
$UCSORGBACK
 10
0.0
 20
0.0
 30
0.0
  9
$PUCSBASE
  2

  9
$PUCSNAME
  2

  9
$PUCSORG
 10
0.0
 20
0.0
 30
0.0
  9
$PUCSXDIR
 10
1.0
 20
0.0
 30
0.0
  9
$PUCSYDIR
 10
0.0
 20
1.0
 30
0.0
  9
$PUCSORTHOREF
  2

  9
$PUCSORTHOVIEW
 70
     0
  9
$PUCSORGTOP
 10
0.0
 20
0.0
 30
0.0
  9
$PUCSORGBOTTOM
 10
0.0
 20
0.0
 30
0.0
  9
$PUCSORGLEFT
 10
0.0
 20
0.0
 30
0.0
  9
$PUCSORGRIGHT
 10
0.0
 20
0.0
 30
0.0
  9
$PUCSORGFRONT
 10
0.0
 20
0.0
 30
0.0
  9
$PUCSORGBACK
 10
0.0
 20
0.0
 30
0.0
  9
$USERI1
 70
     0
  9
$USERI2
 70
     0
  9
$USERI3
 70
     0
  9
$USERI4
 70
     0
  9
$USERI5
 70
     0
  9
$USERR1
 40
0.0
  9
$USERR2
 40
0.0
  9
$USERR3
 40
0.0
  9
$USERR4
 40
0.0
  9
$USERR5
 40
0.0
  9
$WORLDVIEW
 70
     1
  9
$SHADEDGE
 70
     3
  9
$SHADEDIF
 70
    70
  9
$TILEMODE
 70
     1
  9
$MAXACTVP
 70
    16
  9
$PINSBASE
 10
0.0
 20
0.0
 30
0.0
  9
$PLIMCHECK
 70
     0
  9
$PEXTMIN
 10
1.000000000000000E+20
 20
1.000000000000000E+20
 30
1.000000000000000E+20
  9
$PEXTMAX
 10
-1.000000000000000E+20
 20
-1.000000000000000E+20
 30
-1.000000000000000E+20
  9
$PLIMMIN
 10
0.0
 20
0.0
  9
$PLIMMAX
 10
12.0
 20
9.0
  9
$UNITMODE
 70
     0
  9
$VISRETAIN
 70
     0
  9
$PLINEGEN
 70
     1
  9
$PSLTSCALE
 70
     1
  9
$TREEDEPTH
 70
  3020
  9
$CMLSTYLE
  2
STANDARD
  9
$CMLJUST
 70
     0
  9
$CMLSCALE
 40
1.0
  9
$PROXYGRAPHICS
 70
     1
  9
$MEASUREMENT
 70
     0
  9
$CELWEIGHT
370
    -1
  9
$ENDCAPS
280
     0
  9
$JOINSTYLE
280
     0
  9
$LWDISPLAY
290
     0
  9
$INSUNITS
 70
     0
  9
$HYPERLINKBASE
  1

  9
$STYLESHEET
  1

  9
$XEDIT
290
     1
  9
$CEPSNTYPE
380
     0
  9
$PSTYLEMODE
290
     1
  9
$FINGERPRINTGUID
  2
{670F13A0-FC29-4430-BBF8-C77CEC69E305}
  9
$VERSIONGUID
  2
{56569D25-76A7-4A7B-9384-24A8643CDA3D}
  9
$EXTNAMES
290
     1
  9
$PSVPSCALE
 40
0.0
  9
$OLESTARTUP
290
     0
  0
ENDSEC
  0
SECTION
  2
CLASSES
  0
CLASS
  1
IMAGE
  2
AcDbRasterImage
  3
ISM
 90
    32895
280
     0
281
     1
  0
CLASS
  1
DICTIONARYVAR
  2
AcDbDictionaryVar
  3
ObjectDBX Classes
 90
        0
280
     0
281
     0
  0
CLASS
  1
RASTERVARIABLES
  2
AcDbRasterVariables
  3
ISM
 90
    32768
280
     0
281
     0
  0
CLASS
  1
IMAGEDEF
  2
AcDbRasterImageDef
  3
ISM
 90
    32768
280
     0
281
     0
  0
CLASS
  1
IMAGEDEF_REACTOR
  2
AcDbRasterImageDefReactor
  3
ISM
 90
    32769
280
     0
281
     0
  0
CLASS
  1
IDBUFFER
  2
AcDbIdBuffer
  3
ObjectDBX Classes
 90
    32768
280
     0
281
     0
  0
CLASS
  1
SPATIAL_FILTER
  2
AcDbSpatialFilter
  3
ObjectDBX Classes
 90
    32768
280
     0
281
     0
  0
CLASS
  1
SORTENTSTABLE
  2
AcDbSortentsTable
  3
ObjectDBX Classes
 90
    32768
280
     0
281
     0
  0
CLASS
  1
LAYER_INDEX
  2
AcDbLayerIndex
  3
ObjectDBX Classes
 90
    32768
280
     0
281
     0
  0
CLASS
  1
SPATIAL_INDEX
  2
AcDbSpatialIndex
  3
ObjectDBX Classes
 90
    32768
280
     0
281
     0
  0
CLASS
  1
OBJECT_PTR
  2
CAseDLPNTableRecord
  3
ASE-LPNTableRecord
 90
    32769
280
     0
281
     0
  0
CLASS
  1
LAYOUT
  2
AcDbLayout
  3
ObjectDBX Classes
 90
        0
280
     0
281
     0
  0
CLASS
  1
PLOTSETTINGS
  2
AcDbPlotSettings
  3
ObjectDBX Classes
 90
    32768
280
     0
281
     0
  0
CLASS
  1
ACDBDICTIONARYWDFLT
  2
AcDbDictionaryWithDefault
  3
ObjectDBX Classes
 90
        0
280
     0
281
     0
  0
CLASS
  1
ACDBPLACEHOLDER
  2
AcDbPlaceHolder
  3
ObjectDBX Classes
 90
        0
280
     0
281
     0
  0
CLASS
  1
VBA_PROJECT
  2
AcDbVbaProject
  3
acad
 90
    32768
280
     0
281
     0
  0
CLASS
  1
WIPEOUT
  2
AcDbWipeout
  3
"WipeOut|Product Desc: Object Enabler for WipeOut entity^I^I^I^I^I^I|Company: Autodesk, Inc.^I^I^I^I^I^I|WEB Address: www.autodesk.com"
 90
    32895
280
     0
281
     1
  0
CLASS
  1
WIPEOUTVARIABLES
  2
AcDbWipeoutVariables
  3
"WipeOut|Product Desc:     WipeOut Dbx Application|Company:          Autodesk, Inc.|WEB Address:      www.autodesk.com"
 90
    32768
280
     0
281
     0
  0
CLASS
  1
RTEXT
  2
RText
  3
RText|AutoCAD Express Tool|expresstools@autodesk.com
 90
    32768
280
     0
281
     1
  0
CLASS
  1
ARCALIGNEDTEXT
  2
AcDbArcAlignedText
  3
ATEXT|AutoCAD Express Tool|expresstools@autodesk.com
 90
    32768
280
     0
281
     1
  0
CLASS
  1
TABLESTYLE
  2
AcDbTableStyle
  3
ObjectDBX Classes
 90
     2047
280
     0
281
     0
  0
ENDSEC
  0
SECTION
  2
TABLES
  0
TABLE
  2
VPORT
  5
7
330
0
100
AcDbSymbolTable
 70
     3
  0
VPORT
  5
29C
330
7
100
AcDbSymbolTableRecord
100
AcDbViewportTableRecord
  2
*Active
 70
     0
 10
0.0
 20
0.0
 11
1.0
 21
1.0
 12
389.4727852430429
 22
-187.4462730905725
 13
0.0
 23
0.0
 14
1.0
 24
1.0
 15
0.0
 25
0.0
 16
0.0
 26
0.0
 36
1.0
 17
0.0
 27
0.0
 37
0.0
 40
2214.949493695993
 41
1.975399753997539
 42
50.0
 43
0.0
 44
0.0
 50
0.0
 51
0.0
 71
     0
 72
  2000
 73
     1
 74
     1
 75
     0
 76
     0
 77
     0
 78
     0
281
     0
 65
     1
110
0.0
120
0.0
130
0.0
111
1.0
121
0.0
131
0.0
112
0.0
122
1.0
132
0.0
 79
     1
146
0.0
  0
ENDTAB
  0
TABLE
  2
LTYPE
  5
4
330
0
100
AcDbSymbolTable
 70
     6
  0
LTYPE
  5
11
330
4
100
AcDbSymbolTableRecord
100
AcDbLinetypeTableRecord
  2
BYBLOCK
 70
     0
  3

 72
    65
 73
     0
 40
0.0
  0
LTYPE
  5
12
330
4
100
AcDbSymbolTableRecord
100
AcDbLinetypeTableRecord
  2
BYLAYER
 70
     0
  3

 72
    65
 73
     0
 40
0.0
  0
LTYPE
  5
13
330
4
100
AcDbSymbolTableRecord
100
AcDbLinetypeTableRecord
  2
CONTINUOUS
 70
     0
  3
Solid line
 72
    65
 73
     0
 40
0.0
  0
LTYPE
  5
1E
330
4
100
AcDbSymbolTableRecord
100
AcDbLinetypeTableRecord
  2
HIDDEN
 70
     0
  3
Hidden __ __ __ __ __ __ __ __ __ __ __ __ __ __
 72
    65
 73
     2
 40
1.905
 49
1.27
 74
     0
 49
-0.635
 74
     0
  0
LTYPE
  5
1F
330
4
100
AcDbSymbolTableRecord
100
AcDbLinetypeTableRecord
  2
PHANTOM
 70
     0
  3
Phantom ______  __  __  ______  __  __  ______
 72
    65
 73
     6
 40
12.7
 49
6.349999999999999
 74
     0
 49
-1.27
 74
     0
 49
1.27
 74
     0
 49
-1.27
 74
     0
 49
1.27
 74
     0
 49
-1.27
 74
     0
  0
LTYPE
  5
20
330
4
100
AcDbSymbolTableRecord
100
AcDbLinetypeTableRecord
  2
CENTER
 70
     0
  3
Center ____ _ ____ _ ____ _ ____ _ ____ _ ____
 72
    65
 73
     4
 40
10.16
 49
6.349999999999999
 74
     0
 49
-1.27
 74
     0
 49
1.27
 74
     0
 49
-1.27
 74
     0
  0
LTYPE
  5
21
330
4
100
AcDbSymbolTableRecord
100
AcDbLinetypeTableRecord
  2
CENTERX2
 70
     0
  3
Center (2x) ________  __  ________  __  _____
 72
    65
 73
     4
 40
20.32
 49
12.7
 74
     0
 49
-2.54
 74
     0
 49
2.54
 74
     0
 49
-2.54
 74
     0
  0
LTYPE
  5
22
330
4
100
AcDbSymbolTableRecord
100
AcDbLinetypeTableRecord
  2
DOT2
 70
     0
  3
Dot (.5x) ........................................
 72
    65
 73
     2
 40
0.635
 49
0.0
 74
     0
 49
-0.635
 74
     0
  0
ENDTAB
  0
TABLE
  2
LAYER
  5
2
330
0
100
AcDbSymbolTable
 70
     2
  0
LAYER
  5
14
330
2
100
AcDbSymbolTableRecord
100
AcDbLayerTableRecord
  2
0
 70
     0
 62
     7
  6
CONTINUOUS
370
    -3
390
27F
  0
LAYER
  5
26
330
2
100
AcDbSymbolTableRecord
100
AcDbLayerTableRecord
  2
DEFPOINTS
 70
     0
 62
     7
  6
CONTINUOUS
290
     0
370
    -3
390
27F
  0
ENDTAB
  0
TABLE
  2
STYLE
  5
3
330
0
100
AcDbSymbolTable
 70
     1
  0
STYLE
  5
17
330
3
100
AcDbSymbolTableRecord
100
AcDbTextStyleTableRecord
  2
STANDARD
 70
     0
 40
0.0
 41
1.0
 50
0.0
 71
     0
 42
0.0
  3
txt
  4

  0
ENDTAB
  0
TABLE
  2
VIEW
  5
5
330
0
100
AcDbSymbolTable
 70
     0
  0
ENDTAB
  0
TABLE
  2
UCS
  5
6
330
0
100
AcDbSymbolTable
 70
     0
  0
ENDTAB
  0
TABLE
  2
APPID
  5
8
330
0
100
AcDbSymbolTable
 70
     2
  0
APPID
  5
16
330
8
100
AcDbSymbolTableRecord
100
AcDbRegAppTableRecord
  2
ACAD
 70
     0
  0
APPID
  5
28C
330
8
100
AcDbSymbolTableRecord
100
AcDbRegAppTableRecord
  2
DCO15
 70
     0
  0
ENDTAB
  0
TABLE
  2
DIMSTYLE
  5
9
330
0
100
AcDbSymbolTable
 70
     1
100
AcDbDimStyleTable
 71
     0
  0
DIMSTYLE
105
18
330
9
100
AcDbSymbolTableRecord
100
AcDbDimStyleTableRecord
  2
STANDARD
 70
     0
289
     0
340
17
  0
ENDTAB
  0
TABLE
  2
BLOCK_RECORD
  5
1
330
0
100
AcDbSymbolTable
 70
     0
  0
BLOCK_RECORD
  5
A
330
1
100
AcDbSymbolTableRecord
100
AcDbBlockTableRecord
  2
*MODEL_SPACE
340
286
  0
BLOCK_RECORD
  5
B
330
1
100
AcDbSymbolTableRecord
100
AcDbBlockTableRecord
  2
*PAPER_SPACE
340
287
  0
ENDTAB
  0
ENDSEC
  0
SECTION
  2
BLOCKS
  0
BLOCK
  5
D
330
A
100
AcDbEntity
  8
0
100
AcDbBlockBegin
  2
*MODEL_SPACE
 70
     0
 10
0.0
 20
0.0
 30
0.0
  3
*MODEL_SPACE
  1

  0
ENDBLK
  5
E
330
A
100
AcDbEntity
  8
0
100
AcDbBlockEnd
  0
BLOCK
  5
F
330
B
100
AcDbEntity
 67
     1
  8
0
100
AcDbBlockBegin
  2
*PAPER_SPACE
 70
     0
 10
0.0
 20
0.0
 30
0.0
  3
*PAPER_SPACE
  1

  0
ENDBLK
  5
10
330
B
100
AcDbEntity
 67
     1
  8
0
100
AcDbBlockEnd
  0
ENDSEC
  0
SECTION
  2
ENTITIES
  0
LWPOLYLINE
  5
27
330
A
100
AcDbEntity
  8
0
  6
Continuous
 62
     7
100
AcDbPolyline
 90
       35
 70
   128
 43
0.0
 10
249.8499999999999
 20
-588.075
 10
249.7376509665508
 20
-578.0070628096114
 10
249.4007441140404
 20
-567.9516936526915
 10
248.8397000109047
 20
-557.9214448737483
 10
248.0552190211739
 20
-547.928837458955
 10
247.0482804301918
 20
-537.9863454059192
 10
245.8201412221522
 20
-528.1063801521103
 10
244.3723345109769
 20
-518.3012750813811
 10
242.7066676264952
 20
-508.5832701279271
 10
240.8252198583127
 20
-498.9644964968986
 10
238.7303398601877
 20
-489.4569615207452
 10
236.4246427181534
 20
-480.0725336701893
 10
233.9110066860467
 20
-470.8229277385476
 10
231.1925695925193
 20
-461.719690217889
 10
228.2727249240151
 20
-452.774184885288
 10
225.1551175886044
 20
-443.9975786171648
 10
221.8436393659629
 20
-435.4008274494217
 10
218.342424049175
 20
-426.9946629007751
 10
214.6558422844267
 20
-418.7895785763592
 10
210.7884961150292
 20
-410.7958170683205
 10
206.7452132365839
 20
-403.02335716976
 10
202.5310409704616
 20
-395.4819014179788
 10
198.1512399631165
 20
-388.1808639825825
 10
193.6112776191028
 20
-381.1293589135608
 10
188.9168212759898
 20
-374.336188764012
 10
184.0737311296968
 20
-367.8098336017177
 10
179.0880529190774
 20
-361.5584404232829
 10
173.9660103788878
 20
-355.5898129840555
 10
168.7139974705577
 20
-349.911402056522
 10
163.338570400464
 20
-344.530296129341
 10
157.8464394356699
 20
-339.4532125586211
 10
152.2444605273475
 20
-334.6864891824949
 10
146.5396267523383
 20
-330.2360764094514
 10
140.739059583538
 20
-326.1075297903074
 10
134.8500000000007
 20
-322.3060030830873
  0
LWPOLYLINE
  5
4C
330
A
100
AcDbEntity
  8
0
  6
Continuous
 62
     7
100
AcDbPolyline
 90
       35
 70
   128
 43
0.0
 10
4.849999999999965
 20
-322.3060030830869
 10
-1.039059583537269
 20
-326.1075297903069
 10
-6.839626752337569
 20
-330.2360764094509
 10
-12.54446052734678
 20
-334.6864891824943
 10
-18.14643943566928
 20
-339.4532125586206
 10
-23.63857040046335
 20
-344.5302961293403
 10
-29.01399747055709
 20
-349.9114020565214
 10
-34.26601037888719
 20
-355.5898129840548
 10
-39.38805291907679
 20
-361.5584404232822
 10
-44.37373112969619
 20
-367.8098336017169
 10
-49.21682127598928
 20
-374.3361887640111
 10
-53.91127761910222
 20
-381.1293589135599
 10
-58.45123996311596
 20
-388.1808639825817
 10
-62.83104097046107
 20
-395.4819014179779
 10
-67.0452132365834
 20
-403.0233571697591
 10
-71.08849611502868
 20
-410.7958170683195
 10
-74.95584228442628
 20
-418.7895785763581
 10
-78.64242404917459
 20
-426.9946629007741
 10
-82.14363936596249
 20
-435.4008274494206
 10
-85.45511758860403
 20
-443.9975786171638
 10
-88.57272492401472
 20
-452.7741848852868
 10
-91.49256959251891
 20
-461.7196902178878
 10
-94.21100668604635
 20
-470.8229277385465
 10
-96.72464271815309
 20
-480.0725336701882
 10
-99.03033986018749
 20
-489.456961520744
 10
-101.1252198583125
 20
-498.9644964968975
 10
-103.006667626495
 20
-508.5832701279259
 10
-104.6723345109767
 20
-518.30127508138
 10
-106.120141222152
 20
-528.106380152109
 10
-107.3482804301916
 20
-537.986345405918
 10
-108.3552190211737
 20
-547.9288374589538
 10
-109.1397000109046
 20
-557.9214448737472
 10
-109.7007441140404
 20
-567.9516936526903
 10
-110.0376509665508
 20
-578.0070628096104
 10
-110.1499999999999
 20
-588.0749999999988
  0
ARC
  5
71
330
A
100
AcDbEntity
  8
0
  6
Continuous
 62
     7
100
AcDbCircle
 10
131.85
 20
-322.8335189893977
 30
0.0
 40
2.000000000000032
100
AcDbArc
 50
15.29316323352327
 51
59.383660325767
  0
ARC
  5
72
330
A
100
AcDbEntity
  8
0
  6
Continuous
 62
     7
100
AcDbCircle
 10
7.850000000000009
 20
-322.8335189893977
 30
0.0
 40
2.000000000000024
100
AcDbArc
 50
120.6163396742326
 51
164.7068367664775
  0
LWPOLYLINE
  5
73
330
A
100
AcDbEntity
  8
0
  6
Continuous
 62
     7
100
AcDbPolyline
 90
        3
 70
   128
 43
0.0
 10
132.868573724835
 20
-321.1123253433846
 10
126.7987598009635
 20
-317.7149161493049
 10
125.3904211451
 20
-316.9814142159576
  0
LWPOLYLINE
  5
78
330
A
100
AcDbEntity
  8
0
  6
Continuous
 62
     7
100
AcDbPolyline
 90
       19
 70
   128
 43
0.0
 10
123.3817071818474
 20
-315.9702581960358
 10
120.6560957449983
 20
-314.6633576443402
 10
114.4484393907085
 20
-311.9615534506406
 10
108.1837317114708
 20
-309.612959776789
 10
101.8699866619973
 20
-307.6205809965411
 10
95.51528092670521
 20
-305.9869658055636
 10
89.12774358784051
 20
-304.7142039610851
 10
82.7155457265737
 20
-303.8039236086317
 10
76.28688997036912
 20
-303.257289199267
 10
69.84999999999985
 20
-303.0750000000001
 10
63.41311002963052
 20
-303.257289199267
 10
56.98445427342571
 20
-303.8039236086317
 10
50.57225641215866
 20
-304.7142039610851
 10
44.18471907329371
 20
-305.9869658055638
 10
37.83001333800136
 20
-307.6205809965415
 10
31.51626828852764
 20
-309.6129597767895
 10
25.2515606092897
 20
-311.9615534506413
 10
19.04390425499976
 20
-314.663357644341
 10
16.31829281815301
 20
-315.9702581960356
  0
LWPOLYLINE
  5
8D
330
A
100
AcDbEntity
  8
0
  6
Continuous
 62
     7
100
AcDbPolyline
 90
        3
 70
   128
 43
0.0
 10
14.3095788549004
 20
-316.9814142159574
 10
12.9012401990343
 20
-317.714916149306
 10
6.831426275162644
 20
-321.112325343386
  0
ARC
  5
92
330
A
100
AcDbEntity
  8
0
  6
Continuous
 62
     7
100
AcDbCircle
 10
69.84999999999999
 20
1130.163075793812
 30
0.0
 40
250.0
100
AcDbArc
 50
272.9807248786164
 51
279.9687539512738
  0
ARC
  5
93
330
A
100
AcDbEntity
  8
0
  6
Continuous
 62
     7
100
AcDbCircle
 10
69.84999999999999
 20
1130.163075793812
 30
0.0
 40
250.0
100
AcDbArc
 50
280.4337857343913
 51
291.1001960240938
  0
ARC
  5
94
330
A
100
AcDbEntity
  8
0
  6
Continuous
 62
     7
100
AcDbCircle
 10
69.84999999999999
 20
1130.163075793812
 30
0.0
 40
249.9999999999999
100
AcDbArc
 50
248.8998039759078
 51
259.5662142656104
  0
ARC
  5
95
330
A
100
AcDbEntity
  8
0
  6
Continuous
 62
     7
100
AcDbCircle
 10
69.84999999999999
 20
1130.163075793812
 30
0.0
 40
250.0
100
AcDbArc
 50
260.0312460487279
 51
267.0192751213853
  0
LINE
  5
96
330
A
100
AcDbEntity
  8
0
  6
Continuous
 62
     7
100
AcDbLine
 10
119.85
 20
901.9249999999999
 30
0.0
 11
119.85
 21
911.9249999999999
 31
0.0
  0
LINE
  5
97
330
A
100
AcDbEntity
  8
0
  6
Continuous
 62
     7
100
AcDbLine
 10
19.84999999999999
 20
911.9249999999999
 30
0.0
 11
19.84999999999999
 21
901.9249999999999
 31
0.0
  0
LINE
  5
98
330
A
100
AcDbEntity
  8
0
  6
Continuous
 62
     7
100
AcDbLine
 10
159.85
 20
896.9250000000002
 30
0.0
 11
159.85
 21
901.9249999999999
 31
0.0
  0
LINE
  5
99
330
A
100
AcDbEntity
  8
0
  6
Continuous
 62
     7
100
AcDbLine
 10
-20.15000000000005
 20
901.9249999999999
 30
0.0
 11
-20.15000000000009
 21
896.9250000000002
 31
0.0
  0
ARC
  5
9A
330
A
100
AcDbEntity
  8
0
  6
Continuous
 62
     7
100
AcDbCircle
 10
69.84999999999999
 20
1130.163075793812
 30
0.0
 40
250.0
100
AcDbArc
 50
267.1340160174024
 51
272.8659839825992
  0
LINE
  5
9B
330
A
100
AcDbEntity
  8
0
  6
Continuous
 62
     7
100
AcDbLine
 10
57.35
 20
880.5013045912509
 30
0.0
 11
57.35000000000201
 21
880.4757713508347
 31
0.0
  0
LINE
  5
9C
330
A
100
AcDbEntity
  8
0
  6
Continuous
 62
     7
100
AcDbLine
 10
82.34999999999798
 20
880.4757713508347
 30
0.0
 11
82.34999999999999
 21
880.5013045912509
 31
0.0
  0
LINE
  5
9D
330
A
100
AcDbEntity
  8
0
  6
Continuous
 62
     7
100
AcDbLine
 10
24.58930739363688
 20
885.9447354517334
 30
0.0
 11
14.27435075569057
 21
-321.1037800530425
 31
0.0
  0
LINE
  5
9E
330
A
100
AcDbEntity
  8
0
  6
Continuous
 62
     7
100
AcDbLine
 10
16.27871145815418
 20
-320.6020393566571
 30
0.0
 11
26.58516988805385
 21
885.4520221947822
 31
0.0
  0
LINE
  5
9F
330
A
100
AcDbEntity
  8
0
  6
Continuous
 62
     7
100
AcDbLine
 10
68.85000000000001
 20
880.1650758018123
 30
0.0
 11
68.84999999999999
 21
-303.0793981820851
 31
0.0
  0
LINE
  5
A0
330
A
100
AcDbEntity
  8
0
  6
Continuous
 62
     7
100
AcDbLine
 10
70.84999999999999
 20
-303.0793981820851
 30
0.0
 11
70.84999999999999
 21
880.1650758018123
 31
0.0
  0
LINE
  5
A1
330
A
100
AcDbEntity
  8
0
  6
Continuous
 62
     7
100
AcDbLine
 10
113.1148301119464
 20
885.4520221947822
 30
0.0
 11
123.4212885418462
 21
-320.6020393566571
 31
0.0
  0
LINE
  5
A2
330
A
100
AcDbEntity
  8
0
  6
Continuous
 62
     7
100
AcDbLine
 10
125.4256492443098
 20
-321.1037800530425
 30
0.0
 11
115.1106926063634
 21
885.9447354517339
 31
0.0
  0
LINE
  5
A3
330
A
100
AcDbEntity
  8
0
  6
Continuous
 62
     7
100
AcDbLine
 10
4.849999999999993
 20
-322.3060030830869
 30
0.0
 11
134.85
 21
-322.3060030830869
 31
0.0
  0
LINE
  5
A4
330
A
100
AcDbEntity
  8
0
  6
Continuous
 62
     7
100
AcDbLine
 10
249.8499999999999
 20
-588.075
 30
0.0
 11
-110.1499999999999
 21
-588.075
 31
0.0
  0
LINE
  5
A5
330
A
100
AcDbEntity
  8
0
  6
Continuous
 62
     7
100
AcDbLine
 10
146.7730389551125
 20
896.9250000000002
 30
0.0
 11
146.7730389551125
 21
901.9249999999999
 31
0.0
  0
LINE
  5
A6
330
A
100
AcDbEntity
  8
0
  6
Continuous
 62
     7
100
AcDbLine
 10
146.7730389551125
 20
896.9250000000002
 30
0.0
 11
71.84999999999937
 21
896.9250000000002
 31
0.0
  0
LINE
  5
A7
330
A
100
AcDbEntity
  8
0
  6
Continuous
 62
     7
100
AcDbLine
 10
146.7730389551125
 20
901.9249999999999
 30
0.0
 11
71.84999999999937
 21
901.9249999999999
 31
0.0
  0
LINE
  5
A8
330
A
100
AcDbEntity
  8
0
  6
Continuous
 62
     7
100
AcDbLine
 10
71.84999999999937
 20
896.9250000000002
 30
0.0
 11
71.84999999999937
 21
901.9249999999999
 31
0.0
  0
LINE
  5
A9
330
A
100
AcDbEntity
  8
0
  6
Continuous
 62
     7
100
AcDbLine
 10
67.84999999999937
 20
896.9250000000002
 30
0.0
 11
-7.073038955113158
 21
896.9250000000002
 31
0.0
  0
LINE
  5
AA
330
A
100
AcDbEntity
  8
0
  6
Continuous
 62
     7
100
AcDbLine
 10
-7.073038955113158
 20
896.9250000000002
 30
0.0
 11
-7.073038955113131
 21
901.9249999999999
 31
0.0
  0
LINE
  5
AB
330
A
100
AcDbEntity
  8
0
  6
Continuous
 62
     7
100
AcDbLine
 10
67.84999999999937
 20
901.9249999999999
 30
0.0
 11
-7.073038955113131
 21
901.9249999999999
 31
0.0
  0
LINE
  5
AC
330
A
100
AcDbEntity
  8
0
  6
Continuous
 62
     7
100
AcDbLine
 10
67.84999999999937
 20
896.9250000000002
 30
0.0
 11
67.84999999999937
 21
901.9249999999999
 31
0.0
  0
LINE
  5
AD
330
A
100
AcDbEntity
  8
0
  6
Continuous
 62
     7
100
AcDbLine
 10
-9.073038955113133
 20
896.9250000000002
 30
0.0
 11
-20.15000000000009
 21
896.9250000000002
 31
0.0
  0
LWPOLYLINE
  5
AE
330
A
100
AcDbEntity
  8
0
  6
Continuous
 62
     7
100
AcDbPolyline
 90
        9
 70
   128
 43
0.0
 10
24.58509701226755
 20
885.4520397710869
 10
21.16530270203969
 20
886.310197624476
 10
16.76799529241366
 20
887.5125320465297
 10
12.39337822117155
 20
888.8205809658954
 10
8.043357358531004
 20
890.233774510642
 10
3.71982785898739
 20
891.751497000941
 10
-0.5753266643397648
 20
893.3730872172967
 10
-4.840234960332312
 20
895.0978386886175
 10
-9.073038955113133
 20
896.9250000000002
  0
LINE
  5
B9
330
A
100
AcDbEntity
  8
0
  6
Continuous
 62
     7
100
AcDbLine
 10
27.58338469443186
 20
885.2141015154945
 30
0.0
 11
26.58313671253639
 21
885.2141015154945
 31
0.0
  0
LWPOLYLINE
  5
BA
330
A
100
AcDbEntity
  8
0
  6
Continuous
 62
     7
100
AcDbPolyline
 90
        9
 70
   128
 43
0.0
 10
-7.073038955113158
 20
896.9250000000002
 10
-2.84023496033231
 20
895.0978386886175
 10
1.424673335660223
 20
893.3730872172967
 10
5.719827858987391
 20
891.751497000941
 10
10.043357358531
 20
890.233774510642
 10
14.39337822117154
 20
888.8205809658952
 10
18.76799529241364
 20
887.5125320465295
 10
23.16530270203966
 20
886.310197624476
 10
27.58338469443186
 20
885.2141015154945
  0
LINE
  5
C5
330
A
100
AcDbEntity
  8
0
  6
Continuous
 62
     7
100
AcDbLine
 10
71.84999999999965
 20
885.2141015154945
 30
0.0
 11
67.84999999999962
 21
885.2141015154945
 31
0.0
  0
LWPOLYLINE
  5
C6
330
A
100
AcDbEntity
  8
0
  6
Continuous
 62
     7
100
AcDbPolyline
 90
        9
 70
   128
 43
0.0
 10
112.1166153055677
 20
885.2141015154945
 10
116.5346972979599
 20
886.310197624476
 10
120.9320047075859
 20
887.5125320465297
 10
125.306621778828
 20
888.8205809658954
 10
129.6566426414685
 20
890.233774510642
 10
133.980172141012
 20
891.751497000941
 10
138.2753266643391
 20
893.3730872172967
 10
142.5402349603317
 20
895.0978386886175
 10
146.7730389551125
 20
896.9250000000002
  0
LINE
  5
D1
330
A
100
AcDbEntity
  8
0
  6
Continuous
 62
     7
100
AcDbLine
 10
113.1168632874639
 20
885.2141015154945
 30
0.0
 11
112.1166153055677
 21
885.2141015154945
 31
0.0
  0
LWPOLYLINE
  5
D2
330
A
100
AcDbEntity
  8
0
  6
Continuous
 62
     7
100
AcDbPolyline
 90
        9
 70
   128
 43
0.0
 10
148.7730389551125
 20
896.9250000000002
 10
144.5402349603317
 20
895.0978386886175
 10
140.2753266643391
 20
893.3730872172967
 10
135.980172141012
 20
891.751497000941
 10
131.6566426414684
 20
890.233774510642
 10
127.306621778828
 20
888.8205809658952
 10
122.9320047075859
 20
887.5125320465295
 10
118.5346972979599
 20
886.310197624476
 10
115.1149029877327
 20
885.4520397710871
  0
LINE
  5
DD
330
A
100
AcDbEntity
  8
0
  6
Continuous
 62
     7
100
AcDbLine
 10
159.85
 20
896.9250000000002
 30
0.0
 11
148.7730389551125
 21
896.9250000000002
 31
0.0
  0
LINE
  5
DE
330
A
100
AcDbEntity
  8
0
  6
Continuous
 62
     7
100
AcDbLine
 10
69.84999999999999
 20
880.5013045912509
 30
0.0
 11
82.85000000000003
 21
880.5013045912509
 31
0.0
  0
LINE
  5
DF
330
A
100
AcDbEntity
  8
0
  6
Continuous
 62
     7
100
AcDbLine
 10
56.84999999999995
 20
880.5013045912509
 30
0.0
 11
69.84999999999999
 21
880.5013045912509
 31
0.0
  0
LINE
  5
E0
330
A
100
AcDbEntity
  8
0
  6
Continuous
 62
     7
100
AcDbLine
 10
67.84999999999962
 20
885.2141015154945
 30
0.0
 11
67.84999999999937
 21
896.9250000000002
 31
0.0
  0
LINE
  5
E1
330
A
100
AcDbEntity
  8
0
  6
Continuous
 62
     7
100
AcDbLine
 10
71.84999999999937
 20
896.9250000000002
 30
0.0
 11
71.84999999999965
 21
885.2141015154945
 31
0.0
  0
LINE
  5
E2
330
A
100
AcDbEntity
  8
0
  6
Continuous
 62
     7
100
AcDbLine
 10
119.85
 20
911.9249999999999
 30
0.0
 11
19.84999999999999
 21
911.9249999999999
 31
0.0
  0
LINE
  5
E3
330
A
100
AcDbEntity
  8
0
  6
Continuous
 62
     7
100
AcDbLine
 10
148.7730389551125
 20
896.9250000000002
 30
0.0
 11
148.7730389551125
 21
901.9249999999999
 31
0.0
  0
LINE
  5
E4
330
A
100
AcDbEntity
  8
0
  6
Continuous
 62
     7
100
AcDbLine
 10
159.85
 20
901.9249999999999
 30
0.0
 11
148.7730389551125
 21
901.9249999999999
 31
0.0
  0
LINE
  5
E5
330
A
100
AcDbEntity
  8
0
  6
Continuous
 62
     7
100
AcDbLine
 10
148.7730389551125
 20
901.9249999999999
 30
0.0
 11
146.7730389551125
 21
901.9249999999999
 31
0.0
  0
LINE
  5
E6
330
A
100
AcDbEntity
  8
0
  6
Continuous
 62
     7
100
AcDbLine
 10
-9.073038955113133
 20
896.9250000000002
 30
0.0
 11
-9.073038955113105
 21
901.9249999999999
 31
0.0
  0
LINE
  5
E7
330
A
100
AcDbEntity
  8
0
  6
Continuous
 62
     7
100
AcDbLine
 10
-9.073038955113105
 20
901.9249999999999
 30
0.0
 11
-20.15000000000005
 21
901.9249999999999
 31
0.0
  0
LINE
  5
E8
330
A
100
AcDbEntity
  8
0
  6
Continuous
 62
     7
100
AcDbLine
 10
-7.073038955113131
 20
901.9249999999999
 30
0.0
 11
-9.073038955113105
 21
901.9249999999999
 31
0.0
  0
LINE
  5
E9
330
A
100
AcDbEntity
  8
0
  6
Continuous
 62
     7
100
AcDbLine
 10
69.84999999999999
 20
880.4757713508349
 30
0.0
 11
82.34999999999798
 21
880.4757713508347
 31
0.0
  0
LINE
  5
EA
330
A
100
AcDbEntity
  8
0
  6
Continuous
 62
     7
100
AcDbLine
 10
57.35000000000201
 20
880.4757713508347
 30
0.0
 11
69.84999999999999
 21
880.4757713508349
 31
0.0
  0
LWPOLYLINE
  5
EB
330
A
100
AcDbEntity
  8
0
  6
Continuous
 62
     7
100
AcDbPolyline
 90
        5
 70
   128
 43
0.0
 10
14.40833099950998
 20
-321.1024582121115
 10
14.28290833273772
 20
-321.1032093027568
 10
14.30841822884284
 20
-321.1053482279505
 10
14.48097703739109
 20
-321.1085493557213
 10
14.77431424403051
 20
-321.1123253433844
  0
LWPOLYLINE
  5
F2
330
A
100
AcDbEntity
  8
0
  6
Continuous
 62
     7
100
AcDbPolyline
 90
        6
 70
   128
 43
0.0
 10
15.78105751457969
 20
-321.1124023506333
 10
15.77431424403051
 20
-321.1123253433844
 10
15.40485656990237
 20
-321.1085493557213
 10
15.01552501002938
 20
-321.1053482279505
 10
14.66559176510281
 20
-321.1032093027568
 10
14.40833099950998
 20
-321.1024582121115
  0
LWPOLYLINE
  5
FA
330
A
100
AcDbEntity
  8
0
  6
Continuous
 62
     7
100
AcDbPolyline
 90
        6
 70
   128
 43
0.0
 10
125.2916690004904
 20
-321.1024582121115
 10
125.0344082348976
 20
-321.1032093027568
 10
124.684474989971
 20
-321.1053482279505
 10
124.295143430098
 20
-321.1085493557213
 10
123.9256857559699
 20
-321.1123253433844
 10
123.9189424854207
 20
-321.1124023506333
  0
LWPOLYLINE
  5
102
330
A
100
AcDbEntity
  8
0
  6
Continuous
 62
     7
100
AcDbPolyline
 90
        5
 70
   128
 43
0.0
 10
124.9256857559699
 20
-321.1123253433844
 10
125.2190229626093
 20
-321.1085493557213
 10
125.3915817711576
 20
-321.1053482279505
 10
125.4170916672627
 20
-321.1032093027568
 10
125.2916690004904
 20
-321.1024582121115
  0
LINE
  5
109
330
A
100
AcDbEntity
  8
0
  6
PHANTOM
 62
     7
100
AcDbLine
 10
6.831426275164989
 20
-321.1123253433846
 30
0.0
 11
14.77431424404999
 21
-321.1123253433846
 31
0.0
  0
LINE
  5
10A
330
A
100
AcDbEntity
  8
0
  6
PHANTOM
 62
     7
100
AcDbLine
 10
15.27431424403048
 20
-321.1123253433846
 30
0.0
 11
124.4256857559699
 21
-321.1123253433846
 31
0.0
  0
LINE
  5
10B
330
A
100
AcDbEntity
  8
0
  6
PHANTOM
 62
     7
100
AcDbLine
 10
124.9256857559504
 20
-321.1123253433846
 30
0.0
 11
132.868573724835
 21
-321.1123253433846
 31
0.0
  0
LINE
  5
10C
330
A
100
AcDbEntity
  8
0
  6
Continuous
 62
     7
100
AcDbLine
 10
25.21735929064806
 20
-1131.43151277096
 30
0.0
 11
14.77431424403051
 21
-1137.46080763978
 31
0.0
  0
LINE
  5
10D
330
A
100
AcDbEntity
  8
0
  6
Continuous
 62
     7
100
AcDbLine
 10
15.77431424403025
 20
-1139.192858447349
 30
0.0
 11
26.21735929064754
 21
-1133.163563578529
 31
0.0
  0
LINE
  5
10E
330
A
100
AcDbEntity
  8
0
  6
Continuous
 62
     7
100
AcDbLine
 10
70.84999999999999
 20
-1055.857562193964
 30
0.0
 11
70.84999999999999
 21
-1043.798972456311
 31
0.0
  0
LINE
  5
10F
330
A
100
AcDbEntity
  8
0
  6
Continuous
 62
     7
100
AcDbLine
 10
68.84999999999999
 20
-1043.798972456311
 30
0.0
 11
68.85000000000001
 21
-1055.857562193963
 31
0.0
  0
LINE
  5
110
330
A
100
AcDbEntity
  8
0
  6
Continuous
 62
     7
100
AcDbLine
 10
113.4826407093523
 20
-1133.163563578528
 30
0.0
 11
123.9256857559699
 21
-1139.192858447348
 31
0.0
  0
LINE
  5
111
330
A
100
AcDbEntity
  8
0
  6
Continuous
 62
     7
100
AcDbLine
 10
124.9256857559701
 20
-1137.460807639779
 30
0.0
 11
114.4826407093528
 21
-1131.431512770959
 31
0.0
  0
ARC
  5
112
330
A
100
AcDbEntity
  8
0
  6
Continuous
 62
     7
100
AcDbCircle
 10
69.84999999999999
 20
-1106.817546181146
 30
0.0
 40
65.00000000000004
100
AcDbArc
 50
90.0
 51
91.76322535757231
  0
ARC
  5
113
330
A
100
AcDbEntity
  8
0
  6
Continuous
 62
     7
100
AcDbCircle
 10
69.84999999999999
 20
-1106.817546181146
 30
0.0
 40
65.0
100
AcDbArc
 50
148.2367746424303
 51
151.7632253575749
  0
ARC
  5
114
330
A
100
AcDbEntity
  8
0
  6
Continuous
 62
     7
100
AcDbCircle
 10
69.84999999999999
 20
-1106.817546181146
 30
0.0
 40
65.00000000000003
100
AcDbArc
 50
208.2367746424313
 51
211.7632253575759
  0
ARC
  5
115
330
A
100
AcDbEntity
  8
0
  6
Continuous
 62
     7
100
AcDbCircle
 10
69.84999999999999
 20
-1106.817546181146
 30
0.0
 40
65.00000000000006
100
AcDbArc
 50
268.2367746424281
 51
271.7632253575727
  0
ARC
  5
116
330
A
100
AcDbEntity
  8
0
  6
Continuous
 62
     7
100
AcDbCircle
 10
69.84999999999999
 20
-1106.817546181146
 30
0.0
 40
65.0
100
AcDbArc
 50
328.236774642425
 51
331.7632253575697
  0
ARC
  5
117
330
A
100
AcDbEntity
  8
0
  6
Continuous
 62
     7
100
AcDbCircle
 10
69.84999999999999
 20
-1106.817546181146
 30
0.0
 40
65.00000000000006
100
AcDbArc
 50
28.23677464242439
 51
31.76322535756897
  0
ARC
  5
118
330
A
100
AcDbEntity
  8
0
  6
Continuous
 62
     7
100
AcDbCircle
 10
69.84999999999999
 20
-1106.817546181146
 30
0.0
 40
65.00000000000004
100
AcDbArc
 50
88.23677464242768
 51
90.0
  0
CIRCLE
  5
119
330
A
100
AcDbEntity
  8
0
  6
Continuous
 62
     7
100
AcDbCircle
 10
69.84999999999999
 20
-1106.817546181146
 30
0.0
 40
180.0
  0
ARC
  5
11A
330
A
100
AcDbEntity
  8
0
  6
Continuous
 62
     7
100
AcDbCircle
 10
69.84999999999999
 20
-1106.817546181146
 30
0.0
 40
64.00000000000009
100
AcDbArc
 50
88.20921534067105
 51
89.82714448549264
  0
ARC
  5
11B
330
A
100
AcDbEntity
  8
0
  6
Continuous
 62
     7
100
AcDbCircle
 10
69.84999999999999
 20
-1106.817546181146
 30
0.0
 40
64.00000000000003
100
AcDbArc
 50
28.20921534066769
 51
31.79078465932553
  0
ARC
  5
11C
330
A
100
AcDbEntity
  8
0
  6
Continuous
 62
     7
100
AcDbCircle
 10
69.84999999999999
 20
-1106.817546181146
 30
0.0
 40
64.00000000000009
100
AcDbArc
 50
330.1728555145048
 51
331.7907846593261
  0
ARC
  5
11D
330
A
100
AcDbEntity
  8
0
  6
Continuous
 62
     7
100
AcDbCircle
 10
69.84999999999999
 20
-1106.817546181146
 30
0.0
 40
63.99999999999998
100
AcDbArc
 50
328.2092153406683
 51
329.8271444854979
  0
ARC
  5
11E
330
A
100
AcDbEntity
  8
0
  6
Continuous
 62
     7
100
AcDbCircle
 10
69.84999999999999
 20
-1106.817546181146
 30
0.0
 40
64.00000000000002
100
AcDbArc
 50
268.2092153406714
 51
271.7907846593294
  0
ARC
  5
11F
330
A
100
AcDbEntity
  8
0
  6
Continuous
 62
     7
100
AcDbCircle
 10
69.84999999999999
 20
-1106.817546181146
 30
0.0
 40
64.00000000000002
100
AcDbArc
 50
210.1728555145107
 51
211.7907846593326
  0
ARC
  5
120
330
A
100
AcDbEntity
  8
0
  6
Continuous
 62
     7
100
AcDbCircle
 10
69.84999999999999
 20
-1106.817546181146
 30
0.0
 40
64.00000000000004
100
AcDbArc
 50
208.2092153406747
 51
209.8271444854915
  0
ARC
  5
121
330
A
100
AcDbEntity
  8
0
  6
Continuous
 62
     7
100
AcDbCircle
 10
69.84999999999999
 20
-1106.817546181146
 30
0.0
 40
64.00000000000011
100
AcDbArc
 50
148.2092153406735
 51
151.7907846593314
  0
ARC
  5
122
330
A
100
AcDbEntity
  8
0
  6
Continuous
 62
     7
100
AcDbCircle
 10
69.84999999999999
 20
-1106.817546181146
 30
0.0
 40
64.00000000000009
100
AcDbArc
 50
90.17285551450735
 51
91.79078465932894
  0
CIRCLE
  5
123
330
A
100
AcDbEntity
  8
0
  6
Continuous
 62
     7
100
AcDbCircle
 10
69.84999999999999
 20
-1106.817546181151
 30
0.0
 40
13.0
  0
CIRCLE
  5
124
330
A
100
AcDbEntity
  8
0
  6
Continuous
 62
     7
100
AcDbCircle
 10
69.84999999999999
 20
-1106.817546181151
 30
0.0
 40
50.0
  0
LINE
  5
125
330
A
100
AcDbEntity
  8
0
  6
Continuous
 62
     7
100
AcDbLine
 10
114.1166153055679
 20
-1083.569604995126
 30
0.0
 11
148.7730389551128
 21
-1063.560709471912
 31
0.0
  0
ARC
  5
126
330
A
100
AcDbEntity
  8
0
  6
Continuous
 62
     7
100
AcDbCircle
 10
69.84999999999999
 20
-1106.817546181151
 30
0.0
 40
90.0000000000001
100
AcDbArc
 50
331.2733443614082
 51
28.72665563859231
  0
LINE
  5
127
330
A
100
AcDbEntity
  8
0
  6
Continuous
 62
     7
100
AcDbLine
 10
148.7730389551125
 20
-1150.07438289039
 30
0.0
 11
114.1166153055678
 21
-1130.065487367176
 31
0.0
  0
LINE
  5
128
330
A
100
AcDbEntity
  8
0
  6
Continuous
 62
     7
100
AcDbLine
 10
71.84999999999999
 20
-1056.857562193963
 30
0.0
 11
71.84999999999999
 21
-1016.839771147535
 31
0.0
  0
ARC
  5
129
330
A
100
AcDbEntity
  8
0
  6
Continuous
 62
     7
100
AcDbCircle
 10
69.84999999999999
 20
-1106.817546181151
 30
0.0
 40
90.00000000000019
100
AcDbArc
 50
31.2733443614076
 51
88.72665563859241
  0
LINE
  5
12A
330
A
100
AcDbEntity
  8
0
  6
Continuous
 62
     7
100
AcDbLine
 10
146.7730389551127
 20
-1060.096607856774
 30
0.0
 11
112.1166153055679
 21
-1080.105503379988
 31
0.0
  0
LINE
  5
12B
330
A
100
AcDbEntity
  8
0
  6
Continuous
 62
     7
100
AcDbLine
 10
67.85
 20
-1016.839771147535
 30
0.0
 11
67.85
 21
-1056.857562193963
 31
0.0
  0
ARC
  5
12C
330
A
100
AcDbEntity
  8
0
  6
Continuous
 62
     7
100
AcDbCircle
 10
69.84999999999999
 20
-1106.817546181151
 30
0.0
 40
90.00000000000019
100
AcDbArc
 50
91.2733443614076
 51
148.7266556385916
  0
LINE
  5
12D
330
A
100
AcDbEntity
  8
0
  6
Continuous
 62
     7
100
AcDbLine
 10
27.58338469443245
 20
-1080.105503379988
 30
0.0
 11
-7.073038955112159
 21
-1060.096607856773
 31
0.0
  0
LINE
  5
12E
330
A
100
AcDbEntity
  8
0
  6
Continuous
 62
     7
100
AcDbLine
 10
25.58338469443189
 20
-1130.065487367175
 30
0.0
 11
-9.073038955113105
 21
-1150.074382890389
 31
0.0
  0
ARC
  5
12F
330
A
100
AcDbEntity
  8
0
  6
Continuous
 62
     7
100
AcDbCircle
 10
69.84999999999999
 20
-1106.817546181151
 30
0.0
 40
90.00000000000012
100
AcDbArc
 50
151.2733443614069
 51
208.7266556385927
  0
LINE
  5
130
330
A
100
AcDbEntity
  8
0
  6
Continuous
 62
     7
100
AcDbLine
 10
-9.073038955112188
 20
-1063.560709471911
 30
0.0
 11
25.58338469443239
 21
-1083.569604995125
 31
0.0
  0
LINE
  5
131
330
A
100
AcDbEntity
  8
0
  6
Continuous
 62
     7
100
AcDbLine
 10
112.1166153055677
 20
-1133.529588982313
 30
0.0
 11
146.7730389551125
 21
-1153.538484505528
 31
0.0
  0
ARC
  5
132
330
A
100
AcDbEntity
  8
0
  6
Continuous
 62
     7
100
AcDbCircle
 10
69.84999999999999
 20
-1106.817546181151
 30
0.0
 40
90.00000000000005
100
AcDbArc
 50
271.273344361408
 51
328.726655638593
  0
LINE
  5
133
330
A
100
AcDbEntity
  8
0
  6
Continuous
 62
     7
100
AcDbLine
 10
71.84999999999937
 20
-1196.795321214767
 30
0.0
 11
71.84999999999965
 21
-1156.777530168338
 31
0.0
  0
LINE
  5
134
330
A
100
AcDbEntity
  8
0
  6
Continuous
 62
     7
100
AcDbLine
 10
67.84999999999962
 20
-1156.777530168338
 30
0.0
 11
67.84999999999937
 21
-1196.795321214767
 31
0.0
  0
ARC
  5
135
330
A
100
AcDbEntity
  8
0
  6
Continuous
 62
     7
100
AcDbCircle
 10
69.84999999999999
 20
-1106.817546181151
 30
0.0
 40
90.0000000000001
100
AcDbArc
 50
211.2733443614079
 51
268.7266556385928
  0
LINE
  5
136
330
A
100
AcDbEntity
  8
0
  6
Continuous
 62
     7
100
AcDbLine
 10
-7.073038955113131
 20
-1153.538484505527
 30
0.0
 11
27.58338469443188
 21
-1133.529588982312
 31
0.0
  0
CIRCLE
  5
137
330
A
100
AcDbEntity
  8
0
  6
Continuous
 62
     7
100
AcDbCircle
 10
69.84999999999999
 20
-1106.817546181151
 30
0.0
 40
12.5
  0
LWPOLYLINE
  5
138
330
A
100
AcDbEntity
  8
0
  6
Continuous
 62
     7
100
AcDbPolyline
 90
        9
 70
   128
 43
0.0
 10
24.85137604612726
 20
-1132.797513834082
 10
24.72595337935501
 20
-1132.428041879125
 10
24.75146327546012
 20
-1132.038701918195
 10
24.92402208400838
 20
-1131.688767430968
 10
25.21735929064779
 20
-1131.43151277096
 10
25.58681696477593
 20
-1131.306102628139
 10
25.97614852464893
 20
-1131.331629559903
 10
26.32608176957551
 20
-1131.504207322293
 10
26.41077325082208
 20
-1131.577061108417
  0
LWPOLYLINE
  5
143
330
A
100
AcDbEntity
  8
0
  6
Continuous
 62
     7
100
AcDbPolyline
 90
        9
 70
   128
 43
0.0
 10
26.68801771301887
 20
-1132.057262603058
 10
26.70876520194059
 20
-1132.167034470364
 10
26.68325530583548
 20
-1132.556374431294
 10
26.51069649728722
 20
-1132.906308918521
 10
26.2173592906478
 20
-1133.163563578529
 10
25.84790161651966
 20
-1133.28897372135
 10
25.45857005664666
 20
-1133.263446789586
 10
25.10863681172009
 20
-1133.090869027196
 10
24.85137604612726
 20
-1132.797513834082
  0
LWPOLYLINE
  5
14E
330
A
100
AcDbEntity
  8
0
  6
Continuous
 62
     7
100
AcDbPolyline
 90
        5
 70
   128
 43
0.0
 10
14.40833099950998
 20
-1138.826808702902
 10
14.28290833273772
 20
-1138.457336747944
 10
14.30841822884284
 20
-1138.067996787014
 10
14.48097703739109
 20
-1137.718062299787
 10
14.77431424403051
 20
-1137.46080763978
  0
LWPOLYLINE
  5
155
330
A
100
AcDbEntity
  8
0
  6
Continuous
 62
     7
100
AcDbPolyline
 90
        5
 70
   128
 43
0.0
 10
15.77431424403025
 20
-1139.192858447349
 10
15.40485656990237
 20
-1139.31826859017
 10
15.01552501002938
 20
-1139.292741658406
 10
14.66559176510281
 20
-1139.120163896016
 10
14.40833099950998
 20
-1138.826808702902
  0
LWPOLYLINE
  5
15C
330
A
100
AcDbEntity
  8
0
  6
Continuous
 62
     7
100
AcDbPolyline
 90
        9
 70
   128
 43
0.0
 10
69.84999999999999
 20
-1054.857610875288
 10
70.23268343236509
 20
-1054.933727637132
 10
70.55710678118654
 20
-1055.150489835672
 10
70.77387953251129
 20
-1055.474897391135
 10
70.84999999999999
 20
-1055.857562193963
 10
70.77387953251129
 20
-1056.240226996792
 10
70.55710678118654
 20
-1056.564634552255
 10
70.23268343236508
 20
-1056.781396750795
 10
70.12989464333464
 20
-1056.817546181151
  0
LWPOLYLINE
  5
167
330
A
100
AcDbEntity
  8
0
  6
Continuous
 62
     7
100
AcDbPolyline
 90
        9
 70
   128
 43
0.0
 10
69.57010535666537
 20
-1056.817546181151
 10
69.46731656763489
 20
-1056.781396750795
 10
69.14289321881345
 20
-1056.564634552255
 10
68.9261204674887
 20
-1056.240226996792
 10
68.84999999999999
 20
-1055.857562193963
 10
68.92612046748872
 20
-1055.474897391135
 10
69.14289321881347
 20
-1055.150489835672
 10
69.46731656763493
 20
-1054.933727637132
 10
69.84999999999999
 20
-1054.857610875288
  0
LWPOLYLINE
  5
172
330
A
100
AcDbEntity
  8
0
  6
Continuous
 62
     7
100
AcDbPolyline
 90
        5
 70
   128
 43
0.0
 10
69.84999999999999
 20
-1042.799021137636
 10
70.23268343236509
 20
-1042.87513789948
 10
70.55710678118654
 20
-1043.09190009802
 10
70.77387953251129
 20
-1043.416307653483
 10
70.84999999999999
 20
-1043.798972456311
  0
LWPOLYLINE
  5
179
330
A
100
AcDbEntity
  8
0
  6
Continuous
 62
     7
100
AcDbPolyline
 90
        5
 70
   128
 43
0.0
 10
68.84999999999999
 20
-1043.798972456311
 10
68.92612046748872
 20
-1043.416307653483
 10
69.14289321881347
 20
-1043.09190009802
 10
69.46731656763493
 20
-1042.87513789948
 10
69.84999999999999
 20
-1042.799021137636
  0
LWPOLYLINE
  5
180
330
A
100
AcDbEntity
  8
0
  6
Continuous
 62
     7
100
AcDbPolyline
 90
        9
 70
   128
 43
0.0
 10
114.8486239538731
 20
-1132.797513834082
 10
114.5913631882802
 20
-1133.090869027195
 10
114.2414299433537
 20
-1133.263446789586
 10
113.8520983834807
 20
-1133.288973721349
 10
113.4826407093525
 20
-1133.163563578528
 10
113.1893035027131
 20
-1132.906308918521
 10
113.0167446941648
 20
-1132.556374431294
 10
112.9912347980597
 20
-1132.167034470364
 10
113.0119822869814
 20
-1132.057262603058
  0
LWPOLYLINE
  5
18B
330
A
100
AcDbEntity
  8
0
  6
Continuous
 62
     7
100
AcDbPolyline
 90
        9
 70
   128
 43
0.0
 10
113.2892267491782
 20
-1131.577061108416
 10
113.3739182304248
 20
-1131.504207322292
 10
113.7238514753514
 20
-1131.331629559902
 10
114.1131830352244
 20
-1131.306102628138
 10
114.4826407093525
 20
-1131.431512770959
 10
114.7759779159919
 20
-1131.688767430967
 10
114.9485367245402
 20
-1132.038701918194
 10
114.9740466206453
 20
-1132.428041879124
 10
114.8486239538731
 20
-1132.797513834082
  0
LWPOLYLINE
  5
196
330
A
100
AcDbEntity
  8
0
  6
Continuous
 62
     7
100
AcDbPolyline
 90
        5
 70
   128
 43
0.0
 10
125.2916690004904
 20
-1138.826808702901
 10
125.0344082348976
 20
-1139.120163896015
 10
124.684474989971
 20
-1139.292741658405
 10
124.295143430098
 20
-1139.318268590169
 10
123.9256857559699
 20
-1139.192858447348
  0
LWPOLYLINE
  5
19D
330
A
100
AcDbEntity
  8
0
  6
Continuous
 62
     7
100
AcDbPolyline
 90
        5
 70
   128
 43
0.0
 10
124.9256857559701
 20
-1137.460807639779
 10
125.2190229626093
 20
-1137.718062299787
 10
125.3915817711576
 20
-1138.067996787013
 10
125.4170916672627
 20
-1138.457336747944
 10
125.2916690004904
 20
-1138.826808702901
  0
ARC
  5
1A4
330
A
100
AcDbEntity
  8
0
  6
PHANTOM
 62
     7
100
AcDbCircle
 10
69.84999999999999
 20
-1106.817546181146
 30
0.0
 40
63.01857372483515
100
AcDbArc
 50
90.90922693027229
 51
91.81868292782624
  0
ARC
  5
1A5
330
A
100
AcDbEntity
  8
0
  6
PHANTOM
 62
     7
100
AcDbCircle
 10
69.84999999999999
 20
-1106.817546181146
 30
0.0
 40
63.01857372483508
100
AcDbArc
 50
148.1813170721764
 51
151.8186829278288
  0
ARC
  5
1A6
330
A
100
AcDbEntity
  8
0
  6
PHANTOM
 62
     7
100
AcDbCircle
 10
69.84999999999999
 20
-1106.817546181146
 30
0.0
 40
63.01857372483503
100
AcDbArc
 50
208.1813170721774
 51
209.0907730697288
  0
ARC
  5
1A7
330
A
100
AcDbEntity
  8
0
  6
PHANTOM
 62
     7
100
AcDbCircle
 10
69.84999999999999
 20
-1106.817546181146
 30
0.0
 40
63.01857372483503
100
AcDbArc
 50
210.9092269302734
 51
211.8186829278299
  0
ARC
  5
1A8
330
A
100
AcDbEntity
  8
0
  6
PHANTOM
 62
     7
100
AcDbCircle
 10
69.84999999999999
 20
-1106.817546181146
 30
0.0
 40
63.01857372483516
100
AcDbArc
 50
268.1813170721742
 51
271.8186829278267
  0
ARC
  5
1A9
330
A
100
AcDbEntity
  8
0
  6
PHANTOM
 62
     7
100
AcDbCircle
 10
69.84999999999999
 20
-1106.817546181146
 30
0.0
 40
63.0185737248351
100
AcDbArc
 50
328.1813170721708
 51
329.0907730697289
  0
ARC
  5
1AA
330
A
100
AcDbEntity
  8
0
  6
PHANTOM
 62
     7
100
AcDbCircle
 10
69.84999999999999
 20
-1106.817546181146
 30
0.0
 40
63.01857372483507
100
AcDbArc
 50
330.9092269302736
 51
331.8186829278234
  0
ARC
  5
1AB
330
A
100
AcDbEntity
  8
0
  6
PHANTOM
 62
     7
100
AcDbCircle
 10
69.84999999999999
 20
-1106.817546181146
 30
0.0
 40
63.01857372483511
100
AcDbArc
 50
28.18131707217042
 51
31.81868292782282
  0
ARC
  5
1AC
330
A
100
AcDbEntity
  8
0
  6
PHANTOM
 62
     7
100
AcDbCircle
 10
69.84999999999999
 20
-1106.817546181146
 30
0.0
 40
63.01857372483515
100
AcDbArc
 50
88.18131707217377
 51
89.0907730697277
  0
LWPOLYLINE
  5
1AD
330
A
100
AcDbEntity
  8
0
  6
Continuous
 62
     7
100
AcDbPolyline
 90
       35
 70
   128
 43
0.0
 10
889.0955704860857
 20
-588.075
 10
888.9832214526366
 20
-578.0070628096114
 10
888.6463146001263
 20
-567.9516936526915
 10
888.0852704969905
 20
-557.9214448737483
 10
887.3007895072598
 20
-547.928837458955
 10
886.2938509162775
 20
-537.9863454059192
 10
885.0657117082381
 20
-528.1063801521103
 10
883.6179049970628
 20
-518.3012750813811
 10
881.952238112581
 20
-508.5832701279271
 10
880.0707903443985
 20
-498.9644964968986
 10
877.9759103462735
 20
-489.4569615207452
 10
875.6702132042391
 20
-480.0725336701893
 10
873.1565771721324
 20
-470.8229277385476
 10
870.4381400786051
 20
-461.719690217889
 10
867.5182954101009
 20
-452.774184885288
 10
864.4006880746902
 20
-443.9975786171648
 10
861.0892098520487
 20
-435.4008274494217
 10
857.5879945352609
 20
-426.9946629007751
 10
853.9014127705126
 20
-418.7895785763592
 10
850.0340666011149
 20
-410.7958170683205
 10
845.9907837226698
 20
-403.02335716976
 10
841.7766114565475
 20
-395.4819014179788
 10
837.3968104492023
 20
-388.1808639825825
 10
832.8568481051886
 20
-381.1293589135608
 10
828.1623917620757
 20
-374.336188764012
 10
823.3193016157827
 20
-367.8098336017177
 10
818.3336234051633
 20
-361.5584404232829
 10
813.2115808649738
 20
-355.5898129840555
 10
807.9595679566436
 20
-349.911402056522
 10
802.5841408865497
 20
-344.530296129341
 10
797.0920099217558
 20
-339.4532125586211
 10
791.4900310134334
 20
-334.6864891824949
 10
785.785197238424
 20
-330.2360764094514
 10
779.9846300696238
 20
-326.1075297903074
 10
774.0955704860866
 20
-322.3060030830873
  0
LWPOLYLINE
  5
1D2
330
A
100
AcDbEntity
  8
0
  6
Continuous
 62
     7
100
AcDbPolyline
 90
       35
 70
   128
 43
0.0
 10
644.0955704860857
 20
-322.3060030830869
 10
638.2065109025485
 20
-326.1075297903069
 10
632.4059437337482
 20
-330.2360764094509
 10
626.701109958739
 20
-334.6864891824943
 10
621.0991310504165
 20
-339.4532125586206
 10
615.6070000856225
 20
-344.5302961293403
 10
610.2315730155287
 20
-349.9114020565214
 10
604.9795601071987
 20
-355.5898129840548
 10
599.8575175670091
 20
-361.5584404232822
 10
594.8718393563896
 20
-367.8098336017169
 10
590.0287492100966
 20
-374.3361887640111
 10
585.3342928669835
 20
-381.1293589135599
 10
580.7943305229698
 20
-388.1808639825817
 10
576.4145295156247
 20
-395.4819014179779
 10
572.2003572495024
 20
-403.0233571697591
 10
568.1570743710571
 20
-410.7958170683195
 10
564.2897282016596
 20
-418.7895785763581
 10
560.6031464369111
 20
-426.9946629007741
 10
557.1019311201232
 20
-435.4008274494206
 10
553.7904528974818
 20
-443.9975786171638
 10
550.672845562071
 20
-452.7741848852868
 10
547.7530008935668
 20
-461.7196902178878
 10
545.0345638000396
 20
-470.8229277385465
 10
542.5209277679328
 20
-480.0725336701882
 10
540.2152306258983
 20
-489.456961520744
 10
538.1203506277732
 20
-498.9644964968975
 10
536.2389028595909
 20
-508.5832701279259
 10
534.5732359751091
 20
-518.30127508138
 10
533.1254292639338
 20
-528.106380152109
 10
531.8972900558942
 20
-537.986345405918
 10
530.8903514649119
 20
-547.9288374589538
 10
530.1058704751811
 20
-557.9214448737472
 10
529.5448263720454
 20
-567.9516936526903
 10
529.207919519535
 20
-578.0070628096104
 10
529.0955704860858
 20
-588.0749999999988
  0
ARC
  5
1F7
330
A
100
AcDbEntity
  8
0
  6
Continuous
 62
     7
100
AcDbCircle
 10
771.0955704860857
 20
-322.8335189893977
 30
0.0
 40
2.000000000000105
100
AcDbArc
 50
15.29316323351855
 51
59.3836603257673
  0
ARC
  5
1F8
330
A
100
AcDbEntity
  8
0
  6
Continuous
 62
     7
100
AcDbCircle
 10
647.0955704860858
 20
-322.8335189893977
 30
0.0
 40
2.000000000000047
100
AcDbArc
 50
120.6163396742337
 51
164.7068367664752
  0
LWPOLYLINE
  5
1F9
330
A
100
AcDbEntity
  8
0
  6
Continuous
 62
     7
100
AcDbPolyline
 90
        6
 70
   128
 43
0.0
 10
772.1141442109208
 20
-321.1123253433846
 10
766.0443302870494
 20
-317.7149161493049
 10
759.9016662310841
 20
-314.6633576443402
 10
753.6940098767943
 20
-311.9615534506406
 10
747.4293021975567
 20
-309.612959776789
 10
741.5389057942936
 20
-307.7425804134171
  0
LWPOLYLINE
  5
201
330
A
100
AcDbEntity
  8
0
  6
Continuous
 62
     7
100
AcDbPolyline
 90
       16
 70
   128
 43
0.0
 10
739.5361058018216
 20
-307.1800025007045
 10
734.760851412791
 20
-305.9869658055636
 10
728.3733140739264
 20
-304.7142039610851
 10
721.9611162126596
 20
-303.8039236086317
 10
715.532460456455
 20
-303.257289199267
 10
709.0955704860857
 20
-303.0750000000001
 10
702.6586805157164
 20
-303.257289199267
 10
696.2300247595115
 20
-303.8039236086317
 10
689.8178268982445
 20
-304.7142039610851
 10
683.4302895593796
 20
-305.9869658055638
 10
677.0755838240871
 20
-307.6205809965415
 10
670.7618387746134
 20
-309.6129597767895
 10
664.4971310953756
 20
-311.9615534506413
 10
658.2894747410855
 20
-314.663357644341
 10
652.1468106851202
 20
-317.714916149306
 10
647.0828658987984
 20
-320.5224709728986
  0
ARC
  5
213
330
A
100
AcDbEntity
  8
0
  6
Continuous
 62
     7
100
AcDbCircle
 10
709.0955704860858
 20
1130.163075793812
 30
0.0
 40
250.0
100
AcDbArc
 50
272.9807248786163
 51
275.6416170795953
  0
ARC
  5
214
330
A
100
AcDbEntity
  8
0
  6
Continuous
 62
     7
100
AcDbCircle
 10
709.0955704860858
 20
1130.163075793812
 30
0.0
 40
250.0
100
AcDbArc
 50
276.1021741502176
 51
281.5369590328164
  0
ARC
  5
215
330
A
100
AcDbEntity
  8
0
  6
Continuous
 62
     7
100
AcDbCircle
 10
709.0955704860858
 20
1130.163075793812
 30
0.0
 40
250.0
100
AcDbArc
 50
258.4630409671852
 51
267.0192751213853
  0
LINE
  5
216
330
A
100
AcDbEntity
  8
0
  6
Continuous
 62
     7
100
AcDbLine
 10
759.0955704860858
 20
885.2141015154945
 30
0.0
 11
759.0955704860858
 21
885.2222666173911
 31
0.0
  0
LINE
  5
217
330
A
100
AcDbEntity
  8
0
  6
Continuous
 62
     7
100
AcDbLine
 10
759.0955704860858
 20
901.9249999999999
 30
0.0
 11
759.0955704860858
 21
911.9249999999999
 31
0.0
  0
LINE
  5
218
330
A
100
AcDbEntity
  8
0
  6
Continuous
 62
     7
100
AcDbLine
 10
659.0955704860857
 20
911.9249999999999
 30
0.0
 11
659.0955704860857
 21
901.9249999999999
 31
0.0
  0
LINE
  5
219
330
A
100
AcDbEntity
  8
0
  6
Continuous
 62
     7
100
AcDbLine
 10
659.0955704860857
 20
885.2222666173911
 30
0.0
 11
659.0955704860858
 21
885.2141015154945
 31
0.0
  0
LINE
  5
21A
330
A
100
AcDbEntity
  8
0
  6
Continuous
 62
     7
100
AcDbLine
 10
696.5955704860858
 20
880.5013045912509
 30
0.0
 11
696.5955704860858
 21
880.4757713508349
 31
0.0
  0
LINE
  5
21B
330
A
100
AcDbEntity
  8
0
  6
Continuous
 62
     7
100
AcDbLine
 10
721.5955704860857
 20
880.4757713508349
 30
0.0
 11
721.5955704860857
 21
880.5013045912509
 31
0.0
  0
ARC
  5
21C
330
A
100
AcDbEntity
  8
0
  6
Continuous
 62
     7
100
AcDbCircle
 10
709.0955704860858
 20
1130.163075793812
 30
0.0
 40
250.0
100
AcDbArc
 50
267.1340160174024
 51
272.8659839825992
  0
LINE
  5
21D
330
A
100
AcDbEntity
  8
0
  6
Continuous
 62
     7
100
AcDbLine
 10
733.6503628341716
 20
885.7617511091044
 30
0.0
 11
739.6034007717564
 21
-320.8195684628055
 31
0.0
  0
LINE
  5
21E
330
A
100
AcDbEntity
  8
0
  6
Continuous
 62
     7
100
AcDbLine
 10
741.604845177506
 20
-321.1073915976131
 30
0.0
 11
735.6459823518871
 21
886.6545354497052
 31
0.0
  0
LINE
  5
21F
330
A
100
AcDbEntity
  8
0
  6
Continuous
 62
     7
100
AcDbLine
 10
656.9849344006119
 20
885.6626021607999
 30
0.0
 11
645.0770454425756
 21
-321.1024582121115
 31
0.0
  0
LINE
  5
220
330
A
100
AcDbEntity
  8
0
  6
Continuous
 62
     7
100
AcDbLine
 10
647.0828658987984
 20
-320.5224709728986
 30
0.0
 11
658.9808375112305
 21
885.2375492783856
 31
0.0
  0
LINE
  5
221
330
A
100
AcDbEntity
  8
0
  6
Continuous
 62
     7
100
AcDbLine
 10
644.0955704860857
 20
-322.3060030830868
 30
0.0
 11
774.0955704860859
 21
-322.3060030830869
 31
0.0
  0
LINE
  5
222
330
A
100
AcDbEntity
  8
0
  6
Continuous
 62
     7
100
AcDbLine
 10
889.0955704860857
 20
-588.075
 30
0.0
 11
529.0955704860857
 21
-588.075
 31
0.0
  0
LWPOLYLINE
  5
223
330
A
100
AcDbEntity
  8
0
  6
Continuous
 62
     7
100
AcDbPolyline
 90
        9
 70
   128
 43
0.0
 10
665.838733776846
 20
896.9250000000002
 10
668.2825443026597
 20
895.0978386886175
 10
670.7448902554201
 20
893.3730872172967
 10
673.2246988756741
 20
891.751497000941
 10
675.7208897960849
 20
890.233774510642
 10
678.2323755121109
 20
888.8205809658952
 10
680.7580618557941
 20
887.5125320465295
 10
683.2968484724513
 20
886.310197624476
 10
685.8476293000608
 20
885.2141015154945
  0
LINE
  5
22E
330
A
100
AcDbEntity
  8
0
  6
Continuous
 62
     7
100
AcDbLine
 10
752.3524071953247
 20
896.9250000000002
 30
0.0
 11
665.838733776846
 21
896.9250000000002
 31
0.0
  0
LWPOLYLINE
  5
22F
330
A
100
AcDbEntity
  8
0
  6
Continuous
 62
     7
100
AcDbPolyline
 90
        9
 70
   128
 43
0.0
 10
732.3435116721103
 20
885.2141015154945
 10
734.8942924997198
 20
886.310197624476
 10
737.4330791163767
 20
887.5125320465297
 10
739.9587654600598
 20
888.8205809658954
 10
742.4702511760858
 20
890.233774510642
 10
744.9664420964966
 20
891.751497000941
 10
747.4462507167506
 20
893.3730872172967
 10
749.9085966695109
 20
895.0978386886175
 10
752.3524071953247
 20
896.9250000000002
  0
LINE
  5
23A
330
A
100
AcDbEntity
  8
0
  6
Continuous
 62
     7
100
AcDbLine
 10
735.807613287248
 20
885.2141015154945
 30
0.0
 11
735.653089173216
 21
885.2141015154945
 31
0.0
  0
LINE
  5
23B
330
A
100
AcDbEntity
  8
0
  6
Continuous
 62
     7
100
AcDbLine
 10
733.6530648309243
 20
885.2141015154945
 30
0.0
 11
732.3435116721103
 21
885.2141015154945
 31
0.0
  0
LWPOLYLINE
  5
23C
330
A
100
AcDbEntity
  8
0
  6
Continuous
 62
     7
100
AcDbPolyline
 90
        9
 70
   128
 43
0.0
 10
755.8165088104622
 20
896.9250000000002
 10
753.3726982846486
 20
895.0978386886175
 10
750.9103523318883
 20
893.3730872172967
 10
748.4305437116343
 20
891.751497000941
 10
745.9343527912237
 20
890.233774510642
 10
743.4228670751977
 20
888.8205809658952
 10
740.8971807315146
 20
887.5125320465295
 10
738.3583941148574
 20
886.310197624476
 10
735.807613287248
 20
885.2141015154945
  0
LINE
  5
247
330
A
100
AcDbEntity
  8
0
  6
Continuous
 62
     7
100
AcDbLine
 10
799.0733455197019
 20
896.9250000000002
 30
0.0
 11
755.8165088104622
 21
896.9250000000002
 31
0.0
  0
ARC
  5
248
330
A
100
AcDbEntity
  8
0
  6
Continuous
 62
     7
100
AcDbCircle
 10
709.0955704860858
 20
1130.163075793812
 30
0.0
 40
249.9919998719958
100
AcDbArc
 50
281.5279730423529
 51
291.0954437982034
  0
LINE
  5
249
330
A
100
AcDbEntity
  8
0
  6
Continuous
 62
     7
100
AcDbLine
 10
759.0955704860858
 20
885.2141015154945
 30
0.0
 11
759.055554473273
 21
885.2141015154945
 31
0.0
  0
LINE
  5
24A
330
A
100
AcDbEntity
  8
0
  6
Continuous
 62
     7
100
AcDbLine
 10
659.1355864988986
 20
885.2141015154945
 30
0.0
 11
659.0955704860858
 21
885.2141015154945
 31
0.0
  0
ARC
  5
24B
330
A
100
AcDbEntity
  8
0
  6
Continuous
 62
     7
100
AcDbCircle
 10
709.0955704860858
 20
1130.163075793812
 30
0.0
 40
249.9919998719958
100
AcDbArc
 50
248.9045562017981
 51
258.4720269576487
  0
LINE
  5
24C
330
A
100
AcDbEntity
  8
0
  6
Continuous
 62
     7
100
AcDbLine
 10
662.3746321617082
 20
896.9250000000002
 30
0.0
 11
619.1177954524698
 21
896.9250000000002
 31
0.0
  0
LWPOLYLINE
  5
24D
330
A
100
AcDbEntity
  8
0
  6
Continuous
 62
     7
100
AcDbPolyline
 90
        9
 70
   128
 43
0.0
 10
682.383527684923
 20
885.2141015154945
 10
679.8327468573135
 20
886.310197624476
 10
677.2939602406563
 20
887.5125320465297
 10
674.7682738969731
 20
888.8205809658954
 10
672.2567881809472
 20
890.233774510642
 10
669.7605972605364
 20
891.751497000941
 10
667.2807886402822
 20
893.3730872172967
 10
664.8184426875219
 20
895.0978386886175
 10
662.3746321617082
 20
896.9250000000002
  0
LINE
  5
258
330
A
100
AcDbEntity
  8
0
  6
Continuous
 62
     7
100
AcDbLine
 10
685.8476293000608
 20
885.2141015154945
 30
0.0
 11
682.383527684923
 21
885.2141015154945
 31
0.0
  0
LINE
  5
259
330
A
100
AcDbEntity
  8
0
  6
Continuous
 62
     7
100
AcDbLine
 10
696.0955704860858
 20
880.5013045912509
 30
0.0
 11
722.0955704860858
 21
880.5013045912509
 31
0.0
  0
LINE
  5
25A
330
A
100
AcDbEntity
  8
0
  6
Continuous
 62
     7
100
AcDbLine
 10
752.3524071953247
 20
896.9250000000002
 30
0.0
 11
752.3524071953245
 21
901.9249999999999
 31
0.0
  0
LINE
  5
25B
330
A
100
AcDbEntity
  8
0
  6
Continuous
 62
     7
100
AcDbLine
 10
665.838733776846
 20
896.9250000000002
 30
0.0
 11
665.838733776846
 21
901.9249999999999
 31
0.0
  0
LINE
  5
25C
330
A
100
AcDbEntity
  8
0
  6
Continuous
 62
     7
100
AcDbLine
 10
752.3524071953245
 20
901.9249999999999
 30
0.0
 11
665.838733776846
 21
901.9249999999999
 31
0.0
  0
LINE
  5
25D
330
A
100
AcDbEntity
  8
0
  6
Continuous
 62
     7
100
AcDbLine
 10
735.807613287248
 20
885.2141015154945
 30
0.0
 11
735.807613287248
 21
886.7298525988035
 31
0.0
  0
LINE
  5
25E
330
A
100
AcDbEntity
  8
0
  6
Continuous
 62
     7
100
AcDbLine
 10
755.8165088104622
 20
901.9249999999999
 30
0.0
 11
752.3524071953245
 21
901.9249999999999
 31
0.0
  0
LINE
  5
25F
330
A
100
AcDbEntity
  8
0
  6
Continuous
 62
     7
100
AcDbLine
 10
755.8165088104622
 20
896.9250000000002
 30
0.0
 11
755.8165088104622
 21
901.9249999999999
 31
0.0
  0
LINE
  5
260
330
A
100
AcDbEntity
  8
0
  6
Continuous
 62
     7
100
AcDbLine
 10
799.0733455197019
 20
896.9250000000002
 30
0.0
 11
799.0733455197019
 21
901.9249999999999
 31
0.0
  0
LINE
  5
261
330
A
100
AcDbEntity
  8
0
  6
Continuous
 62
     7
100
AcDbLine
 10
799.0733455197019
 20
901.9249999999999
 30
0.0
 11
755.8165088104622
 21
901.9249999999999
 31
0.0
  0
LINE
  5
262
330
A
100
AcDbEntity
  8
0
  6
Continuous
 62
     7
100
AcDbLine
 10
619.1177954524698
 20
896.9250000000002
 30
0.0
 11
619.1177954524698
 21
901.9249999999999
 31
0.0
  0
LINE
  5
263
330
A
100
AcDbEntity
  8
0
  6
Continuous
 62
     7
100
AcDbLine
 10
662.3746321617082
 20
896.9250000000002
 30
0.0
 11
662.3746321617082
 21
901.9249999999999
 31
0.0
  0
LINE
  5
264
330
A
100
AcDbEntity
  8
0
  6
Continuous
 62
     7
100
AcDbLine
 10
662.3746321617082
 20
901.9249999999999
 30
0.0
 11
619.1177954524698
 21
901.9249999999999
 31
0.0
  0
LINE
  5
265
330
A
100
AcDbEntity
  8
0
  6
Continuous
 62
     7
100
AcDbLine
 10
682.383527684923
 20
885.2141015154945
 30
0.0
 11
682.383527684923
 21
886.7298525988035
 31
0.0
  0
LINE
  5
266
330
A
100
AcDbEntity
  8
0
  6
Continuous
 62
     7
100
AcDbLine
 10
665.838733776846
 20
901.9249999999999
 30
0.0
 11
662.3746321617082
 21
901.9249999999999
 31
0.0
  0
LINE
  5
267
330
A
100
AcDbEntity
  8
0
  6
Continuous
 62
     7
100
AcDbLine
 10
759.0955704860858
 20
911.9249999999999
 30
0.0
 11
659.0955704860857
 21
911.9249999999999
 31
0.0
  0
LINE
  5
268
330
A
100
AcDbEntity
  8
0
  6
Continuous
 62
     7
100
AcDbLine
 10
696.5955704860858
 20
880.4757713508349
 30
0.0
 11
721.5955704860857
 21
880.4757713508349
 31
0.0
  0
LWPOLYLINE
  5
269
330
A
100
AcDbEntity
  8
0
  6
Continuous
 62
     7
100
AcDbPolyline
 90
        6
 70
   128
 43
0.0
 10
741.1048330078414
 20
-321.1024582121115
 10
740.735361052884
 20
-321.1032093027568
 10
740.3460210919539
 20
-321.1053482279505
 10
739.9960866047267
 20
-321.1085493557213
 10
739.7388319447193
 20
-321.1123253433844
 10
739.7349562988314
 20
-321.1124023506333
  0
LWPOLYLINE
  5
271
330
A
100
AcDbEntity
  8
0
  6
Continuous
 62
     7
100
AcDbPolyline
 90
        5
 70
   128
 43
0.0
 10
741.4708827522883
 20
-321.1123253433844
 10
741.5962928951093
 20
-321.1085493557213
 10
741.5707659633454
 20
-321.1053482279505
 10
741.3981882009552
 20
-321.1032093027568
 10
741.1048330078414
 20
-321.1024582121115
  0
LINE
  5
278
330
A
100
AcDbEntity
  8
0
  6
Continuous
 62
     7
100
AcDbLine
 10
646.0769967612511
 20
-321.1123253433844
 30
0.0
 11
645.0770454425756
 21
-321.1024582121115
 31
0.0
  0
LINE
  5
279
330
A
100
AcDbEntity
  8
0
  6
PHANTOM
 62
     7
100
AcDbLine
 10
646.0769967612508
 20
-321.1123253433846
 30
0.0
 11
740.6048573485037
 21
-321.1123253433846
 31
0.0
  0
LINE
  5
27A
330
A
100
AcDbEntity
  8
0
  6
PHANTOM
 62
     7
100
AcDbLine
 10
741.4708827522769
 20
-321.1123253433846
 30
0.0
 11
772.1141442109208
 21
-321.1123253433846
 31
0.0
  0
ENDSEC
  0
SECTION
  2
OBJECTS
  0
DICTIONARY
  5
19
330
0
100
AcDbDictionary
281
     1
  3
ACAD_COLOR
350
281
  3
ACAD_GROUP
350
1A
  3
ACAD_LAYOUT
350
284
  3
ACAD_MATERIAL
350
280
  3
ACAD_MLINESTYLE
350
1B
  3
ACAD_PLOTSETTINGS
350
285
  3
ACAD_PLOTSTYLENAME
350
27E
  3
ACAD_TABLESTYLE
350
282
  3
ACDBHEADERROUNDTRIPXREC
350
29D
  3
AcDbVariableDictionary
350
298
  3
ASE_INDEX_DICTIONARY
350
28B
  0
DICTIONARY
  5
281
102
{ACAD_REACTORS
330
19
102
}
330
19
100
AcDbDictionary
281
     1
  0
DICTIONARY
  5
1A
102
{ACAD_REACTORS
330
19
102
}
330
19
100
AcDbDictionary
281
     1
  0
DICTIONARY
  5
284
102
{ACAD_REACTORS
330
19
102
}
330
19
100
AcDbDictionary
281
     1
  3
Layout1
350
287
  3
Model
350
286
  0
DICTIONARY
  5
280
102
{ACAD_REACTORS
330
19
102
}
330
19
100
AcDbDictionary
281
     1
  0
DICTIONARY
  5
1B
102
{ACAD_REACTORS
330
19
102
}
330
19
100
AcDbDictionary
281
     1
  3
STANDARD
350
1C
  0
DICTIONARY
  5
285
102
{ACAD_REACTORS
330
19
102
}
330
19
100
AcDbDictionary
281
     1
  0
ACDBDICTIONARYWDFLT
  5
27E
102
{ACAD_REACTORS
330
19
102
}
330
19
100
AcDbDictionary
281
     1
  3
Normal
350
27F
100
AcDbDictionaryWithDefault
340
27F
  0
DICTIONARY
  5
282
102
{ACAD_REACTORS
330
19
102
}
330
19
100
AcDbDictionary
281
     1
  3
Standard
350
283
  0
DICTIONARY
  5
29D
102
{ACAD_REACTORS
330
19
102
}
330
19
100
AcDbDictionary
281
     1
  0
DICTIONARY
  5
298
102
{ACAD_REACTORS
330
19
102
}
330
19
100
AcDbDictionary
281
     1
  3
CTABLESTYLE
350
299
  3
DIMASSOC
350
29A
  3
PROJECTNAME
350
29B
  0
DICTIONARY
  5
28B
102
{ACAD_REACTORS
330
19
102
}
330
19
100
AcDbDictionary
281
     1
  3
ASEBlockHierarchyIndexRecord
350
28D
1001
DCO15
1040
1585050758.39
  0
LAYOUT
  5
287
102
{ACAD_XDICTIONARY
360
2A0
102
}
102
{ACAD_REACTORS
330
284
102
}
330
284
100
AcDbPlotSettings
  1

  2
C:\Dokumente und Einstellungen\Administrator\Anwendungsdaten\Autodesk\AutoCAD 2005\R16.1\ita\plotters\Default Windows System Printer.pc3
  4

  6

 40
0.0
 41
0.0
 42
0.0
 43
0.0
 44
0.0
 45
0.0
 46
0.0
 47
0.0
 48
0.0
 49
0.0
140
0.0
141
0.0
142
1.0
143
1.0
 70
   688
 72
     0
 73
     0
 74
     5
  7

 75
    16
147
1.0
148
0.0
149
0.0
100
AcDbLayout
  1
Layout1
 70
     1
 71
     1
 10
0.0
 20
0.0
 11
12.0
 21
9.0
 12
0.0
 22
0.0
 32
0.0
 14
1.000000000000000E+20
 24
1.000000000000000E+20
 34
1.000000000000000E+20
 15
-1.000000000000000E+20
 25
-1.000000000000000E+20
 35
-1.000000000000000E+20
146
0.0
 13
0.0
 23
0.0
 33
0.0
 16
1.0
 26
0.0
 36
0.0
 17
0.0
 27
1.0
 37
0.0
 76
     0
330
B
  0
LAYOUT
  5
286
102
{ACAD_XDICTIONARY
360
29E
102
}
102
{ACAD_REACTORS
330
284
102
}
330
284
100
AcDbPlotSettings
  1

  2
C:\Dokumente und Einstellungen\Administrator\Anwendungsdaten\Autodesk\AutoCAD 2005\R16.1\ita\plotters\Default Windows System Printer.pc3
  4

  6

 40
0.0
 41
0.0
 42
0.0
 43
0.0
 44
0.0
 45
0.0
 46
0.0
 47
0.0
 48
0.0
 49
0.0
140
0.0
141
0.0
142
1.0
143
1.0
 70
  1712
 72
     0
 73
     0
 74
     0
  7

 75
     0
147
1.0
148
0.0
149
0.0
100
AcDbLayout
  1
Model
 70
     1
 71
     0
 10
0.0
 20
0.0
 11
12.0
 21
9.0
 12
0.0
 22
0.0
 32
0.0
 14
0.0
 24
0.0
 34
0.0
 15
0.0
 25
0.0
 35
0.0
146
0.0
 13
0.0
 23
0.0
 33
0.0
 16
1.0
 26
0.0
 36
0.0
 17
0.0
 27
1.0
 37
0.0
 76
     0
330
A
  0
MLINESTYLE
  5
1C
102
{ACAD_REACTORS
330
1B
102
}
330
1B
100
AcDbMlineStyle
  2
STANDARD
 70
     0
  3

 62
     0
 51
90.0
 52
90.0
 71
     2
 49
0.5
 62
   256
  6
BYLAYER
 49
-0.5
 62
   256
  6
BYLAYER
  0
ACDBPLACEHOLDER
  5
27F
102
{ACAD_REACTORS
330
27E
102
}
330
27E
  0
TABLESTYLE
  5
283
102
{ACAD_REACTORS
330
282
102
}
330
282
100
AcDbTableStyle
  3
Standard
 70
     0
 71
     0
 40
0.06
 41
0.06
280
     0
281
     0
  7
STANDARD
140
0.18
170
     2
 62
     0
 63
     7
283
     0
274
    -2
284
     1
 64
     0
275
    -2
285
     1
 65
     0
276
    -2
286
     1
 66
     0
277
    -2
287
     1
 67
     0
278
    -2
288
     1
 68
     0
279
    -2
289
     1
 69
     0
  7
STANDARD
140
0.25
170
     5
 62
     0
 63
     7
283
     0
274
    -2
284
     1
 64
     0
275
    -2
285
     1
 65
     0
276
    -2
286
     1
 66
     0
277
    -2
287
     1
 67
     0
278
    -2
288
     1
 68
     0
279
    -2
289
     1
 69
     0
  7
STANDARD
140
0.18
170
     5
 62
     0
 63
     7
283
     0
274
    -2
284
     1
 64
     0
275
    -2
285
     1
 65
     0
276
    -2
286
     1
 66
     0
277
    -2
287
     1
 67
     0
278
    -2
288
     1
 68
     0
279
    -2
289
     1
 69
     0
  0
DICTIONARYVAR
  5
299
102
{ACAD_REACTORS
330
298
102
}
330
298
100
DictionaryVariables
280
     0
  1
STANDARD
  0
DICTIONARYVAR
  5
29A
102
{ACAD_REACTORS
330
298
102
}
330
298
100
DictionaryVariables
280
     0
  1
1
  0
DICTIONARYVAR
  5
29B
102
{ACAD_REACTORS
330
298
102
}
330
298
100
DictionaryVariables
280
     0
  1

  0
XRECORD
  5
28D
102
{ACAD_REACTORS
330
28B
102
}
330
28B
100
AcDbXrecord
280
     1
  0
DICTIONARY
  5
2A0
330
287
100
AcDbDictionary
280
     1
281
     1
  3
ACAD_XREC_ROUNDTRIP
360
2A1
  0
DICTIONARY
  5
29E
330
286
100
AcDbDictionary
280
     1
281
     1
  3
ACAD_XREC_ROUNDTRIP
360
29F
  0
XRECORD
  5
2A1
102
{ACAD_REACTORS
330
2A0
102
}
330
2A0
100
AcDbXrecord
280
     1
102
SHADEPLOT
 70
     0
102
SHADEPLOTRESLEVEL
 70
     2
102
SHADEPLOTCUSTOMDPI
 70
   300
  0
XRECORD
  5
29F
102
{ACAD_REACTORS
330
29E
102
}
330
29E
100
AcDbXrecord
280
     1
102
SHADEPLOT
 70
     0
102
SHADEPLOTRESLEVEL
 70
     2
102
SHADEPLOTCUSTOMDPI
 70
   300
  0
ENDSEC
  0
EOF
