  0
SECTION
  2
HEADER
  9
$ACADVER
  1
AC1015
  9
$ACADMAINTVER
 70
    20
  9
$DWGCODEPAGE
  3
ANSI_1252
  9
$INSBASE
 10
0.0
 20
0.0
 30
0.0
  9
$EXTMIN
 10
-218.6500000000018
 20
-1683.310126350779
 30
0.0
  9
$EXTMAX
 10
1113.728370338423
 20
1136.925
 30
0.0
  9
$LIMMIN
 10
0.0
 20
0.0
  9
$LIMMAX
 10
0.0
 20
0.0
  9
$ORTHOMODE
 70
     0
  9
$REGENMODE
 70
     1
  9
$FILLMODE
 70
     1
  9
$QTEXTMODE
 70
     0
  9
$MIRRTEXT
 70
     1
  9
$LTSCALE
 40
1.0
  9
$ATTMODE
 70
     1
  9
$TEXTSIZE
 40
0.0
  9
$TRACEWID
 40
0.05
  9
$TEXTSTYLE
  7
STANDARD
  9
$CLAYER
  8
0
  9
$CELTYPE
  6
CONTINUOUS
  9
$CECOLOR
 62
   256
  9
$CELTSCALE
 40
1.0
  9
$DISPSILH
 70
     0
  9
$DIMSCALE
 40
1.0
  9
$DIMASZ
 40
6.0
  9
$DIMEXO
 40
1.0
  9
$DIMDLI
 40
0.38
  9
$DIMRND
 40
0.0
  9
$DIMDLE
 40
1.0
  9
$DIMEXE
 40
0.18
  9
$DIMTP
 40
0.0
  9
$DIMTM
 40
0.0
  9
$DIMTXT
 40
3.5
  9
$DIMCEN
 40
0.09
  9
$DIMTSZ
 40
0.0
  9
$DIMTOL
 70
     0
  9
$DIMLIM
 70
     0
  9
$DIMTIH
 70
     1
  9
$DIMTOH
 70
     1
  9
$DIMSE1
 70
     0
  9
$DIMSE2
 70
     0
  9
$DIMTAD
 70
     1
  9
$DIMZIN
 70
     0
  9
$DIMBLK
  1

  9
$DIMASO
 70
     1
  9
$DIMSHO
 70
     1
  9
$DIMPOST
  1

  9
$DIMAPOST
  1

  9
$DIMALT
 70
     0
  9
$DIMALTD
 70
     2
  9
$DIMALTF
 40
0.0394
  9
$DIMLFAC
 40
1.0
  9
$DIMTOFL
 70
     0
  9
$DIMTVP
 40
0.0
  9
$DIMTIX
 70
     0
  9
$DIMSOXD
 70
     0
  9
$DIMSAH
 70
     0
  9
$DIMBLK1
  1

  9
$DIMBLK2
  1

  9
$DIMSTYLE
  2
STANDARD
  9
$DIMCLRD
 70
     0
  9
$DIMCLRE
 70
     0
  9
$DIMCLRT
 70
     0
  9
$DIMTFAC
 40
1.0
  9
$DIMGAP
 40
1.0
  9
$DIMJUST
 70
     0
  9
$DIMSD1
 70
     0
  9
$DIMSD2
 70
     0
  9
$DIMTOLJ
 70
     1
  9
$DIMTZIN
 70
     0
  9
$DIMALTZ
 70
     0
  9
$DIMALTTZ
 70
     0
  9
$DIMUPT
 70
     0
  9
$DIMDEC
 70
     4
  9
$DIMTDEC
 70
     4
  9
$DIMALTU
 70
     2
  9
$DIMALTTD
 70
     2
  9
$DIMTXSTY
  7
STANDARD
  9
$DIMAUNIT
 70
     0
  9
$DIMADEC
 70
     0
  9
$DIMALTRND
 40
0.0
  9
$DIMAZIN
 70
     0
  9
$DIMDSEP
 70
    46
  9
$DIMATFIT
 70
     3
  9
$DIMFRAC
 70
     0
  9
$DIMLDRBLK
  1

  9
$DIMLUNIT
 70
     2
  9
$DIMLWD
 70
    -2
  9
$DIMLWE
 70
    -2
  9
$DIMTMOVE
 70
     0
  9
$LUNITS
 70
     2
  9
$LUPREC
 70
     2
  9
$SKETCHINC
 40
0.1
  9
$FILLETRAD
 40
0.0
  9
$AUNITS
 70
     0
  9
$AUPREC
 70
     2
  9
$MENU
  1
acad
  9
$ELEVATION
 40
0.0
  9
$PELEVATION
 40
0.0
  9
$THICKNESS
 40
0.0
  9
$LIMCHECK
 70
     0
  9
$CHAMFERA
 40
0.0
  9
$CHAMFERB
 40
0.0
  9
$CHAMFERC
 40
0.0
  9
$CHAMFERD
 40
0.0
  9
$SKPOLY
 70
     0
  9
$TDCREATE
 40
2444972.041666667
  9
$TDUCREATE
 40
2444972.000000000
  9
$TDUPDATE
 40
2453768.855426968
  9
$TDUUPDATE
 40
2453768.813760301
  9
$TDINDWG
 40
0.0002396181
  9
$TDUSRTIMER
 40
0.0002396181
  9
$USRTIMER
 70
     1
  9
$ANGBASE
 50
0.0
  9
$ANGDIR
 70
     0
  9
$PDMODE
 70
     0
  9
$PDSIZE
 40
-1.0
  9
$PLINEWID
 40
0.0
  9
$SPLFRAME
 70
     0
  9
$SPLINETYPE
 70
     6
  9
$SPLINESEGS
 70
     8
  9
$HANDSEED
  5
1AD
  9
$SURFTAB1
 70
     6
  9
$SURFTAB2
 70
     6
  9
$SURFTYPE
 70
     6
  9
$SURFU
 70
     6
  9
$SURFV
 70
     6
  9
$UCSBASE
  2

  9
$UCSNAME
  2

  9
$UCSORG
 10
0.0
 20
0.0
 30
0.0
  9
$UCSXDIR
 10
1.0
 20
0.0
 30
0.0
  9
$UCSYDIR
 10
0.0
 20
1.0
 30
0.0
  9
$UCSORTHOREF
  2

  9
$UCSORTHOVIEW
 70
     1
  9
$UCSORGTOP
 10
0.0
 20
0.0
 30
0.0
  9
$UCSORGBOTTOM
 10
0.0
 20
0.0
 30
0.0
  9
$UCSORGLEFT
 10
0.0
 20
0.0
 30
0.0
  9
$UCSORGRIGHT
 10
0.0
 20
0.0
 30
0.0
  9
$UCSORGFRONT
 10
0.0
 20
0.0
 30
0.0
  9
$UCSORGBACK
 10
0.0
 20
0.0
 30
0.0
  9
$PUCSBASE
  2

  9
$PUCSNAME
  2

  9
$PUCSORG
 10
0.0
 20
0.0
 30
0.0
  9
$PUCSXDIR
 10
1.0
 20
0.0
 30
0.0
  9
$PUCSYDIR
 10
0.0
 20
1.0
 30
0.0
  9
$PUCSORTHOREF
  2

  9
$PUCSORTHOVIEW
 70
     0
  9
$PUCSORGTOP
 10
0.0
 20
0.0
 30
0.0
  9
$PUCSORGBOTTOM
 10
0.0
 20
0.0
 30
0.0
  9
$PUCSORGLEFT
 10
0.0
 20
0.0
 30
0.0
  9
$PUCSORGRIGHT
 10
0.0
 20
0.0
 30
0.0
  9
$PUCSORGFRONT
 10
0.0
 20
0.0
 30
0.0
  9
$PUCSORGBACK
 10
0.0
 20
0.0
 30
0.0
  9
$USERI1
 70
     0
  9
$USERI2
 70
     0
  9
$USERI3
 70
     0
  9
$USERI4
 70
     0
  9
$USERI5
 70
     0
  9
$USERR1
 40
0.0
  9
$USERR2
 40
0.0
  9
$USERR3
 40
0.0
  9
$USERR4
 40
0.0
  9
$USERR5
 40
0.0
  9
$WORLDVIEW
 70
     1
  9
$SHADEDGE
 70
     3
  9
$SHADEDIF
 70
    70
  9
$TILEMODE
 70
     1
  9
$MAXACTVP
 70
    16
  9
$PINSBASE
 10
0.0
 20
0.0
 30
0.0
  9
$PLIMCHECK
 70
     0
  9
$PEXTMIN
 10
1.000000000000000E+20
 20
1.000000000000000E+20
 30
1.000000000000000E+20
  9
$PEXTMAX
 10
-1.000000000000000E+20
 20
-1.000000000000000E+20
 30
-1.000000000000000E+20
  9
$PLIMMIN
 10
0.0
 20
0.0
  9
$PLIMMAX
 10
12.0
 20
9.0
  9
$UNITMODE
 70
     0
  9
$VISRETAIN
 70
     0
  9
$PLINEGEN
 70
     1
  9
$PSLTSCALE
 70
     1
  9
$TREEDEPTH
 70
  3020
  9
$CMLSTYLE
  2
STANDARD
  9
$CMLJUST
 70
     0
  9
$CMLSCALE
 40
1.0
  9
$PROXYGRAPHICS
 70
     0
  9
$MEASUREMENT
 70
     0
  9
$CELWEIGHT
370
    -1
  9
$ENDCAPS
280
     0
  9
$JOINSTYLE
280
     0
  9
$LWDISPLAY
290
     0
  9
$INSUNITS
 70
     0
  9
$HYPERLINKBASE
  1

  9
$STYLESHEET
  1

  9
$XEDIT
290
     1
  9
$CEPSNTYPE
380
     0
  9
$PSTYLEMODE
290
     1
  9
$FINGERPRINTGUID
  2
{BB20ECA5-0DE7-4037-B984-50C74549359E}
  9
$VERSIONGUID
  2
{206F2AF3-2EFA-4326-A927-63342E8A6168}
  9
$EXTNAMES
290
     1
  9
$PSVPSCALE
 40
0.0
  9
$OLESTARTUP
290
     0
  0
ENDSEC
  0
SECTION
  2
CLASSES
  0
CLASS
  1
IMAGE
  2
AcDbRasterImage
  3
ISM
 90
    32895
280
     0
281
     1
  0
CLASS
  1
DICTIONARYVAR
  2
AcDbDictionaryVar
  3
ObjectDBX Classes
 90
        0
280
     0
281
     0
  0
CLASS
  1
RASTERVARIABLES
  2
AcDbRasterVariables
  3
ISM
 90
    32768
280
     0
281
     0
  0
CLASS
  1
IMAGEDEF
  2
AcDbRasterImageDef
  3
ISM
 90
    32768
280
     0
281
     0
  0
CLASS
  1
IMAGEDEF_REACTOR
  2
AcDbRasterImageDefReactor
  3
ISM
 90
    32769
280
     0
281
     0
  0
CLASS
  1
IDBUFFER
  2
AcDbIdBuffer
  3
ObjectDBX Classes
 90
    32768
280
     0
281
     0
  0
CLASS
  1
SPATIAL_FILTER
  2
AcDbSpatialFilter
  3
ObjectDBX Classes
 90
    32768
280
     0
281
     0
  0
CLASS
  1
SORTENTSTABLE
  2
AcDbSortentsTable
  3
ObjectDBX Classes
 90
    32768
280
     0
281
     0
  0
CLASS
  1
LAYER_INDEX
  2
AcDbLayerIndex
  3
ObjectDBX Classes
 90
    32768
280
     0
281
     0
  0
CLASS
  1
SPATIAL_INDEX
  2
AcDbSpatialIndex
  3
ObjectDBX Classes
 90
    32768
280
     0
281
     0
  0
CLASS
  1
OBJECT_PTR
  2
CAseDLPNTableRecord
  3
ASE-LPNTableRecord
 90
    32769
280
     0
281
     0
  0
CLASS
  1
LAYOUT
  2
AcDbLayout
  3
ObjectDBX Classes
 90
        0
280
     0
281
     0
  0
CLASS
  1
PLOTSETTINGS
  2
AcDbPlotSettings
  3
ObjectDBX Classes
 90
    32768
280
     0
281
     0
  0
CLASS
  1
ACDBDICTIONARYWDFLT
  2
AcDbDictionaryWithDefault
  3
ObjectDBX Classes
 90
        0
280
     0
281
     0
  0
CLASS
  1
ACDBPLACEHOLDER
  2
AcDbPlaceHolder
  3
ObjectDBX Classes
 90
        0
280
     0
281
     0
  0
CLASS
  1
VBA_PROJECT
  2
AcDbVbaProject
  3
acad
 90
    32768
280
     0
281
     0
  0
CLASS
  1
WIPEOUT
  2
AcDbWipeout
  3
"WipeOut|Product Desc: Object Enabler for WipeOut entity^I^I^I^I^I^I|Company: Autodesk, Inc.^I^I^I^I^I^I|WEB Address: www.autodesk.com"
 90
    32895
280
     0
281
     1
  0
CLASS
  1
WIPEOUTVARIABLES
  2
AcDbWipeoutVariables
  3
"WipeOut|Product Desc:     WipeOut Dbx Application|Company:          Autodesk, Inc.|WEB Address:      www.autodesk.com"
 90
    32768
280
     0
281
     0
  0
CLASS
  1
RTEXT
  2
RText
  3
RText|AutoCAD Express Tool|expresstools@autodesk.com
 90
    32768
280
     0
281
     1
  0
CLASS
  1
ARCALIGNEDTEXT
  2
AcDbArcAlignedText
  3
ATEXT|AutoCAD Express Tool|expresstools@autodesk.com
 90
    32768
280
     0
281
     1
  0
ENDSEC
  0
SECTION
  2
TABLES
  0
TABLE
  2
VPORT
  5
7
330
0
100
AcDbSymbolTable
 70
     2
  0
VPORT
  5
1A5
330
7
100
AcDbSymbolTableRecord
100
AcDbViewportTableRecord
  2
*Active
 70
     0
 10
0.0
 20
0.0
 11
1.0
 21
1.0
 12
599.9294360908093
 22
-273.1925631753884
 13
0.0
 23
0.0
 14
1.0
 24
1.0
 15
0.0
 25
0.0
 16
0.0
 26
0.0
 36
1.0
 17
0.0
 27
0.0
 37
0.0
 40
2843.351807714308
 41
1.569570871261378
 42
50.0
 43
0.0
 44
0.0
 50
0.0
 51
0.0
 71
     0
 72
  2000
 73
     1
 74
     1
 75
     0
 76
     0
 77
     0
 78
     0
281
     0
 65
     1
110
0.0
120
0.0
130
0.0
111
1.0
121
0.0
131
0.0
112
0.0
122
1.0
132
0.0
 79
     1
146
0.0
  0
ENDTAB
  0
TABLE
  2
LTYPE
  5
4
330
0
100
AcDbSymbolTable
 70
     6
  0
LTYPE
  5
11
330
4
100
AcDbSymbolTableRecord
100
AcDbLinetypeTableRecord
  2
BYBLOCK
 70
     0
  3

 72
    65
 73
     0
 40
0.0
  0
LTYPE
  5
12
330
4
100
AcDbSymbolTableRecord
100
AcDbLinetypeTableRecord
  2
BYLAYER
 70
     0
  3

 72
    65
 73
     0
 40
0.0
  0
LTYPE
  5
13
330
4
100
AcDbSymbolTableRecord
100
AcDbLinetypeTableRecord
  2
CONTINUOUS
 70
     0
  3
Solid line
 72
    65
 73
     0
 40
0.0
  0
LTYPE
  5
1E
330
4
100
AcDbSymbolTableRecord
100
AcDbLinetypeTableRecord
  2
HIDDEN
 70
     0
  3
Hidden __ __ __ __ __ __ __ __ __ __ __ __ __ __
 72
    65
 73
     2
 40
1.905
 49
1.27
 74
     0
 49
-0.635
 74
     0
  0
LTYPE
  5
1F
330
4
100
AcDbSymbolTableRecord
100
AcDbLinetypeTableRecord
  2
PHANTOM
 70
     0
  3
Phantom ______  __  __  ______  __  __  ______
 72
    65
 73
     6
 40
12.7
 49
6.349999999999999
 74
     0
 49
-1.27
 74
     0
 49
1.27
 74
     0
 49
-1.27
 74
     0
 49
1.27
 74
     0
 49
-1.27
 74
     0
  0
LTYPE
  5
20
330
4
100
AcDbSymbolTableRecord
100
AcDbLinetypeTableRecord
  2
CENTER
 70
     0
  3
Center ____ _ ____ _ ____ _ ____ _ ____ _ ____
 72
    65
 73
     4
 40
10.16
 49
6.349999999999999
 74
     0
 49
-1.27
 74
     0
 49
1.27
 74
     0
 49
-1.27
 74
     0
  0
LTYPE
  5
21
330
4
100
AcDbSymbolTableRecord
100
AcDbLinetypeTableRecord
  2
CENTERX2
 70
     0
  3
Center (2x) ________  __  ________  __  _____
 72
    65
 73
     4
 40
20.32
 49
12.7
 74
     0
 49
-2.54
 74
     0
 49
2.54
 74
     0
 49
-2.54
 74
     0
  0
LTYPE
  5
22
330
4
100
AcDbSymbolTableRecord
100
AcDbLinetypeTableRecord
  2
DOT2
 70
     0
  3
Dot (.5x) ........................................
 72
    65
 73
     2
 40
0.635
 49
0.0
 74
     0
 49
-0.635
 74
     0
  0
ENDTAB
  0
TABLE
  2
LAYER
  5
2
330
0
100
AcDbSymbolTable
 70
     2
  0
LAYER
  5
14
330
2
100
AcDbSymbolTableRecord
100
AcDbLayerTableRecord
  2
0
 70
     0
 62
     7
  6
CONTINUOUS
370
    -3
390
18A
  0
LAYER
  5
26
330
2
100
AcDbSymbolTableRecord
100
AcDbLayerTableRecord
  2
DEFPOINTS
 70
     0
 62
     7
  6
CONTINUOUS
290
     0
370
    -3
390
18A
  0
ENDTAB
  0
TABLE
  2
STYLE
  5
3
330
0
100
AcDbSymbolTable
 70
     1
  0
STYLE
  5
17
330
3
100
AcDbSymbolTableRecord
100
AcDbTextStyleTableRecord
  2
STANDARD
 70
     0
 40
0.0
 41
1.0
 50
0.0
 71
     0
 42
0.0
  3
Century Gothic
  4

  0
ENDTAB
  0
TABLE
  2
VIEW
  5
5
330
0
100
AcDbSymbolTable
 70
     0
  0
ENDTAB
  0
TABLE
  2
UCS
  5
6
330
0
100
AcDbSymbolTable
 70
     0
  0
ENDTAB
  0
TABLE
  2
APPID
  5
8
330
0
100
AcDbSymbolTable
 70
     2
  0
APPID
  5
16
330
8
100
AcDbSymbolTableRecord
100
AcDbRegAppTableRecord
  2
ACAD
 70
     0
  0
APPID
  5
195
330
8
100
AcDbSymbolTableRecord
100
AcDbRegAppTableRecord
  2
DCO15
 70
     0
  0
ENDTAB
  0
TABLE
  2
DIMSTYLE
  5
9
330
0
100
AcDbSymbolTable
 70
     1
100
AcDbDimStyleTable
 71
     0
  0
DIMSTYLE
105
18
330
9
100
AcDbSymbolTableRecord
100
AcDbDimStyleTableRecord
  2
STANDARD
 70
     0
289
     0
340
17
  0
ENDTAB
  0
TABLE
  2
BLOCK_RECORD
  5
1
330
0
100
AcDbSymbolTable
 70
     0
  0
BLOCK_RECORD
  5
A
330
1
100
AcDbSymbolTableRecord
100
AcDbBlockTableRecord
  2
*MODEL_SPACE
340
18F
  0
BLOCK_RECORD
  5
B
330
1
100
AcDbSymbolTableRecord
100
AcDbBlockTableRecord
  2
*PAPER_SPACE
340
190
  0
ENDTAB
  0
ENDSEC
  0
SECTION
  2
BLOCKS
  0
BLOCK
  5
D
330
A
100
AcDbEntity
  8
0
100
AcDbBlockBegin
  2
*MODEL_SPACE
 70
     0
 10
0.0
 20
0.0
 30
0.0
  3
*MODEL_SPACE
  1

  0
ENDBLK
  5
E
330
A
100
AcDbEntity
  8
0
100
AcDbBlockEnd
  0
BLOCK
  5
F
330
B
100
AcDbEntity
 67
     1
  8
0
100
AcDbBlockBegin
  2
*PAPER_SPACE
 70
     0
 10
0.0
 20
0.0
 30
0.0
  3
*PAPER_SPACE
  1

  0
ENDBLK
  5
10
330
B
100
AcDbEntity
 67
     1
  8
0
100
AcDbBlockEnd
  0
ENDSEC
  0
SECTION
  2
ENTITIES
  0
LINE
  5
27
330
A
100
AcDbEntity
  8
0
  6
Continuous
 62
     7
100
AcDbLine
 10
159.85
 20
1105.425
 30
0.0
 11
159.85
 21
1109.925
 31
0.0
  0
LINE
  5
28
330
A
100
AcDbEntity
  8
0
  6
Continuous
 62
     7
100
AcDbLine
 10
-20.15000000000004
 20
1109.925
 30
0.0
 11
-20.15000000000007
 21
1105.425
 31
0.0
  0
ARC
  5
29
330
A
100
AcDbEntity
  8
0
  6
Continuous
 62
     7
100
AcDbCircle
 10
69.84999999999999
 20
1341.875840556764
 30
0.0
 40
253.0000000000004
100
AcDbArc
 50
249.1617338611156
 51
259.6978841313862
  0
ARC
  5
2A
330
A
100
AcDbEntity
  8
0
  6
Continuous
 62
     7
100
AcDbCircle
 10
69.84999999999999
 20
1341.875840556764
 30
0.0
 40
253.0000000000003
100
AcDbArc
 50
260.1551650937805
 51
279.844834906221
  0
ARC
  5
2B
330
A
100
AcDbEntity
  8
0
  6
Continuous
 62
     7
100
AcDbCircle
 10
69.84999999999999
 20
1341.875840556764
 30
0.0
 40
253.0000000000004
100
AcDbArc
 50
280.3021158686154
 51
290.8382661388861
  0
LINE
  5
2C
330
A
100
AcDbEntity
  8
0
  6
Continuous
 62
     7
100
AcDbLine
 10
134.85
 20
1109.925
 30
0.0
 11
134.85
 21
1136.925
 31
0.0
  0
LINE
  5
2D
330
A
100
AcDbEntity
  8
0
  6
Continuous
 62
     7
100
AcDbLine
 10
4.849999999999993
 20
1136.925
 30
0.0
 11
4.849999999999993
 21
1109.925
 31
0.0
  0
LWPOLYLINE
  5
2E
330
A
100
AcDbEntity
  8
0
  6
Continuous
 62
     7
100
AcDbPolyline
 90
       43
 70
   128
 43
0.0
 10
358.35
 20
-813.075
 10
358.2284905687794
 20
-800.5237360901523
 10
357.864064628961
 20
-787.9830447760673
 10
357.2570291558562
 20
-775.4634897476494
 10
356.4078954876629
 20
-762.9756168905877
 10
355.3173788947387
 20
-750.5299454029962
 10
353.9863979770899
 20
-738.1369589345366
 10
352.4160738905868
 20
-725.8070967554817
 10
350.607729402554
 20
-713.5507449631655
 10
348.5628877775336
 20
-701.3782277332214
 10
346.2832714941584
 20
-689.2997986229811
 10
343.7708007942169
 20
-677.32563193436
 10
341.0275920651318
 20
-665.4658141435009
 10
338.0559560572143
 20
-653.7303354044016
 10
334.8583959371965
 20
-642.129081133677
 10
331.4376051796813
 20
-630.6718236835478
 10
327.796465298286
 20
-619.3682141100704
 10
323.93804341839
 20
-608.2277740435396
 10
319.8655896935323
 20
-597.2598876679142
 10
315.5825345676354
 20
-586.4737938160199
 10
311.0924858853594
 20
-575.8785781871919
 10
306.3992258530233
 20
-565.4831656939064
 10
301.5067078526523
 20
-555.296312943854
 10
296.4190531118335
 20
-545.3266008637841
 10
291.1405472321876
 20
-535.5824274713346
 10
285.6756365793795
 20
-526.0720008009362
 10
280.028924537708
 20
-516.8033319897492
 10
274.2051676324308
 20
-507.7842285294579
 10
268.2092715230912
 20
-499.022287689605
 10
262.0462868712207
 20
-490.5248901180092
 10
255.7214050858985
 20
-482.2991936236534
 10
249.239953950752
 20
-474.3521271472824
 10
242.6073931360823
 20
-466.6903849247882
 10
235.8293095998936
 20
-459.3204208482996
 10
228.9114128817026
 20
-452.248443029727
 10
221.8595302930894
 20
-445.4804085713393
 10
214.6796020090446
 20
-439.0220185477819
 10
207.3776760642441
 20
-432.8787132037572
 10
199.9599032584686
 20
-427.0556673714188
 10
192.4325319754585
 20
-421.5577861113358
 10
184.8019029195686
 20
-416.3897005806989
 10
177.0744437746563
 20
-411.5557641322529
 10
171.8691015200613
 20
-408.5190326843012
  0
LINE
  5
5B
330
A
100
AcDbEntity
  8
0
  6
Continuous
 62
     7
100
AcDbLine
 10
169.8243553639587
 20
-407.3734295034999
 30
0.0
 11
169.2566637897023
 21
-407.0600486472338
 31
0.0
  0
LINE
  5
5C
330
A
100
AcDbEntity
  8
0
  6
Continuous
 62
     7
100
AcDbLine
 10
-29.55666378970234
 20
-407.0600486472338
 30
0.0
 11
-30.12435536395949
 21
-407.3734295035004
 31
0.0
  0
LWPOLYLINE
  5
5D
330
A
100
AcDbEntity
  8
0
  6
Continuous
 62
     7
100
AcDbPolyline
 90
       43
 70
   128
 43
0.0
 10
-32.1691015200621
 20
-408.5190326843017
 10
-37.37444377465611
 20
-411.5557641322528
 10
-45.10190291956834
 20
-416.3897005806989
 10
-52.73253197545823
 20
-421.5577861113356
 10
-60.25990325846834
 20
-427.0556673714186
 10
-67.67767606424382
 20
-432.878713203757
 10
-74.97960200904433
 20
-439.0220185477816
 10
-82.15953029308915
 20
-445.4804085713392
 10
-89.21141288170231
 20
-452.2484430297266
 10
-96.12930959989341
 20
-459.3204208482993
 10
-102.907393136082
 20
-466.6903849247879
 10
-109.5399539507518
 20
-474.3521271472822
 10
-116.0214050858982
 20
-482.2991936236532
 10
-122.3462868712205
 20
-490.5248901180089
 10
-128.5092715230909
 20
-499.0222876896047
 10
-134.5051676324305
 20
-507.7842285294575
 10
-140.3289245377078
 20
-516.803331989749
 10
-145.9756365793794
 20
-526.0720008009359
 10
-151.4405472321874
 20
-535.5824274713342
 10
-156.7190531118332
 20
-545.3266008637839
 10
-161.8067078526521
 20
-555.2963129438539
 10
-166.6992258530232
 20
-565.4831656939061
 10
-171.3924858853592
 20
-575.8785781871916
 10
-175.8825345676352
 20
-586.4737938160194
 10
-180.1655896935322
 20
-597.2598876679137
 10
-184.2380434183898
 20
-608.2277740435391
 10
-188.0964652982859
 20
-619.36821411007
 10
-191.7376051796812
 20
-630.6718236835473
 10
-195.1583959371964
 20
-642.1290811336765
 10
-198.3559560572142
 20
-653.7303354044012
 10
-201.3275920651317
 20
-665.4658141435004
 10
-204.0708007942168
 20
-677.3256319343594
 10
-206.5832714941583
 20
-689.2997986229807
 10
-208.8628877775335
 20
-701.3782277332209
 10
-210.9077294025539
 20
-713.550744963165
 10
-212.7160738905867
 20
-725.8070967554814
 10
-214.2863979770899
 20
-738.1369589345362
 10
-215.6173788947387
 20
-750.5299454029958
 10
-216.7078954876629
 20
-762.9756168905872
 10
-217.5570291558562
 20
-775.4634897476489
 10
-218.164064628961
 20
-787.9830447760668
 10
-218.5284905687794
 20
-800.5237360901517
 10
-218.6499999999999
 20
-813.0749999999995
  0
LINE
  5
8A
330
A
100
AcDbEntity
  8
0
  6
Continuous
 62
     7
100
AcDbLine
 10
-25.15000000000002
 20
-404.6959418998325
 30
0.0
 11
-23.93458028456133
 21
-407.0600486472338
 31
0.0
  0
LINE
  5
8B
330
A
100
AcDbEntity
  8
0
  6
Continuous
 62
     7
100
AcDbLine
 10
163.6345802845613
 20
-407.0600486472338
 30
0.0
 11
164.85
 21
-404.6959418998325
 31
0.0
  0
LWPOLYLINE
  5
8C
330
A
100
AcDbEntity
  8
0
  6
Continuous
 62
     7
100
AcDbPolyline
 90
       12
 70
   128
 43
0.0
 10
164.85
 20
-404.6959418998325
 10
156.4973231132516
 20
-400.5422072715801
 10
148.0640243304686
 20
-396.7723180378678
 10
139.5579505015393
 20
-393.3897819310402
 10
130.9870161906447
 20
-390.3977462667271
 10
122.3591963120708
 20
-387.7989950153918
 10
113.6825187098671
 20
-385.5959462119568
 10
104.9650566882561
 20
-383.7906497059175
 10
96.21492149974445
 20
-382.3847852540395
 10
87.44025479792416
 20
-381.3796609574116
 10
78.64922106198683
 20
-380.7762120443087
 10
69.85000000000002
 20
-380.575
  0
LWPOLYLINE
  5
9A
330
A
100
AcDbEntity
  8
0
  6
Continuous
 62
     7
100
AcDbPolyline
 90
       12
 70
   128
 43
0.0
 10
69.84999999999999
 20
-380.575
 10
61.05077893801318
 20
-380.7762120443087
 10
52.25974520207587
 20
-381.3796609574116
 10
43.48507850025556
 20
-382.3847852540395
 10
34.73494331174393
 20
-383.7906497059175
 10
26.01748129013293
 20
-385.5959462119568
 10
17.34080368792916
 20
-387.7989950153918
 10
8.712983809355257
 20
-390.3977462667271
 10
0.1420494984606807
 20
-393.3897819310402
 10
-8.36402433046865
 20
-396.7723180378678
 10
-16.79732311325166
 20
-400.5422072715801
 10
-25.14999999999999
 20
-404.6959418998325
  0
LINE
  5
A8
330
A
100
AcDbEntity
  8
0
  6
Continuous
 62
     7
100
AcDbLine
 10
68.84999999999999
 20
1088.877816849067
 30
0.0
 11
68.84999999999999
 21
-380.5775981593619
 31
0.0
  0
LINE
  5
A9
330
A
100
AcDbEntity
  8
0
  6
Continuous
 62
     7
100
AcDbLine
 10
70.84999999999999
 20
-380.5775981593619
 30
0.0
 11
70.84999999999999
 21
1088.877816849067
 31
0.0
  0
LINE
  5
AA
330
A
100
AcDbEntity
  8
0
  6
Continuous
 62
     7
100
AcDbLine
 10
24.65309250210883
 20
1094.256987677331
 30
0.0
 11
-32.53042684168349
 21
-418.0749999999999
 31
0.0
  0
LINE
  5
AB
330
A
100
AcDbEntity
  8
0
  6
Continuous
 62
     7
100
AcDbLine
 10
-30.49516350222709
 20
-417.1801887800975
 30
0.0
 11
26.64113606737819
 21
1093.902977982163
 31
0.0
  0
LINE
  5
AC
330
A
100
AcDbEntity
  8
0
  6
Continuous
 62
     7
100
AcDbLine
 10
113.0588639326214
 20
1093.902977982162
 30
0.0
 11
170.195163502227
 21
-417.1801887800979
 31
0.0
  0
LINE
  5
AD
330
A
100
AcDbEntity
  8
0
  6
Continuous
 62
     7
100
AcDbLine
 10
172.2304268416827
 20
-418.0749999999999
 30
0.0
 11
115.0469074978908
 21
1094.256987677331
 31
0.0
  0
LINE
  5
AE
330
A
100
AcDbEntity
  8
0
  6
Continuous
 62
     7
100
AcDbLine
 10
159.85
 20
1109.925
 30
0.0
 11
-20.15000000000004
 21
1109.925
 31
0.0
  0
LINE
  5
AF
330
A
100
AcDbEntity
  8
0
  6
Continuous
 62
     7
100
AcDbLine
 10
159.85
 20
1105.425
 30
0.0
 11
-20.15000000000007
 21
1105.425
 31
0.0
  0
LINE
  5
B0
330
A
100
AcDbEntity
  8
0
  6
Continuous
 62
     7
100
AcDbLine
 10
134.85
 20
1136.925
 30
0.0
 11
4.849999999999993
 21
1136.925
 31
0.0
  0
LINE
  5
B1
330
A
100
AcDbEntity
  8
0
  6
Continuous
 62
     7
100
AcDbLine
 10
169.2566637897023
 20
-407.0600486472338
 30
0.0
 11
-29.55666378970234
 21
-407.0600486472338
 31
0.0
  0
LINE
  5
B2
330
A
100
AcDbEntity
  8
0
  6
Continuous
 62
     7
100
AcDbLine
 10
358.3500000000006
 20
-813.075
 30
0.0
 11
-218.6500000000018
 21
-813.075
 31
0.0
  0
LINE
  5
B3
330
A
100
AcDbEntity
  8
0
  6
Continuous
 62
     7
100
AcDbLine
 10
164.85
 20
-404.6959418998325
 30
0.0
 11
-25.15000000000002
 21
-404.6959418998325
 31
0.0
  0
LINE
  5
B4
330
A
100
AcDbEntity
  8
0
  6
Continuous
 62
     7
100
AcDbLine
 10
-31.46073575387902
 20
-418.0749999999999
 30
0.0
 11
-32.53042684168349
 21
-418.0749999999999
 31
0.0
  0
LINE
  5
B5
330
A
100
AcDbEntity
  8
0
  6
Continuous
 62
     7
100
AcDbLine
 10
172.2304268416827
 20
-418.0749999999999
 30
0.0
 11
171.1607357538782
 21
-418.0749999999999
 31
0.0
  0
LINE
  5
B6
330
A
100
AcDbEntity
  8
0
  6
Continuous
 62
     7
100
AcDbLine
 10
70.84999999999999
 20
-1304.815682077819
 30
0.0
 11
70.84999999999999
 21
-1277.760066428349
 31
0.0
  0
LINE
  5
B7
330
A
100
AcDbEntity
  8
0
  6
Continuous
 62
     7
100
AcDbLine
 10
68.84999999999998
 20
-1277.760066428349
 30
0.0
 11
68.84999999999999
 21
-1304.815682077819
 31
0.0
  0
LINE
  5
B8
330
A
100
AcDbEntity
  8
0
  6
Continuous
 62
     7
100
AcDbLine
 10
-8.587474939853386
 20
-1438.941323083481
 30
0.0
 11
-32.01832540731652
 21
-1452.46913090821
 31
0.0
  0
LINE
  5
B9
330
A
100
AcDbEntity
  8
0
  6
Continuous
 62
     7
100
AcDbLine
 10
-31.01832540731668
 20
-1454.201181715779
 30
0.0
 11
-7.587474939853441
 21
-1440.67337389105
 31
0.0
  0
LINE
  5
BA
330
A
100
AcDbEntity
  8
0
  6
Continuous
 62
     7
100
AcDbLine
 10
147.2874749398528
 20
-1440.673373891051
 30
0.0
 11
170.718325407316
 21
-1454.20118171578
 31
0.0
  0
LINE
  5
BB
330
A
100
AcDbEntity
  8
0
  6
Continuous
 62
     7
100
AcDbLine
 10
171.7183254073159
 20
-1452.469130908211
 30
0.0
 11
148.2874749398528
 21
-1438.941323083482
 31
0.0
  0
CIRCLE
  5
BC
330
A
100
AcDbEntity
  8
0
  6
Continuous
 62
     7
100
AcDbCircle
 10
69.84999999999999
 20
-1394.810126350785
 30
0.0
 40
65.0
  0
CIRCLE
  5
BD
330
A
100
AcDbEntity
  8
0
  6
Continuous
 62
     7
100
AcDbCircle
 10
69.84999999999999
 20
-1394.810126350785
 30
0.0
 40
90.00000000000023
  0
ARC
  5
BE
330
A
100
AcDbEntity
  8
0
  6
Continuous
 62
     7
100
AcDbCircle
 10
69.84999999999999
 20
-1394.81012635078
 30
0.0
 40
99.40666378970229
100
AcDbArc
 50
330.5763873742056
 51
89.4236126257943
  0
ARC
  5
BF
330
A
100
AcDbEntity
  8
0
  6
Continuous
 62
     7
100
AcDbCircle
 10
69.84999999999999
 20
-1394.81012635078
 30
0.0
 40
99.40666378970242
100
AcDbArc
 50
210.5763873742068
 51
329.4236126257941
  0
ARC
  5
C0
330
A
100
AcDbEntity
  8
0
  6
Continuous
 62
     7
100
AcDbCircle
 10
69.84999999999999
 20
-1394.81012635078
 30
0.0
 40
99.40666378970234
100
AcDbArc
 50
90.57638737420571
 51
209.4236126257952
  0
CIRCLE
  5
C1
330
A
100
AcDbEntity
  8
0
  6
Continuous
 62
     7
100
AcDbCircle
 10
69.84999999999999
 20
-1394.810126350779
 30
0.0
 40
288.5
  0
ARC
  5
C2
330
A
100
AcDbEntity
  8
0
  6
Continuous
 62
     7
100
AcDbCircle
 10
69.84999999999999
 20
-1394.81012635078
 30
0.0
 40
97.1460580235853
100
AcDbArc
 50
330.589800477635
 51
89.41019952236462
  0
ARC
  5
C3
330
A
100
AcDbEntity
  8
0
  6
Continuous
 62
     7
100
AcDbCircle
 10
69.84999999999999
 20
-1394.81012635078
 30
0.0
 40
97.14605802358532
100
AcDbArc
 50
210.5898004776365
 51
329.4101995223643
  0
ARC
  5
C4
330
A
100
AcDbEntity
  8
0
  6
Continuous
 62
     7
100
AcDbCircle
 10
69.84999999999999
 20
-1394.81012635078
 30
0.0
 40
97.14605802358533
100
AcDbArc
 50
90.58980047763538
 51
209.4101995223658
  0
ARC
  5
C5
330
A
100
AcDbEntity
  8
0
  6
Continuous
 62
     7
100
AcDbCircle
 10
69.84999999999999
 20
-1394.81012635078
 30
0.0
 40
95.00000000000001
100
AcDbArc
 50
330.6031246069433
 51
89.39687539305634
  0
ARC
  5
C6
330
A
100
AcDbEntity
  8
0
  6
Continuous
 62
     7
100
AcDbCircle
 10
69.84999999999999
 20
-1394.81012635078
 30
0.0
 40
95.00000000000012
100
AcDbArc
 50
210.6031246069449
 51
329.3968753930558
  0
ARC
  5
C7
330
A
100
AcDbEntity
  8
0
  6
Continuous
 62
     7
100
AcDbCircle
 10
69.84999999999999
 20
-1394.81012635078
 30
0.0
 40
95.00000000000003
100
AcDbArc
 50
90.60312460694367
 51
209.3968753930576
  0
LWPOLYLINE
  5
C8
330
A
100
AcDbEntity
  8
0
  6
Continuous
 62
     7
100
AcDbPolyline
 90
       20
 70
   128
 43
0.0
 10
-31.02971224278342
 20
-1454.207755908301
 10
-31.18783536780915
 20
-1454.281505841324
 10
-31.35634624868294
 20
-1454.326701176287
 10
-31.53012476756005
 20
-1454.341968675807
 10
-31.70389075208055
 20
-1454.326844444638
 10
-31.87236441073466
 20
-1454.28178802489
 10
-32.03042675665591
 20
-1454.208168433077
 10
-32.17327514544692
 20
-1454.108222563245
 10
-32.29656920109905
 20
-1453.984987220071
 10
-32.3965626961211
 20
-1453.842206847098
 10
-32.47021737876597
 20
-1453.68421975371
 10
-32.51529528877259
 20
-1453.515826297792
 10
-32.53042675665589
 20
-1453.342143029293
 10
-32.51515202042117
 20
-1453.168447226437
 10
-32.46993519519951
 20
-1453.0000165483
 10
-32.39615017134445
 20
-1452.841968675808
 10
-32.29603886946883
 20
-1452.699105813588
 10
-32.17264312082134
 20
-1452.575768777419
 10
-32.02971224278339
 20
-1452.475705100732
 10
-32.02971224278334
 20
-1452.475705100732
  0
LWPOLYLINE
  5
DE
330
A
100
AcDbEntity
  8
0
  6
Continuous
 62
     7
100
AcDbPolyline
 90
       20
 70
   128
 43
0.0
 10
171.7297122427826
 20
-1452.475705100733
 10
171.8726431208206
 20
-1452.57576877742
 10
171.996038869468
 20
-1452.699105813589
 10
172.0961501713437
 20
-1452.841968675809
 10
172.1699351951988
 20
-1453.000016548302
 10
172.2151520204204
 20
-1453.168447226439
 10
172.2304267566551
 20
-1453.342143029295
 10
172.2152952887718
 20
-1453.515826297794
 10
172.1702173787652
 20
-1453.684219753711
 10
172.0965626961203
 20
-1453.8422068471
 10
171.9965692010983
 20
-1453.984987220072
 10
171.8732751454461
 20
-1454.108222563246
 10
171.7304267566551
 20
-1454.208168433079
 10
171.5723644107339
 20
-1454.281788024892
 10
171.4038907520798
 20
-1454.32684444464
 10
171.2301247675593
 20
-1454.341968675809
 10
171.0563462486821
 20
-1454.326701176288
 10
170.8878353678084
 20
-1454.281505841325
 10
170.7297122427826
 20
-1454.207755908303
 10
170.7297122427827
 20
-1454.207755908303
  0
LINE
  5
F4
330
A
100
AcDbEntity
  8
0
  6
Continuous
 62
     7
100
AcDbLine
 10
915.2283703384229
 20
1105.425
 30
0.0
 11
915.2283703384229
 21
1109.925
 31
0.0
  0
LINE
  5
F5
330
A
100
AcDbEntity
  8
0
  6
Continuous
 62
     7
100
AcDbLine
 10
735.228370338423
 20
1109.925
 30
0.0
 11
735.228370338423
 21
1105.425
 31
0.0
  0
ARC
  5
F6
330
A
100
AcDbEntity
  8
0
  6
Continuous
 62
     7
100
AcDbCircle
 10
825.2283703384231
 20
1341.875840556764
 30
0.0
 40
253.0000000000003
100
AcDbArc
 50
249.1617338611156
 51
258.131597161606
  0
ARC
  5
F7
330
A
100
AcDbEntity
  8
0
  6
Continuous
 62
     7
100
AcDbCircle
 10
825.2283703384231
 20
1341.875840556764
 30
0.0
 40
253.0000000000004
100
AcDbArc
 50
258.590352947713
 51
275.5816272994343
  0
ARC
  5
F8
330
A
100
AcDbEntity
  8
0
  6
Continuous
 62
     7
100
AcDbCircle
 10
825.2283703384231
 20
1341.875840556764
 30
0.0
 40
253.0000000000003
100
AcDbArc
 50
276.0359966750261
 51
290.8382661388861
  0
LINE
  5
F9
330
A
100
AcDbEntity
  8
0
  6
Continuous
 62
     7
100
AcDbLine
 10
890.2283703384229
 20
1109.925
 30
0.0
 11
890.2283703384229
 21
1136.925
 31
0.0
  0
LINE
  5
FA
330
A
100
AcDbEntity
  8
0
  6
Continuous
 62
     7
100
AcDbLine
 10
760.2283703384228
 20
1136.925
 30
0.0
 11
760.2283703384228
 21
1109.925
 31
0.0
  0
LWPOLYLINE
  5
FB
330
A
100
AcDbEntity
  8
0
  6
Continuous
 62
     7
100
AcDbPolyline
 90
       43
 70
   128
 43
0.0
 10
1113.728370338423
 20
-813.075
 10
1113.606860907202
 20
-800.5237360901523
 10
1113.242434967384
 20
-787.9830447760673
 10
1112.635399494279
 20
-775.4634897476494
 10
1111.786265826086
 20
-762.9756168905877
 10
1110.695749233161
 20
-750.5299454029962
 10
1109.364768315513
 20
-738.1369589345366
 10
1107.79444422901
 20
-725.8070967554817
 10
1105.986099740977
 20
-713.5507449631655
 10
1103.941258115956
 20
-701.3782277332214
 10
1101.661641832581
 20
-689.2997986229811
 10
1099.14917113264
 20
-677.32563193436
 10
1096.405962403555
 20
-665.4658141435009
 10
1093.434326395637
 20
-653.7303354044016
 10
1090.236766275619
 20
-642.129081133677
 10
1086.815975518104
 20
-630.6718236835478
 10
1083.174835636709
 20
-619.3682141100704
 10
1079.316413756813
 20
-608.2277740435396
 10
1075.243960031955
 20
-597.2598876679142
 10
1070.960904906058
 20
-586.4737938160199
 10
1066.470856223782
 20
-575.8785781871919
 10
1061.777596191446
 20
-565.4831656939064
 10
1056.885078191075
 20
-555.296312943854
 10
1051.797423450256
 20
-545.3266008637841
 10
1046.518917570611
 20
-535.5824274713346
 10
1041.054006917803
 20
-526.0720008009362
 10
1035.407294876131
 20
-516.8033319897492
 10
1029.583537970854
 20
-507.7842285294579
 10
1023.587641861514
 20
-499.022287689605
 10
1017.424657209643
 20
-490.5248901180092
 10
1011.099775424321
 20
-482.2991936236534
 10
1004.618324289175
 20
-474.3521271472824
 10
997.9857634745053
 20
-466.6903849247882
 10
991.2076799383166
 20
-459.3204208482996
 10
984.2897832201256
 20
-452.248443029727
 10
977.2379006315123
 20
-445.4804085713393
 10
970.0579723474676
 20
-439.0220185477819
 10
962.7560464026672
 20
-432.8787132037572
 10
955.3382735968915
 20
-427.0556673714188
 10
947.8109023138815
 20
-421.5577861113358
 10
940.1802732579914
 20
-416.3897005806989
 10
932.4528141130794
 20
-411.5557641322529
 10
924.6350341281257
 20
-407.060048647234
  0
LWPOLYLINE
  5
128
330
A
100
AcDbEntity
  8
0
  6
Continuous
 62
     7
100
AcDbPolyline
 90
        4
 70
   128
 43
0.0
 10
725.8217065487207
 20
-407.0600486472338
 10
718.0039265637669
 20
-411.5557641322528
 10
710.2764674188546
 20
-416.3897005806989
 10
709.2091810873663
 20
-417.088617929754
  0
LWPOLYLINE
  5
12E
330
A
100
AcDbEntity
  8
0
  6
Continuous
 62
     7
100
AcDbPolyline
 90
       41
 70
   128
 43
0.0
 10
707.1473701606842
 20
-418.4606807475683
 10
702.6458383629647
 20
-421.5577861113356
 10
695.1184670799546
 20
-427.0556673714186
 10
687.7006942741792
 20
-432.878713203757
 10
680.3987683293786
 20
-439.0220185477816
 10
673.2188400453338
 20
-445.4804085713392
 10
666.1669574567207
 20
-452.2484430297266
 10
659.2490607385295
 20
-459.3204208482993
 10
652.4709772023409
 20
-466.6903849247879
 10
645.8384163876712
 20
-474.3521271472822
 10
639.3569652525248
 20
-482.2991936236532
 10
633.0320834672025
 20
-490.5248901180089
 10
626.869098815332
 20
-499.0222876896047
 10
620.8732027059924
 20
-507.7842285294575
 10
615.0494458007151
 20
-516.803331989749
 10
609.4027337590436
 20
-526.0720008009359
 10
603.9378231062356
 20
-535.5824274713342
 10
598.6593172265896
 20
-545.3266008637839
 10
593.5716624857708
 20
-555.2963129438539
 10
588.6791444853997
 20
-565.4831656939061
 10
583.9858844530637
 20
-575.8785781871916
 10
579.4958357707878
 20
-586.4737938160194
 10
575.2127806448908
 20
-597.2598876679137
 10
571.1403269200332
 20
-608.2277740435391
 10
567.281905040137
 20
-619.36821411007
 10
563.6407651587417
 20
-630.6718236835473
 10
560.2199744012266
 20
-642.1290811336765
 10
557.0224142812088
 20
-653.7303354044012
 10
554.0507782732913
 20
-665.4658141435004
 10
551.3075695442061
 20
-677.3256319343594
 10
548.7950988442646
 20
-689.2997986229807
 10
546.5154825608895
 20
-701.3782277332209
 10
544.470640935869
 20
-713.550744963165
 10
542.6622964478363
 20
-725.8070967554814
 10
541.091972361333
 20
-738.1369589345362
 10
539.7609914436842
 20
-750.5299454029958
 10
538.6704748507599
 20
-762.9756168905872
 10
537.8213411825667
 20
-775.4634897476489
 10
537.214305709462
 20
-787.9830447760668
 10
536.8498797696436
 20
-800.5237360901517
 10
536.7283703384231
 20
-813.0749999999995
  0
LINE
  5
159
330
A
100
AcDbEntity
  8
0
  6
Continuous
 62
     7
100
AcDbLine
 10
730.228370338423
 20
-404.6959418998325
 30
0.0
 11
731.4437900538616
 21
-407.0600486472338
 31
0.0
  0
LINE
  5
15A
330
A
100
AcDbEntity
  8
0
  6
Continuous
 62
     7
100
AcDbLine
 10
919.0129506229842
 20
-407.0600486472338
 30
0.0
 11
920.228370338423
 21
-404.6959418998325
 31
0.0
  0
LWPOLYLINE
  5
15B
330
A
100
AcDbEntity
  8
0
  6
Continuous
 62
     7
100
AcDbPolyline
 90
        6
 70
   128
 43
0.0
 10
920.2283703384232
 20
-404.6959418998325
 10
911.8756934516747
 20
-400.5422072715801
 10
903.4423946688916
 20
-396.7723180378678
 10
894.9363208399624
 20
-393.3897819310402
 10
886.3653865290677
 20
-390.3977462667271
 10
884.1405169353672
 20
-389.6882647684608
  0
LWPOLYLINE
  5
163
330
A
100
AcDbEntity
  8
0
  6
Continuous
 62
     7
100
AcDbPolyline
 90
        8
 70
   128
 43
0.0
 10
882.1265364419028
 20
-389.0696807504851
 10
877.7375666504937
 20
-387.7989950153918
 10
869.06088904829
 20
-385.5959462119568
 10
860.3434270266792
 20
-383.7906497059175
 10
851.5932918381675
 20
-382.3847852540395
 10
842.8186251363472
 20
-381.3796609574116
 10
834.0275914004099
 20
-380.7762120443087
 10
825.2283703384231
 20
-380.575
  0
LWPOLYLINE
  5
16D
330
A
100
AcDbEntity
  8
0
  6
Continuous
 62
     7
100
AcDbPolyline
 90
       12
 70
   128
 43
0.0
 10
825.2283703384231
 20
-380.575
 10
816.4291492764361
 20
-380.7762120443087
 10
807.6381155404989
 20
-381.3796609574116
 10
798.8634488386785
 20
-382.3847852540395
 10
790.1133136501669
 20
-383.7906497059175
 10
781.395851628556
 20
-385.5959462119568
 10
772.7191740263521
 20
-387.7989950153918
 10
764.0913541477782
 20
-390.3977462667271
 10
755.5204198368836
 20
-393.3897819310402
 10
747.0143460079543
 20
-396.7723180378678
 10
738.5810472251713
 20
-400.5422072715801
 10
730.228370338423
 20
-404.6959418998325
  0
LINE
  5
17B
330
A
100
AcDbEntity
  8
0
  6
Continuous
 62
     7
100
AcDbLine
 10
773.1952439168311
 20
1094.284334735593
 30
0.0
 11
707.1473701606842
 21
-418.4606807475683
 31
0.0
  0
LINE
  5
17C
330
A
100
AcDbEntity
  8
0
  6
Continuous
 62
     7
100
AcDbLine
 10
709.2091810873663
 20
-417.088617929754
 30
0.0
 11
775.1793060215927
 21
1093.875656764473
 31
0.0
  0
LINE
  5
17D
330
A
100
AcDbEntity
  8
0
  6
Continuous
 62
     7
100
AcDbLine
 10
849.7509126146541
 20
1093.977714496539
 30
0.0
 11
882.7456728688034
 21
-417.4307918789199
 31
0.0
  0
LINE
  5
17E
330
A
100
AcDbEntity
  8
0
  6
Continuous
 62
     7
100
AcDbLine
 10
884.7602127485188
 20
-418.0749999999999
 30
0.0
 11
851.7469251253498
 21
1094.182199407977
 31
0.0
  0
LINE
  5
17F
330
A
100
AcDbEntity
  8
0
  6
Continuous
 62
     7
100
AcDbLine
 10
915.2283703384229
 20
1109.925
 30
0.0
 11
735.228370338423
 21
1109.925
 31
0.0
  0
LINE
  5
180
330
A
100
AcDbEntity
  8
0
  6
Continuous
 62
     7
100
AcDbLine
 10
915.2283703384229
 20
1105.425
 30
0.0
 11
735.228370338423
 21
1105.425
 31
0.0
  0
LINE
  5
181
330
A
100
AcDbEntity
  8
0
  6
Continuous
 62
     7
100
AcDbLine
 10
890.2283703384229
 20
1136.925
 30
0.0
 11
760.2283703384228
 21
1136.925
 31
0.0
  0
LINE
  5
182
330
A
100
AcDbEntity
  8
0
  6
Continuous
 62
     7
100
AcDbLine
 10
924.6350341281253
 20
-407.0600486472338
 30
0.0
 11
884.5197511674424
 21
-407.0600486472338
 31
0.0
  0
LINE
  5
183
330
A
100
AcDbEntity
  8
0
  6
Continuous
 62
     7
100
AcDbLine
 10
882.5192746547244
 20
-407.0600486472338
 30
0.0
 11
725.8217065487207
 21
-407.0600486472338
 31
0.0
  0
LINE
  5
184
330
A
100
AcDbEntity
  8
0
  6
Continuous
 62
     7
100
AcDbLine
 10
1113.728370338423
 20
-813.075
 30
0.0
 11
536.728370338423
 21
-813.075
 31
0.0
  0
LINE
  5
185
330
A
100
AcDbEntity
  8
0
  6
Continuous
 62
     7
100
AcDbLine
 10
920.228370338423
 20
-404.6959418998325
 30
0.0
 11
884.4681416025784
 21
-404.6959418998325
 31
0.0
  0
LINE
  5
186
330
A
100
AcDbEntity
  8
0
  6
Continuous
 62
     7
100
AcDbLine
 10
882.4676650898604
 20
-404.6959418998325
 30
0.0
 11
730.228370338423
 21
-404.6959418998325
 31
0.0
  0
LINE
  5
187
330
A
100
AcDbEntity
  8
0
  6
Continuous
 62
     7
100
AcDbLine
 10
884.7602127485188
 20
-418.0749999999999
 30
0.0
 11
883.2013380076935
 21
-418.0749999999999
 31
0.0
  0
ENDSEC
  0
SECTION
  2
OBJECTS
  0
DICTIONARY
  5
19
330
0
100
AcDbDictionary
281
     1
  3
ACAD_COLOR
350
18C
  3
ACAD_GROUP
350
1A
  3
ACAD_LAYOUT
350
18D
  3
ACAD_MATERIAL
350
18B
  3
ACAD_MLINESTYLE
350
1B
  3
ACAD_PLOTSETTINGS
350
18E
  3
ACAD_PLOTSTYLENAME
350
189
  3
ACDBHEADERROUNDTRIPXREC
350
1A6
  3
AcDbVariableDictionary
350
19F
  3
ASE_INDEX_DICTIONARY
350
194
  0
DICTIONARY
  5
18C
102
{ACAD_REACTORS
330
19
102
}
330
19
100
AcDbDictionary
281
     1
  0
DICTIONARY
  5
1A
102
{ACAD_REACTORS
330
19
102
}
330
19
100
AcDbDictionary
281
     1
  0
DICTIONARY
  5
18D
102
{ACAD_REACTORS
330
19
102
}
330
19
100
AcDbDictionary
281
     1
  3
Layout1
350
190
  3
Model
350
18F
  0
DICTIONARY
  5
18B
102
{ACAD_REACTORS
330
19
102
}
330
19
100
AcDbDictionary
281
     1
  0
DICTIONARY
  5
1B
102
{ACAD_REACTORS
330
19
102
}
330
19
100
AcDbDictionary
281
     1
  3
STANDARD
350
1C
  0
DICTIONARY
  5
18E
102
{ACAD_REACTORS
330
19
102
}
330
19
100
AcDbDictionary
281
     1
  0
ACDBDICTIONARYWDFLT
  5
189
102
{ACAD_REACTORS
330
19
102
}
330
19
100
AcDbDictionary
281
     1
  3
Normal
350
18A
100
AcDbDictionaryWithDefault
340
18A
  0
DICTIONARY
  5
1A6
102
{ACAD_REACTORS
330
19
102
}
330
19
100
AcDbDictionary
281
     1
  3
COLORDICT
350
1A8
  3
MATERIALDICT
350
1A7
  0
DICTIONARY
  5
19F
102
{ACAD_REACTORS
330
19
102
}
330
19
100
AcDbDictionary
281
     1
  3
DIMASSOC
350
1A0
  3
PROJECTNAME
350
1A1
  0
DICTIONARY
  5
194
102
{ACAD_REACTORS
330
19
102
}
330
19
100
AcDbDictionary
281
     1
  3
ASEBlockHierarchyIndexRecord
350
196
1001
DCO15
1040
1522040008.64
  0
LAYOUT
  5
190
102
{ACAD_XDICTIONARY
360
1AB
102
}
102
{ACAD_REACTORS
330
18D
102
}
330
18D
100
AcDbPlotSettings
  1

  2
ProgeSOFT PDF Wizard
  4

  6

 40
0.0
 41
0.0
 42
0.0
 43
0.0
 44
0.0
 45
0.0
 46
0.0
 47
0.0
 48
0.0
 49
0.0
140
0.0
141
0.0
142
1.0
143
1.0
 70
   688
 72
     0
 73
     0
 74
     5
  7

 75
    16
147
1.0
148
0.0
149
0.0
100
AcDbLayout
  1
Layout1
 70
     1
 71
     1
 10
0.0
 20
0.0
 11
12.0
 21
9.0
 12
0.0
 22
0.0
 32
0.0
 14
1.000000000000000E+20
 24
1.000000000000000E+20
 34
1.000000000000000E+20
 15
-1.000000000000000E+20
 25
-1.000000000000000E+20
 35
-1.000000000000000E+20
146
0.0
 13
0.0
 23
0.0
 33
0.0
 16
1.0
 26
0.0
 36
0.0
 17
0.0
 27
1.0
 37
0.0
 76
     0
330
B
  0
LAYOUT
  5
18F
102
{ACAD_XDICTIONARY
360
1A9
102
}
102
{ACAD_REACTORS
330
18D
102
}
330
18D
100
AcDbPlotSettings
  1

  2
ProgeSOFT PDF Wizard
  4

  6

 40
0.0
 41
0.0
 42
0.0
 43
0.0
 44
0.0
 45
0.0
 46
0.0
 47
0.0
 48
0.0
 49
0.0
140
0.0
141
0.0
142
1.0
143
1.0
 70
  1712
 72
     0
 73
     0
 74
     0
  7

 75
     0
147
1.0
148
0.0
149
0.0
100
AcDbLayout
  1
Model
 70
     1
 71
     0
 10
0.0
 20
0.0
 11
12.0
 21
9.0
 12
0.0
 22
0.0
 32
0.0
 14
0.0
 24
0.0
 34
0.0
 15
0.0
 25
0.0
 35
0.0
146
0.0
 13
0.0
 23
0.0
 33
0.0
 16
1.0
 26
0.0
 36
0.0
 17
0.0
 27
1.0
 37
0.0
 76
     0
330
A
  0
MLINESTYLE
  5
1C
102
{ACAD_REACTORS
330
1B
102
}
330
1B
100
AcDbMlineStyle
  2
STANDARD
 70
     0
  3

 62
     0
 51
90.0
 52
90.0
 71
     2
 49
0.5
 62
   256
  6
BYLAYER
 49
-0.5
 62
   256
  6
BYLAYER
  0
ACDBPLACEHOLDER
  5
18A
102
{ACAD_REACTORS
330
189
102
}
330
189
  0
XRECORD
  5
1A8
102
{ACAD_REACTORS
330
1A6
102
}
330
1A6
100
AcDbXrecord
280
     1
340
18C
  0
XRECORD
  5
1A7
102
{ACAD_REACTORS
330
1A6
102
}
330
1A6
100
AcDbXrecord
280
     1
340
18B
  0
DICTIONARYVAR
  5
1A0
102
{ACAD_REACTORS
330
19F
102
}
330
19F
100
DictionaryVariables
280
     0
  1
1
  0
DICTIONARYVAR
  5
1A1
102
{ACAD_REACTORS
330
19F
102
}
330
19F
100
DictionaryVariables
280
     0
  1

  0
XRECORD
  5
196
102
{ACAD_REACTORS
330
194
102
}
330
194
100
AcDbXrecord
280
     1
  0
DICTIONARY
  5
1AB
330
190
100
AcDbDictionary
280
     1
281
     1
  3
ACAD_XREC_ROUNDTRIP
360
1AC
  0
DICTIONARY
  5
1A9
330
18F
100
AcDbDictionary
280
     1
281
     1
  3
ACAD_XREC_ROUNDTRIP
360
1AA
  0
XRECORD
  5
1AC
102
{ACAD_REACTORS
330
1AB
102
}
330
1AB
100
AcDbXrecord
280
     1
102
SHADEPLOT
 70
     0
102
SHADEPLOTRESLEVEL
 70
     2
102
SHADEPLOTCUSTOMDPI
 70
   300
  0
XRECORD
  5
1AA
102
{ACAD_REACTORS
330
1A9
102
}
330
1A9
100
AcDbXrecord
280
     1
102
SHADEPLOT
 70
     0
102
SHADEPLOTRESLEVEL
 70
     2
102
SHADEPLOTCUSTOMDPI
 70
   300
  0
ENDSEC
  0
EOF
