  0
SECTION
  2
HEADER
  9
$ACADVER
  1
AC1018
  9
$ACADMAINTVER
 70
     0
  9
$DWGCODEPAGE
  3
ANSI_1252
  9
$INSBASE
 10
0.0
 20
0.0
 30
0.0
  9
$EXTMIN
 10
349.9952837066798
 20
0.000000021965036
 30
0.0
  9
$EXTMAX
 10
1954.154445579801
 20
2049.728135955158
 30
0.0
  9
$LIMMIN
 10
0.0
 20
0.0
  9
$LIMMAX
 10
12.0
 20
9.0
  9
$ORTHOMODE
 70
     0
  9
$REGENMODE
 70
     1
  9
$FILLMODE
 70
     1
  9
$QTEXTMODE
 70
     0
  9
$MIRRTEXT
 70
     1
  9
$LTSCALE
 40
1.0
  9
$ATTMODE
 70
     1
  9
$TEXTSIZE
 40
0.2
  9
$TRACEWID
 40
0.05
  9
$TEXTSTYLE
  7
Standard
  9
$CLAYER
  8
Predefinito
  9
$CELTYPE
  6
ByLayer
  9
$CECOLOR
 62
   256
  9
$CELTSCALE
 40
1.0
  9
$DISPSILH
 70
     0
  9
$DIMSCALE
 40
1.0
  9
$DIMASZ
 40
0.18
  9
$DIMEXO
 40
0.0625
  9
$DIMDLI
 40
0.38
  9
$DIMRND
 40
0.0
  9
$DIMDLE
 40
0.0
  9
$DIMEXE
 40
0.18
  9
$DIMTP
 40
0.0
  9
$DIMTM
 40
0.0
  9
$DIMTXT
 40
0.18
  9
$DIMCEN
 40
0.09
  9
$DIMTSZ
 40
0.0
  9
$DIMTOL
 70
     0
  9
$DIMLIM
 70
     0
  9
$DIMTIH
 70
     1
  9
$DIMTOH
 70
     1
  9
$DIMSE1
 70
     0
  9
$DIMSE2
 70
     0
  9
$DIMTAD
 70
     0
  9
$DIMZIN
 70
     0
  9
$DIMBLK
  1

  9
$DIMASO
 70
     1
  9
$DIMSHO
 70
     1
  9
$DIMPOST
  1

  9
$DIMAPOST
  1

  9
$DIMALT
 70
     0
  9
$DIMALTD
 70
     2
  9
$DIMALTF
 40
25.4
  9
$DIMLFAC
 40
1.0
  9
$DIMTOFL
 70
     0
  9
$DIMTVP
 40
0.0
  9
$DIMTIX
 70
     0
  9
$DIMSOXD
 70
     0
  9
$DIMSAH
 70
     0
  9
$DIMBLK1
  1

  9
$DIMBLK2
  1

  9
$DIMSTYLE
  2
Standard
  9
$DIMCLRD
 70
     0
  9
$DIMCLRE
 70
     0
  9
$DIMCLRT
 70
     0
  9
$DIMTFAC
 40
1.0
  9
$DIMGAP
 40
0.09
  9
$DIMJUST
 70
     0
  9
$DIMSD1
 70
     0
  9
$DIMSD2
 70
     0
  9
$DIMTOLJ
 70
     1
  9
$DIMTZIN
 70
     0
  9
$DIMALTZ
 70
     0
  9
$DIMALTTZ
 70
     0
  9
$DIMUPT
 70
     0
  9
$DIMDEC
 70
     4
  9
$DIMTDEC
 70
     4
  9
$DIMALTU
 70
     2
  9
$DIMALTTD
 70
     2
  9
$DIMTXSTY
  7
Standard
  9
$DIMAUNIT
 70
     0
  9
$DIMADEC
 70
     0
  9
$DIMALTRND
 40
0.0
  9
$DIMAZIN
 70
     0
  9
$DIMDSEP
 70
    46
  9
$DIMATFIT
 70
     3
  9
$DIMFRAC
 70
     0
  9
$DIMLDRBLK
  1

  9
$DIMLUNIT
 70
     2
  9
$DIMLWD
 70
    -2
  9
$DIMLWE
 70
    -2
  9
$DIMTMOVE
 70
     2
  9
$LUNITS
 70
     2
  9
$LUPREC
 70
     3
  9
$SKETCHINC
 40
0.1
  9
$FILLETRAD
 40
0.5
  9
$AUNITS
 70
     0
  9
$AUPREC
 70
     0
  9
$MENU
  1
.
  9
$ELEVATION
 40
0.0
  9
$PELEVATION
 40
0.0
  9
$THICKNESS
 40
0.0
  9
$LIMCHECK
 70
     0
  9
$CHAMFERA
 40
0.5
  9
$CHAMFERB
 40
0.5
  9
$CHAMFERC
 40
1.0
  9
$CHAMFERD
 40
0.0
  9
$SKPOLY
 70
     0
  9
$TDCREATE
 40
2458261.640580683
  9
$TDUCREATE
 40
2458261.55724735
  9
$TDUPDATE
 40
2458261.640580695
  9
$TDUUPDATE
 40
2458261.557247361
  9
$TDINDWG
 40
0.0000000116
  9
$TDUSRTIMER
 40
0.0000000116
  9
$USRTIMER
 70
     1
  9
$ANGBASE
 50
0.0
  9
$ANGDIR
 70
     0
  9
$PDMODE
 70
     0
  9
$PDSIZE
 40
0.0
  9
$PLINEWID
 40
0.0
  9
$SPLFRAME
 70
     0
  9
$SPLINETYPE
 70
     6
  9
$SPLINESEGS
 70
     8
  9
$HANDSEED
  5
237
  9
$SURFTAB1
 70
     6
  9
$SURFTAB2
 70
     6
  9
$SURFTYPE
 70
     6
  9
$SURFU
 70
     6
  9
$SURFV
 70
     6
  9
$UCSBASE
  2

  9
$UCSNAME
  2

  9
$UCSORG
 10
0.0
 20
0.0
 30
0.0
  9
$UCSXDIR
 10
1.0
 20
0.0
 30
0.0
  9
$UCSYDIR
 10
0.0
 20
1.0
 30
0.0
  9
$UCSORTHOREF
  2

  9
$UCSORTHOVIEW
 70
     0
  9
$UCSORGTOP
 10
0.0
 20
0.0
 30
0.0
  9
$UCSORGBOTTOM
 10
0.0
 20
0.0
 30
0.0
  9
$UCSORGLEFT
 10
0.0
 20
0.0
 30
0.0
  9
$UCSORGRIGHT
 10
0.0
 20
0.0
 30
0.0
  9
$UCSORGFRONT
 10
0.0
 20
0.0
 30
0.0
  9
$UCSORGBACK
 10
0.0
 20
0.0
 30
0.0
  9
$PUCSBASE
  2

  9
$PUCSNAME
  2

  9
$PUCSORG
 10
0.0
 20
0.0
 30
0.0
  9
$PUCSXDIR
 10
1.0
 20
0.0
 30
0.0
  9
$PUCSYDIR
 10
0.0
 20
1.0
 30
0.0
  9
$PUCSORTHOREF
  2

  9
$PUCSORTHOVIEW
 70
     0
  9
$PUCSORGTOP
 10
0.0
 20
0.0
 30
0.0
  9
$PUCSORGBOTTOM
 10
0.0
 20
0.0
 30
0.0
  9
$PUCSORGLEFT
 10
0.0
 20
0.0
 30
0.0
  9
$PUCSORGRIGHT
 10
0.0
 20
0.0
 30
0.0
  9
$PUCSORGFRONT
 10
0.0
 20
0.0
 30
0.0
  9
$PUCSORGBACK
 10
0.0
 20
0.0
 30
0.0
  9
$USERI1
 70
     0
  9
$USERI2
 70
     0
  9
$USERI3
 70
     0
  9
$USERI4
 70
     0
  9
$USERI5
 70
     0
  9
$USERR1
 40
0.0
  9
$USERR2
 40
0.0
  9
$USERR3
 40
0.0
  9
$USERR4
 40
0.0
  9
$USERR5
 40
0.0
  9
$WORLDVIEW
 70
     1
  9
$SHADEDGE
 70
     3
  9
$SHADEDIF
 70
    70
  9
$TILEMODE
 70
     0
  9
$MAXACTVP
 70
    64
  9
$PINSBASE
 10
0.0
 20
0.0
 30
0.0
  9
$PLIMCHECK
 70
     0
  9
$PEXTMIN
 10
0.0
 20
0.0
 30
0.0
  9
$PEXTMAX
 10
0.0
 20
0.0
 30
0.0
  9
$PLIMMIN
 10
0.0
 20
0.0
  9
$PLIMMAX
 10
12.0
 20
9.0
  9
$UNITMODE
 70
     0
  9
$VISRETAIN
 70
     1
  9
$PLINEGEN
 70
     0
  9
$PSLTSCALE
 70
     1
  9
$TREEDEPTH
 70
  3020
  9
$CMLSTYLE
  2
Standard
  9
$CMLJUST
 70
     0
  9
$CMLSCALE
 40
1.0
  9
$PROXYGRAPHICS
 70
     1
  9
$MEASUREMENT
 70
     0
  9
$CELWEIGHT
370
    -1
  9
$ENDCAPS
280
     0
  9
$JOINSTYLE
280
     0
  9
$LWDISPLAY
290
     0
  9
$INSUNITS
 70
     4
  9
$HYPERLINKBASE
  1

  9
$STYLESHEET
  1

  9
$XEDIT
290
     1
  9
$CEPSNTYPE
380
     0
  9
$PSTYLEMODE
290
     1
  9
$FINGERPRINTGUID
  2
{D3475676-DD56-4496-88C5-16CDA6E7F79D}
  9
$VERSIONGUID
  2
{FAEB1C32-E019-11D5-929B-00C0DF256EC4}
  9
$EXTNAMES
290
     1
  9
$PSVPSCALE
 40
0.0
  9
$OLESTARTUP
290
     0
  9
$SORTENTS
280
   127
  9
$INDEXCTL
280
     0
  9
$HIDETEXT
280
     1
  9
$XCLIPFRAME
290
     0
  9
$HALOGAP
280
     0
  9
$OBSCOLOR
 70
   257
  9
$OBSLTYPE
280
     0
  9
$INTERSECTIONDISPLAY
280
     0
  9
$INTERSECTIONCOLOR
 70
   257
  9
$DIMASSOC
280
     2
  9
$PROJECTNAME
  1

  0
ENDSEC
  0
SECTION
  2
CLASSES
  0
CLASS
  1
ACDBDICTIONARYWDFLT
  2
AcDbDictionaryWithDefault
  3
ObjectDBX Classes
 90
        0
 91
        4
280
     0
281
     0
  0
CLASS
  1
VISUALSTYLE
  2
AcDbVisualStyle
  3
ObjectDBX Classes
 90
     4095
 91
        4
280
     0
281
     0
  0
CLASS
  1
SCALE
  2
AcDbScale
  3
ObjectDBX Classes
 90
     1153
 91
        4
280
     0
281
     0
  0
CLASS
  1
DICTIONARYVAR
  2
AcDbDictionaryVar
  3
ObjectDBX Classes
 90
        0
 91
        4
280
     0
281
     0
  0
ENDSEC
  0
SECTION
  2
TABLES
  0
TABLE
  2
VPORT
  5
8
330
0
100
AcDbSymbolTable
 70
     1
  0
VPORT
  5
29
330
8
100
AcDbSymbolTableRecord
100
AcDbViewportTableRecord
  2
*Active
 70
     0
 10
0.0
 20
0.0
 11
1.0
 21
1.0
 12
1152.074864643241
 22
1024.864067988562
 13
0.0
 23
0.0
 14
0.5
 24
0.5
 15
0.5
 25
0.5
 16
0.0
 26
0.0
 36
1.0
 17
0.0
 27
0.0
 37
0.0
 40
2090.722698651857
 41
0.782620452805945
 42
50.0
 43
0.0
 44
0.0
 50
0.0
 51
0.0
 71
     0
 72
   100
 73
     1
 74
     3
 75
     0
 76
     0
 77
     0
 78
     0
281
     0
 65
     1
110
0.0
120
0.0
130
0.0
111
1.0
121
0.0
131
0.0
112
0.0
122
1.0
132
0.0
 79
     0
146
0.0
  0
ENDTAB
  0
TABLE
  2
LTYPE
  5
5
330
0
100
AcDbSymbolTable
 70
     1
  0
LTYPE
  5
14
330
5
100
AcDbSymbolTableRecord
100
AcDbLinetypeTableRecord
  2
ByBlock
 70
     0
  3

 72
    65
 73
     0
 40
0.0
  0
LTYPE
  5
15
330
5
100
AcDbSymbolTableRecord
100
AcDbLinetypeTableRecord
  2
ByLayer
 70
     0
  3

 72
    65
 73
     0
 40
0.0
  0
LTYPE
  5
16
330
5
100
AcDbSymbolTableRecord
100
AcDbLinetypeTableRecord
  2
Continuous
 70
     0
  3
Solid line
 72
    65
 73
     0
 40
0.0
  0
ENDTAB
  0
TABLE
  2
LAYER
  5
2
330
0
100
AcDbSymbolTable
 70
     2
  0
LAYER
  5
10
330
2
100
AcDbSymbolTableRecord
100
AcDbLayerTableRecord
  2
0
 70
     0
 62
     7
  6
Continuous
370
    -3
390
F
  0
LAYER
  5
3B
330
2
100
AcDbSymbolTableRecord
100
AcDbLayerTableRecord
  2
Predefinito
 70
     0
 62
     7
  6
Continuous
370
    -3
390
F
  0
ENDTAB
  0
TABLE
  2
STYLE
  5
3
330
0
100
AcDbSymbolTable
 70
     1
  0
STYLE
  5
11
330
3
100
AcDbSymbolTableRecord
100
AcDbTextStyleTableRecord
  2
Standard
 70
     0
 40
0.0
 41
1.0
 50
0.0
 71
     0
 42
0.2
  3
txt
  4

  0
ENDTAB
  0
TABLE
  2
VIEW
  5
6
330
0
100
AcDbSymbolTable
 70
     0
  0
ENDTAB
  0
TABLE
  2
UCS
  5
7
330
0
100
AcDbSymbolTable
 70
     0
  0
ENDTAB
  0
TABLE
  2
APPID
  5
9
330
0
100
AcDbSymbolTable
 70
     1
  0
APPID
  5
12
330
9
100
AcDbSymbolTableRecord
100
AcDbRegAppTableRecord
  2
ACAD
 70
     0
  0
ENDTAB
  0
TABLE
  2
DIMSTYLE
  5
A
330
0
100
AcDbSymbolTable
 70
     1
100
AcDbDimStyleTable
  0
DIMSTYLE
105
27
330
A
100
AcDbSymbolTableRecord
100
AcDbDimStyleTableRecord
  2
Standard
 70
     0
340
11
  0
ENDTAB
  0
TABLE
  2
BLOCK_RECORD
  5
1
330
0
100
AcDbSymbolTable
 70
     3
  0
BLOCK_RECORD
  5
1F
330
1
100
AcDbSymbolTableRecord
100
AcDbBlockTableRecord
  2
*Model_Space
340
22
  0
BLOCK_RECORD
  5
20C
330
1
100
AcDbSymbolTableRecord
100
AcDbBlockTableRecord
  2
*Paper_Space
340
20D
  0
BLOCK_RECORD
  5
23
330
1
100
AcDbSymbolTableRecord
100
AcDbBlockTableRecord
  2
*Paper_Space0
340
26
  0
BLOCK_RECORD
  5
1B
330
1
100
AcDbSymbolTableRecord
100
AcDbBlockTableRecord
  2
*Paper_Space1
340
1E
  0
BLOCK_RECORD
  5
207
330
1
100
AcDbSymbolTableRecord
100
AcDbBlockTableRecord
  2
*Paper_Space2
340
208
  0
ENDTAB
  0
ENDSEC
  0
SECTION
  2
BLOCKS
  0
BLOCK
  5
20
330
1F
100
AcDbEntity
  8
0
100
AcDbBlockBegin
  2
*Model_Space
 70
     0
 10
0.0
 20
0.0
 30
0.0
  3
*Model_Space
  1

  0
ENDBLK
  5
21
330
1F
100
AcDbEntity
  8
0
100
AcDbBlockEnd
  0
BLOCK
  5
20E
330
20C
100
AcDbEntity
 67
     1
  8
0
100
AcDbBlockBegin
  2
*Paper_Space
 70
     0
 10
0.0
 20
0.0
 30
0.0
  3
*Paper_Space
  1

  0
ENDBLK
  5
20F
330
20C
100
AcDbEntity
 67
     1
  8
0
100
AcDbBlockEnd
  0
BLOCK
  5
24
330
23
100
AcDbEntity
  8
0
100
AcDbBlockBegin
  2
*Paper_Space0
 70
     0
 10
0.0
 20
0.0
 30
0.0
  3
*Paper_Space0
  1

  0
ENDBLK
  5
25
330
23
100
AcDbEntity
  8
0
100
AcDbBlockEnd
  0
BLOCK
  5
1C
330
1B
100
AcDbEntity
  8
0
100
AcDbBlockBegin
  2
*Paper_Space1
 70
     0
 10
0.0
 20
0.0
 30
0.0
  3
*Paper_Space1
  1

  0
ENDBLK
  5
1D
330
1B
100
AcDbEntity
  8
0
100
AcDbBlockEnd
  0
BLOCK
  5
209
330
207
100
AcDbEntity
  8
0
100
AcDbBlockBegin
  2
*Paper_Space2
 70
     0
 10
0.0
 20
0.0
 30
0.0
  3
*Paper_Space2
  1

  0
VIEWPORT
  5
20B
330
207
100
AcDbEntity
  8
0
100
AcDbViewport
 10
6.0
 20
4.5
 30
0.0
 40
12.696
 41
9.522
 68
     1
 69
     1
 12
6.0
 22
4.5
 13
0.0
 23
0.0
 14
0.5
 24
0.5
 15
0.5
 25
0.5
 16
0.0
 26
0.0
 36
1.0
 17
0.0
 27
0.0
 37
0.0
 42
50.0
 43
0.0
 44
0.0
 45
9.522
 50
0.0
 51
0.0
 72
   100
 90
   557152
  1

281
     0
 71
     1
 74
     0
110
0.0
120
0.0
130
0.0
111
1.0
121
0.0
131
0.0
112
0.0
122
1.0
132
0.0
 79
     0
146
0.0
170
     0
  0
ENDBLK
  5
20A
330
207
100
AcDbEntity
  8
0
100
AcDbBlockEnd
  0
ENDSEC
  0
SECTION
  2
ENTITIES
  0
POLYLINE
  5
3C
330
1F
100
AcDbEntity
  8
Predefinito
100
AcDb2dPolyline
 66
     1
 10
0.0
 20
0.0
 30
0.0
  0
VERTEX
  5
3D
330
3C
100
AcDbEntity
  8
Predefinito
100
AcDbVertex
100
AcDb2dVertex
 10
1891.154439124271
 20
567.7199035108545
 30
0.0
  0
VERTEX
  5
3E
330
3C
100
AcDbEntity
  8
Predefinito
100
AcDbVertex
100
AcDb2dVertex
 10
1891.154439124271
 20
559.973936818435
 30
0.0
  0
SEQEND
  5
3F
330
3C
100
AcDbEntity
  8
Predefinito
  0
POLYLINE
  5
40
330
1F
100
AcDbEntity
  8
Predefinito
100
AcDb2dPolyline
 66
     1
 10
0.0
 20
0.0
 30
0.0
  0
VERTEX
  5
41
330
40
100
AcDbEntity
  8
Predefinito
100
AcDbVertex
100
AcDb2dVertex
 10
1877.154439124271
 20
567.7199035108545
 30
0.0
  0
VERTEX
  5
42
330
40
100
AcDbEntity
  8
Predefinito
100
AcDbVertex
100
AcDb2dVertex
 10
1877.154439124271
 20
559.973936818435
 30
0.0
  0
SEQEND
  5
43
330
40
100
AcDbEntity
  8
Predefinito
  0
SPLINE
  5
44
330
1F
100
AcDbEntity
  8
Predefinito
100
AcDbSpline
210
0.0
220
0.0
230
1.0
 70
    24
 71
     2
 72
     6
 73
     3
 74
     0
 42
0.0000000001
 43
0.0000000001
 40
0.0
 40
0.0
 40
0.0
 40
423.7423108458919
 40
423.7423108458919
 40
423.7423108458919
 10
1877.154439124271
 20
136.2316259725432
 30
0.0
 10
1877.154439124271
 20
348.1027813954891
 30
0.0
 10
1877.154439124271
 20
559.973936818435
 30
0.0
  0
SPLINE
  5
45
330
1F
100
AcDbEntity
  8
Predefinito
100
AcDbSpline
210
0.0
220
0.0
230
1.0
 70
    24
 71
     2
 72
     6
 73
     3
 74
     0
 42
0.0000000001
 43
0.0000000001
 40
0.0
 40
0.0
 40
0.0
 40
8.477016653790315
 40
8.477016653790315
 40
8.477016653790315
 10
1877.154439124271
 20
567.7199035108545
 30
0.0
 10
1877.154439124271
 20
571.9584118377496
 30
0.0
 10
1877.154439124271
 20
576.1969201646448
 30
0.0
  0
SPLINE
  5
46
330
1F
100
AcDbEntity
  8
Predefinito
100
AcDbSpline
210
0.0
220
0.0
230
1.0
 70
    24
 71
     2
 72
     6
 73
     3
 74
     0
 42
0.0000000001
 43
0.0000000001
 40
0.0
 40
0.0
 40
0.0
 40
3.0
 40
3.0
 40
3.0
 10
420.5973919732983
 20
1926.223792723403
 30
0.0
 10
420.5973919732983
 20
1924.723792723403
 30
0.0
 10
420.5973919732983
 20
1923.223792723403
 30
0.0
  0
SPLINE
  5
47
330
1F
100
AcDbEntity
  8
Predefinito
100
AcDbSpline
210
0.0
220
0.0
230
1.0
 70
    24
 71
     2
 72
     6
 73
     3
 74
     0
 42
0.0000000001
 43
0.0000000001
 40
0.0
 40
0.0
 40
0.0
 40
3.0
 40
3.0
 40
3.0
 10
420.5973919732982
 20
1976.223792723403
 30
0.0
 10
420.5973919732983
 20
1974.723792723403
 30
0.0
 10
420.5973919732983
 20
1973.223792723403
 30
0.0
  0
SPLINE
  5
48
330
1F
100
AcDbEntity
  8
Predefinito
100
AcDbSpline
210
0.0
220
0.0
230
1.0
 70
    24
 71
     2
 72
     6
 73
     3
 74
     0
 42
0.0000000001
 43
0.0000000001
 40
0.0
 40
0.0
 40
0.0
 40
27.69777169545891
 40
27.69777169545891
 40
27.69777169545891
 10
350.2417442714383
 20
2021.723792723403
 30
0.0
 10
350.1208914774752
 20
2035.572151247994
 30
0.0
 10
350.0000386835121
 20
2049.420509772586
 30
0.0
  0
SPLINE
  5
49
330
1F
100
AcDbEntity
  8
Predefinito
100
AcDbSpline
210
0.0
220
0.0
230
1.0
 70
    24
 71
     2
 72
     6
 73
     3
 74
     0
 42
0.0000000001
 43
0.0000000001
 40
0.0
 40
0.0
 40
0.0
 40
27.69777167901514
 40
27.69777167901514
 40
27.69777167901514
 10
486.5947452650484
 20
2049.420509756143
 30
0.0
 10
486.4738924711532
 20
2035.572151239773
 30
0.0
 10
486.3530396772581
 20
2021.723792723403
 30
0.0
  0
SPLINE
  5
4A
330
1F
100
AcDbEntity
  8
Predefinito
100
AcDbSpline
210
0.0
220
0.0
230
1.0
 70
    12
 71
     2
 72
     8
 73
     5
 74
     0
 42
0.0000000001
 43
0.0000000001
 40
0.0
 40
0.0
 40
0.0
 40
0.2504703494535908
 40
0.2504703494535908
 40
0.5009406989071815
 40
0.5009406989071815
 40
0.5009406989071815
 10
486.2947955157195
 20
2049.723792723397
 30
0.0
 41
1.0
 10
486.4286671956963
 20
2049.748081865382
 30
0.0
 41
0.8848497690413191
 10
486.5244530789589
 20
2049.651455504145
 30
0.0
 41
1.0
 10
486.6202389622214
 20
2049.554829142909
 30
0.0
 41
0.8848497690413191
 10
486.5947812368041
 20
2049.421174762753
 30
0.0
 41
1.0
  0
SPLINE
  5
4B
330
1F
100
AcDbEntity
  8
Predefinito
100
AcDbSpline
210
0.0
220
0.0
230
1.0
 70
    12
 71
     2
 72
     8
 73
     5
 74
     0
 42
0.0000000001
 43
0.0000000001
 40
0.0
 40
0.0
 40
0.0
 40
0.2512208316640201
 40
0.2512208316640201
 40
0.5024416633280403
 40
0.5024416633280403
 40
0.5024416633280403
 10
350.0000000005269
 20
2049.421174762753
 30
0.0
 41
1.0
 10
349.9732619373543
 20
2049.555214402733
 30
0.0
 41
0.8828241264741472
 10
350.0694851576662
 20
2049.6522846916
 30
0.0
 41
1.0
 10
350.1657083779784
 20
2049.749354980467
 30
0.0
 41
0.8828241264741472
 10
350.2999772132212
 20
2049.723792723318
 30
0.0
 41
1.0
  0
SPLINE
  5
4C
330
1F
100
AcDbEntity
  8
Predefinito
100
AcDbSpline
210
0.0
220
0.0
230
1.0
 70
    24
 71
     2
 72
     6
 73
     3
 74
     0
 42
0.0000000001
 43
0.0000000001
 40
0.0
 40
0.0
 40
0.0
 40
96.50000000000023
 40
96.50000000000023
 40
96.50000000000023
 10
418.5473919732983
 20
1923.223792723403
 30
0.0
 10
418.5473919732983
 20
1874.973792723403
 30
0.0
 10
418.5473919732983
 20
1826.723792723403
 30
0.0
  0
SPLINE
  5
4D
330
1F
100
AcDbEntity
  8
Predefinito
100
AcDbSpline
210
0.0
220
0.0
230
1.0
 70
    24
 71
     2
 72
     6
 73
     3
 74
     0
 42
0.0000000001
 43
0.0000000001
 40
0.0
 40
0.0
 40
0.0
 40
47.00000000000023
 40
47.00000000000023
 40
47.00000000000023
 10
418.5473919732983
 20
1973.223792723403
 30
0.0
 10
418.5473919732983
 20
1949.723792723403
 30
0.0
 10
418.5473919732983
 20
1926.223792723403
 30
0.0
  0
SPLINE
  5
4E
330
1F
100
AcDbEntity
  8
Predefinito
100
AcDbSpline
210
0.0
220
0.0
230
1.0
 70
    24
 71
     2
 72
     6
 73
     3
 74
     0
 42
0.0000000001
 43
0.0000000001
 40
0.0
 40
0.0
 40
0.0
 40
45.50000000000023
 40
45.50000000000023
 40
45.50000000000023
 10
418.5473919732983
 20
2021.723792723403
 30
0.0
 10
418.5473919732983
 20
1998.973792723403
 30
0.0
 10
418.5473919732983
 20
1976.223792723403
 30
0.0
  0
SPLINE
  5
4F
330
1F
100
AcDbEntity
  8
Predefinito
100
AcDbSpline
210
0.0
220
0.0
230
1.0
 70
    24
 71
     2
 72
     6
 73
     3
 74
     0
 42
0.0000000001
 43
0.0000000001
 40
0.0
 40
0.0
 40
0.0
 40
45.50000000000023
 40
45.50000000000023
 40
45.50000000000023
 10
417.7473919732983
 20
1976.223792723403
 30
0.0
 10
417.7473919732983
 20
1998.973792723403
 30
0.0
 10
417.7473919732983
 20
2021.723792723403
 30
0.0
  0
SPLINE
  5
50
330
1F
100
AcDbEntity
  8
Predefinito
100
AcDbSpline
210
0.0
220
0.0
230
1.0
 70
    24
 71
     2
 72
     6
 73
     3
 74
     0
 42
0.0000000001
 43
0.0000000001
 40
0.0
 40
0.0
 40
0.0
 40
47.00000000000023
 40
47.00000000000023
 40
47.00000000000023
 10
417.7473919732983
 20
1926.223792723402
 30
0.0
 10
417.7473919732983
 20
1949.723792723402
 30
0.0
 10
417.7473919732983
 20
1973.223792723403
 30
0.0
  0
SPLINE
  5
51
330
1F
100
AcDbEntity
  8
Predefinito
100
AcDbSpline
210
0.0
220
0.0
230
1.0
 70
    24
 71
     2
 72
     6
 73
     3
 74
     0
 42
0.0000000001
 43
0.0000000001
 40
0.0
 40
0.0
 40
0.0
 40
96.50000000000023
 40
96.50000000000023
 40
96.50000000000023
 10
417.7473919732983
 20
1826.723792723403
 30
0.0
 10
417.7473919732983
 20
1874.973792723403
 30
0.0
 10
417.7473919732983
 20
1923.223792723403
 30
0.0
  0
SPLINE
  5
52
330
1F
100
AcDbEntity
  8
Predefinito
100
AcDbSpline
210
0.0
220
0.0
230
1.0
 70
     8
 71
     3
 72
    21
 73
    17
 74
     0
 42
0.0000000001
 43
0.0000000001
 40
0.0
 40
0.0
 40
0.0
 40
0.0
 40
12.31752097295883
 40
22.80689356579525
 40
32.43823775776086
 40
42.06379665353123
 40
63.86059347471924
 40
77.39575745283439
 40
93.2353663555791
 40
126.6156229869963
 40
167.496174409198
 40
212.4662270062812
 40
287.3389168904435
 40
309.1412512286547
 40
329.2279730409916
 40
344.5591117404582
 40
344.5591117404582
 40
344.5591117404582
 40
344.5591117404582
 10
1134.063170212055
 20
1648.947156014486
 30
0.0
 10
1132.960620523765
 20
1652.901228215294
 30
0.0
 10
1130.419765245476
 20
1660.097226729664
 30
0.0
 10
1124.799886921811
 20
1669.419132987835
 30
0.0
 10
1117.569730696133
 20
1676.356297749062
 30
0.0
 10
1105.025111154703
 20
1682.346230699177
 30
0.0
 10
1089.587947807637
 20
1682.196829992986
 30
0.0
 10
1073.097607249767
 20
1678.132802332666
 30
0.0
 10
1053.472430504453
 20
1670.64326691336
 30
0.0
 10
1027.012695606849
 20
1656.377945720584
 30
0.0
 10
993.891381150337
 20
1634.341389735463
 30
0.0
 10
951.0382676937713
 20
1602.182258708044
 30
0.0
 10
914.3883204056893
 20
1572.397910484665
 30
0.0
 10
883.695225375012
 20
1548.469269657198
 30
0.0
 10
868.3216041502394
 20
1537.172870024214
 30
0.0
 10
858.4397279579272
 20
1530.700629963634
 30
0.0
 10
854.015353416801
 20
1528.140537356116
 30
0.0
  0
SPLINE
  5
53
330
1F
100
AcDbEntity
  8
Predefinito
100
AcDbSpline
210
0.0
220
0.0
230
1.0
 70
     8
 71
     3
 72
    20
 73
    16
 74
     0
 42
0.0000000001
 43
0.0000000001
 40
0.0
 40
0.0
 40
0.0
 40
0.0
 40
14.83437731630299
 40
34.11024432656627
 40
55.94402674361154
 40
132.4020538233644
 40
180.127797393522
 40
222.3987315325515
 40
255.8088388034941
 40
272.1725715707446
 40
286.152514501588
 40
309.338091070478
 40
319.9048085268088
 40
330.8071120677211
 40
355.9007968539975
 40
355.9007968539975
 40
355.9007968539975
 40
355.9007968539975
 10
850.9124475179154
 20
1533.508214884927
 30
0.0
 10
855.1942924458031
 20
1535.984777419737
 30
0.0
 10
864.703583112016
 20
1542.227852071572
 30
0.0
 10
879.7485137491901
 20
1553.253105142332
 30
0.0
 10
910.6597894229247
 20
1577.342204017718
 30
0.0
 10
948.4202410197329
 20
1608.064193862311
 30
0.0
 10
992.886046927305
 20
1641.273906478536
 30
0.0
 10
1027.306892104207
 20
1663.856350024146
 30
0.0
 10
1054.594276824926
 20
1678.007414133813
 30
0.0
 10
1074.692433436254
 20
1685.114332950066
 30
0.0
 10
1092.146072299769
 20
1688.770816608313
 30
0.0
 10
1108.449143664105
 20
1687.952467275922
 30
0.0
 10
1121.85939294701
 20
1680.93799050451
 30
0.0
 10
1133.016979044129
 20
1669.963605749228
 30
0.0
 10
1137.828450572727
 20
1658.578398614219
 30
0.0
 10
1140.045798293566
 20
1650.574776256952
 30
0.0
  0
SPLINE
  5
54
330
1F
100
AcDbEntity
  8
Predefinito
100
AcDbSpline
210
0.0
220
0.0
230
1.0
 70
    12
 71
     2
 72
     6
 73
     3
 74
     0
 42
0.0000000001
 43
0.0000000001
 40
0.0
 40
0.0
 40
0.0
 40
13.51983830656354
 40
13.51983830656354
 40
13.51983830656354
 10
854.0153444962343
 20
1528.140532202538
 30
0.0
 41
1.0
 10
848.1615060700543
 20
1524.759839505154
 30
0.0
 41
0.9999999922029212
 10
842.3068234878413
 20
1521.38060892771
 30
0.0
 41
1.0
  0
SPLINE
  5
55
330
1F
100
AcDbEntity
  8
Predefinito
100
AcDbSpline
210
0.0
220
0.0
230
1.0
 70
    12
 71
     2
 72
     6
 73
     3
 74
     0
 42
0.0000000001
 43
0.0000000001
 40
0.0
 40
0.0
 40
0.0
 40
13.51340780779282
 40
13.51340780779282
 40
13.51340780779282
 10
839.2094852253249
 20
1526.751503117463
 30
0.0
 41
1.0
 10
845.0621068995924
 20
1530.127872570086
 30
0.0
 41
0.9999999425375186
 10
850.9124380108415
 20
1533.508209392278
 30
0.0
 41
1.0
  0
SPLINE
  5
56
330
1F
100
AcDbEntity
  8
Predefinito
100
AcDbSpline
210
0.0
220
0.0
230
1.0
 70
     8
 71
     3
 72
    16
 73
    12
 74
     0
 42
0.0000000001
 43
0.0000000001
 40
0.0
 40
0.0
 40
0.0
 40
0.0
 40
92.57077151750838
 40
174.2796178133252
 40
246.7946937520387
 40
318.1227138781962
 40
396.4340050748762
 40
483.2589343246028
 40
578.2564974365207
 40
627.2857822681418
 40
675.6606146852416
 40
675.6606146852416
 40
675.6606146852416
 40
675.6606146852416
 10
842.3068230799697
 20
1521.380608692442
 30
0.0
 10
815.5825908102287
 20
1505.964893657938
 30
0.0
 10
763.0912865116055
 20
1480.508424262589
 30
0.0
 10
682.4203723086504
 20
1461.322497830448
 30
0.0
 10
606.3364306671997
 20
1466.131654385505
 30
0.0
 10
537.5648804118384
 20
1496.727705781509
 30
0.0
 10
480.0287218820009
 20
1552.072994907159
 30
0.0
 10
436.2267431420394
 20
1627.620211667839
 30
0.0
 10
412.748778492148
 20
1701.311654733784
 30
0.0
 10
402.2106999127359
 20
1764.63984145479
 30
0.0
 10
400.2409012168038
 20
1797.103897187689
 30
0.0
 10
400.2321840840758
 20
1813.228006133098
 30
0.0
  0
SPLINE
  5
57
330
1F
100
AcDbEntity
  8
Predefinito
100
AcDbSpline
210
0.0
220
0.0
230
1.0
 70
     8
 71
     3
 72
    16
 73
    12
 74
     0
 42
0.0000000001
 43
0.0000000001
 40
0.0
 40
0.0
 40
0.0
 40
0.0
 40
46.2785142915
 40
94.9700205504335
 40
189.6183034334719
 40
275.4113639788392
 40
351.3269854820749
 40
420.6079620735456
 40
490.9214198191561
 40
569.9193283387497
 40
662.68086466565
 40
662.68086466565
 40
662.68086466565
 40
662.68086466565
 10
406.4321840406214
 20
1813.230367334846
 30
0.0
 10
406.4407229675345
 20
1797.805317176251
 30
0.0
 10
408.3076497458184
 20
1766.150830925973
 30
0.0
 10
418.5377073505888
 20
1703.71373992572
 30
0.0
 10
441.723301110299
 20
1630.524389044964
 30
0.0
 10
484.8784588049554
 20
1556.061722710604
 30
0.0
 10
541.0741704649217
 20
1501.998757077119
 30
0.0
 10
607.7831851166236
 20
1472.293799949873
 30
0.0
 10
681.5070774649207
 20
1467.611302632626
 30
0.0
 10
760.6695597644858
 20
1486.252149620861
 30
0.0
 10
812.431449192006
 20
1511.300831151086
 30
0.0
 10
839.2094847265921
 20
1526.75150282978
 30
0.0
  0
SPLINE
  5
58
330
1F
100
AcDbEntity
  8
Predefinito
100
AcDbSpline
210
0.0
220
0.0
230
1.0
 70
    12
 71
     2
 72
     6
 73
     3
 74
     0
 42
0.0000000001
 43
0.0000000001
 40
0.0
 40
0.0
 40
0.0
 40
0.4924392123680599
 40
0.4924392123680599
 40
0.4924392123680599
 10
400.2321840813893
 20
1813.228015257735
 30
0.0
 41
1.0
 10
400.2321118076543
 20
1813.474234853454
 30
0.0
 41
0.9999999991266408
 10
400.232060114806
 20
1813.720454454356
 30
0.0
 41
1.0
  0
SPLINE
  5
59
330
1F
100
AcDbEntity
  8
Predefinito
100
AcDbSpline
210
0.0
220
0.0
230
1.0
 70
    12
 71
     2
 72
     6
 73
     3
 74
     0
 42
0.0000000001
 43
0.0000000001
 40
0.0
 40
0.0
 40
0.0
 40
0.2888508908325645
 40
0.2888508908325645
 40
0.2888508908325645
 10
406.4321072079047
 20
1813.519227466494
 30
0.0
 41
1.0
 10
406.4321419223508
 20
1813.374802025219
 30
0.0
 41
0.99999999967174
 10
406.4321840379201
 20
1813.230376585911
 30
0.0
 41
1.0
  0
SPLINE
  5
5A
330
1F
100
AcDbEntity
  8
Predefinito
100
AcDbSpline
210
0.0
220
0.0
230
1.0
 70
     8
 71
     3
 72
    12
 73
     8
 74
     0
 42
0.0000000001
 43
0.0000000001
 40
0.0
 40
0.0
 40
0.0
 40
0.0
 40
7.872938542633548
 40
16.58259055967978
 40
50.48234039430287
 40
66.87183918493564
 40
98.59260433787016
 40
98.59260433787016
 40
98.59260433787016
 40
98.59260433787016
 10
400.2372305451416
 20
1825.727125131325
 30
0.0
 10
400.2737022009169
 20
1828.350511482844
 30
0.0
 10
400.5078588846158
 20
1833.877358323155
 30
0.0
 10
402.338602815452
 20
1850.611028300495
 30
0.0
 10
405.8092554770127
 20
1869.981240308024
 30
0.0
 10
409.1180882559653
 20
1897.122521914231
 30
0.0
 10
410.0123464572102
 20
1913.15142552801
 30
0.0
 10
409.9974330002797
 20
1923.726969106138
 30
0.0
  0
SPLINE
  5
5B
330
1F
100
AcDbEntity
  8
Predefinito
100
AcDbSpline
210
0.0
220
0.0
230
1.0
 70
     8
 71
     3
 72
    14
 73
    10
 74
     0
 42
0.0000000001
 43
0.0000000001
 40
0.0
 40
0.0
 40
0.0
 40
0.0
 40
8.488089031899317
 40
16.16656477336547
 40
31.77851830379899
 40
48.15650868618003
 40
73.67578563939448
 40
81.84820884572015
 40
97.89466478189858
 40
97.89466478189858
 40
97.89466478189858
 40
97.89466478189858
 10
416.1968487825847
 20
1923.223660403452
 30
0.0
 10
416.1934226324813
 20
1920.394151067959
 30
0.0
 10
416.1070026269261
 20
1915.005987103744
 30
0.0
 10
415.680828671432
 20
1904.420204603505
 30
0.0
 10
414.6430978147106
 20
1891.234953169515
 30
0.0
 10
412.3164997536892
 20
1872.202882819627
 30
0.0
 10
409.5706542433254
 20
1855.73627927888
 30
0.0
 10
407.2533412823894
 20
1839.321312879373
 30
0.0
 10
406.5138203103608
 20
1831.272378143221
 30
0.0
 10
406.4396900672897
 20
1825.92178363519
 30
0.0
  0
SPLINE
  5
5C
330
1F
100
AcDbEntity
  8
Predefinito
100
AcDbSpline
210
0.0
220
0.0
230
1.0
 70
    12
 71
     2
 72
     6
 73
     3
 74
     0
 42
0.0000000001
 43
0.0000000001
 40
0.0
 40
0.0
 40
0.0
 40
4.881998453227078
 40
4.881998453227078
 40
4.881998453227078
 10
409.9974330021651
 20
1923.726973679714
 30
0.0
 41
1.0
 10
409.9979035125134
 20
1926.167972893806
 30
0.0
 41
0.9999999798289324
 10
409.997393456296
 20
1928.608972099956
 30
0.0
 41
1.0
  0
SPLINE
  5
5D
330
1F
100
AcDbEntity
  8
Predefinito
100
AcDbSpline
210
0.0
220
0.0
230
1.0
 70
    12
 71
     2
 72
     6
 73
     3
 74
     0
 42
0.0000000001
 43
0.0000000001
 40
0.0
 40
0.0
 40
0.0
 40
2.385136226039432
 40
2.385136226039432
 40
2.385136226039432
 10
416.197393499795
 20
1928.608939572687
 30
0.0
 41
1.0
 10
416.1974440871549
 20
1927.41637145892
 30
0.0
 41
0.9999999977100055
 10
416.1976560900784
 20
1926.223803362923
 30
0.0
 41
1.0
  0
SPLINE
  5
5E
330
1F
100
AcDbEntity
  8
Predefinito
100
AcDbSpline
210
0.0
220
0.0
230
1.0
 70
    12
 71
     2
 72
     6
 73
     3
 74
     0
 42
0.0000000001
 43
0.0000000001
 40
0.0
 40
0.0
 40
0.0
 40
15.36020551541328
 40
15.36020551541328
 40
15.36020551541328
 10
416.1973989661783
 20
1955.77870576571
 30
0.0
 41
1.0
 10
416.197385415783
 20
1948.098603008013
 30
0.0
 41
0.9999999999997286
 10
416.197383183079
 20
1940.418500250306
 30
0.0
 41
1.0
  0
SPLINE
  5
5F
330
1F
100
AcDbEntity
  8
Predefinito
100
AcDbSpline
210
0.0
220
0.0
230
1.0
 70
    12
 71
     3
 72
     8
 73
     4
 74
     0
 42
0.0000000001
 43
0.0000000001
 40
0.0
 40
0.0
 40
0.0
 40
0.0
 40
9.311029305837925
 40
9.311029305837925
 40
9.311029305837925
 40
9.311029305837925
 10
409.9974041378876
 20
1930.885740040258
 30
0.0
 41
1.0
 10
409.9974158733952
 20
1933.989416475515
 30
0.0
 41
1.0
 10
409.9973718066108
 20
1937.093232368222
 30
0.0
 41
1.0
 10
409.9973835421184
 20
1940.196908803479
 30
0.0
 41
1.0
  0
SPLINE
  5
60
330
1F
100
AcDbEntity
  8
Predefinito
100
AcDbSpline
210
0.0
220
0.0
230
1.0
 70
    12
 71
     2
 72
     6
 73
     3
 74
     0
 42
0.0000000001
 43
0.0000000001
 40
0.0
 40
0.0
 40
0.0
 40
2.276767798987025
 40
2.276767798987025
 40
2.276767798987025
 10
409.9973934562877
 20
1928.6089722413
 30
0.0
 41
1.0
 10
409.9974025991377
 20
1929.747356140761
 30
0.0
 41
0.9999999999944226
 10
409.9974041378549
 20
1930.885740040258
 30
0.0
 41
1.0
  0
SPLINE
  5
61
330
1F
100
AcDbEntity
  8
Predefinito
100
AcDbSpline
210
0.0
220
0.0
230
1.0
 70
    12
 71
     3
 72
     8
 73
     4
 74
     0
 42
0.0000000001
 43
0.0000000001
 40
0.0
 40
0.0
 40
0.0
 40
0.0
 40
2.56
 40
2.56
 40
2.56
 40
2.56
 10
416.1974044397327
 20
1931.168966060455
 30
0.0
 41
1.0
 10
416.1973952097084
 20
1930.315632727172
 30
0.0
 41
1.0
 10
416.1974027298227
 20
1929.462273058712
 30
0.0
 41
1.0
 10
416.1973934997984
 20
1928.608939725429
 30
0.0
 41
1.0
  0
SPLINE
  5
62
330
1F
100
AcDbEntity
  8
Predefinito
100
AcDbSpline
210
0.0
220
0.0
230
1.0
 70
    12
 71
     3
 72
     8
 73
     4
 74
     0
 42
0.0000000001
 43
0.0000000001
 40
0.0
 40
0.0
 40
0.0
 40
0.0
 40
1.28
 40
1.28
 40
1.28
 40
1.28
 10
409.9973873676812
 20
1972.443047581433
 30
0.0
 41
1.0
 10
409.9973934272598
 20
1972.869714248056
 30
0.0
 41
1.0
 10
409.9973865108442
 20
1973.298096818029
 30
0.0
 41
1.0
 10
409.9973925704228
 20
1973.724763484652
 30
0.0
 41
1.0
  0
SPLINE
  5
63
330
1F
100
AcDbEntity
  8
Predefinito
100
AcDbSpline
210
0.0
220
0.0
230
1.0
 70
    12
 71
     2
 72
     6
 73
     3
 74
     0
 42
0.0000000001
 43
0.0000000001
 40
0.0
 40
0.0
 40
0.0
 40
4.610226733248431
 40
4.610226733248431
 40
4.610226733248431
 10
416.1973868153291
 20
1973.223792196005
 30
0.0
 41
1.0
 10
416.19739819494
 20
1970.918678829396
 30
0.0
 41
0.9999999999916929
 10
416.1973907830212
 20
1968.613565462771
 30
0.0
 41
1.0
  0
SPLINE
  5
64
330
1F
100
AcDbEntity
  8
Predefinito
100
AcDbSpline
210
0.0
220
0.0
230
1.0
 70
     8
 71
     3
 72
    14
 73
    10
 74
     0
 42
0.0000000001
 43
0.0000000001
 40
0.0
 40
0.0
 40
0.0
 40
0.0
 40
4.600270939171499
 40
8.74049993934222
 40
16.81733789819839
 40
24.36694302956585
 40
35.45879494271826
 40
39.02389629918754
 40
46.33123010949808
 40
46.33123010949808
 40
46.33123010949808
 40
46.33123010949808
 10
409.9973977701004
 20
1976.22322803179
 30
0.0
 10
409.9990486343038
 20
1977.757266285262
 30
0.0
 10
409.9369508870923
 20
1980.669118787762
 30
0.0
 10
409.6093071944769
 20
1986.268603410106
 30
0.0
 10
408.7864768443242
 20
1992.809818353596
 30
0.0
 10
406.935249989445
 20
2001.531749017728
 30
0.0
 10
404.7102065534542
 20
2008.598340914381
 30
0.0
 10
402.8638692200969
 20
2015.682338335679
 30
0.0
 10
402.3439099751038
 20
2019.286228538319
 30
0.0
 10
402.3016627224984
 20
2021.723180021658
 30
0.0
  0
SPLINE
  5
65
330
1F
100
AcDbEntity
  8
Predefinito
100
AcDbSpline
210
0.0
220
0.0
230
1.0
 70
     8
 71
     3
 72
    13
 73
     9
 74
     0
 42
0.0000000001
 43
0.0000000001
 40
0.0
 40
0.0
 40
0.0
 40
0.0
 40
2.849538936584801
 40
6.150257390520949
 40
9.30563294093156
 40
20.42495717508811
 40
28.68686228739021
 40
46.32890862151645
 40
46.32890862151645
 40
46.32890862151645
 40
46.32890862151645
 10
408.5027374052412
 20
2021.723792390838
 30
0.0
 10
408.5201121536044
 20
2020.773260117907
 30
0.0
 10
408.7013243994464
 20
2018.730052343454
 30
0.0
 10
409.2659242582095
 20
2015.675132314803
 30
0.0
 10
410.7646611541817
 20
2010.011426978059
 30
0.0
 10
413.0078074133785
 20
2002.837241029454
 30
0.0
 10
415.5628844238644
 20
1990.746456425938
 30
0.0
 10
416.2077360233801
 20
1982.106821364476
 30
0.0
 10
416.1973975981634
 20
1976.226117011416
 30
0.0
  0
SPLINE
  5
66
330
1F
100
AcDbEntity
  8
Predefinito
100
AcDbSpline
210
0.0
220
0.0
230
1.0
 70
    24
 71
     2
 72
     6
 73
     3
 74
     0
 42
0.0000000001
 43
0.0000000001
 40
0.0
 40
0.0
 40
0.0
 40
0.6598872323782788
 40
0.6598872323782788
 40
0.6598872323782788
 10
1158.897391973298
 20
1707.50394068364
 30
0.0
 10
1159.130697341715
 20
1707.270635315223
 30
0.0
 10
1159.364002710131
 20
1707.037329946807
 30
0.0
  0
SPLINE
  5
67
330
1F
100
AcDbEntity
  8
Predefinito
100
AcDbSpline
210
0.0
220
0.0
230
1.0
 70
    24
 71
     2
 72
     6
 73
     3
 74
     0
 42
0.0000000001
 43
0.0000000001
 40
0.0
 40
0.0
 40
0.0
 40
0.7071067811865476
 40
0.7071067811865476
 40
0.7071067811865476
 10
1151.897391973298
 20
1724.50394068364
 30
0.0
 10
1151.647391973298
 20
1724.75394068364
 30
0.0
 10
1151.397391973298
 20
1725.00394068364
 30
0.0
  0
SPLINE
  5
68
330
1F
100
AcDbEntity
  8
Predefinito
100
AcDbSpline
210
0.0
220
0.0
230
1.0
 70
    24
 71
     2
 72
     6
 73
     3
 74
     0
 42
0.0000000001
 43
0.0000000001
 40
0.0
 40
0.0
 40
0.0
 40
17.5
 40
17.5
 40
17.5
 10
1159.397391973298
 20
1707.00394068364
 30
0.0
 10
1159.397391973298
 20
1698.25394068364
 30
0.0
 10
1159.397391973298
 20
1689.50394068364
 30
0.0
  0
SPLINE
  5
69
330
1F
100
AcDbEntity
  8
Predefinito
100
AcDbSpline
210
0.0
220
0.0
230
1.0
 70
    24
 71
     2
 72
     6
 73
     3
 74
     0
 42
0.0000000001
 43
0.0000000001
 40
0.0
 40
0.0
 40
0.0
 40
20.9999999395709
 40
20.9999999395709
 40
20.9999999395709
 10
1159.397391973298
 20
1689.50394068364
 30
0.0
 10
1159.397391973298
 20
1679.003940713854
 30
0.0
 10
1159.397391973298
 20
1668.503940744069
 30
0.0
  0
SPLINE
  5
6A
330
1F
100
AcDbEntity
  8
Predefinito
100
AcDbSpline
210
0.0
220
0.0
230
1.0
 70
    24
 71
     2
 72
     6
 73
     3
 74
     0
 42
0.0000000001
 43
0.0000000001
 40
0.0
 40
0.0
 40
0.0
 40
20.99999993955726
 40
20.99999993955726
 40
20.99999993955726
 10
1151.397391973298
 20
1668.503940744082
 30
0.0
 10
1151.397391973298
 20
1679.003940713861
 30
0.0
 10
1151.397391973298
 20
1689.50394068364
 30
0.0
  0
SPLINE
  5
6B
330
1F
100
AcDbEntity
  8
Predefinito
100
AcDbSpline
210
0.0
220
0.0
230
1.0
 70
    24
 71
     2
 72
     6
 73
     3
 74
     0
 42
0.0000000001
 43
0.0000000001
 40
0.0
 40
0.0
 40
0.0
 40
17.99999987298293
 40
17.99999987298293
 40
17.99999987298293
 10
1159.397391973298
 20
1725.003940433134
 30
0.0
 10
1159.397391973298
 20
1716.003940496642
 30
0.0
 10
1159.397391973298
 20
1707.003940560151
 30
0.0
  0
SPLINE
  5
6C
330
1F
100
AcDbEntity
  8
Predefinito
100
AcDbSpline
210
0.0
220
0.0
230
1.0
 70
    24
 71
     2
 72
     6
 73
     3
 74
     0
 42
0.0000000001
 43
0.0000000001
 40
0.0
 40
0.0
 40
0.0
 40
20.99999999999773
 40
20.99999999999773
 40
20.99999999999773
 10
1159.397391973298
 20
1830.503940683637
 30
0.0
 10
1159.397391973298
 20
1820.003940683639
 30
0.0
 10
1159.397391973298
 20
1809.50394068364
 30
0.0
  0
SPLINE
  5
6D
330
1F
100
AcDbEntity
  8
Predefinito
100
AcDbSpline
210
0.0
220
0.0
230
1.0
 70
    24
 71
     2
 72
     6
 73
     3
 74
     0
 42
0.0000000001
 43
0.0000000001
 40
0.0
 40
0.0
 40
0.0
 40
20.93652550926072
 40
20.93652550926072
 40
20.93652550926072
 10
1151.397391973298
 20
1809.50394068364
 30
0.0
 10
1151.397391973298
 20
1819.97220343827
 30
0.0
 10
1151.397391973298
 20
1830.4404661929
 30
0.0
  0
SPLINE
  5
6E
330
1F
100
AcDbEntity
  8
Predefinito
100
AcDbSpline
210
0.0
220
0.0
230
1.0
 70
    12
 71
     2
 72
     8
 73
     5
 74
     0
 42
0.0000000001
 43
0.0000000001
 40
0.0
 40
0.0
 40
0.0
 40
3.173411032154042
 40
3.173411032154042
 40
6.346822064308085
 40
6.346822064308085
 40
6.346822064308085
 10
1151.398143578797
 20
1830.44046619289
 30
0.0
 41
1.0
 10
1151.371165242346
 20
1832.115816243595
 30
0.0
 41
0.9223151218898904
 10
1152.546494992936
 20
1833.310021251294
 30
0.0
 41
1.0
 10
1153.721824743527
 20
1834.504226258993
 30
0.0
 41
0.9223151218898904
 10
1155.397391973298
 20
1834.50394068364
 30
0.0
 41
1.0
  0
SPLINE
  5
6F
330
1F
100
AcDbEntity
  8
Predefinito
100
AcDbSpline
210
0.0
220
0.0
230
1.0
 70
    12
 71
     2
 72
     6
 73
     3
 74
     0
 42
0.0000000001
 43
0.0000000001
 40
0.0
 40
0.0
 40
0.0
 40
6.219195557548328
 40
6.219195557548328
 40
6.219195557548328
 10
1155.397391973298
 20
1834.50394068364
 30
0.0
 41
1.0
 10
1159.33375515987
 20
1834.503424577732
 30
0.0
 41
0.712778353207055
 10
1159.396638035237
 20
1830.567563662132
 30
0.0
 41
1.0
  0
SPLINE
  5
70
330
1F
100
AcDbEntity
  8
Predefinito
100
AcDbSpline
210
0.0
220
0.0
230
1.0
 70
    24
 71
     2
 72
     6
 73
     3
 74
     0
 42
0.0000000001
 43
0.0000000001
 40
0.0
 40
0.0
 40
0.0
 40
84.5
 40
84.5
 40
84.5
 10
1151.397391973298
 20
1725.00394068364
 30
0.0
 10
1151.397391973298
 20
1767.25394068364
 30
0.0
 10
1151.397391973298
 20
1809.50394068364
 30
0.0
  0
SPLINE
  5
71
330
1F
100
AcDbEntity
  8
Predefinito
100
AcDbSpline
210
0.0
220
0.0
230
1.0
 70
    24
 71
     2
 72
     6
 73
     3
 74
     0
 42
0.0000000001
 43
0.0000000001
 40
0.0
 40
0.0
 40
0.0
 40
84.5
 40
84.5
 40
84.5
 10
1159.397391973298
 20
1809.50394068364
 30
0.0
 10
1159.397391973298
 20
1767.25394068364
 30
0.0
 10
1159.397391973298
 20
1725.00394068364
 30
0.0
  0
SPLINE
  5
72
330
1F
100
AcDbEntity
  8
Predefinito
100
AcDbSpline
210
0.0
220
0.0
230
1.0
 70
    24
 71
     2
 72
     6
 73
     3
 74
     0
 42
0.0000000001
 43
0.0000000001
 40
0.0
 40
0.0
 40
0.0
 40
29.4999992100079
 40
29.4999992100079
 40
29.4999992100079
 10
1165.247996584462
 20
1680.989811825219
 30
0.0
 10
1165.247996584462
 20
1666.239812220215
 30
0.0
 10
1165.247996584462
 20
1651.489812615211
 30
0.0
  0
SPLINE
  5
73
330
1F
100
AcDbEntity
  8
Predefinito
100
AcDbSpline
210
0.0
220
0.0
230
1.0
 70
    24
 71
     2
 72
     6
 73
     3
 74
     0
 42
0.0000000001
 43
0.0000000001
 40
0.0
 40
0.0
 40
0.0
 40
0.7071067811865476
 40
0.7071067811865476
 40
0.7071067811865476
 10
1145.347996584462
 20
1680.989812615211
 30
0.0
 10
1145.597996584462
 20
1681.239812615211
 30
0.0
 10
1145.847996584462
 20
1681.489812615211
 30
0.0
  0
SPLINE
  5
74
330
1F
100
AcDbEntity
  8
Predefinito
100
AcDbSpline
210
0.0
220
0.0
230
1.0
 70
    12
 71
     2
 72
     8
 73
     5
 74
     0
 42
0.0000000001
 43
0.0000000001
 40
0.0
 40
0.0
 40
0.0
 40
0.0914206894602931
 40
0.0914206894602931
 40
0.1828413789205863
 40
0.1828413789205863
 40
0.1828413789205863
 10
1115.783805929408
 20
1639.760642076597
 30
0.0
 41
1.0
 10
1115.736186287699
 20
1639.770839323194
 30
0.0
 41
0.9104307929178053
 10
1115.712544361462
 20
1639.813414825991
 30
0.0
 41
1.0
 10
1115.688902435224
 20
1639.855990328788
 30
0.0
 41
0.9104307929178053
 10
1115.705420250233
 20
1639.901802727788
 30
0.0
 41
1.0
  0
SPLINE
  5
75
330
1F
100
AcDbEntity
  8
Predefinito
100
AcDbSpline
210
0.0
220
0.0
230
1.0
 70
    12
 71
     2
 72
     6
 73
     3
 74
     0
 42
0.0000000001
 43
0.0000000001
 40
0.0
 40
0.0
 40
0.0
 40
3.071344782201589
 40
3.071344782201589
 40
3.071344782201589
 10
1194.297393027358
 20
1639.723792723403
 30
0.0
 41
1.0
 10
1195.883290621796
 20
1639.723991933321
 30
0.0
 41
0.9531651775260603
 10
1197.179159480157
 20
1638.809773621507
 30
0.0
 41
1.0
  0
SPLINE
  5
76
330
1F
100
AcDbEntity
  8
Predefinito
100
AcDbSpline
210
0.0
220
0.0
230
1.0
 70
    12
 71
     2
 72
     8
 73
     5
 74
     0
 42
0.0000000001
 43
0.0000000001
 40
0.0
 40
0.0
 40
0.0
 40
87.4331935608946
 40
87.4331935608946
 40
174.8663871217892
 40
174.8663871217892
 40
174.8663871217892
 10
1155.297389323831
 20
1512.723792723403
 30
0.0
 41
1.0
 10
1104.844253099262
 20
1512.723805972318
 30
0.0
 41
0.8112422564148073
 10
1088.889571448238
 20
1560.587853944774
 30
0.0
 41
1.0
 10
1072.934889797215
 20
1608.45190191723
 30
0.0
 41
0.8112422564148073
 10
1113.297391973298
 20
1638.723792723403
 30
0.0
 41
1.0
  0
SPLINE
  5
77
330
1F
100
AcDbEntity
  8
Predefinito
100
AcDbSpline
210
0.0
220
0.0
230
1.0
 70
    24
 71
     2
 72
     6
 73
     3
 74
     0
 42
0.0000000001
 43
0.0000000001
 40
0.0
 40
0.0
 40
0.0
 40
2.0
 40
2.0
 40
2.0
 10
1246.847391973298
 20
2049.723792723403
 30
0.0
 10
1246.847391973298
 20
2048.723792723403
 30
0.0
 10
1246.847391973298
 20
2047.723792723403
 30
0.0
  0
SPLINE
  5
78
330
1F
100
AcDbEntity
  8
Predefinito
100
AcDbSpline
210
0.0
220
0.0
230
1.0
 70
    24
 71
     2
 72
     6
 73
     3
 74
     0
 42
0.0000000001
 43
0.0000000001
 40
0.0
 40
0.0
 40
0.0
 40
2.0
 40
2.0
 40
2.0
 10
1230.847391973298
 20
2047.723792723403
 30
0.0
 10
1230.847391973298
 20
2048.723792723403
 30
0.0
 10
1230.847391973298
 20
2049.723792723403
 30
0.0
  0
SPLINE
  5
79
330
1F
100
AcDbEntity
  8
Predefinito
100
AcDbSpline
210
0.0
220
0.0
230
1.0
 70
    24
 71
     2
 72
     6
 73
     3
 74
     0
 42
0.0000000001
 43
0.0000000001
 40
0.0
 40
0.0
 40
0.0
 40
10.0
 40
10.0
 40
10.0
 10
1241.847391973298
 20
2018.723792723403
 30
0.0
 10
1241.847391973298
 20
2013.723792723403
 30
0.0
 10
1241.847391973298
 20
2008.723792723403
 30
0.0
  0
SPLINE
  5
7A
330
1F
100
AcDbEntity
  8
Predefinito
100
AcDbSpline
210
0.0
220
0.0
230
1.0
 70
    24
 71
     2
 72
     6
 73
     3
 74
     0
 42
0.0000000001
 43
0.0000000001
 40
0.0
 40
0.0
 40
0.0
 40
10.0
 40
10.0
 40
10.0
 10
1235.847391973298
 20
2008.723792723403
 30
0.0
 10
1235.847391973298
 20
2013.723792723403
 30
0.0
 10
1235.847391973298
 20
2018.723792723403
 30
0.0
  0
SPLINE
  5
7B
330
1F
100
AcDbEntity
  8
Predefinito
100
AcDbSpline
210
0.0
220
0.0
230
1.0
 70
    24
 71
     2
 72
     6
 73
     3
 74
     0
 42
0.0000000001
 43
0.0000000001
 40
0.0
 40
0.0
 40
0.0
 40
2.0
 40
2.0
 40
2.0
 10
1244.847391973298
 20
2020.723792723403
 30
0.0
 10
1244.847391973298
 20
2019.723792723403
 30
0.0
 10
1244.847391973298
 20
2018.723792723403
 30
0.0
  0
SPLINE
  5
7C
330
1F
100
AcDbEntity
  8
Predefinito
100
AcDbSpline
210
0.0
220
0.0
230
1.0
 70
    24
 71
     2
 72
     6
 73
     3
 74
     0
 42
0.0000000001
 43
0.0000000001
 40
0.0
 40
0.0
 40
0.0
 40
2.0
 40
2.0
 40
2.0
 10
1232.847391973298
 20
2018.723792723403
 30
0.0
 10
1232.847391973298
 20
2019.723792723403
 30
0.0
 10
1232.847391973298
 20
2020.723792723403
 30
0.0
  0
SPLINE
  5
7D
330
1F
100
AcDbEntity
  8
Predefinito
100
AcDbSpline
210
0.0
220
0.0
230
1.0
 70
    24
 71
     2
 72
     6
 73
     3
 74
     0
 42
0.0000000001
 43
0.0000000001
 40
0.0
 40
0.0
 40
0.0
 40
0.2000000000000455
 40
0.2000000000000455
 40
0.2000000000000455
 10
1244.547391973298
 20
2020.923792723403
 30
0.0
 10
1244.547391973298
 20
2020.823792723403
 30
0.0
 10
1244.547391973298
 20
2020.723792723403
 30
0.0
  0
SPLINE
  5
7E
330
1F
100
AcDbEntity
  8
Predefinito
100
AcDbSpline
210
0.0
220
0.0
230
1.0
 70
    24
 71
     2
 72
     6
 73
     3
 74
     0
 42
0.0000000001
 43
0.0000000001
 40
0.0
 40
0.0
 40
0.0
 40
0.2000000000000455
 40
0.2000000000000455
 40
0.2000000000000455
 10
1233.147391973298
 20
2020.723792723403
 30
0.0
 10
1233.147391973298
 20
2020.823792723403
 30
0.0
 10
1233.147391973298
 20
2020.923792723403
 30
0.0
  0
SPLINE
  5
7F
330
1F
100
AcDbEntity
  8
Predefinito
100
AcDbSpline
210
0.0
220
0.0
230
1.0
 70
    24
 71
     2
 72
     6
 73
     3
 74
     0
 42
0.0000000001
 43
0.0000000001
 40
0.0
 40
0.0
 40
0.0
 40
26.79999999999995
 40
26.79999999999995
 40
26.79999999999995
 10
1232.847391536916
 20
2020.923792723403
 30
0.0
 10
1232.847391536916
 20
2034.323792723403
 30
0.0
 10
1232.847391536917
 20
2047.723792723403
 30
0.0
  0
SPLINE
  5
80
330
1F
100
AcDbEntity
  8
Predefinito
100
AcDbSpline
210
0.0
220
0.0
230
1.0
 70
    24
 71
     2
 72
     6
 73
     3
 74
     0
 42
0.0000000001
 43
0.0000000001
 40
0.0
 40
0.0
 40
0.0
 40
26.80000000000018
 40
26.80000000000018
 40
26.80000000000018
 10
1244.847392418959
 20
2047.723792723403
 30
0.0
 10
1244.847392418959
 20
2034.323792723403
 30
0.0
 10
1244.847392418959
 20
2020.923792723403
 30
0.0
  0
SPLINE
  5
81
330
1F
100
AcDbEntity
  8
Predefinito
100
AcDbSpline
210
0.0
220
0.0
230
1.0
 70
    24
 71
     2
 72
     6
 73
     3
 74
     0
 42
0.0000000001
 43
0.0000000001
 40
0.0
 40
0.0
 40
0.0
 40
182.0000000274026
 40
182.0000000274026
 40
182.0000000274026
 10
1239.247391973298
 20
2008.723792723403
 30
0.0
 10
1239.247391973298
 20
1917.723792709701
 30
0.0
 10
1239.247391973298
 20
1826.723792696
 30
0.0
  0
SPLINE
  5
82
330
1F
100
AcDbEntity
  8
Predefinito
100
AcDbSpline
210
0.0
220
0.0
230
1.0
 70
    24
 71
     2
 72
     6
 73
     3
 74
     0
 42
0.0000000001
 43
0.0000000001
 40
0.0
 40
0.0
 40
0.0
 40
181.9999998940964
 40
181.9999998940964
 40
181.9999998940964
 10
1238.447391973298
 20
1826.723792829306
 30
0.0
 10
1238.447391973298
 20
1917.723792776354
 30
0.0
 10
1238.447391973298
 20
2008.723792723403
 30
0.0
  0
SPLINE
  5
83
330
1F
100
AcDbEntity
  8
Predefinito
100
AcDbSpline
210
0.0
220
0.0
230
1.0
 70
    24
 71
     2
 72
     6
 73
     3
 74
     0
 42
0.0000000001
 43
0.0000000001
 40
0.0
 40
0.0
 40
0.0
 40
0.2002085020604241
 40
0.2002085020604241
 40
0.2002085020604241
 10
416.5389607627563
 20
1812.782223933945
 30
0.0
 10
416.4681763680273
 20
1812.853008328674
 30
0.0
 10
416.3973919732983
 20
1812.923792723403
 30
0.0
  0
SPLINE
  5
84
330
1F
100
AcDbEntity
  8
Predefinito
100
AcDbSpline
210
0.0
220
0.0
230
1.0
 70
    24
 71
     2
 72
     6
 73
     3
 74
     0
 42
0.0000000001
 43
0.0000000001
 40
0.0
 40
0.0
 40
0.0
 40
0.2002085020600724
 40
0.2002085020600724
 40
0.2002085020600724
 10
416.3973919732983
 20
1812.923792723403
 30
0.0
 10
416.3266075785693
 20
1812.853008328674
 30
0.0
 10
416.2558231838403
 20
1812.782223933945
 30
0.0
  0
SPLINE
  5
85
330
1F
100
AcDbEntity
  8
Predefinito
100
AcDbSpline
210
0.0
220
0.0
230
1.0
 70
    24
 71
     2
 72
     6
 73
     3
 74
     0
 42
0.0000000001
 43
0.0000000001
 40
0.0
 40
0.0
 40
0.0
 40
7.700131838625914
 40
7.700131838625914
 40
7.700131838625914
 10
416.1973919732983
 20
1812.723792723403
 30
0.0
 10
412.3473260539853
 20
1812.723792723403
 30
0.0
 10
408.4972601346724
 20
1812.723792723403
 30
0.0
  0
SPLINE
  5
86
330
1F
100
AcDbEntity
  8
Predefinito
100
AcDbSpline
210
0.0
220
0.0
230
1.0
 70
    24
 71
     2
 72
     6
 73
     3
 74
     0
 42
0.0000000001
 43
0.0000000001
 40
0.0
 40
0.0
 40
0.0
 40
0.2002085020603337
 40
0.2002085020603337
 40
0.2002085020603337
 10
1251.397391973298
 20
1812.923792723403
 30
0.0
 10
1251.326607578569
 20
1812.853008328674
 30
0.0
 10
1251.25582318384
 20
1812.782223933945
 30
0.0
  0
SPLINE
  5
87
330
1F
100
AcDbEntity
  8
Predefinito
100
AcDbSpline
210
0.0
220
0.0
230
1.0
 70
    24
 71
     2
 72
     6
 73
     3
 74
     0
 42
0.0000000001
 43
0.0000000001
 40
0.0
 40
0.0
 40
0.0
 40
2.799999999999955
 40
2.799999999999955
 40
2.799999999999955
 10
1251.597391973298
 20
1826.723792723403
 30
0.0
 10
1252.997391973298
 20
1826.723792723403
 30
0.0
 10
1254.397391973298
 20
1826.723792723403
 30
0.0
  0
SPLINE
  5
88
330
1F
100
AcDbEntity
  8
Predefinito
100
AcDbSpline
210
0.0
220
0.0
230
1.0
 70
    24
 71
     2
 72
     6
 73
     3
 74
     0
 42
0.0000000001
 43
0.0000000001
 40
0.0
 40
0.0
 40
0.0
 40
0.6244725707720371
 40
0.6244725707720371
 40
0.6244725707720371
 10
1254.897391973298
 20
1813.223792723403
 30
0.0
 10
1254.676607578569
 20
1813.003008328674
 30
0.0
 10
1254.45582318384
 20
1812.782223933945
 30
0.0
  0
SPLINE
  5
89
330
1F
100
AcDbEntity
  8
Predefinito
100
AcDbSpline
210
0.0
220
0.0
230
1.0
 70
    24
 71
     2
 72
     6
 73
     3
 74
     0
 42
0.0000000001
 43
0.0000000001
 40
0.0
 40
0.0
 40
0.0
 40
0.2002085020603337
 40
0.2002085020603337
 40
0.2002085020603337
 10
1251.397391973298
 20
1826.523792723403
 30
0.0
 10
1251.468176368027
 20
1826.594577118132
 30
0.0
 10
1251.538960762756
 20
1826.665361512861
 30
0.0
  0
SPLINE
  5
8A
330
1F
100
AcDbEntity
  8
Predefinito
100
AcDbSpline
210
0.0
220
0.0
230
1.0
 70
    24
 71
     2
 72
     6
 73
     3
 74
     0
 42
0.0000000001
 43
0.0000000001
 40
0.0
 40
0.0
 40
0.0
 40
3.0
 40
3.0
 40
3.0
 10
410.7038526403344
 20
1923.223792723403
 30
0.0
 10
410.7038526403344
 20
1924.723792723403
 30
0.0
 10
410.7038526403344
 20
1926.223792723403
 30
0.0
  0
SPLINE
  5
8B
330
1F
100
AcDbEntity
  8
Predefinito
100
AcDbSpline
210
0.0
220
0.0
230
1.0
 70
    24
 71
     2
 72
     6
 73
     3
 74
     0
 42
0.0000000001
 43
0.0000000001
 40
0.0
 40
0.0
 40
0.0
 40
3.0
 40
3.0
 40
3.0
 10
417.6206977584222
 20
1926.223792723403
 30
0.0
 10
417.6206977584222
 20
1924.723792723403
 30
0.0
 10
417.6206977584222
 20
1923.223792723403
 30
0.0
  0
SPLINE
  5
8C
330
1F
100
AcDbEntity
  8
Predefinito
100
AcDbSpline
210
0.0
220
0.0
230
1.0
 70
    24
 71
     2
 72
     6
 73
     3
 74
     0
 42
0.0000000001
 43
0.0000000001
 40
0.0
 40
0.0
 40
0.0
 40
3.0
 40
3.0
 40
3.0
 10
416.6048990755709
 20
1923.223792723403
 30
0.0
 10
416.6048990755709
 20
1924.723792723403
 30
0.0
 10
416.6048990755709
 20
1926.223792723403
 30
0.0
  0
SPLINE
  5
8D
330
1F
100
AcDbEntity
  8
Predefinito
100
AcDbSpline
210
0.0
220
0.0
230
1.0
 70
    24
 71
     2
 72
     6
 73
     3
 74
     0
 42
0.0000000001
 43
0.0000000001
 40
0.0
 40
0.0
 40
0.0
 40
5.901046435236481
 40
5.901046435236481
 40
5.901046435236481
 10
416.6048990755709
 20
1923.223792723403
 30
0.0
 10
413.6543758579526
 20
1923.223792723403
 30
0.0
 10
410.7038526403344
 20
1923.223792723403
 30
0.0
  0
SPLINE
  5
8E
330
1F
100
AcDbEntity
  8
Predefinito
100
AcDbSpline
210
0.0
220
0.0
230
1.0
 70
    24
 71
     2
 72
     6
 73
     3
 74
     0
 42
0.0000000001
 43
0.0000000001
 40
0.0
 40
0.0
 40
0.0
 40
1.015798682851312
 40
1.015798682851312
 40
1.015798682851312
 10
417.6206977584222
 20
1923.223792723403
 30
0.0
 10
417.1127984169965
 20
1923.223792723403
 30
0.0
 10
416.6048990755709
 20
1923.223792723403
 30
0.0
  0
SPLINE
  5
8F
330
1F
100
AcDbEntity
  8
Predefinito
100
AcDbSpline
210
0.0
220
0.0
230
1.0
 70
    12
 71
     2
 72
    10
 73
     7
 74
     0
 42
0.0000000001
 43
0.0000000001
 40
0.0
 40
0.0
 40
0.0
 40
0.0650008391982198
 40
0.0650008391982198
 40
2.145991804632231
 40
2.145991804632231
 40
4.226982770066241
 40
4.226982770066241
 40
4.226982770066241
 10
420.5323911341001
 20
1923.223792791367
 30
0.0
 41
1.0
 10
420.5648915536992
 20
1923.223792791366
 30
0.0
 41
1.0
 10
420.5973919732983
 20
1923.223792791365
 30
0.0
 41
1.0
 10
420.5973919732982
 20
1923.223792723403
 30
0.0
 41
0.867696055287007
 10
419.6089777507408
 20
1923.223792723403
 30
0.0
 41
1.0
 10
418.6205635281833
 20
1923.223792723403
 30
0.0
 41
0.867696055287007
 10
417.6206977584222
 20
1923.223792723403
 30
0.0
 41
1.0
  0
SPLINE
  5
90
330
1F
100
AcDbEntity
  8
Predefinito
100
AcDbSpline
210
0.0
220
0.0
230
1.0
 70
    24
 71
     2
 72
     6
 73
     3
 74
     0
 42
0.0000000001
 43
0.0000000001
 40
0.0
 40
0.0
 40
0.0
 40
5.901046435236481
 40
5.901046435236481
 40
5.901046435236481
 10
416.6048990755709
 20
1926.223792723403
 30
0.0
 10
413.6543758579526
 20
1926.223792723403
 30
0.0
 10
410.7038526403344
 20
1926.223792723403
 30
0.0
  0
SPLINE
  5
91
330
1F
100
AcDbEntity
  8
Predefinito
100
AcDbSpline
210
0.0
220
0.0
230
1.0
 70
    24
 71
     2
 72
     6
 73
     3
 74
     0
 42
0.0000000001
 43
0.0000000001
 40
0.0
 40
0.0
 40
0.0
 40
1.015798682851312
 40
1.015798682851312
 40
1.015798682851312
 10
417.6206977584222
 20
1926.223792723403
 30
0.0
 10
417.1127984169965
 20
1926.223792723403
 30
0.0
 10
416.6048990755709
 20
1926.223792723403
 30
0.0
  0
SPLINE
  5
92
330
1F
100
AcDbEntity
  8
Predefinito
100
AcDbSpline
210
0.0
220
0.0
230
1.0
 70
    12
 71
     2
 72
    10
 73
     7
 74
     0
 42
0.0000000001
 43
0.0000000001
 40
0.0
 40
0.0
 40
0.0
 40
0.0650008391982198
 40
0.0650008391982198
 40
2.145991804632231
 40
2.145991804632231
 40
4.226982770066241
 40
4.226982770066241
 40
4.226982770066241
 10
420.5323911341001
 20
1926.223792791367
 30
0.0
 41
1.0
 10
420.5648915536992
 20
1926.223792791366
 30
0.0
 41
1.0
 10
420.5973919732983
 20
1926.223792791365
 30
0.0
 41
1.0
 10
420.5973919732982
 20
1926.223792723403
 30
0.0
 41
0.867696055287007
 10
419.6089777507408
 20
1926.223792723403
 30
0.0
 41
1.0
 10
418.6205635281833
 20
1926.223792723403
 30
0.0
 41
0.867696055287007
 10
417.6206977584222
 20
1926.223792723403
 30
0.0
 41
1.0
  0
SPLINE
  5
93
330
1F
100
AcDbEntity
  8
Predefinito
100
AcDbSpline
210
0.0
220
0.0
230
1.0
 70
    24
 71
     2
 72
     6
 73
     3
 74
     0
 42
0.0000000001
 43
0.0000000001
 40
0.0
 40
0.0
 40
0.0
 40
2.999803527807217
 40
2.999803527807217
 40
2.999803527807217
 10
410.7038526403344
 20
1973.223792723403
 30
0.0
 10
410.7038526403344
 20
1974.723694487306
 30
0.0
 10
410.7038526403344
 20
1976.22359625121
 30
0.0
  0
SPLINE
  5
94
330
1F
100
AcDbEntity
  8
Predefinito
100
AcDbSpline
210
0.0
220
0.0
230
1.0
 70
    24
 71
     2
 72
     6
 73
     3
 74
     0
 42
0.0000000001
 43
0.0000000001
 40
0.0
 40
0.0
 40
0.0
 40
3.0
 40
3.0
 40
3.0
 10
417.6206977584222
 20
1976.223792723403
 30
0.0
 10
417.6206977584222
 20
1974.723792723403
 30
0.0
 10
417.6206977584222
 20
1973.223792723403
 30
0.0
  0
SPLINE
  5
95
330
1F
100
AcDbEntity
  8
Predefinito
100
AcDbSpline
210
0.0
220
0.0
230
1.0
 70
    24
 71
     2
 72
     6
 73
     3
 74
     0
 42
0.0000000001
 43
0.0000000001
 40
0.0
 40
0.0
 40
0.0
 40
3.0
 40
3.0
 40
3.0
 10
416.6048990755709
 20
1973.223792723403
 30
0.0
 10
416.6048990755709
 20
1974.723792723403
 30
0.0
 10
416.6048990755709
 20
1976.223792723403
 30
0.0
  0
SPLINE
  5
96
330
1F
100
AcDbEntity
  8
Predefinito
100
AcDbSpline
210
0.0
220
0.0
230
1.0
 70
    24
 71
     2
 72
     6
 73
     3
 74
     0
 42
0.0000000001
 43
0.0000000001
 40
0.0
 40
0.0
 40
0.0
 40
5.901046435236481
 40
5.901046435236481
 40
5.901046435236481
 10
416.6048990755709
 20
1973.223792723403
 30
0.0
 10
413.6543758579526
 20
1973.223792723403
 30
0.0
 10
410.7038526403344
 20
1973.223792723403
 30
0.0
  0
SPLINE
  5
97
330
1F
100
AcDbEntity
  8
Predefinito
100
AcDbSpline
210
0.0
220
0.0
230
1.0
 70
    24
 71
     2
 72
     6
 73
     3
 74
     0
 42
0.0000000001
 43
0.0000000001
 40
0.0
 40
0.0
 40
0.0
 40
1.015798682851312
 40
1.015798682851312
 40
1.015798682851312
 10
417.6206977584222
 20
1973.223792723403
 30
0.0
 10
417.1127984169965
 20
1973.223792723403
 30
0.0
 10
416.6048990755709
 20
1973.223792723403
 30
0.0
  0
SPLINE
  5
98
330
1F
100
AcDbEntity
  8
Predefinito
100
AcDbSpline
210
0.0
220
0.0
230
1.0
 70
    12
 71
     2
 72
    10
 73
     7
 74
     0
 42
0.0000000001
 43
0.0000000001
 40
0.0
 40
0.0
 40
0.0
 40
0.0650008391982198
 40
0.0650008391982198
 40
2.145991804632231
 40
2.145991804632231
 40
4.226982770066241
 40
4.226982770066241
 40
4.226982770066241
 10
420.5323911341001
 20
1973.223792791367
 30
0.0
 41
1.0
 10
420.5648915536992
 20
1973.223792791366
 30
0.0
 41
1.0
 10
420.5973919732983
 20
1973.223792791365
 30
0.0
 41
1.0
 10
420.5973919732982
 20
1973.223792723403
 30
0.0
 41
0.867696055287007
 10
419.6089777507408
 20
1973.223792723403
 30
0.0
 41
1.0
 10
418.6205635281833
 20
1973.223792723403
 30
0.0
 41
0.867696055287007
 10
417.6206977584222
 20
1973.223792723403
 30
0.0
 41
1.0
  0
SPLINE
  5
99
330
1F
100
AcDbEntity
  8
Predefinito
100
AcDbSpline
210
0.0
220
0.0
230
1.0
 70
    24
 71
     2
 72
     6
 73
     3
 74
     0
 42
0.0000000001
 43
0.0000000001
 40
0.0
 40
0.0
 40
0.0
 40
5.806912873889317
 40
5.806912873889317
 40
5.806912873889317
 10
416.6048990755709
 20
1976.223792723403
 30
0.0
 10
413.7014426386262
 20
1976.223792723403
 30
0.0
 10
410.7979862016816
 20
1976.223792723403
 30
0.0
  0
SPLINE
  5
9A
330
1F
100
AcDbEntity
  8
Predefinito
100
AcDbSpline
210
0.0
220
0.0
230
1.0
 70
    24
 71
     2
 72
     6
 73
     3
 74
     0
 42
0.0000000001
 43
0.0000000001
 40
0.0
 40
0.0
 40
0.0
 40
1.015798682851312
 40
1.015798682851312
 40
1.015798682851312
 10
417.6206977584222
 20
1976.223792723403
 30
0.0
 10
417.1127984169965
 20
1976.223792723403
 30
0.0
 10
416.6048990755709
 20
1976.223792723403
 30
0.0
  0
SPLINE
  5
9B
330
1F
100
AcDbEntity
  8
Predefinito
100
AcDbSpline
210
0.0
220
0.0
230
1.0
 70
    12
 71
     2
 72
    10
 73
     7
 74
     0
 42
0.0000000001
 43
0.0000000001
 40
0.0
 40
0.0
 40
0.0
 40
0.0650008391982198
 40
0.0650008391982198
 40
2.145991804632231
 40
2.145991804632231
 40
4.226982770066241
 40
4.226982770066241
 40
4.226982770066241
 10
420.5323911341001
 20
1976.223792791367
 30
0.0
 41
1.0
 10
420.5648915536992
 20
1976.223792791366
 30
0.0
 41
1.0
 10
420.5973919732983
 20
1976.223792791365
 30
0.0
 41
1.0
 10
420.5973919732982
 20
1976.223792723403
 30
0.0
 41
0.867696055287007
 10
419.6089777507408
 20
1976.223792723403
 30
0.0
 41
1.0
 10
418.6205635281833
 20
1976.223792723403
 30
0.0
 41
0.867696055287007
 10
417.6206977584222
 20
1976.223792723403
 30
0.0
 41
1.0
  0
SPLINE
  5
9C
330
1F
100
AcDbEntity
  8
Predefinito
100
AcDbSpline
210
0.0
220
0.0
230
1.0
 70
    24
 71
     2
 72
     6
 73
     3
 74
     0
 42
0.0000000001
 43
0.0000000001
 40
0.0
 40
0.0
 40
0.0
 40
67.98798723327225
 40
67.98798723327225
 40
67.98798723327225
 10
418.2973919732983
 20
2021.723792723403
 30
0.0
 10
384.3033983566622
 20
2021.723792723403
 30
0.0
 10
350.3094047400261
 20
2021.723792723403
 30
0.0
  0
SPLINE
  5
9D
330
1F
100
AcDbEntity
  8
Predefinito
100
AcDbSpline
210
0.0
220
0.0
230
1.0
 70
    28
 71
     2
 72
     8
 73
     5
 74
     0
 42
0.0000000001
 43
0.0000000001
 40
-324.045358077798
 40
-324.045358077798
 40
-324.045358077798
 40
-320.7046842831816
 40
-320.7046842831816
 40
-213.8031228554544
 40
-213.8031228554544
 40
-213.8031228554544
 10
486.2853792065705
 20
2021.723792723403
 30
0.0
 41
0.9822662308921544
 10
486.3530396751569
 20
2021.723792723403
 30
0.0
 41
0.9908470869120797
 10
486.353039675157
 20
2021.723792723403
 30
0.0
 41
1.0
 10
486.353039675157
 20
2021.723792723403
 30
0.0
 41
0.7071067811865476
 10
418.2973919732983
 20
2021.723792723403
 30
0.0
 41
1.0
  0
SPLINE
  5
9E
330
1F
100
AcDbEntity
  8
Predefinito
100
AcDbSpline
210
0.0
220
0.0
230
1.0
 70
    28
 71
     3
 72
    13
 73
     9
 74
     0
 42
0.0000000001
 43
0.0000000001
 40
318.6158879385297
 40
318.6158879385297
 40
318.6158879385297
 40
318.6158879385297
 40
321.8339414200424
 40
348.6534546784784
 40
375.4729679369144
 40
403.3667593539137
 40
416.2397832812741
 40
429.1128072086345
 40
429.1128072086345
 40
429.1128072086345
 40
429.1128072086345
 10
350.0762390090571
 20
2049.421174762753
 30
0.0
 41
1.0
 10
350.0253948861102
 20
2049.421174762753
 30
0.0
 41
1.0
 10
349.7874963357063
 20
2049.421174762753
 30
0.0
 41
1.0
 10
353.5556635204031
 20
2049.421174762754
 30
0.0
 41
1.0
 10
368.9497531162374
 20
2049.421174762753
 30
0.0
 41
1.0
 10
388.1736238556199
 20
2049.421174762753
 30
0.0
 41
1.0
 10
405.4255094509394
 20
2049.421174762754
 30
0.0
 41
1.0
 10
414.0066392999204
 20
2049.421174762754
 30
0.0
 41
1.0
 10
418.2973919732981
 20
2049.421174762754
 30
0.0
 41
1.0
  0
SPLINE
  5
9F
330
1F
100
AcDbEntity
  8
Predefinito
100
AcDbSpline
210
0.0
220
0.0
230
1.0
 70
    24
 71
     2
 72
     6
 73
     3
 74
     0
 42
0.0000000001
 43
0.0000000001
 40
0.0
 40
0.0
 40
0.0
 40
68.2211510819123
 40
68.2211510819123
 40
68.2211510819123
 10
418.2973919732981
 20
2049.421174762754
 30
0.0
 10
452.4079675142543
 20
2049.421174762753
 30
0.0
 10
486.5185430552104
 20
2049.421174762753
 30
0.0
  0
SPLINE
  5
A0
330
1F
100
AcDbEntity
  8
Predefinito
100
AcDbSpline
210
0.0
220
0.0
230
1.0
 70
    28
 71
     3
 72
    13
 73
     9
 74
     0
 42
0.0000000001
 43
0.0000000001
 40
-110.6313160800411
 40
-110.6313160800411
 40
-110.6313160800411
 40
-110.6313160800411
 40
-107.2788741837997
 40
-81.5344272042084
 40
-53.64045189236845
 40
-26.82022594618422
 40
-12.87302392736041
 40
0.0
 40
0.0
 40
0.0
 40
0.0
 10
486.2118497027818
 20
2049.723792723403
 30
0.0
 41
1.0
 10
486.26696232035
 20
2049.723792723403
 30
0.0
 41
1.0
 10
486.5076745879522
 20
2049.723792723403
 30
0.0
 41
1.0
 10
482.9012352964961
 20
2049.723792723403
 30
0.0
 41
1.0
 10
467.9342135018944
 20
2049.723792723403
 30
0.0
 41
1.0
 10
448.6168455367267
 20
2049.723792723403
 30
0.0
 41
1.0
 10
431.4701270103436
 20
2049.723792723403
 30
0.0
 41
1.0
 10
422.569349799513
 20
2049.723792723403
 30
0.0
 41
1.0
 10
418.2973919732983
 20
2049.723792723403
 30
0.0
 41
1.0
  0
SPLINE
  5
A1
330
1F
100
AcDbEntity
  8
Predefinito
100
AcDbSpline
210
0.0
220
0.0
230
1.0
 70
    24
 71
     2
 72
     6
 73
     3
 74
     0
 42
0.0000000001
 43
0.0000000001
 40
0.0
 40
0.0
 40
0.0
 40
67.91445871349146
 40
67.91445871349146
 40
67.91445871349146
 10
418.2973919732983
 20
2049.723792723403
 30
0.0
 10
384.3401626165526
 20
2049.723792723403
 30
0.0
 10
350.3829332598068
 20
2049.723792723403
 30
0.0
  0
SPLINE
  5
A2
330
1F
100
AcDbEntity
  8
Predefinito
100
AcDbSpline
210
0.0
220
0.0
230
1.0
 70
    12
 71
     2
 72
     6
 73
     3
 74
     0
 42
0.0000000001
 43
0.0000000001
 40
0.0
 40
0.0
 40
0.0
 40
0.400039162626314
 40
0.400039162626314
 40
0.400039162626314
 10
913.4475701350686
 20
1826.723781745414
 30
0.0
 41
1.0
 10
913.6473183068008
 20
1826.712373841237
 30
0.0
 41
0.9995945530098281
 10
913.8473919732983
 20
1826.712354807265
 30
0.0
 41
1.0
  0
SPLINE
  5
A3
330
1F
100
AcDbEntity
  8
Predefinito
100
AcDbSpline
210
0.0
220
0.0
230
1.0
 70
    12
 71
     2
 72
     6
 73
     3
 74
     0
 42
0.0000000001
 43
0.0000000001
 40
0.0
 40
0.0
 40
0.0
 40
0.4000420436827733
 40
0.4000420436827733
 40
0.4000420436827733
 10
913.8473919732983
 20
1826.712354807265
 30
0.0
 41
1.0
 10
914.0474671575735
 20
1826.712369659997
 30
0.0
 41
0.9995939797263264
 10
914.2472166234232
 20
1826.723781516818
 30
0.0
 41
1.0
  0
SPLINE
  5
A4
330
1F
100
AcDbEntity
  8
Predefinito
100
AcDbSpline
210
0.0
220
0.0
230
1.0
 70
    12
 71
     2
 72
     6
 73
     3
 74
     0
 42
0.0000000001
 43
0.0000000001
 40
0.0
 40
0.0
 40
0.0
 40
0.4002179001747442
 40
0.4002179001747442
 40
0.4002179001747442
 10
418.1473919732983
 20
1826.712354807265
 30
0.0
 41
1.0
 10
418.3475553444619
 20
1826.712360446165
 30
0.0
 41
0.9995922243581792
 10
418.5473919732983
 20
1826.723792723403
 30
0.0
 41
1.0
  0
SPLINE
  5
A5
330
1F
100
AcDbEntity
  8
Predefinito
100
AcDbSpline
210
0.0
220
0.0
230
1.0
 70
    12
 71
     2
 72
     6
 73
     3
 74
     0
 42
0.0000000001
 43
0.0000000001
 40
0.0
 40
0.0
 40
0.0
 40
0.4001273673903888
 40
0.4001273673903888
 40
0.4001273673903888
 10
417.7473919732982
 20
1826.723792723403
 30
0.0
 41
1.0
 10
417.9471833702262
 20
1826.712362967743
 30
0.0
 41
0.9995923995822543
 10
418.1473014392113
 20
1826.712354807906
 30
0.0
 41
1.0
  0
SPLINE
  5
A6
330
1F
100
AcDbEntity
  8
Predefinito
100
AcDbSpline
210
0.0
220
0.0
230
1.0
 70
    24
 71
     2
 72
     6
 73
     3
 74
     0
 42
0.0000000001
 43
0.0000000001
 40
0.0
 40
0.0
 40
0.0
 40
0.7071067811865476
 40
0.7071067811865476
 40
0.7071067811865476
 10
1151.897391973298
 20
1707.50394068364
 30
0.0
 10
1151.647391973298
 20
1707.25394068364
 30
0.0
 10
1151.397391973298
 20
1707.00394068364
 30
0.0
  0
SPLINE
  5
A7
330
1F
100
AcDbEntity
  8
Predefinito
100
AcDbSpline
210
0.0
220
0.0
230
1.0
 70
    24
 71
     2
 72
     6
 73
     3
 74
     0
 42
0.0000000001
 43
0.0000000001
 40
0.0
 40
0.0
 40
0.0
 40
3.933221473682124
 40
3.933221473682124
 40
3.933221473682124
 10
1159.33061344698
 20
1725.00394068364
 30
0.0
 10
1157.364002710139
 20
1725.00394068364
 30
0.0
 10
1155.397391973298
 20
1725.00394068364
 30
0.0
  0
SPLINE
  5
A8
330
1F
100
AcDbEntity
  8
Predefinito
100
AcDbSpline
210
0.0
220
0.0
230
1.0
 70
    24
 71
     2
 72
     6
 73
     3
 74
     0
 42
0.0000000001
 43
0.0000000001
 40
0.0
 40
0.0
 40
0.0
 40
3.5
 40
3.5
 40
3.5
 10
1155.397391973298
 20
1724.50394068364
 30
0.0
 10
1157.147391973298
 20
1724.50394068364
 30
0.0
 10
1158.897391973298
 20
1724.50394068364
 30
0.0
  0
SPLINE
  5
A9
330
1F
100
AcDbEntity
  8
Predefinito
100
AcDbSpline
210
0.0
220
0.0
230
1.0
 70
    24
 71
     2
 72
     6
 73
     3
 74
     0
 42
0.0000000001
 43
0.0000000001
 40
0.0
 40
0.0
 40
0.0
 40
0.6598872323783592
 40
0.6598872323783592
 40
0.6598872323783592
 10
1158.897391973298
 20
1724.50394068364
 30
0.0
 10
1159.130697341715
 20
1724.737246052056
 30
0.0
 10
1159.364002710131
 20
1724.970551420473
 30
0.0
  0
SPLINE
  5
AA
330
1F
100
AcDbEntity
  8
Predefinito
100
AcDbSpline
210
0.0
220
0.0
230
1.0
 70
    24
 71
     2
 72
     6
 73
     3
 74
     0
 42
0.0000000001
 43
0.0000000001
 40
0.0
 40
0.0
 40
0.0
 40
6.941568789458074
 40
6.941568789458074
 40
6.941568789458074
 10
1158.897391973298
 20
1707.50394068364
 30
0.0
 10
1155.426607578569
 20
1707.50394068364
 30
0.0
 10
1151.95582318384
 20
1707.50394068364
 30
0.0
  0
SPLINE
  5
AB
330
1F
100
AcDbEntity
  8
Predefinito
100
AcDbSpline
210
0.0
220
0.0
230
1.0
 70
    24
 71
     2
 72
     6
 73
     3
 74
     0
 42
0.0000000001
 43
0.0000000001
 40
0.0
 40
0.0
 40
0.0
 40
3.441568789458074
 40
3.441568789458074
 40
3.441568789458074
 10
1155.397391973298
 20
1724.50394068364
 30
0.0
 10
1153.676607578569
 20
1724.50394068364
 30
0.0
 10
1151.95582318384
 20
1724.50394068364
 30
0.0
  0
SPLINE
  5
AC
330
1F
100
AcDbEntity
  8
Predefinito
100
AcDbSpline
210
0.0
220
0.0
230
1.0
 70
    24
 71
     2
 72
     6
 73
     3
 74
     0
 42
0.0000000001
 43
0.0000000001
 40
0.0
 40
0.0
 40
0.0
 40
3.933221473666322
 40
3.933221473666322
 40
3.933221473666322
 10
1155.397391973298
 20
1689.50394068364
 30
0.0
 10
1157.364002710131
 20
1689.50394068364
 30
0.0
 10
1159.330613446964
 20
1689.50394068364
 30
0.0
  0
SPLINE
  5
AD
330
1F
100
AcDbEntity
  8
Predefinito
100
AcDbSpline
210
0.0
220
0.0
230
1.0
 70
    24
 71
     2
 72
     6
 73
     3
 74
     0
 42
0.0000000001
 43
0.0000000001
 40
0.0
 40
0.0
 40
0.0
 40
17.5
 40
17.5
 40
17.5
 10
1151.397391973298
 20
1689.50394068364
 30
0.0
 10
1151.397391973298
 20
1698.25394068364
 30
0.0
 10
1151.397391973298
 20
1707.00394068364
 30
0.0
  0
SPLINE
  5
AE
330
1F
100
AcDbEntity
  8
Predefinito
100
AcDbSpline
210
0.0
220
0.0
230
1.0
 70
    24
 71
     2
 72
     6
 73
     3
 74
     0
 42
0.0000000001
 43
0.0000000001
 40
0.0
 40
0.0
 40
0.0
 40
7.933221473682011
 40
7.933221473682011
 40
7.933221473682011
 10
1159.33061344698
 20
1707.00394068364
 30
0.0
 10
1155.364002710139
 20
1707.00394068364
 30
0.0
 10
1151.397391973298
 20
1707.00394068364
 30
0.0
  0
SPLINE
  5
AF
330
1F
100
AcDbEntity
  8
Predefinito
100
AcDbSpline
210
0.0
220
0.0
230
1.0
 70
    24
 71
     2
 72
     6
 73
     3
 74
     0
 42
0.0000000001
 43
0.0000000001
 40
0.0
 40
0.0
 40
0.0
 40
4.0
 40
4.0
 40
4.0
 10
1155.397391973298
 20
1689.50394068364
 30
0.0
 10
1153.397391973298
 20
1689.50394068364
 30
0.0
 10
1151.397391973298
 20
1689.50394068364
 30
0.0
  0
SPLINE
  5
B0
330
1F
100
AcDbEntity
  8
Predefinito
100
AcDbSpline
210
0.0
220
0.0
230
1.0
 70
    12
 71
     2
 72
     6
 73
     3
 74
     0
 42
0.0000000001
 43
0.0000000001
 40
0.0
 40
0.0
 40
0.0
 40
1.986808631181551
 40
1.986808631181551
 40
1.986808631181551
 10
1151.397391973298
 20
1668.50394068364
 30
0.0
 41
1.0
 10
1151.397391973298
 20
1667.489595767976
 30
0.0
 41
0.9693190539274507
 10
1151.880756546843
 20
1666.597825451709
 30
0.0
 41
1.0
  0
SPLINE
  5
B1
330
1F
100
AcDbEntity
  8
Predefinito
100
AcDbSpline
210
0.0
220
0.0
230
1.0
 70
    12
 71
     2
 72
     6
 73
     3
 74
     0
 42
0.0000000001
 43
0.0000000001
 40
0.0
 40
0.0
 40
0.0
 40
1.526026241617611
 40
1.526026241617611
 40
1.526026241617611
 10
1159.109811044456
 20
1667.014664134403
 30
0.0
 41
1.0
 10
1159.397391973298
 20
1667.731536313236
 30
0.0
 41
0.9818616928543193
 10
1159.397391973298
 20
1668.50394068364
 30
0.0
 41
1.0
  0
SPLINE
  5
B2
330
1F
100
AcDbEntity
  8
Predefinito
100
AcDbSpline
210
0.0
220
0.0
230
1.0
 70
    24
 71
     2
 72
     6
 73
     3
 74
     0
 42
0.0000000001
 43
0.0000000001
 40
0.0
 40
0.0
 40
0.0
 40
18.0
 40
18.0
 40
18.0
 10
1151.397391973298
 20
1707.00394068364
 30
0.0
 10
1151.397391973298
 20
1716.00394068364
 30
0.0
 10
1151.397391973298
 20
1725.00394068364
 30
0.0
  0
SPLINE
  5
B3
330
1F
100
AcDbEntity
  8
Predefinito
100
AcDbSpline
210
0.0
220
0.0
230
1.0
 70
    28
 71
     2
 72
     8
 73
     5
 74
     0
 42
0.0000000001
 43
0.0000000001
 40
11.78097245096172
 40
11.78097245096172
 40
11.78097245096172
 40
14.13716694115407
 40
14.13716694115407
 40
18.84955592153876
 40
18.84955592153876
 40
18.84955592153876
 10
1159.320533094911
 20
1809.50394068364
 30
0.0
 41
0.9157348061512727
 10
1159.557253103661
 20
1809.50394068364
 30
0.0
 41
0.9157348061512726
 10
1159.092910103343
 20
1809.50394068364
 30
0.0
 41
1.0
 10
1158.070106524975
 20
1809.50394068364
 30
0.0
 41
0.8314696123025452
 10
1155.397391973298
 20
1809.50394068364
 30
0.0
 41
1.0
  0
SPLINE
  5
B4
330
1F
100
AcDbEntity
  8
Predefinito
100
AcDbSpline
210
0.0
220
0.0
230
1.0
 70
    24
 71
     2
 72
     6
 73
     3
 74
     0
 42
0.0000000001
 43
0.0000000001
 40
0.0
 40
0.0
 40
0.0
 40
3.933221473666208
 40
3.933221473666208
 40
3.933221473666208
 10
1155.397391973298
 20
1809.50394068364
 30
0.0
 10
1153.430781236465
 20
1809.50394068364
 30
0.0
 10
1151.464170499632
 20
1809.50394068364
 30
0.0
  0
SPLINE
  5
B5
330
1F
100
AcDbEntity
  8
Predefinito
100
AcDbSpline
210
0.0
220
0.0
230
1.0
 70
    24
 71
     2
 72
     6
 73
     3
 74
     0
 42
0.0000000001
 43
0.0000000001
 40
0.0
 40
0.0
 40
0.0
 40
4.0
 40
4.0
 40
4.0
 10
1151.397391973298
 20
1725.00394068364
 30
0.0
 10
1153.397391973298
 20
1725.00394068364
 30
0.0
 10
1155.397391973298
 20
1725.00394068364
 30
0.0
  0
SPLINE
  5
B6
330
1F
100
AcDbEntity
  8
Predefinito
100
AcDbSpline
210
0.0
220
0.0
230
1.0
 70
    12
 71
     2
 72
     8
 73
     5
 74
     0
 42
0.0000000001
 43
0.0000000001
 40
0.0
 40
0.0
 40
0.0
 40
7.111368063683844
 40
7.111368063683844
 40
14.22273612736769
 40
14.22273612736769
 40
14.22273612736769
 10
1155.55760342322
 20
1665.247847048385
 30
0.0
 41
1.0
 10
1151.470511002433
 20
1664.984691978633
 30
0.0
 41
0.8135092955880898
 10
1149.898953146014
 20
1668.766725948696
 30
0.0
 41
1.0
 10
1148.327395289594
 20
1672.548759918759
 30
0.0
 41
0.8135092955880898
 10
1151.397391973298
 20
1675.259607647577
 30
0.0
 41
1.0
  0
SPLINE
  5
B7
330
1F
100
AcDbEntity
  8
Predefinito
100
AcDbSpline
210
0.0
220
0.0
230
1.0
 70
    12
 71
     2
 72
     8
 73
     5
 74
     0
 42
0.0000000001
 43
0.0000000001
 40
0.0
 40
0.0
 40
0.0
 40
6.717195017696179
 40
6.717195017696179
 40
13.43439003539236
 40
13.43439003539236
 40
13.43439003539236
 10
1159.397391973298
 20
1675.099702113245
 30
0.0
 41
1.0
 10
1162.119941274188
 20
1672.445329545257
 30
0.0
 41
0.8337897928492768
 10
1160.739130492578
 20
1668.902543916566
 30
0.0
 41
1.0
 10
1159.358319710967
 20
1665.359758287876
 30
0.0
 41
0.8337897928492768
 10
1155.55760342322
 20
1665.247847048385
 30
0.0
 41
1.0
  0
SPLINE
  5
B8
330
1F
100
AcDbEntity
  8
Predefinito
100
AcDbSpline
210
0.0
220
0.0
230
1.0
 70
    24
 71
     2
 72
     6
 73
     3
 74
     0
 42
0.0000000001
 43
0.0000000001
 40
0.0
 40
0.0
 40
0.0
 40
29.49999952600479
 40
29.49999952600479
 40
29.49999952600479
 10
1145.347996584462
 20
1651.489812615211
 30
0.0
 10
1145.347996584462
 20
1666.239812378213
 30
0.0
 10
1145.347996584462
 20
1680.989812141215
 30
0.0
  0
SPLINE
  5
B9
330
1F
100
AcDbEntity
  8
Predefinito
100
AcDbSpline
210
0.0
220
0.0
230
1.0
 70
    24
 71
     2
 72
     6
 73
     3
 74
     0
 42
0.0000000001
 43
0.0000000001
 40
0.0
 40
0.0
 40
0.0
 40
6.049395388835935
 40
6.049395388835935
 40
6.049395388835935
 10
1151.397391973298
 20
1680.989812285305
 30
0.0
 10
1148.37269427888
 20
1680.98981221326
 30
0.0
 10
1145.347996584462
 20
1680.989812141215
 30
0.0
  0
SPLINE
  5
BA
330
1F
100
AcDbEntity
  8
Predefinito
100
AcDbSpline
210
0.0
220
0.0
230
1.0
 70
    24
 71
     2
 72
     6
 73
     3
 74
     0
 42
0.0000000001
 43
0.0000000001
 40
0.0
 40
0.0
 40
0.0
 40
5.850604611164045
 40
5.850604611164045
 40
5.850604611164045
 10
1165.247996584462
 20
1680.989812615211
 30
0.0
 10
1162.32269427888
 20
1680.989812545533
 30
0.0
 10
1159.397391973298
 20
1680.989812475856
 30
0.0
  0
SPLINE
  5
BB
330
1F
100
AcDbEntity
  8
Predefinito
100
AcDbSpline
210
0.0
220
0.0
230
1.0
 70
    24
 71
     2
 72
     6
 73
     3
 74
     0
 42
0.0000000001
 43
0.0000000001
 40
0.0
 40
0.0
 40
0.0
 40
0.7071067811865476
 40
0.7071067811865476
 40
0.7071067811865476
 10
1164.747996584462
 20
1681.489812615211
 30
0.0
 10
1164.997996584462
 20
1681.239812615211
 30
0.0
 10
1165.247996584462
 20
1680.989812615211
 30
0.0
  0
SPLINE
  5
BC
330
1F
100
AcDbEntity
  8
Predefinito
100
AcDbSpline
210
0.0
220
0.0
230
1.0
 70
    24
 71
     2
 72
     6
 73
     3
 74
     0
 42
0.0000000001
 43
0.0000000001
 40
0.0
 40
0.0
 40
0.0
 40
5.549395388837297
 40
5.549395388837297
 40
5.549395388837297
 10
1151.397391973299
 20
1681.489812615211
 30
0.0
 10
1148.622694278881
 20
1681.489812615211
 30
0.0
 10
1145.847996584462
 20
1681.489812615211
 30
0.0
  0
SPLINE
  5
BD
330
1F
100
AcDbEntity
  8
Predefinito
100
AcDbSpline
210
0.0
220
0.0
230
1.0
 70
    24
 71
     2
 72
     6
 73
     3
 74
     0
 42
0.0000000001
 43
0.0000000001
 40
0.0
 40
0.0
 40
0.0
 40
5.350604611170183
 40
5.350604611170183
 40
5.350604611170183
 10
1164.747996584462
 20
1681.489812615211
 30
0.0
 10
1162.072694278877
 20
1681.489812615211
 30
0.0
 10
1159.397391973292
 20
1681.489812615211
 30
0.0
  0
SPLINE
  5
BE
330
1F
100
AcDbEntity
  8
Predefinito
100
AcDbSpline
210
0.0
220
0.0
230
1.0
 70
    12
 71
     2
 72
     8
 73
     5
 74
     0
 42
0.0000000001
 43
0.0000000001
 40
0.0
 40
0.0
 40
0.0
 40
6.280574914681694
 40
6.280574914681694
 40
12.56114982936339
 40
12.56114982936339
 40
12.56114982936339
 10
1159.397391973286
 20
1674.799903942209
 30
0.0
 41
1.0
 10
1161.786954632988
 20
1672.22047479633
 30
0.0
 41
0.8470977641779983
 10
1160.504360481571
 20
1668.946575490301
 30
0.0
 41
1.0
 10
1159.221766330153
 20
1665.672676184274
 30
0.0
 41
0.8470977641779983
 10
1155.715963919369
 20
1665.402835713267
 30
0.0
 41
1.0
  0
SPLINE
  5
BF
330
1F
100
AcDbEntity
  8
Predefinito
100
AcDbSpline
210
0.0
220
0.0
230
1.0
 70
    12
 71
     2
 72
     8
 73
     5
 74
     0
 42
0.0000000001
 43
0.0000000001
 40
0.0
 40
0.0
 40
0.0
 40
6.424640367632181
 40
6.424640367632181
 40
12.84928073526436
 40
12.84928073526436
 40
12.84928073526436
 10
1154.880447779703
 20
1665.40280498753
 30
0.0
 41
1.0
 10
1151.273182388394
 20
1665.677640985704
 30
0.0
 41
0.8400836015857446
 10
1150.03935210258
 20
1669.078458718991
 30
0.0
 41
1.0
 10
1148.805521816767
 20
1672.479276452278
 30
0.0
 41
0.8400836015857446
 10
1151.397391977398
 20
1675.003183641472
 30
0.0
 41
1.0
  0
SPLINE
  5
C0
330
1F
100
AcDbEntity
  8
Predefinito
100
AcDbSpline
210
0.0
220
0.0
230
1.0
 70
    12
 71
     2
 72
     8
 73
     5
 74
     0
 42
0.0000000001
 43
0.0000000001
 40
0.0
 40
0.0
 40
0.0
 40
0.0008372197077187
 40
0.0008372197077187
 40
0.1689677380699284
 40
0.1689677380699284
 40
0.1689677380699284
 10
1155.715963919369
 20
1665.402835713267
 30
0.0
 41
1.0
 10
1155.715546453712
 20
1665.402804783731
 30
0.0
 41
0.9999999972035737
 10
1155.715128983434
 20
1665.402773916635
 30
0.0
 41
1.0
 10
1155.631287249273
 20
1665.396552496906
 30
0.0
 41
0.9998753575203425
 10
1155.547290887068
 20
1665.392981280441
 30
0.0
 41
1.0
  0
SPLINE
  5
C1
330
1F
100
AcDbEntity
  8
Predefinito
100
AcDbSpline
210
0.0
220
0.0
230
1.0
 70
    12
 71
     2
 72
     6
 73
     3
 74
     0
 42
0.0000000001
 43
0.0000000001
 40
0.0
 40
0.0
 40
0.0
 40
0.498752524116798
 40
0.498752524116798
 40
0.498752524116798
 10
1155.547290887068
 20
1665.392981280441
 30
0.0
 41
1.0
 10
1155.297996607543
 20
1665.381993687688
 30
0.0
 41
0.9990382658271401
 10
1155.048698270889
 20
1665.392888839815
 30
0.0
 41
1.0
  0
SPLINE
  5
C2
330
1F
100
AcDbEntity
  8
Predefinito
100
AcDbSpline
210
0.0
220
0.0
230
1.0
 70
    12
 71
     2
 72
     6
 73
     3
 74
     0
 42
0.0000000001
 43
0.0000000001
 40
0.0
 40
0.0
 40
0.0
 40
0.168547140179057
 40
0.168547140179057
 40
0.168547140179057
 10
1155.048698270889
 20
1665.392888839815
 30
0.0
 41
1.0
 10
1154.964508962639
 20
1665.396759941818
 30
0.0
 41
0.9999165359341192
 10
1154.880447779703
 20
1665.40280498753
 30
0.0
 41
1.0
  0
SPLINE
  5
C3
330
1F
100
AcDbEntity
  8
Predefinito
100
AcDbSpline
210
0.0
220
0.0
230
1.0
 70
    12
 71
     2
 72
     6
 73
     3
 74
     0
 42
0.0000000001
 43
0.0000000001
 40
0.0
 40
0.0
 40
0.0
 40
31.5816081165439
 40
31.5816081165439
 40
31.5816081165439
 10
1194.782027007053
 20
1639.976724993606
 30
0.0
 41
1.0
 10
1181.552717399838
 20
1649.09570037885
 30
0.0
 41
0.974351507365236
 10
1165.664401839085
 20
1651.489812615605
 30
0.0
 41
1.0
  0
SPLINE
  5
C4
330
1F
100
AcDbEntity
  8
Predefinito
100
AcDbSpline
210
0.0
220
0.0
230
1.0
 70
    24
 71
     2
 72
     6
 73
     3
 74
     0
 42
0.0000000001
 43
0.0000000001
 40
0.0
 40
0.0
 40
0.0
 40
79.18515266845884
 40
79.18515266845884
 40
79.18515266845884
 10
1115.705420250233
 20
1639.901802727788
 30
0.0
 10
1155.297996584462
 20
1639.901802727788
 30
0.0
 10
1194.890572918692
 20
1639.901802727788
 30
0.0
  0
SPLINE
  5
C5
330
1F
100
AcDbEntity
  8
Predefinito
100
AcDbSpline
210
0.0
220
0.0
230
1.0
 70
    12
 71
     2
 72
     8
 73
     5
 74
     0
 42
0.0000000001
 43
0.0000000001
 40
0.0
 40
0.0
 40
0.0
 40
0.0916291675004885
 40
0.0916291675004885
 40
0.183258335000977
 40
0.183258335000977
 40
0.183258335000977
 10
1194.812186288158
 20
1639.760642076591
 30
0.0
 41
1.0
 10
1194.86004703994
 20
1639.770512484538
 30
0.0
 41
0.908858988146574
 10
1194.883771098766
 20
1639.813235377078
 30
0.0
 41
1.0
 10
1194.907495157591
 20
1639.855958269619
 30
0.0
 41
0.908858988146574
 10
1194.890572918692
 20
1639.901802727788
 30
0.0
 41
1.0
  0
SPLINE
  5
C6
330
1F
100
AcDbEntity
  8
Predefinito
100
AcDbSpline
210
0.0
220
0.0
230
1.0
 70
    24
 71
     2
 72
     6
 73
     3
 74
     0
 42
0.0000000001
 43
0.0000000001
 40
0.0
 40
0.0
 40
0.0
 40
20.73281050924618
 40
20.73281050924618
 40
20.73281050924618
 10
1144.931591329839
 20
1651.489812615605
 30
0.0
 10
1155.297996584462
 20
1651.489812615605
 30
0.0
 10
1165.664401839085
 20
1651.489812615605
 30
0.0
  0
SPLINE
  5
C7
330
1F
100
AcDbEntity
  8
Predefinito
100
AcDbSpline
210
0.0
220
0.0
230
1.0
 70
    12
 71
     2
 72
     6
 73
     3
 74
     0
 42
0.0000000001
 43
0.0000000001
 40
0.0
 40
0.0
 40
0.0
 40
3.07495599789482
 40
3.07495599789482
 40
3.07495599789482
 10
1113.412635301734
 20
1638.807685345138
 30
0.0
 41
1.0
 10
1114.709550289292
 20
1639.723792723403
 30
0.0
 41
0.9530945714741023
 10
1116.297391973298
 20
1639.723792723403
 30
0.0
 41
1.0
  0
SPLINE
  5
C8
330
1F
100
AcDbEntity
  8
Predefinito
100
AcDbSpline
210
0.0
220
0.0
230
1.0
 70
    12
 71
     2
 72
     8
 73
     5
 74
     0
 42
0.0000000001
 43
0.0000000001
 40
0.0
 40
0.0
 40
0.0
 40
87.4332040678776
 40
87.4332040678776
 40
174.8664081357553
 40
174.8664081357553
 40
174.8664081357553
 10
1197.297391973299
 20
1638.723792723403
 30
0.0
 41
1.0
 10
1237.659908296442
 20
1608.451905481045
 30
0.0
 41
0.8112421851755599
 10
1221.705222836834
 20
1560.587849102224
 30
0.0
 41
1.0
 10
1205.750537377227
 20
1512.723792723403
 30
0.0
 41
0.8112421851755598
 10
1155.297391973298
 20
1512.723792723403
 30
0.0
 41
1.0
  0
SPLINE
  5
C9
330
1F
100
AcDbEntity
  8
Predefinito
100
AcDbSpline
210
0.0
220
0.0
230
1.0
 70
    24
 71
     2
 72
     6
 73
     3
 74
     0
 42
0.0000000001
 43
0.0000000001
 40
0.0
 40
0.0
 40
0.0
 40
84.00000000000057
 40
84.00000000000057
 40
84.00000000000057
 10
1197.297391973299
 20
1638.723792723403
 30
0.0
 10
1155.297391973298
 20
1638.723792723403
 30
0.0
 10
1113.297391973298
 20
1638.723792723403
 30
0.0
  0
SPLINE
  5
CA
330
1F
100
AcDbEntity
  8
Predefinito
100
AcDbSpline
210
0.0
220
0.0
230
1.0
 70
    24
 71
     2
 72
     6
 73
     3
 74
     0
 42
0.0000000001
 43
0.0000000001
 40
0.0
 40
0.0
 40
0.0
 40
78.00000000000045
 40
78.00000000000045
 40
78.00000000000045
 10
1116.297391973298
 20
1639.723792723403
 30
0.0
 10
1155.297391973298
 20
1639.723792723403
 30
0.0
 10
1194.297391973299
 20
1639.723792723403
 30
0.0
  0
SPLINE
  5
CB
330
1F
100
AcDbEntity
  8
Predefinito
100
AcDbSpline
210
0.0
220
0.0
230
1.0
 70
    24
 71
     2
 72
     6
 73
     3
 74
     0
 42
0.0000000001
 43
0.0000000001
 40
0.0
 40
0.0
 40
0.0
 40
8.0
 40
8.0
 40
8.0
 10
1238.847391973298
 20
2047.723792723403
 30
0.0
 10
1242.847391973298
 20
2047.723792723403
 30
0.0
 10
1246.847391973298
 20
2047.723792723403
 30
0.0
  0
SPLINE
  5
CC
330
1F
100
AcDbEntity
  8
Predefinito
100
AcDbSpline
210
0.0
220
0.0
230
1.0
 70
    24
 71
     2
 72
     6
 73
     3
 74
     0
 42
0.0000000001
 43
0.0000000001
 40
0.0
 40
0.0
 40
0.0
 40
8.0
 40
8.0
 40
8.0
 10
1230.847391973298
 20
2047.723792723403
 30
0.0
 10
1234.847391973298
 20
2047.723792723403
 30
0.0
 10
1238.847391973298
 20
2047.723792723403
 30
0.0
  0
SPLINE
  5
CD
330
1F
100
AcDbEntity
  8
Predefinito
100
AcDbSpline
210
0.0
220
0.0
230
1.0
 70
    24
 71
     2
 72
     6
 73
     3
 74
     0
 42
0.0000000001
 43
0.0000000001
 40
0.0
 40
0.0
 40
0.0
 40
8.0
 40
8.0
 40
8.0
 10
1238.847391973298
 20
2049.723792723403
 30
0.0
 10
1234.847391973298
 20
2049.723792723403
 30
0.0
 10
1230.847391973298
 20
2049.723792723403
 30
0.0
  0
SPLINE
  5
CE
330
1F
100
AcDbEntity
  8
Predefinito
100
AcDbSpline
210
0.0
220
0.0
230
1.0
 70
    24
 71
     2
 72
     6
 73
     3
 74
     0
 42
0.0000000001
 43
0.0000000001
 40
0.0
 40
0.0
 40
0.0
 40
8.0
 40
8.0
 40
8.0
 10
1246.847391973298
 20
2049.723792723403
 30
0.0
 10
1242.847391973298
 20
2049.723792723403
 30
0.0
 10
1238.847391973298
 20
2049.723792723403
 30
0.0
  0
SPLINE
  5
CF
330
1F
100
AcDbEntity
  8
Predefinito
100
AcDbSpline
210
0.0
220
0.0
230
1.0
 70
    24
 71
     2
 72
     6
 73
     3
 74
     0
 42
0.0000000001
 43
0.0000000001
 40
0.0
 40
0.0
 40
0.0
 40
2.949916105249827
 40
2.949916105249827
 40
2.949916105249827
 10
1238.847391973298
 20
2008.723792723403
 30
0.0
 10
1240.322350025923
 20
2008.723792723403
 30
0.0
 10
1241.797308078548
 20
2008.723792723403
 30
0.0
  0
SPLINE
  5
D0
330
1F
100
AcDbEntity
  8
Predefinito
100
AcDbSpline
210
0.0
220
0.0
230
1.0
 70
    12
 71
     2
 72
     8
 73
     5
 74
     0
 42
0.0000000001
 43
0.0000000001
 40
0.0
 40
0.0
 40
0.0
 40
0.0500838947502871
 40
0.0500838947502871
 40
4.762472875134977
 40
4.762472875134977
 40
4.762472875134977
 10
1235.897475868049
 20
2008.723792672157
 30
0.0
 41
1.0
 10
1235.872433920673
 20
2008.723792672157
 30
0.0
 41
1.0
 10
1235.847391973298
 20
2008.723792672156
 30
0.0
 41
1.0
 10
1235.847391973298
 20
2008.723792723403
 30
0.0
 41
0.7071067811865476
 10
1238.847391973298
 20
2008.723792723403
 30
0.0
 41
1.0
  0
SPLINE
  5
D1
330
1F
100
AcDbEntity
  8
Predefinito
100
AcDbSpline
210
0.0
220
0.0
230
1.0
 70
    24
 71
     2
 72
     6
 73
     3
 74
     0
 42
0.0000000001
 43
0.0000000001
 40
0.0
 40
0.0
 40
0.0
 40
6.0
 40
6.0
 40
6.0
 10
1238.847391973298
 20
2018.723792723403
 30
0.0
 10
1241.847391973298
 20
2018.723792723403
 30
0.0
 10
1244.847391973298
 20
2018.723792723403
 30
0.0
  0
SPLINE
  5
D2
330
1F
100
AcDbEntity
  8
Predefinito
100
AcDbSpline
210
0.0
220
0.0
230
1.0
 70
    24
 71
     2
 72
     6
 73
     3
 74
     0
 42
0.0000000001
 43
0.0000000001
 40
0.0
 40
0.0
 40
0.0
 40
6.0
 40
6.0
 40
6.0
 10
1232.847391973298
 20
2018.723792723403
 30
0.0
 10
1235.847391973298
 20
2018.723792723403
 30
0.0
 10
1238.847391973298
 20
2018.723792723403
 30
0.0
  0
SPLINE
  5
D3
330
1F
100
AcDbEntity
  8
Predefinito
100
AcDbSpline
210
0.0
220
0.0
230
1.0
 70
    24
 71
     2
 72
     6
 73
     3
 74
     0
 42
0.0000000001
 43
0.0000000001
 40
0.0
 40
0.0
 40
0.0
 40
6.0
 40
6.0
 40
6.0
 10
1238.847391973298
 20
2020.723792723403
 30
0.0
 10
1235.847391973298
 20
2020.723792723403
 30
0.0
 10
1232.847391973298
 20
2020.723792723403
 30
0.0
  0
SPLINE
  5
D4
330
1F
100
AcDbEntity
  8
Predefinito
100
AcDbSpline
210
0.0
220
0.0
230
1.0
 70
    24
 71
     2
 72
     6
 73
     3
 74
     0
 42
0.0000000001
 43
0.0000000001
 40
0.0
 40
0.0
 40
0.0
 40
6.0
 40
6.0
 40
6.0
 10
1244.847391973298
 20
2020.723792723403
 30
0.0
 10
1241.847391973298
 20
2020.723792723403
 30
0.0
 10
1238.847391973298
 20
2020.723792723403
 30
0.0
  0
SPLINE
  5
D5
330
1F
100
AcDbEntity
  8
Predefinito
100
AcDbSpline
210
0.0
220
0.0
230
1.0
 70
    24
 71
     2
 72
     6
 73
     3
 74
     0
 42
0.0000000001
 43
0.0000000001
 40
0.0
 40
0.0
 40
0.0
 40
6.0
 40
6.0
 40
6.0
 10
1238.847391973298
 20
2020.923792723403
 30
0.0
 10
1241.847391973298
 20
2020.923792723403
 30
0.0
 10
1244.847391973298
 20
2020.923792723403
 30
0.0
  0
SPLINE
  5
D6
330
1F
100
AcDbEntity
  8
Predefinito
100
AcDbSpline
210
0.0
220
0.0
230
1.0
 70
    24
 71
     2
 72
     6
 73
     3
 74
     0
 42
0.0000000001
 43
0.0000000001
 40
0.0
 40
0.0
 40
0.0
 40
6.0
 40
6.0
 40
6.0
 10
1232.847391973298
 20
2020.923792723403
 30
0.0
 10
1235.847391973298
 20
2020.923792723403
 30
0.0
 10
1238.847391973298
 20
2020.923792723403
 30
0.0
  0
SPLINE
  5
D7
330
1F
100
AcDbEntity
  8
Predefinito
100
AcDbSpline
210
0.0
220
0.0
230
1.0
 70
    12
 71
     2
 72
     6
 73
     3
 74
     0
 42
0.0000000001
 43
0.0000000001
 40
0.0
 40
0.0
 40
0.0
 40
0.4000392363147158
 40
0.4000392363147158
 40
0.4000392363147158
 10
1238.447570061557
 20
1826.723781750015
 30
0.0
 41
1.0
 10
1238.647318269882
 20
1826.712373839066
 30
0.0
 41
0.9995945525227251
 10
1238.847391973298
 20
1826.712354807265
 30
0.0
 41
1.0
  0
SPLINE
  5
D8
330
1F
100
AcDbEntity
  8
Predefinito
100
AcDbSpline
210
0.0
220
0.0
230
1.0
 70
    12
 71
     2
 72
     6
 73
     3
 74
     0
 42
0.0000000001
 43
0.0000000001
 40
0.0
 40
0.0
 40
0.0
 40
0.4000420436827735
 40
0.4000420436827735
 40
0.4000420436827735
 10
1238.847391973298
 20
1826.712354807265
 30
0.0
 41
1.0
 10
1239.047467157574
 20
1826.712369659997
 30
0.0
 41
0.9995939797263257
 10
1239.247216623423
 20
1826.723781516818
 30
0.0
 41
1.0
  0
SPLINE
  5
D9
330
1F
100
AcDbEntity
  8
Predefinito
100
AcDbSpline
210
0.0
220
0.0
230
1.0
 70
    24
 71
     2
 72
     6
 73
     3
 74
     0
 42
0.0000000001
 43
0.0000000001
 40
0.0
 40
0.0
 40
0.0
 40
509.6
 40
509.6
 40
509.6
 10
926.1973919732983
 20
1812.723792723403
 30
0.0
 10
671.3973919732982
 20
1812.723792723403
 30
0.0
 10
416.5973919732983
 20
1812.723792723403
 30
0.0
  0
SPLINE
  5
DA
330
1F
100
AcDbEntity
  8
Predefinito
100
AcDbSpline
210
0.0
220
0.0
230
1.0
 70
    24
 71
     2
 72
     6
 73
     3
 74
     0
 42
0.0000000001
 43
0.0000000001
 40
0.0
 40
0.0
 40
0.0
 40
11.94999874653377
 40
11.94999874653377
 40
11.94999874653377
 10
914.2473932267645
 20
1826.723792723403
 30
0.0
 10
920.2223926000314
 20
1826.723792723403
 30
0.0
 10
926.1973919732983
 20
1826.723792723403
 30
0.0
  0
SPLINE
  5
DB
330
1F
100
AcDbEntity
  8
Predefinito
100
AcDbSpline
210
0.0
220
0.0
230
1.0
 70
    24
 71
     2
 72
     6
 73
     3
 74
     0
 42
0.0000000001
 43
0.0000000001
 40
0.0
 40
0.0
 40
0.0
 40
494.8999999972745
 40
494.8999999972745
 40
494.8999999972745
 10
418.5473919732983
 20
1826.723792723403
 30
0.0
 10
665.9973919719355
 20
1826.723792723403
 30
0.0
 10
913.4473919705728
 20
1826.723792723403
 30
0.0
  0
SPLINE
  5
DC
330
1F
100
AcDbEntity
  8
Predefinito
100
AcDbSpline
210
0.0
220
0.0
230
1.0
 70
    24
 71
     2
 72
     6
 73
     3
 74
     0
 42
0.0000000001
 43
0.0000000001
 40
0.0
 40
0.0
 40
0.0
 40
1.149988399303822
 40
1.149988399303822
 40
1.149988399303822
 10
416.5973919732983
 20
1826.723792723403
 30
0.0
 10
417.1723861729502
 20
1826.723792723403
 30
0.0
 10
417.7473803726021
 20
1826.723792723403
 30
0.0
  0
SPLINE
  5
DD
330
1F
100
AcDbEntity
  8
Predefinito
100
AcDbSpline
210
0.0
220
0.0
230
1.0
 70
    24
 71
     2
 72
     6
 73
     3
 74
     0
 42
0.0000000001
 43
0.0000000001
 40
0.0
 40
0.0
 40
0.0
 40
14.0
 40
14.0
 40
14.0
 10
416.5973919732983
 20
1826.723792723403
 30
0.0
 10
416.5973919732983
 20
1819.723792723403
 30
0.0
 10
416.5973919732983
 20
1812.723792723403
 30
0.0
  0
SPLINE
  5
DE
330
1F
100
AcDbEntity
  8
Predefinito
100
AcDbSpline
210
0.0
220
0.0
230
1.0
 70
    24
 71
     2
 72
     6
 73
     3
 74
     0
 42
0.0000000001
 43
0.0000000001
 40
0.0
 40
0.0
 40
0.0
 40
0.2002085020602232
 40
0.2002085020602232
 40
0.2002085020602232
 10
416.3973919732983
 20
1826.523792723403
 30
0.0
 10
416.4681763680273
 20
1826.594577118132
 30
0.0
 10
416.5389607627563
 20
1826.665361512861
 30
0.0
  0
SPLINE
  5
DF
330
1F
100
AcDbEntity
  8
Predefinito
100
AcDbSpline
210
0.0
220
0.0
230
1.0
 70
    24
 71
     2
 72
     6
 73
     3
 74
     0
 42
0.0000000001
 43
0.0000000001
 40
0.0
 40
0.0
 40
0.0
 40
13.59999999999991
 40
13.59999999999991
 40
13.59999999999991
 10
416.3973919732983
 20
1826.523792723403
 30
0.0
 10
416.3973919732983
 20
1819.723792723403
 30
0.0
 10
416.3973919732983
 20
1812.923792723403
 30
0.0
  0
SPLINE
  5
E0
330
1F
100
AcDbEntity
  8
Predefinito
100
AcDbSpline
210
0.0
220
0.0
230
1.0
 70
    24
 71
     2
 72
     6
 73
     3
 74
     0
 42
0.0000000001
 43
0.0000000001
 40
0.0
 40
0.0
 40
0.0
 40
0.2002085020602835
 40
0.2002085020602835
 40
0.2002085020602835
 10
416.3973919732983
 20
1826.523792723403
 30
0.0
 10
416.3266075785693
 20
1826.594577118132
 30
0.0
 10
416.2558231838403
 20
1826.665361512861
 30
0.0
  0
SPLINE
  5
E1
330
1F
100
AcDbEntity
  8
Predefinito
100
AcDbSpline
210
0.0
220
0.0
230
1.0
 70
    12
 71
     2
 72
     6
 73
     3
 74
     0
 42
0.0000000001
 43
0.0000000001
 40
0.0
 40
0.0
 40
0.0
 40
0.3236832558705351
 40
0.3236832558705351
 40
0.3236832558705351
 10
380.1053334866033
 20
1825.383870403605
 30
0.0
 41
1.0
 10
380.0009558672877
 20
1825.260184458446
 30
0.0
 41
0.9999946194137945
 10
379.8973919732983
 20
1825.135816374497
 30
0.0
 41
1.0
  0
SPLINE
  5
E2
330
1F
100
AcDbEntity
  8
Predefinito
100
AcDbSpline
210
0.0
220
0.0
230
1.0
 70
    12
 71
     2
 72
     6
 73
     3
 74
     0
 42
0.0000000001
 43
0.0000000001
 40
0.0
 40
0.0
 40
0.0
 40
0.4506455470536664
 40
0.4506455470536664
 40
0.4506455470536664
 10
380.3939073480291
 20
1825.729998034607
 30
0.0
 41
1.0
 10
380.2506067292663
 20
1825.556111910159
 30
0.0
 41
0.9999837603948168
 10
380.1053334866033
 20
1825.383870403605
 30
0.0
 41
1.0
  0
SPLINE
  5
E3
330
1F
100
AcDbEntity
  8
Predefinito
100
AcDbSpline
210
0.0
220
0.0
230
1.0
 70
    12
 71
     2
 72
     6
 73
     3
 74
     0
 42
0.0000000001
 43
0.0000000001
 40
0.0
 40
0.0
 40
0.0
 40
0.456123800492809
 40
0.456123800492809
 40
0.456123800492809
 10
380.1053334866033
 20
1814.063715043201
 30
0.0
 41
1.0
 10
380.2523718969606
 20
1813.889378911036
 30
0.0
 41
0.9999834068353548
 10
380.3973919732983
 20
1813.713360279755
 30
0.0
 41
1.0
  0
SPLINE
  5
E4
330
1F
100
AcDbEntity
  8
Predefinito
100
AcDbSpline
210
0.0
220
0.0
230
1.0
 70
    12
 71
     2
 72
     6
 73
     3
 74
     0
 42
0.0000000001
 43
0.0000000001
 40
0.0
 40
0.0
 40
0.0
 40
0.3236832558705315
 40
0.3236832558705315
 40
0.3236832558705315
 10
379.8973919732983
 20
1814.311769072309
 30
0.0
 41
1.0
 10
380.0009558672877
 20
1814.187400988359
 30
0.0
 41
0.9999946194137945
 10
380.1053334866033
 20
1814.063715043201
 30
0.0
 41
1.0
  0
SPLINE
  5
E5
330
1F
100
AcDbEntity
  8
Predefinito
100
AcDbSpline
210
0.0
220
0.0
230
1.0
 70
    24
 71
     2
 72
     6
 73
     3
 74
     0
 42
0.0000000001
 43
0.0000000001
 40
0.0
 40
0.0
 40
0.0
 40
10.82404730218832
 40
10.82404730218832
 40
10.82404730218832
 10
379.8973919732983
 20
1825.135816374497
 30
0.0
 10
379.8973919732983
 20
1819.723792723403
 30
0.0
 10
379.8973919732983
 20
1814.311769072309
 30
0.0
  0
SPLINE
  5
E6
330
1F
100
AcDbEntity
  8
Predefinito
100
AcDbSpline
210
0.0
220
0.0
230
1.0
 70
    12
 71
     2
 72
     6
 73
     3
 74
     0
 42
0.0000000001
 43
0.0000000001
 40
0.0
 40
0.0
 40
0.0
 40
3.713957355495745
 40
3.713957355495745
 40
3.713957355495745
 10
404.8973919732983
 20
1813.720460315481
 30
0.0
 41
1.0
 10
406.7897717809303
 20
1813.667438271215
 30
0.0
 41
0.9716062750407838
 10
408.4458980292841
 20
1812.750291323869
 30
0.0
 41
1.0
  0
SPLINE
  5
E7
330
1F
100
AcDbEntity
  8
Predefinito
100
AcDbSpline
210
0.0
220
0.0
230
1.0
 70
    24
 71
     2
 72
     6
 73
     3
 74
     0
 42
0.0000000001
 43
0.0000000001
 40
0.0
 40
0.0
 40
0.0
 40
18.5
 40
18.5
 40
18.5
 10
386.3973919732983
 20
1813.720460315481
 30
0.0
 10
395.6473919732983
 20
1813.720460315481
 30
0.0
 10
404.8973919732983
 20
1813.720460315481
 30
0.0
  0
SPLINE
  5
E8
330
1F
100
AcDbEntity
  8
Predefinito
100
AcDbSpline
210
0.0
220
0.0
230
1.0
 70
    12
 71
     2
 72
     6
 73
     3
 74
     0
 42
0.0000000001
 43
0.0000000001
 40
0.0
 40
0.0
 40
0.0
 40
0.2921736697668705
 40
0.2921736697668705
 40
0.2921736697668705
 10
386.1053334866033
 20
1813.713360279755
 30
0.0
 41
1.0
 10
386.2512762371653
 20
1813.720468160289
 30
0.0
 41
0.9997033287928424
 10
386.3973919732983
 20
1813.720460315481
 30
0.0
 41
1.0
  0
SPLINE
  5
E9
330
1F
100
AcDbEntity
  8
Predefinito
100
AcDbSpline
210
0.0
220
0.0
230
1.0
 70
    24
 71
     2
 72
     6
 73
     3
 74
     0
 42
0.0000000001
 43
0.0000000001
 40
0.0
 40
0.0
 40
0.0
 40
5.707941513305002
 40
5.707941513305002
 40
5.707941513305002
 10
380.3973919732983
 20
1813.713360279755
 30
0.0
 10
383.2513627299508
 20
1813.713360279755
 30
0.0
 10
386.1053334866033
 20
1813.713360279755
 30
0.0
  0
SPLINE
  5
EA
330
1F
100
AcDbEntity
  8
Predefinito
100
AcDbSpline
210
0.0
220
0.0
230
1.0
 70
    24
 71
     2
 72
     6
 73
     3
 74
     0
 42
0.0000000001
 43
0.0000000001
 40
0.0
 40
0.0
 40
0.0
 40
12.01376485156925
 40
12.01376485156925
 40
12.01376485156925
 10
380.3973919732983
 20
1825.727125131324
 30
0.0
 10
380.3973919732983
 20
1819.72024270554
 30
0.0
 10
380.3973919732983
 20
1813.713360279755
 30
0.0
  0
SPLINE
  5
EB
330
1F
100
AcDbEntity
  8
Predefinito
100
AcDbSpline
210
0.0
220
0.0
230
1.0
 70
    24
 71
     2
 72
     6
 73
     3
 74
     0
 42
0.0000000001
 43
0.0000000001
 40
0.0
 40
0.0
 40
0.0
 40
24.5
 40
24.5
 40
24.5
 10
404.8973919732983
 20
1825.727125131324
 30
0.0
 10
392.6473919732983
 20
1825.727125131324
 30
0.0
 10
380.3973919732983
 20
1825.727125131324
 30
0.0
  0
SPLINE
  5
EC
330
1F
100
AcDbEntity
  8
Predefinito
100
AcDbSpline
210
0.0
220
0.0
230
1.0
 70
    12
 71
     2
 72
     6
 73
     3
 74
     0
 42
0.0000000001
 43
0.0000000001
 40
0.0
 40
0.0
 40
0.0
 40
3.77159416174079
 40
3.77159416174079
 40
3.77159416174079
 10
408.497233528453
 20
1826.723792723403
 30
0.0
 41
1.0
 10
406.8196604910683
 20
1825.783553840025
 30
0.0
 41
0.9711590045335681
 10
404.8973919732983
 20
1825.727125131324
 30
0.0
 41
1.0
  0
SPLINE
  5
ED
330
1F
100
AcDbEntity
  8
Predefinito
100
AcDbSpline
210
0.0
220
0.0
230
1.0
 70
    24
 71
     2
 72
     6
 73
     3
 74
     0
 42
0.0000000001
 43
0.0000000001
 40
0.0
 40
0.0
 40
0.0
 40
7.700158444845329
 40
7.700158444845329
 40
7.700158444845329
 10
408.497233528453
 20
1826.723792723403
 30
0.0
 10
412.3473127508756
 20
1826.723792723403
 30
0.0
 10
416.1973919732983
 20
1826.723792723403
 30
0.0
  0
SPLINE
  5
EE
330
1F
100
AcDbEntity
  8
Predefinito
100
AcDbSpline
210
0.0
220
0.0
230
1.0
 70
    24
 71
     2
 72
     6
 73
     3
 74
     0
 42
0.0000000001
 43
0.0000000001
 40
0.0
 40
0.0
 40
0.0
 40
14.0
 40
14.0
 40
14.0
 10
416.1973919732983
 20
1812.723792723403
 30
0.0
 10
416.1973919732983
 20
1819.723792723403
 30
0.0
 10
416.1973919732983
 20
1826.723792723403
 30
0.0
  0
SPLINE
  5
EF
330
1F
100
AcDbEntity
  8
Predefinito
100
AcDbSpline
210
0.0
220
0.0
230
1.0
 70
    24
 71
     2
 72
     6
 73
     3
 74
     0
 42
0.0000000001
 43
0.0000000001
 40
0.0
 40
0.0
 40
0.0
 40
0.2002085020605749
 40
0.2002085020605749
 40
0.2002085020605749
 10
1251.397391973298
 20
1826.523792723403
 30
0.0
 10
1251.326607578569
 20
1826.594577118132
 30
0.0
 10
1251.25582318384
 20
1826.665361512861
 30
0.0
  0
SPLINE
  5
F0
330
1F
100
AcDbEntity
  8
Predefinito
100
AcDbSpline
210
0.0
220
0.0
230
1.0
 70
    24
 71
     2
 72
     6
 73
     3
 74
     0
 42
0.0000000001
 43
0.0000000001
 40
0.0
 40
0.0
 40
0.0
 40
2.799999999999955
 40
2.799999999999955
 40
2.799999999999955
 10
1254.397391973298
 20
1812.723792723403
 30
0.0
 10
1252.997391973298
 20
1812.723792723403
 30
0.0
 10
1251.597391973298
 20
1812.723792723403
 30
0.0
  0
SPLINE
  5
F1
330
1F
100
AcDbEntity
  8
Predefinito
100
AcDbSpline
210
0.0
220
0.0
230
1.0
 70
    24
 71
     2
 72
     6
 73
     3
 74
     0
 42
0.0000000001
 43
0.0000000001
 40
0.0
 40
0.0
 40
0.0
 40
13.91235318471058
 40
13.91235318471058
 40
13.91235318471058
 10
1254.397391973298
 20
1812.723792723403
 30
0.0
 10
1254.397391973298
 20
1819.679969315758
 30
0.0
 10
1254.397391973298
 20
1826.636145908113
 30
0.0
  0
SPLINE
  5
F2
330
1F
100
AcDbEntity
  8
Predefinito
100
AcDbSpline
210
0.0
220
0.0
230
1.0
 70
    24
 71
     2
 72
     6
 73
     3
 74
     0
 42
0.0000000001
 43
0.0000000001
 40
0.0
 40
0.0
 40
0.0
 40
0.7071067811865476
 40
0.7071067811865476
 40
0.7071067811865476
 10
1254.897391973298
 20
1826.223792723403
 30
0.0
 10
1254.647391973298
 20
1826.473792723403
 30
0.0
 10
1254.397391973298
 20
1826.723792723403
 30
0.0
  0
SPLINE
  5
F3
330
1F
100
AcDbEntity
  8
Predefinito
100
AcDbSpline
210
0.0
220
0.0
230
1.0
 70
    24
 71
     2
 72
     6
 73
     3
 74
     0
 42
0.0000000001
 43
0.0000000001
 40
0.0
 40
0.0
 40
0.0
 40
13.0
 40
13.0
 40
13.0
 10
1254.897391973298
 20
1813.223792723403
 30
0.0
 10
1254.897391973298
 20
1819.723792723403
 30
0.0
 10
1254.897391973298
 20
1826.223792723403
 30
0.0
  0
SPLINE
  5
F4
330
1F
100
AcDbEntity
  8
Predefinito
100
AcDbSpline
210
0.0
220
0.0
230
1.0
 70
    24
 71
     2
 72
     6
 73
     3
 74
     0
 42
0.0000000001
 43
0.0000000001
 40
0.0
 40
0.0
 40
0.0
 40
13.59999999999991
 40
13.59999999999991
 40
13.59999999999991
 10
1251.397391973298
 20
1826.523792723403
 30
0.0
 10
1251.397391973298
 20
1819.723792723403
 30
0.0
 10
1251.397391973298
 20
1812.923792723403
 30
0.0
  0
SPLINE
  5
F5
330
1F
100
AcDbEntity
  8
Predefinito
100
AcDbSpline
210
0.0
220
0.0
230
1.0
 70
    24
 71
     2
 72
     6
 73
     3
 74
     0
 42
0.0000000001
 43
0.0000000001
 40
0.0
 40
0.0
 40
0.0
 40
0.2002085020603337
 40
0.2002085020603337
 40
0.2002085020603337
 10
1251.397391973298
 20
1812.923792723403
 30
0.0
 10
1251.468176368027
 20
1812.853008328674
 30
0.0
 10
1251.538960762756
 20
1812.782223933945
 30
0.0
  0
SPLINE
  5
F6
330
1F
100
AcDbEntity
  8
Predefinito
100
AcDbSpline
210
0.0
220
0.0
230
1.0
 70
    24
 71
     2
 72
     6
 73
     3
 74
     0
 42
0.0000000001
 43
0.0000000001
 40
0.0
 40
0.0
 40
0.0
 40
14.0
 40
14.0
 40
14.0
 10
1251.597391973298
 20
1826.723792723403
 30
0.0
 10
1251.597391973298
 20
1819.723792723403
 30
0.0
 10
1251.597391973298
 20
1812.723792723403
 30
0.0
  0
SPLINE
  5
F7
330
1F
100
AcDbEntity
  8
Predefinito
100
AcDbSpline
210
0.0
220
0.0
230
1.0
 70
    24
 71
     2
 72
     6
 73
     3
 74
     0
 42
0.0000000001
 43
0.0000000001
 40
0.0
 40
0.0
 40
0.0
 40
14.0
 40
14.0
 40
14.0
 10
1251.197391973298
 20
1826.723792723403
 30
0.0
 10
1251.197391973298
 20
1819.723792723403
 30
0.0
 10
1251.197391973298
 20
1812.723792723403
 30
0.0
  0
SPLINE
  5
F8
330
1F
100
AcDbEntity
  8
Predefinito
100
AcDbSpline
210
0.0
220
0.0
230
1.0
 70
    24
 71
     2
 72
     6
 73
     3
 74
     0
 42
0.0000000001
 43
0.0000000001
 40
0.0
 40
0.0
 40
0.0
 40
225.1999999999998
 40
225.1999999999998
 40
225.1999999999998
 10
1151.397391973298
 20
1826.723792723403
 30
0.0
 10
1038.797391973298
 20
1826.723792723403
 30
0.0
 10
926.1973919732983
 20
1826.723792723403
 30
0.0
  0
SPLINE
  5
F9
330
1F
100
AcDbEntity
  8
Predefinito
100
AcDbSpline
210
0.0
220
0.0
230
1.0
 70
    24
 71
     2
 72
     6
 73
     3
 74
     0
 42
0.0000000001
 43
0.0000000001
 40
0.0
 40
0.0
 40
0.0
 40
79.04999997799473
 40
79.04999997799473
 40
79.04999997799473
 10
1238.447391951293
 20
1826.723792723403
 30
0.0
 10
1198.922391962296
 20
1826.723792723403
 30
0.0
 10
1159.397391973298
 20
1826.723792723403
 30
0.0
  0
SPLINE
  5
FA
330
1F
100
AcDbEntity
  8
Predefinito
100
AcDbSpline
210
0.0
220
0.0
230
1.0
 70
    24
 71
     2
 72
     6
 73
     3
 74
     0
 42
0.0000000001
 43
0.0000000001
 40
0.0
 40
0.0
 40
0.0
 40
11.94999874653365
 40
11.94999874653365
 40
11.94999874653365
 10
1251.197391973298
 20
1826.723792723403
 30
0.0
 10
1245.222392600031
 20
1826.723792723403
 30
0.0
 10
1239.247393226764
 20
1826.723792723403
 30
0.0
  0
SPLINE
  5
FB
330
1F
100
AcDbEntity
  8
Predefinito
100
AcDbSpline
210
0.0
220
0.0
230
1.0
 70
    24
 71
     2
 72
     6
 73
     3
 74
     0
 42
0.0000000001
 43
0.0000000001
 40
0.0
 40
0.0
 40
0.0
 40
91.80000000000007
 40
91.80000000000007
 40
91.80000000000007
 10
1159.397391973298
 20
1812.723792723403
 30
0.0
 10
1205.297391973299
 20
1812.723792723403
 30
0.0
 10
1251.197391973298
 20
1812.723792723403
 30
0.0
  0
SPLINE
  5
FC
330
1F
100
AcDbEntity
  8
Predefinito
100
AcDbSpline
210
0.0
220
0.0
230
1.0
 70
    24
 71
     2
 72
     6
 73
     3
 74
     0
 42
0.0000000001
 43
0.0000000001
 40
0.0
 40
0.0
 40
0.0
 40
225.1999999999999
 40
225.1999999999999
 40
225.1999999999999
 10
926.1973919732983
 20
1812.723792723403
 30
0.0
 10
1038.797391973298
 20
1812.723792723403
 30
0.0
 10
1151.397391973298
 20
1812.723792723403
 30
0.0
  0
SPLINE
  5
FD
330
1F
100
AcDbEntity
  8
Predefinito
100
AcDbSpline
210
0.0
220
0.0
230
1.0
 70
    24
 71
     2
 72
     6
 73
     3
 74
     0
 42
0.0000000001
 43
0.0000000001
 40
0.0
 40
0.0
 40
0.0
 40
27.69843671094746
 40
27.69843671094746
 40
27.69843671094746
 10
1952.451781167965
 20
2049.421486802283
 30
0.0
 10
1952.330925472361
 20
2035.572795782607
 30
0.0
 10
1952.210069776757
 20
2021.724104762932
 30
0.0
  0
SPLINE
  5
FE
330
1F
100
AcDbEntity
  8
Predefinito
100
AcDbSpline
210
0.0
220
0.0
230
1.0
 70
    24
 71
     2
 72
     6
 73
     3
 74
     0
 42
0.0000000001
 43
0.0000000001
 40
0.0
 40
0.0
 40
0.0
 40
27.69777153962631
 40
27.69777153962631
 40
27.69777153962631
 10
1816.09877437227
 20
2021.724104762932
 30
0.0
 10
1815.977921578986
 20
2035.572463209611
 30
0.0
 10
1815.857068785701
 20
2049.420821656289
 30
0.0
  0
SPLINE
  5
FF
330
1F
100
AcDbEntity
  8
Predefinito
100
AcDbSpline
210
0.0
220
0.0
230
1.0
 70
    12
 71
     2
 72
     8
 73
     5
 74
     0
 42
0.0000000001
 43
0.0000000001
 40
0.0
 40
0.0
 40
0.0
 40
0.2509670224986107
 40
0.2509670224986107
 40
0.5019340449972214
 40
0.5019340449972214
 40
0.5019340449972214
 10
1815.857033006213
 20
2049.421486802283
 30
0.0
 41
1.0
 10
1815.830733253967
 20
2049.555397404243
 30
0.0
 41
0.8835156548023438
 10
1815.926809011126
 20
2049.652315798636
 30
0.0
 41
1.0
 10
1816.022884768285
 20
2049.749234193029
 30
0.0
 41
0.8835156548023438
 10
1816.157019916655
 20
2049.72410476293
 30
0.0
 41
1.0
  0
SPLINE
  5
100
330
1F
100
AcDbEntity
  8
Predefinito
100
AcDbSpline
210
0.0
220
0.0
230
1.0
 70
    24
 71
     2
 72
     6
 73
     3
 74
     0
 42
0.0000000001
 43
0.0000000001
 40
0.0
 40
0.0
 40
0.0
 40
0.6598872323781181
 40
0.6598872323781181
 40
0.6598872323781181
 10
1901.194787312692
 20
1707.037641986336
 30
0.0
 10
1901.428092681108
 20
1707.270947354753
 30
0.0
 10
1901.661398049525
 20
1707.504252723169
 30
0.0
  0
SPLINE
  5
101
330
1F
100
AcDbEntity
  8
Predefinito
100
AcDbSpline
210
0.0
220
0.0
230
1.0
 70
    24
 71
     2
 72
     6
 73
     3
 74
     0
 42
0.0000000001
 43
0.0000000001
 40
0.0
 40
0.0
 40
0.0
 40
0.6598872323781181
 40
0.6598872323781181
 40
0.6598872323781181
 10
1908.661398049525
 20
1707.504252723169
 30
0.0
 10
1908.894703417941
 20
1707.270947354753
 30
0.0
 10
1909.128008786358
 20
1707.037641986336
 30
0.0
  0
SPLINE
  5
102
330
1F
100
AcDbEntity
  8
Predefinito
100
AcDbSpline
210
0.0
220
0.0
230
1.0
 70
    24
 71
     2
 72
     6
 73
     3
 74
     0
 42
0.0000000001
 43
0.0000000001
 40
0.0
 40
0.0
 40
0.0
 40
0.6598872323781181
 40
0.6598872323781181
 40
0.6598872323781181
 10
1901.661398049525
 20
1724.504252723169
 30
0.0
 10
1901.428092681108
 20
1724.737558091586
 30
0.0
 10
1901.194787312692
 20
1724.970863460002
 30
0.0
  0
SPLINE
  5
103
330
1F
100
AcDbEntity
  8
Predefinito
100
AcDbSpline
210
0.0
220
0.0
230
1.0
 70
    24
 71
     2
 72
     6
 73
     3
 74
     0
 42
0.0000000001
 43
0.0000000001
 40
0.0
 40
0.0
 40
0.0
 40
0.6598872323781181
 40
0.6598872323781181
 40
0.6598872323781181
 10
1909.128008786358
 20
1724.970863460002
 30
0.0
 10
1908.894703417941
 20
1724.737558091586
 30
0.0
 10
1908.661398049525
 20
1724.504252723169
 30
0.0
  0
SPLINE
  5
104
330
1F
100
AcDbEntity
  8
Predefinito
100
AcDbSpline
210
0.0
220
0.0
230
1.0
 70
    24
 71
     2
 72
     6
 73
     3
 74
     0
 42
0.0000000001
 43
0.0000000001
 40
0.0
 40
0.0
 40
0.0
 40
17.5
 40
17.5
 40
17.5
 10
1909.161398049525
 20
1707.004252723169
 30
0.0
 10
1909.161398049525
 20
1698.254252723169
 30
0.0
 10
1909.161398049525
 20
1689.504252723169
 30
0.0
  0
SPLINE
  5
105
330
1F
100
AcDbEntity
  8
Predefinito
100
AcDbSpline
210
0.0
220
0.0
230
1.0
 70
    24
 71
     2
 72
     6
 73
     3
 74
     0
 42
0.0000000001
 43
0.0000000001
 40
0.0
 40
0.0
 40
0.0
 40
17.5
 40
17.5
 40
17.5
 10
1901.161398049525
 20
1689.504252723169
 30
0.0
 10
1901.161398049525
 20
1698.254252723169
 30
0.0
 10
1901.161398049525
 20
1707.004252723169
 30
0.0
  0
SPLINE
  5
106
330
1F
100
AcDbEntity
  8
Predefinito
100
AcDbSpline
210
0.0
220
0.0
230
1.0
 70
    12
 71
     2
 72
     6
 73
     3
 74
     0
 42
0.0000000001
 43
0.0000000001
 40
0.0
 40
0.0
 40
0.0
 40
17.59551299416347
 40
17.59551299416347
 40
17.59551299416347
 10
1892.839774304774
 20
1674.886257853248
 30
0.0
 41
1.0
 10
1901.160949403105
 20
1679.826874555011
 30
0.0
 41
0.8690720417608043
 10
1901.161398049525
 20
1689.504252723169
 30
0.0
 41
1.0
  0
SPLINE
  5
107
330
1F
100
AcDbEntity
  8
Predefinito
100
AcDbSpline
210
0.0
220
0.0
230
1.0
 70
    12
 71
     2
 72
     6
 73
     3
 74
     0
 42
0.0000000001
 43
0.0000000001
 40
0.0
 40
0.0
 40
0.0
 40
16.61651003943703
 40
16.61651003943703
 40
16.61651003943703
 10
1867.161398049525
 20
1689.504252723169
 30
0.0
 41
1.0
 10
1867.161221626642
 20
1680.464349009506
 30
0.0
 41
0.8829032480308443
 10
1874.656497580932
 20
1675.410568488699
 30
0.0
 41
1.0
  0
SPLINE
  5
108
330
1F
100
AcDbEntity
  8
Predefinito
100
AcDbSpline
210
0.0
220
0.0
230
1.0
 70
    24
 71
     2
 72
     6
 73
     3
 74
     0
 42
0.0000000001
 43
0.0000000001
 40
0.0
 40
0.0
 40
0.0
 40
120.0
 40
120.0
 40
120.0
 10
1867.161398049525
 20
1809.504252723169
 30
0.0
 10
1867.161398049525
 20
1749.504252723169
 30
0.0
 10
1867.161398049525
 20
1689.504252723169
 30
0.0
  0
SPLINE
  5
109
330
1F
100
AcDbEntity
  8
Predefinito
100
AcDbSpline
210
0.0
220
0.0
230
1.0
 70
    24
 71
     2
 72
     6
 73
     3
 74
     0
 42
0.0000000001
 43
0.0000000001
 40
0.0
 40
0.0
 40
0.0
 40
120.0
 40
120.0
 40
120.0
 10
1859.161398049525
 20
1689.504252723169
 30
0.0
 10
1859.161398049525
 20
1749.504252723169
 30
0.0
 10
1859.161398049525
 20
1809.504252723169
 30
0.0
  0
SPLINE
  5
10A
330
1F
100
AcDbEntity
  8
Predefinito
100
AcDbSpline
210
0.0
220
0.0
230
1.0
 70
    12
 71
     2
 72
     6
 73
     3
 74
     0
 42
0.0000000001
 43
0.0000000001
 40
0.0
 40
0.0
 40
0.0
 40
23.46140432143142
 40
23.46140432143142
 40
23.46140432143142
 10
1880.939494007207
 20
1826.196130233713
 30
0.0
 41
1.0
 10
1867.162936290025
 20
1823.535397952332
 30
0.0
 41
0.7712775381356328
 10
1867.161398049524
 20
1809.504252723169
 30
0.0
 41
1.0
  0
SPLINE
  5
10B
330
1F
100
AcDbEntity
  8
Predefinito
100
AcDbSpline
210
0.0
220
0.0
230
1.0
 70
    12
 71
     2
 72
     6
 73
     3
 74
     0
 42
0.0000000001
 43
0.0000000001
 40
0.0
 40
0.0
 40
0.0
 40
23.70989308330877
 40
23.70989308330877
 40
23.70989308330877
 10
1901.161398049525
 20
1809.504252723169
 30
0.0
 41
1.0
 10
1901.16101268779
 20
1823.746080203161
 30
0.0
 41
0.7665641460030652
 10
1887.139502338809
 20
1826.24145545586
 30
0.0
 41
1.0
  0
SPLINE
  5
10C
330
1F
100
AcDbEntity
  8
Predefinito
100
AcDbSpline
210
0.0
220
0.0
230
1.0
 70
    24
 71
     2
 72
     6
 73
     3
 74
     0
 42
0.0000000001
 43
0.0000000001
 40
0.0
 40
0.0
 40
0.0
 40
84.5
 40
84.5
 40
84.5
 10
1901.161398049525
 20
1725.004252723169
 30
0.0
 10
1901.161398049525
 20
1767.254252723169
 30
0.0
 10
1901.161398049525
 20
1809.504252723169
 30
0.0
  0
SPLINE
  5
10D
330
1F
100
AcDbEntity
  8
Predefinito
100
AcDbSpline
210
0.0
220
0.0
230
1.0
 70
    24
 71
     2
 72
     6
 73
     3
 74
     0
 42
0.0000000001
 43
0.0000000001
 40
0.0
 40
0.0
 40
0.0
 40
13.75317775083522
 40
13.75317775083522
 40
13.75317775083522
 10
1893.804154016678
 20
1665.243302405576
 30
0.0
 10
1893.804154016678
 20
1658.366713530158
 30
0.0
 10
1893.804154016678
 20
1651.49012465474
 30
0.0
  0
SPLINE
  5
10E
330
1F
100
AcDbEntity
  8
Predefinito
100
AcDbSpline
210
0.0
220
0.0
230
1.0
 70
    24
 71
     2
 72
     6
 73
     3
 74
     0
 42
0.0000000001
 43
0.0000000001
 40
0.0
 40
0.0
 40
0.0
 40
4.25311537986795
 40
4.25311537986795
 40
4.25311537986795
 10
1893.804154016678
 20
1680.990123864748
 30
0.0
 10
1893.804154016678
 20
1678.863566174814
 30
0.0
 10
1893.804154016678
 20
1676.73700848488
 30
0.0
  0
SPLINE
  5
10F
330
1F
100
AcDbEntity
  8
Predefinito
100
AcDbSpline
210
0.0
220
0.0
230
1.0
 70
    24
 71
     2
 72
     6
 73
     3
 74
     0
 42
0.0000000001
 43
0.0000000001
 40
0.0
 40
0.0
 40
0.0
 40
4.253115379728115
 40
4.253115379728115
 40
4.253115379728115
 10
1873.904154016678
 20
1676.73700848502
 30
0.0
 10
1873.904154016678
 20
1678.863566174884
 30
0.0
 10
1873.904154016678
 20
1680.990123864748
 30
0.0
  0
SPLINE
  5
110
330
1F
100
AcDbEntity
  8
Predefinito
100
AcDbSpline
210
0.0
220
0.0
230
1.0
 70
    24
 71
     2
 72
     6
 73
     3
 74
     0
 42
0.0000000001
 43
0.0000000001
 40
0.0
 40
0.0
 40
0.0
 40
13.75317775083522
 40
13.75317775083522
 40
13.75317775083522
 10
1873.904154016678
 20
1651.49012465474
 30
0.0
 10
1873.904154016678
 20
1658.366713530158
 30
0.0
 10
1873.904154016678
 20
1665.243302405576
 30
0.0
  0
SPLINE
  5
111
330
1F
100
AcDbEntity
  8
Predefinito
100
AcDbSpline
210
0.0
220
0.0
230
1.0
 70
    24
 71
     2
 72
     6
 73
     3
 74
     0
 42
0.0000000001
 43
0.0000000001
 40
0.0
 40
0.0
 40
0.0
 40
0.7071067811865476
 40
0.7071067811865476
 40
0.7071067811865476
 10
1893.304154016678
 20
1681.490124654741
 30
0.0
 10
1893.554154016678
 20
1681.240124654741
 30
0.0
 10
1893.804154016678
 20
1680.990124654741
 30
0.0
  0
SPLINE
  5
112
330
1F
100
AcDbEntity
  8
Predefinito
100
AcDbSpline
210
0.0
220
0.0
230
1.0
 70
    24
 71
     2
 72
     6
 73
     3
 74
     0
 42
0.0000000001
 43
0.0000000001
 40
0.0
 40
0.0
 40
0.0
 40
0.7071067811865476
 40
0.7071067811865476
 40
0.7071067811865476
 10
1873.904154016677
 20
1680.990124654741
 30
0.0
 10
1874.154154016677
 20
1681.240124654741
 30
0.0
 10
1874.404154016677
 20
1681.490124654741
 30
0.0
  0
SPLINE
  5
113
330
1F
100
AcDbEntity
  8
Predefinito
100
AcDbSpline
210
0.0
220
0.0
230
1.0
 70
    12
 71
     2
 72
     6
 73
     3
 74
     0
 42
0.0000000001
 43
0.0000000001
 40
0.0
 40
0.0
 40
0.0
 40
31.58165418909526
 40
31.58165418909526
 40
31.58165418909526
 10
1844.370123050939
 20
1639.977037040393
 30
0.0
 41
1.0
 10
1857.599317700801
 20
1649.096303911088
 30
0.0
 41
0.9743472308176351
 10
1873.487748762054
 20
1651.490124655134
 30
0.0
 41
1.0
  0
SPLINE
  5
114
330
1F
100
AcDbEntity
  8
Predefinito
100
AcDbSpline
210
0.0
220
0.0
230
1.0
 70
    12
 71
     2
 72
     6
 73
     3
 74
     0
 42
0.0000000001
 43
0.0000000001
 40
0.0
 40
0.0
 40
0.0
 40
31.58158651876495
 40
31.58158651876495
 40
31.58158651876495
 10
1894.220559271301
 20
1651.490124655134
 30
0.0
 41
1.0
 10
1910.108821579411
 20
1649.095878569531
 30
0.0
 41
0.9743534699666893
 10
1923.338183696153
 20
1639.977037005286
 30
0.0
 41
1.0
  0
SPLINE
  5
115
330
1F
100
AcDbEntity
  8
Predefinito
100
AcDbSpline
210
0.0
220
0.0
230
1.0
 70
    24
 71
     2
 72
     6
 73
     3
 74
     0
 42
0.0000000001
 43
0.0000000001
 40
0.0
 40
0.0
 40
0.0
 40
33.4238939123918
 40
33.4238939123918
 40
33.4238939123918
 10
1889.940997195486
 20
1639.760954116121
 30
0.0
 10
1906.652944151682
 20
1639.760954116121
 30
0.0
 10
1923.364891107878
 20
1639.760954116121
 30
0.0
  0
SPLINE
  5
116
330
1F
100
AcDbEntity
  8
Predefinito
100
AcDbSpline
210
0.0
220
0.0
230
1.0
 70
    12
 71
     2
 72
     8
 73
     5
 74
     0
 42
0.0000000001
 43
0.0000000001
 40
0.0
 40
0.0
 40
0.0
 40
0.0914155840287615
 40
0.0914155840287615
 40
0.1828311680575231
 40
0.1828311680575231
 40
0.1828311680575231
 10
1844.339900369858
 20
1639.760954144983
 30
0.0
 41
1.0
 10
1844.29227900747
 20
1639.771146497912
 30
0.0
 41
0.9103383775869645
 10
1844.268651283669
 20
1639.813730636766
 30
0.0
 41
1.0
 10
1844.245023559869
 20
1639.856314775619
 30
0.0
 41
0.9103383775869645
 10
1844.261577682448
 20
1639.902114767317
 30
0.0
 41
1.0
  0
SPLINE
  5
117
330
1F
100
AcDbEntity
  8
Predefinito
100
AcDbSpline
210
0.0
220
0.0
230
1.0
 70
    12
 71
     2
 72
     8
 73
     5
 74
     0
 42
0.0000000001
 43
0.0000000001
 40
0.0
 40
0.0
 40
0.0
 40
0.0904998564631696
 40
0.0904998564631696
 40
0.1809997129263391
 40
0.1809997129263391
 40
0.1809997129263391
 10
1923.446730350907
 20
1639.902114767317
 30
0.0
 41
1.0
 10
1923.461425123068
 20
1639.856465136367
 30
0.0
 41
0.9174538780243487
 10
1923.438143768083
 20
1639.814538967394
 30
0.0
 41
1.0
 10
1923.414862413098
 20
1639.77261279842
 30
0.0
 41
0.9174538780243487
 10
1923.368344671732
 20
1639.760954116127
 30
0.0
 41
1.0
  0
SPLINE
  5
118
330
1F
100
AcDbEntity
  8
Predefinito
100
AcDbSpline
210
0.0
220
0.0
230
1.0
 70
    12
 71
     2
 72
     6
 73
     3
 74
     0
 42
0.0000000001
 43
0.0000000001
 40
0.0
 40
0.0
 40
0.0
 40
2.861251584971969
 40
2.861251584971969
 40
2.861251584971969
 10
1923.364429940199
 20
1639.719705307582
 30
0.0
 41
1.0
 10
1924.834135599131
 20
1639.65797238717
 30
0.0
 41
0.9593322386793826
 10
1926.03618958169
 20
1638.810085661025
 30
0.0
 41
1.0
  0
SPLINE
  5
119
330
1F
100
AcDbEntity
  8
Predefinito
100
AcDbSpline
210
0.0
220
0.0
230
1.0
 70
    12
 71
     2
 72
     6
 73
     3
 74
     0
 42
0.0000000001
 43
0.0000000001
 40
0.0
 40
0.0
 40
0.0
 40
2.458032092164077
 40
2.458032092164077
 40
2.458032092164077
 10
1842.273647522916
 20
1638.810776217077
 30
0.0
 41
1.0
 10
1843.299266746314
 20
1639.532731270317
 30
0.0
 41
0.9701066641751763
 10
1844.544013990738
 20
1639.686738373399
 30
0.0
 41
1.0
  0
SPLINE
  5
11A
330
1F
100
AcDbEntity
  8
Predefinito
100
AcDbSpline
210
0.0
220
0.0
230
1.0
 70
    12
 71
     2
 72
     8
 73
     5
 74
     0
 42
0.0000000001
 43
0.0000000001
 40
0.0
 40
0.0
 40
0.0
 40
83.30640115275637
 40
83.30640115275637
 40
166.6128023055127
 40
166.6128023055127
 40
166.6128023055127
 10
1926.154422074815
 20
1638.724104762932
 30
0.0
 41
1.0
 10
1964.0601591506
 20
1610.294795690318
 30
0.0
 41
0.828122884803091
 10
1951.751130489416
 20
1564.539377092921
 30
0.0
 41
1.0
 10
1939.442101828231
 20
1518.783958495525
 30
0.0
 41
0.828122884803091
 10
1892.388909495579
 20
1513.210125979986
 30
0.0
 41
1.0
  0
SPLINE
  5
11B
330
1F
100
AcDbEntity
  8
Predefinito
100
AcDbSpline
210
0.0
220
0.0
230
1.0
 70
    12
 71
     2
 72
     8
 73
     5
 74
     0
 42
0.0000000001
 43
0.0000000001
 40
0.0
 40
0.0
 40
0.0
 40
87.3457424510892
 40
87.3457424510892
 40
174.6914849021784
 40
174.6914849021784
 40
174.6914849021784
 10
1883.979522468041
 20
1512.724321733706
 30
0.0
 41
1.0
 10
1833.592955008717
 20
1512.85023213395
 30
0.0
 41
0.8116073523892149
 10
1817.719003276995
 20
1560.671144820565
 30
0.0
 41
1.0
 10
1801.845051545273
 20
1608.49205750718
 30
0.0
 41
0.8116073523892149
 10
1842.154422074815
 20
1638.724104762932
 30
0.0
 41
1.0
  0
SPLINE
  5
11C
330
1F
100
AcDbEntity
  8
Predefinito
100
AcDbSpline
210
0.0
220
0.0
230
1.0
 70
    24
 71
     2
 72
     6
 73
     3
 74
     0
 42
0.0000000001
 43
0.0000000001
 40
0.0
 40
0.0
 40
0.0
 40
4.0
 40
4.0
 40
4.0
 10
1886.510386913726
 20
1817.724104762932
 30
0.0
 10
1886.510386913726
 20
1819.724104762932
 30
0.0
 10
1886.510386913726
 20
1821.724104762932
 30
0.0
  0
SPLINE
  5
11D
330
1F
100
AcDbEntity
  8
Predefinito
100
AcDbSpline
210
0.0
220
0.0
230
1.0
 70
    24
 71
     2
 72
     6
 73
     3
 74
     0
 42
0.0000000001
 43
0.0000000001
 40
0.0
 40
0.0
 40
0.0
 40
4.0
 40
4.0
 40
4.0
 10
1881.798457235906
 20
1821.724104762932
 30
0.0
 10
1881.798457235906
 20
1819.724104762932
 30
0.0
 10
1881.798457235906
 20
1817.724104762932
 30
0.0
  0
SPLINE
  5
11E
330
1F
100
AcDbEntity
  8
Predefinito
100
AcDbSpline
210
0.0
220
0.0
230
1.0
 70
    24
 71
     2
 72
     6
 73
     3
 74
     0
 42
0.0000000001
 43
0.0000000001
 40
0.0
 40
0.0
 40
0.0
 40
136.1112954037176
 40
136.1112954037176
 40
136.1112954037176
 10
1952.210069776675
 20
2021.724104762932
 30
0.0
 10
1884.154422074816
 20
2021.724104762932
 30
0.0
 10
1816.098774372957
 20
2021.724104762932
 30
0.0
  0
SPLINE
  5
11F
330
1F
100
AcDbEntity
  8
Predefinito
100
AcDbSpline
210
0.0
220
0.0
230
1.0
 70
    12
 71
     2
 72
     8
 73
     5
 74
     0
 42
0.0000000001
 43
0.0000000001
 40
0.0
 40
0.0
 40
0.0
 40
0.2509938844029548
 40
0.2509938844029548
 40
0.5019877688059096
 40
0.5019877688059096
 40
0.5019877688059096
 10
1952.451781167882
 20
2049.421486802283
 30
0.0
 41
1.0
 10
1952.478124967572
 20
2049.555411247891
 30
0.0
 41
0.883445409159906
 10
1952.382033397407
 20
2049.652345055497
 30
0.0
 41
1.0
 10
1952.285941827242
 20
2049.749278863103
 30
0.0
 41
0.883445409159906
 10
1952.151792590963
 20
2049.724104762932
 30
0.0
 41
1.0
  0
SPLINE
  5
120
330
1F
100
AcDbEntity
  8
Predefinito
100
AcDbSpline
210
0.0
220
0.0
230
1.0
 70
    24
 71
     3
 72
     9
 73
     5
 74
     0
 42
0.0000000001
 43
0.0000000001
 40
0.0
 40
0.0
 40
0.0
 40
0.0
 40
0.0762537321054424
 40
136.6710016648126
 40
136.6710016648126
 40
136.6710016648126
 40
136.6710016648126
 10
1815.933286967281
 20
2049.421486802283
 30
0.0
 10
1815.818388975021
 20
2049.421486802285
 30
0.0
 10
1861.344302346356
 20
2049.421486802284
 30
0.0
 10
1906.929672172324
 20
2049.421486802284
 30
0.0
 10
1952.451781167882
 20
2049.421486802283
 30
0.0
  0
SPLINE
  5
121
330
1F
100
AcDbEntity
  8
Predefinito
100
AcDbSpline
210
0.0
220
0.0
230
1.0
 70
    24
 71
     2
 72
     6
 73
     3
 74
     0
 42
0.0000000001
 43
0.0000000001
 40
0.0
 40
0.0
 40
0.0
 40
135.9118369917483
 40
135.9118369917483
 40
135.9118369917483
 10
1952.151792590963
 20
2049.724104762932
 30
0.0
 10
1884.195874095089
 20
2049.724104762932
 30
0.0
 10
1816.239955599215
 20
2049.724104762932
 30
0.0
  0
SPLINE
  5
122
330
1F
100
AcDbEntity
  8
Predefinito
100
AcDbSpline
210
0.0
220
0.0
230
1.0
 70
    24
 71
     2
 72
     6
 73
     3
 74
     0
 42
0.0000000001
 43
0.0000000001
 40
0.0
 40
0.0
 40
0.0
 40
3.933221473666208
 40
3.933221473666208
 40
3.933221473666208
 10
1905.161398049525
 20
1725.004252723169
 30
0.0
 10
1903.194787312691
 20
1725.004252723169
 30
0.0
 10
1901.228176575858
 20
1725.004252723169
 30
0.0
  0
SPLINE
  5
123
330
1F
100
AcDbEntity
  8
Predefinito
100
AcDbSpline
210
0.0
220
0.0
230
1.0
 70
    24
 71
     2
 72
     6
 73
     3
 74
     0
 42
0.0000000001
 43
0.0000000001
 40
0.0
 40
0.0
 40
0.0
 40
3.441568789457961
 40
3.441568789457961
 40
3.441568789457961
 10
1905.161398049525
 20
1707.504252723169
 30
0.0
 10
1903.440613654796
 20
1707.504252723169
 30
0.0
 10
1901.719829260067
 20
1707.504252723169
 30
0.0
  0
SPLINE
  5
124
330
1F
100
AcDbEntity
  8
Predefinito
100
AcDbSpline
210
0.0
220
0.0
230
1.0
 70
    28
 71
     2
 72
     8
 73
     5
 74
     0
 42
0.0000000001
 43
0.0000000001
 40
-6.185010536754906
 40
-6.185010536754906
 40
-6.185010536754906
 40
-5.497787143782138
 40
-5.497787143782138
 40
0.0
 40
0.0
 40
0.0
 10
1908.602966838982
 20
1707.504252723169
 30
0.0
 41
0.9359296083845572
 10
1908.661398049525
 20
1707.50425272317
 30
0.0
 41
0.9633883476483184
 10
1908.661398049525
 20
1707.504252723169
 30
0.0
 41
1.0
 10
1908.661398049524
 20
1707.504252723169
 30
0.0
 41
0.7071067811865476
 10
1905.161398049525
 20
1707.504252723169
 30
0.0
 41
1.0
  0
SPLINE
  5
125
330
1F
100
AcDbEntity
  8
Predefinito
100
AcDbSpline
210
0.0
220
0.0
230
1.0
 70
    24
 71
     2
 72
     6
 73
     3
 74
     0
 42
0.0000000001
 43
0.0000000001
 40
0.0
 40
0.0
 40
0.0
 40
6.941568789457961
 40
6.941568789457961
 40
6.941568789457961
 10
1908.661398049525
 20
1724.504252723169
 30
0.0
 10
1905.190613654796
 20
1724.504252723169
 30
0.0
 10
1901.719829260067
 20
1724.504252723169
 30
0.0
  0
SPLINE
  5
126
330
1F
100
AcDbEntity
  8
Predefinito
100
AcDbSpline
210
0.0
220
0.0
230
1.0
 70
    12
 71
     2
 72
     8
 73
     5
 74
     0
 42
0.0000000001
 43
0.0000000001
 40
0.0
 40
0.0
 40
0.0
 40
0.0667785263335645
 40
0.0667785263335645
 40
6.349963833513151
 40
6.349963833513151
 40
6.349963833513151
 10
1901.228176575858
 20
1689.504252433777
 30
0.0
 41
1.0
 10
1901.194787312691
 20
1689.504252433777
 30
0.0
 41
1.0
 10
1901.161398049525
 20
1689.504252433776
 30
0.0
 41
1.0
 10
1901.161398049525
 20
1689.50425272317
 30
0.0
 41
0.7071067811865476
 10
1905.161398049525
 20
1689.504252723169
 30
0.0
 41
1.0
  0
SPLINE
  5
127
330
1F
100
AcDbEntity
  8
Predefinito
100
AcDbSpline
210
0.0
220
0.0
230
1.0
 70
    12
 71
     2
 72
     8
 73
     5
 74
     0
 42
0.0000000001
 43
0.0000000001
 40
0.0
 40
0.0
 40
0.0
 40
0.0667785263335645
 40
0.0667785263335645
 40
6.349963833513151
 40
6.349963833513151
 40
6.349963833513151
 10
1909.094619523191
 20
1707.004252672195
 30
0.0
 41
1.0
 10
1909.128008786358
 20
1707.004252672196
 30
0.0
 41
1.0
 10
1909.161398049525
 20
1707.004252672197
 30
0.0
 41
1.0
 10
1909.161398049525
 20
1707.004252723169
 30
0.0
 41
0.7071067811865476
 10
1905.161398049525
 20
1707.004252723169
 30
0.0
 41
1.0
  0
SPLINE
  5
128
330
1F
100
AcDbEntity
  8
Predefinito
100
AcDbSpline
210
0.0
220
0.0
230
1.0
 70
    24
 71
     2
 72
     6
 73
     3
 74
     0
 42
0.0000000001
 43
0.0000000001
 40
0.0
 40
0.0
 40
0.0
 40
3.933221473666435
 40
3.933221473666435
 40
3.933221473666435
 10
1905.161398049525
 20
1707.004252723169
 30
0.0
 10
1903.194787312691
 20
1707.004252723169
 30
0.0
 10
1901.228176575858
 20
1707.004252723169
 30
0.0
  0
SPLINE
  5
129
330
1F
100
AcDbEntity
  8
Predefinito
100
AcDbSpline
210
0.0
220
0.0
230
1.0
 70
    24
 71
     2
 72
     6
 73
     3
 74
     0
 42
0.0000000001
 43
0.0000000001
 40
0.0
 40
0.0
 40
0.0
 40
4.000000000000227
 40
4.000000000000227
 40
4.000000000000227
 10
1909.161398049525
 20
1689.504252723169
 30
0.0
 10
1907.161398049525
 20
1689.504252723169
 30
0.0
 10
1905.161398049525
 20
1689.504252723169
 30
0.0
  0
SPLINE
  5
12A
330
1F
100
AcDbEntity
  8
Predefinito
100
AcDbSpline
210
0.0
220
0.0
230
1.0
 70
    12
 71
     2
 72
     6
 73
     3
 74
     0
 42
0.0000000001
 43
0.0000000001
 40
0.0
 40
0.0
 40
0.0
 40
29.95990048806036
 40
29.95990048806036
 40
29.95990048806036
 10
1909.161398049525
 20
1689.504252723169
 30
0.0
 41
1.0
 10
1909.161398049525
 20
1672.430250287616
 30
0.0
 41
0.8257881871900934
 10
1893.25770455466
 20
1666.217835910688
 30
0.0
 41
1.0
  0
SPLINE
  5
12B
330
1F
100
AcDbEntity
  8
Predefinito
100
AcDbSpline
210
0.0
220
0.0
230
1.0
 70
    12
 71
     2
 72
     6
 73
     3
 74
     0
 42
0.0000000001
 43
0.0000000001
 40
0.0
 40
0.0
 40
0.0
 40
29.40863662901494
 40
29.40863662901494
 40
29.40863662901494
 10
1874.553866099805
 20
1666.424059270013
 30
0.0
 41
1.0
 10
1859.161398049525
 20
1672.831441811163
 30
0.0
 41
0.8319559116890841
 10
1859.161398049525
 20
1689.504252723169
 30
0.0
 41
1.0
  0
SPLINE
  5
12C
330
1F
100
AcDbEntity
  8
Predefinito
100
AcDbSpline
210
0.0
220
0.0
230
1.0
 70
    24
 71
     2
 72
     6
 73
     3
 74
     0
 42
0.0000000001
 43
0.0000000001
 40
0.0
 40
0.0
 40
0.0
 40
4.0
 40
4.0
 40
4.0
 10
1863.161398049525
 20
1689.504252723169
 30
0.0
 10
1861.161398049525
 20
1689.504252723169
 30
0.0
 10
1859.161398049525
 20
1689.504252723169
 30
0.0
  0
SPLINE
  5
12D
330
1F
100
AcDbEntity
  8
Predefinito
100
AcDbSpline
210
0.0
220
0.0
230
1.0
 70
    28
 71
     2
 72
     8
 73
     5
 74
     0
 42
0.0000000001
 43
0.0000000001
 40
-7.068583470577035
 40
-7.068583470577035
 40
-7.068583470577035
 40
-6.283185307179586
 40
-6.283185307179586
 40
0.0
 40
0.0
 40
0.0
 10
1867.094619523191
 20
1809.50425272317
 30
0.0
 41
0.9359296083845573
 10
1867.161398049524
 20
1809.504252723169
 30
0.0
 41
0.9633883476483185
 10
1867.161398049525
 20
1809.504252723169
 30
0.0
 41
1.0
 10
1867.161398049525
 20
1809.50425272317
 30
0.0
 41
0.7071067811865476
 10
1863.161398049525
 20
1809.504252723169
 30
0.0
 41
1.0
  0
SPLINE
  5
12E
330
1F
100
AcDbEntity
  8
Predefinito
100
AcDbSpline
210
0.0
220
0.0
230
1.0
 70
    24
 71
     2
 72
     6
 73
     3
 74
     0
 42
0.0000000001
 43
0.0000000001
 40
0.0
 40
0.0
 40
0.0
 40
3.933221473666435
 40
3.933221473666435
 40
3.933221473666435
 10
1863.161398049525
 20
1689.504252723169
 30
0.0
 10
1865.128008786358
 20
1689.504252723169
 30
0.0
 10
1867.094619523191
 20
1689.50425272317
 30
0.0
  0
SPLINE
  5
12F
330
1F
100
AcDbEntity
  8
Predefinito
100
AcDbSpline
210
0.0
220
0.0
230
1.0
 70
    24
 71
     2
 72
     6
 73
     3
 74
     0
 42
0.0000000001
 43
0.0000000001
 40
0.0
 40
0.0
 40
0.0
 40
4.0
 40
4.0
 40
4.0
 10
1859.161398049525
 20
1809.504252723169
 30
0.0
 10
1861.161398049525
 20
1809.504252723169
 30
0.0
 10
1863.161398049525
 20
1809.504252723169
 30
0.0
  0
SPLINE
  5
130
330
1F
100
AcDbEntity
  8
Predefinito
100
AcDbSpline
210
0.0
220
0.0
230
1.0
 70
    12
 71
     2
 72
     6
 73
     3
 74
     0
 42
0.0000000001
 43
0.0000000001
 40
0.0
 40
0.0
 40
0.0
 40
36.27985897047918
 40
36.27985897047918
 40
36.27985897047918
 10
1887.144323754158
 20
1834.325657885662
 30
0.0
 41
1.0
 10
1909.161398049524
 20
1831.679744150057
 30
0.0
 41
0.7481032776914339
 10
1909.161398049524
 20
1809.504252723169
 30
0.0
 41
1.0
  0
SPLINE
  5
131
330
1F
100
AcDbEntity
  8
Predefinito
100
AcDbSpline
210
0.0
220
0.0
230
1.0
 70
    12
 71
     2
 72
     6
 73
     3
 74
     0
 42
0.0000000001
 43
0.0000000001
 40
0.0
 40
0.0
 40
0.0
 40
36.04386531818617
 40
36.04386531818617
 40
36.04386531818617
 10
1859.161398049525
 20
1809.504252723169
 30
0.0
 41
1.0
 10
1859.161398049525
 20
1831.469784426716
 30
0.0
 41
0.7512269575264235
 10
1880.944300963804
 20
1834.296394347907
 30
0.0
 41
1.0
  0
SPLINE
  5
132
330
1F
100
AcDbEntity
  8
Predefinito
100
AcDbSpline
210
0.0
220
0.0
230
1.0
 70
    24
 71
     2
 72
     6
 73
     3
 74
     0
 42
0.0000000001
 43
0.0000000001
 40
0.0
 40
0.0
 40
0.0
 40
3.978094758534326
 40
3.978094758534326
 40
3.978094758534326
 10
1905.161398049525
 20
1809.504252723169
 30
0.0
 10
1903.172350670257
 20
1809.504252723169
 30
0.0
 10
1901.18330329099
 20
1809.504252723169
 30
0.0
  0
SPLINE
  5
133
330
1F
100
AcDbEntity
  8
Predefinito
100
AcDbSpline
210
0.0
220
0.0
230
1.0
 70
    24
 71
     2
 72
     6
 73
     3
 74
     0
 42
0.0000000001
 43
0.0000000001
 40
0.0
 40
0.0
 40
0.0
 40
4.0
 40
4.0
 40
4.0
 10
1909.161398049525
 20
1809.504252723169
 30
0.0
 10
1907.161398049525
 20
1809.504252723169
 30
0.0
 10
1905.161398049525
 20
1809.504252723169
 30
0.0
  0
SPLINE
  5
134
330
1F
100
AcDbEntity
  8
Predefinito
100
AcDbSpline
210
0.0
220
0.0
230
1.0
 70
    24
 71
     2
 72
     6
 73
     3
 74
     0
 42
0.0000000001
 43
0.0000000001
 40
0.0
 40
0.0
 40
0.0
 40
84.5
 40
84.5
 40
84.5
 10
1909.161398049525
 20
1809.504252723169
 30
0.0
 10
1909.161398049525
 20
1767.254252723169
 30
0.0
 10
1909.161398049525
 20
1725.004252723169
 30
0.0
  0
SPLINE
  5
135
330
1F
100
AcDbEntity
  8
Predefinito
100
AcDbSpline
210
0.0
220
0.0
230
1.0
 70
    24
 71
     2
 72
     6
 73
     3
 74
     0
 42
0.0000000001
 43
0.0000000001
 40
0.0
 40
0.0
 40
0.0
 40
3.933221473666208
 40
3.933221473666208
 40
3.933221473666208
 10
1905.161398049525
 20
1725.004252723169
 30
0.0
 10
1907.128008786358
 20
1725.004252723169
 30
0.0
 10
1909.094619523191
 20
1725.004252723169
 30
0.0
  0
SPLINE
  5
136
330
1F
100
AcDbEntity
  8
Predefinito
100
AcDbSpline
210
0.0
220
0.0
230
1.0
 70
     8
 71
     3
 72
    11
 73
     7
 74
     0
 42
0.0000000001
 43
0.0000000001
 40
0.0
 40
0.0
 40
0.0
 40
0.0
 40
0.0078907167307217
 40
3.273209302287519
 40
6.102837106733753
 40
12.24515135125059
 40
12.24515135125059
 40
12.24515135125059
 40
12.24515135125059
 10
1873.908062168
 20
1676.731265325861
 30
0.0
 10
1873.899727653027
 20
1676.742719995033
 30
0.0
 10
1874.454296652229
 20
1675.79620519214
 30
0.0
 10
1875.387312840392
 20
1673.998143423297
 30
0.0
 10
1876.180802814667
 20
1669.885829804902
 30
0.0
 10
1874.947289582245
 20
1666.986797647728
 30
0.0
 10
1873.907541312453
 20
1665.248159087915
 30
0.0
  0
SPLINE
  5
137
330
1F
100
AcDbEntity
  8
Predefinito
100
AcDbSpline
210
0.0
220
0.0
230
1.0
 70
     8
 71
     3
 72
    12
 73
     8
 74
     0
 42
0.0000000001
 43
0.0000000001
 40
0.0
 40
0.0
 40
0.0
 40
0.0
 40
1.901544386976644
 40
3.243966380509908
 40
6.017813817766304
 40
8.771368030358934
 40
12.18795157414047
 40
12.18795157414047
 40
12.18795157414047
 40
12.18795157414047
 10
1893.775098781385
 20
1665.289688840019
 30
0.0
 10
1893.456963713372
 20
1665.836876152524
 30
0.0
 10
1892.931379307541
 20
1666.785981165228
 30
0.0
 10
1892.169519942086
 20
1668.64158234728
 30
0.0
 10
1891.761841593933
 20
1670.929595482396
 30
0.0
 10
1892.272199034763
 20
1673.907326876198
 30
0.0
 10
1893.220620492067
 20
1675.753643980215
 30
0.0
 10
1893.800245865355
 20
1676.731265325861
 30
0.0
  0
SPLINE
  5
138
330
1F
100
AcDbEntity
  8
Predefinito
100
AcDbSpline
210
0.0
220
0.0
230
1.0
 70
    12
 71
     2
 72
     6
 73
     3
 74
     0
 42
0.0000000001
 43
0.0000000001
 40
0.0
 40
0.0
 40
0.0
 40
5.622294611527885
 40
5.622294611527885
 40
5.622294611527885
 10
1893.804154016678
 20
1680.990124419332
 30
0.0
 41
1.0
 10
1890.993006710914
 20
1680.990124134269
 30
0.0
 41
0.999999999999998
 10
1888.18185940515
 20
1680.990124203435
 30
0.0
 41
1.0
  0
SPLINE
  5
139
330
1F
100
AcDbEntity
  8
Predefinito
100
AcDbSpline
210
0.0
220
0.0
230
1.0
 70
    24
 71
     2
 72
     6
 73
     3
 74
     0
 42
0.0000000001
 43
0.0000000001
 40
0.0
 40
0.0
 40
0.0
 40
5.15981080386473
 40
5.15981080386473
 40
5.15981080386473
 10
1893.304154016678
 20
1681.490124654741
 30
0.0
 10
1890.724248614745
 20
1681.490124654741
 30
0.0
 10
1888.144343212813
 20
1681.490124654741
 30
0.0
  0
SPLINE
  5
13A
330
1F
100
AcDbEntity
  8
Predefinito
100
AcDbSpline
210
0.0
220
0.0
230
1.0
 70
    24
 71
     2
 72
     6
 73
     3
 74
     0
 42
0.0000000001
 43
0.0000000001
 40
0.0
 40
0.0
 40
0.0
 40
33.51036147537729
 40
33.51036147537729
 40
33.51036147537729
 10
1889.93636887553
 20
1639.902114767317
 30
0.0
 10
1906.691549613218
 20
1639.902114767317
 30
0.0
 10
1923.446730350907
 20
1639.902114767317
 30
0.0
  0
SPLINE
  5
13B
330
1F
100
AcDbEntity
  8
Predefinito
100
AcDbSpline
210
0.0
220
0.0
230
1.0
 70
    24
 71
     2
 72
     6
 73
     3
 74
     0
 42
0.0000000001
 43
0.0000000001
 40
0.0
 40
0.0
 40
0.0
 40
4.681728897653102
 40
4.681728897653102
 40
4.681728897653102
 10
1889.538830373647
 20
1651.490124655134
 30
0.0
 10
1891.879694822474
 20
1651.490124655134
 30
0.0
 10
1894.220559271301
 20
1651.490124655134
 30
0.0
  0
SPLINE
  5
13C
330
1F
100
AcDbEntity
  8
Predefinito
100
AcDbSpline
210
0.0
220
0.0
230
1.0
 70
    24
 71
     2
 72
     6
 73
     3
 74
     0
 42
0.0000000001
 43
0.0000000001
 40
0.0
 40
0.0
 40
0.0
 40
36.17956837905103
 40
36.17956837905103
 40
36.17956837905103
 10
1926.154422074815
 20
1638.724104762932
 30
0.0
 10
1908.06463788529
 20
1638.724104762932
 30
0.0
 10
1889.974853695764
 20
1638.724104762932
 30
0.0
  0
SPLINE
  5
13D
330
1F
100
AcDbEntity
  8
Predefinito
100
AcDbSpline
210
0.0
220
0.0
230
1.0
 70
    28
 71
     2
 72
     6
 73
     3
 74
     0
 42
0.0000000001
 43
0.0000000001
 40
0.3765607489510682
 40
0.3765607489510682
 40
0.3765607489510682
 40
1.506242995804273
 40
1.506242995804273
 40
1.506242995804273
 10
1886.585628181988
 20
1821.724104762933
 30
0.0
 41
0.8985840901285895
 10
1886.340759956063
 20
1821.724104762932
 30
0.0
 41
0.7971681802571791
 10
1886.780829340049
 20
1821.724104762932
 30
0.0
 41
1.0
  0
SPLINE
  5
13E
330
1F
100
AcDbEntity
  8
Predefinito
100
AcDbSpline
210
0.0
220
0.0
230
1.0
 70
    24
 71
     2
 72
     6
 73
     3
 74
     0
 42
0.0000000001
 43
0.0000000001
 40
0.0
 40
0.0
 40
0.0
 40
4.0
 40
4.0
 40
4.0
 10
1886.780829340049
 20
1817.724104762932
 30
0.0
 10
1886.780829340049
 20
1819.724104762932
 30
0.0
 10
1886.780829340049
 20
1821.724104762932
 30
0.0
  0
SPLINE
  5
13F
330
1F
100
AcDbEntity
  8
Predefinito
100
AcDbSpline
210
0.0
220
0.0
230
1.0
 70
    24
 71
     2
 72
     6
 73
     3
 74
     0
 42
0.0000000001
 43
0.0000000001
 40
0.0
 40
0.0
 40
0.0
 40
0.9520244325995009
 40
0.9520244325995009
 40
0.9520244325995009
 10
1886.780829340049
 20
1821.724104762932
 30
0.0
 10
1887.256841556349
 20
1821.724104762932
 30
0.0
 10
1887.732853772649
 20
1821.724104762932
 30
0.0
  0
SPLINE
  5
140
330
1F
100
AcDbEntity
  8
Predefinito
100
AcDbSpline
210
0.0
220
0.0
230
1.0
 70
    24
 71
     2
 72
     6
 73
     3
 74
     0
 42
0.0000000001
 43
0.0000000001
 40
0.0
 40
0.0
 40
0.0
 40
0.195201158061991
 40
0.195201158061991
 40
0.195201158061991
 10
1881.528014809582
 20
1821.724104762932
 30
0.0
 10
1881.625615388613
 20
1821.724104762932
 30
0.0
 10
1881.723215967644
 20
1821.724104762932
 30
0.0
  0
SPLINE
  5
141
330
1F
100
AcDbEntity
  8
Predefinito
100
AcDbSpline
210
0.0
220
0.0
230
1.0
 70
    24
 71
     2
 72
     6
 73
     3
 74
     0
 42
0.0000000001
 43
0.0000000001
 40
0.0
 40
0.0
 40
0.0
 40
0.195201158061991
 40
0.195201158061991
 40
0.195201158061991
 10
1886.780829340049
 20
1817.724104762932
 30
0.0
 10
1886.683228761018
 20
1817.724104762932
 30
0.0
 10
1886.585628181987
 20
1817.724104762932
 30
0.0
  0
SPLINE
  5
142
330
1F
100
AcDbEntity
  8
Predefinito
100
AcDbSpline
210
0.0
220
0.0
230
1.0
 70
    24
 71
     2
 72
     6
 73
     3
 74
     0
 42
0.0000000001
 43
0.0000000001
 40
0.0
 40
0.0
 40
0.0
 40
0.9510778477763324
 40
0.9510778477763324
 40
0.9510778477763324
 10
1887.731907187826
 20
1817.724104762933
 30
0.0
 10
1887.256368263937
 20
1817.724104762933
 30
0.0
 10
1886.780829340049
 20
1817.724104762932
 30
0.0
  0
SPLINE
  5
143
330
1F
100
AcDbEntity
  8
Predefinito
100
AcDbSpline
210
0.0
220
0.0
230
1.0
 70
    28
 71
     2
 72
     6
 73
     3
 74
     0
 42
0.0000000001
 43
0.0000000001
 40
0.3765607489510647
 40
0.3765607489510647
 40
0.3765607489510647
 40
1.506242995804259
 40
1.506242995804259
 40
1.506242995804259
 10
1881.723215967645
 20
1817.724104762933
 30
0.0
 41
0.8985840901285913
 10
1881.968084193568
 20
1817.724104762932
 30
0.0
 41
0.7971681802571826
 10
1881.528014809582
 20
1817.724104762932
 30
0.0
 41
1.0
  0
SPLINE
  5
144
330
1F
100
AcDbEntity
  8
Predefinito
100
AcDbSpline
210
0.0
220
0.0
230
1.0
 70
    24
 71
     2
 72
     6
 73
     3
 74
     0
 42
0.0000000001
 43
0.0000000001
 40
0.0
 40
0.0
 40
0.0
 40
4.0
 40
4.0
 40
4.0
 10
1881.528014809582
 20
1821.724104762932
 30
0.0
 10
1881.528014809582
 20
1819.724104762932
 30
0.0
 10
1881.528014809582
 20
1817.724104762932
 30
0.0
  0
SPLINE
  5
145
330
1F
100
AcDbEntity
  8
Predefinito
100
AcDbSpline
210
0.0
220
0.0
230
1.0
 70
    24
 71
     2
 72
     6
 73
     3
 74
     0
 42
0.0000000001
 43
0.0000000001
 40
0.0
 40
0.0
 40
0.0
 40
0.9111012604157622
 40
0.9111012604157622
 40
0.9111012604157622
 10
1880.616913549166
 20
1821.724104762932
 30
0.0
 10
1881.072464179374
 20
1821.724104762932
 30
0.0
 10
1881.528014809582
 20
1821.724104762932
 30
0.0
  0
SPLINE
  5
146
330
1F
100
AcDbEntity
  8
Predefinito
100
AcDbSpline
210
0.0
220
0.0
230
1.0
 70
    24
 71
     2
 72
     6
 73
     3
 74
     0
 42
0.0000000001
 43
0.0000000001
 40
0.0
 40
0.0
 40
0.0
 40
0.863452200614347
 40
0.863452200614347
 40
0.863452200614347
 10
1881.528014809582
 20
1817.724104762932
 30
0.0
 10
1881.096288709275
 20
1817.724104762932
 30
0.0
 10
1880.664562608968
 20
1817.724104762932
 30
0.0
  0
SPLINE
  5
147
330
1F
100
AcDbEntity
  8
Predefinito
100
AcDbSpline
210
0.0
220
0.0
230
1.0
 70
    24
 71
     2
 72
     6
 73
     3
 74
     0
 42
0.0000000001
 43
0.0000000001
 40
0.0
 40
0.0
 40
0.0
 40
10.82404730218832
 40
10.82404730218832
 40
10.82404730218832
 10
1887.754422074815
 20
1814.312081111838
 30
0.0
 10
1887.754422074815
 20
1819.724104762932
 30
0.0
 10
1887.754422074815
 20
1825.136128414027
 30
0.0
  0
SPLINE
  5
148
330
1F
100
AcDbEntity
  8
Predefinito
100
AcDbSpline
210
0.0
220
0.0
230
1.0
 70
    12
 71
     2
 72
     6
 73
     3
 74
     0
 42
0.0000000001
 43
0.0000000001
 40
0.0
 40
0.0
 40
0.0
 40
0.296292749167593
 40
0.296292749167593
 40
0.296292749167593
 10
1880.55455682218
 20
1825.421171657614
 30
0.0
 41
1.0
 10
1880.555673803799
 20
1825.569353234776
 30
0.0
 41
0.9996010987486774
 10
1880.565155725069
 20
1825.71723535211
 30
0.0
 41
1.0
  0
SPLINE
  5
149
330
1F
100
AcDbEntity
  8
Predefinito
100
AcDbSpline
210
0.0
220
0.0
230
1.0
 70
    24
 71
     2
 72
     6
 73
     3
 74
     0
 42
0.0000000001
 43
0.0000000001
 40
0.0
 40
0.0
 40
0.0
 40
0.2196068564946927
 40
0.2196068564946927
 40
0.2196068564946927
 10
1880.554422074816
 20
1825.16457558664
 30
0.0
 10
1880.554422074816
 20
1825.274379014887
 30
0.0
 10
1880.554422074816
 20
1825.384182443134
 30
0.0
  0
SPLINE
  5
14A
330
1F
100
AcDbEntity
  8
Predefinito
100
AcDbSpline
210
0.0
220
0.0
230
1.0
 70
    24
 71
     2
 72
     6
 73
     3
 74
     0
 42
0.0000000001
 43
0.0000000001
 40
0.0
 40
0.0
 40
0.0
 40
0.2196068564946927
 40
0.2196068564946927
 40
0.2196068564946927
 10
1880.554422074816
 20
1814.064027082731
 30
0.0
 10
1880.554422074816
 20
1814.173830510978
 30
0.0
 10
1880.554422074816
 20
1814.283633939225
 30
0.0
  0
SPLINE
  5
14B
330
1F
100
AcDbEntity
  8
Predefinito
100
AcDbSpline
210
0.0
220
0.0
230
1.0
 70
    12
 71
     2
 72
     6
 73
     3
 74
     0
 42
0.0000000001
 43
0.0000000001
 40
0.0
 40
0.0
 40
0.0
 40
0.302021070679853
 40
0.302021070679853
 40
0.302021070679853
 10
1880.56552384635
 20
1813.725257693038
 30
0.0
 41
1.0
 10
1880.555696901425
 20
1813.875989935508
 30
0.0
 41
0.9995859574121019
 10
1880.55455682218
 20
1814.027037868251
 30
0.0
 41
1.0
  0
SPLINE
  5
14C
330
1F
100
AcDbEntity
  8
Predefinito
100
AcDbSpline
210
0.0
220
0.0
230
1.0
 70
    24
 71
     2
 72
     6
 73
     3
 74
     0
 42
0.0000000001
 43
0.0000000001
 40
0.0
 40
0.0
 40
0.0
 40
0.2196068564946927
 40
0.2196068564946927
 40
0.2196068564946927
 10
1887.754422074816
 20
1825.384182443134
 30
0.0
 10
1887.754422074815
 20
1825.274379014887
 30
0.0
 10
1887.754422074815
 20
1825.16457558664
 30
0.0
  0
SPLINE
  5
14D
330
1F
100
AcDbEntity
  8
Predefinito
100
AcDbSpline
210
0.0
220
0.0
230
1.0
 70
    12
 71
     2
 72
     6
 73
     3
 74
     0
 42
0.0000000001
 43
0.0000000001
 40
0.0
 40
0.0
 40
0.0
 40
0.3020216448817353
 40
0.3020216448817353
 40
0.3020216448817353
 10
1887.743320266077
 20
1825.722952405822
 30
0.0
 41
1.0
 10
1887.753147245887
 20
1825.572219877682
 30
0.0
 41
0.9995859558809514
 10
1887.754287327452
 20
1825.421171657614
 30
0.0
 41
1.0
  0
SPLINE
  5
14E
330
1F
100
AcDbEntity
  8
Predefinito
100
AcDbSpline
210
0.0
220
0.0
230
1.0
 70
    12
 71
     2
 72
     6
 73
     3
 74
     0
 42
0.0000000001
 43
0.0000000001
 40
0.0
 40
0.0
 40
0.0
 40
0.3037806245911341
 40
0.3037806245911341
 40
0.3037806245911341
 10
1887.754287327452
 20
1814.027037868251
 30
0.0
 41
1.0
 10
1887.753140136633
 20
1813.875109467459
 30
0.0
 41
0.9995812530274546
 10
1887.743206009242
 20
1813.723501855093
 30
0.0
 41
1.0
  0
SPLINE
  5
14F
330
1F
100
AcDbEntity
  8
Predefinito
100
AcDbSpline
210
0.0
220
0.0
230
1.0
 70
    24
 71
     2
 72
     6
 73
     3
 74
     0
 42
0.0000000001
 43
0.0000000001
 40
0.0
 40
0.0
 40
0.0
 40
0.2196068564946927
 40
0.2196068564946927
 40
0.2196068564946927
 10
1887.754422074815
 20
1814.283633939225
 30
0.0
 10
1887.754422074815
 20
1814.173830510978
 30
0.0
 10
1887.754422074816
 20
1814.064027082731
 30
0.0
  0
SPLINE
  5
150
330
1F
100
AcDbEntity
  8
Predefinito
100
AcDbSpline
210
0.0
220
0.0
230
1.0
 70
    12
 71
     2
 72
     8
 73
     5
 74
     0
 42
0.0000000001
 43
0.0000000001
 40
0.0
 40
0.0
 40
0.0
 40
6.394828723899568
 40
6.394828723899568
 40
12.78965744779917
 40
12.78965744779917
 40
12.78965744779917
 10
1887.754422074815
 20
1825.136128414027
 30
0.0
 41
1.0
 10
1890.654422074816
 20
1823.207090280963
 30
0.0
 41
0.8814324006541969
 10
1890.654422074816
 20
1819.724104762932
 30
0.0
 41
1.0
 10
1890.654422074817
 20
1816.241119244902
 30
0.0
 41
0.8814324006541864
 10
1887.754422074815
 20
1814.312081111838
 30
0.0
 41
1.0
  0
SPLINE
  5
151
330
1F
100
AcDbEntity
  8
Predefinito
100
AcDbSpline
210
0.0
220
0.0
230
1.0
 70
    12
 71
     2
 72
     6
 73
     3
 74
     0
 42
0.0000000001
 43
0.0000000001
 40
0.0
 40
0.0
 40
0.0
 40
0.4412790997418284
 40
0.4412790997418284
 40
0.4412790997418284
 10
1880.554422074816
 20
1825.727437170854
 30
0.0
 41
1.0
 10
1880.741120392742
 20
1825.845421919073
 30
0.0
 41
0.9985414686216186
 10
1880.939451728494
 20
1825.942588497629
 30
0.0
 41
1.0
  0
SPLINE
  5
152
330
1F
100
AcDbEntity
  8
Predefinito
100
AcDbSpline
210
0.0
220
0.0
230
1.0
 70
    12
 71
     2
 72
     8
 73
     5
 74
     0
 42
0.0000000001
 43
0.0000000001
 40
0.0
 40
0.0
 40
0.0
 40
7.214289596397366
 40
7.214289596397366
 40
14.42795200969052
 40
14.42795200969052
 40
14.42795200969052
 10
1880.554368303094
 20
1813.720804600462
 30
0.0
 41
1.0
 10
1877.154422074816
 20
1815.759681370157
 30
0.0
 41
0.8701417688975931
 10
1877.154422074816
 20
1819.724104762932
 30
0.0
 41
1.0
 10
1877.154422074816
 20
1823.688113990795
 30
0.0
 41
0.8701638449361024
 10
1880.55383043634
 20
1825.727082345178
 30
0.0
 41
1.0
  0
SPLINE
  5
153
330
1F
100
AcDbEntity
  8
Predefinito
100
AcDbSpline
210
0.0
220
0.0
230
1.0
 70
    12
 71
     2
 72
     6
 73
     3
 74
     0
 42
0.0000000001
 43
0.0000000001
 40
0.0
 40
0.0
 40
0.0
 40
0.7092835373365375
 40
0.7092835373365375
 40
0.7092835373365375
 10
1887.754422074816
 20
1813.720772355011
 30
0.0
 41
1.0
 10
1887.452657545749
 20
1813.533500133496
 30
0.0
 41
0.9978477551684476
 10
1887.128980850365
 20
1813.387328615
 30
0.0
 41
1.0
  0
SPLINE
  5
154
330
1F
100
AcDbEntity
  8
Predefinito
100
AcDbSpline
210
0.0
220
0.0
230
1.0
 70
    12
 71
     2
 72
     8
 73
     5
 74
     0
 42
0.0000000001
 43
0.0000000001
 40
0.0
 40
0.0
 40
0.0
 40
7.221203833973402
 40
7.221203833973402
 40
14.44177681890256
 40
14.44177681890256
 40
14.44177681890256
 10
1887.754475819256
 20
1825.727404941762
 30
0.0
 41
1.0
 10
1891.158339004884
 20
1823.686179275554
 30
0.0
 41
0.8698982808932837
 10
1891.154418660085
 20
1819.717190558292
 30
0.0
 41
1.0
 10
1891.150498726996
 20
1815.748618659735
 30
0.0
 41
0.8699205053250209
 10
1887.743151009117
 20
1813.714027838623
 30
0.0
 41
1.0
  0
SPLINE
  5
155
330
1F
100
AcDbEntity
  8
Predefinito
100
AcDbSpline
210
0.0
220
0.0
230
1.0
 70
    12
 71
     2
 72
     6
 73
     3
 74
     0
 42
0.0000000001
 43
0.0000000001
 40
0.0
 40
0.0
 40
0.0
 40
0.6976794358840303
 40
0.6976794358840303
 40
0.6976794358840303
 10
1887.139469734495
 20
1826.055919866109
 30
0.0
 41
1.0
 10
1887.457669512129
 20
1825.91175418033
 30
0.0
 41
0.9978752835755296
 10
1887.754422074816
 20
1825.727437170854
 30
0.0
 41
1.0
  0
SPLINE
  5
156
330
1F
100
AcDbEntity
  8
Predefinito
100
AcDbSpline
210
0.0
220
0.0
230
1.0
 70
    12
 71
     2
 72
     8
 73
     5
 74
     0
 42
0.0000000001
 43
0.0000000001
 40
0.0
 40
0.0
 40
0.0
 40
6.394828723899352
 40
6.394828723899352
 40
12.78965744779886
 40
12.78965744779886
 40
12.78965744779886
 10
1880.554422074816
 20
1814.312081111838
 30
0.0
 41
1.0
 10
1877.654422074816
 20
1816.241119244902
 30
0.0
 41
0.881432400654207
 10
1877.654422074816
 20
1819.724104762932
 30
0.0
 41
1.0
 10
1877.654422074815
 20
1823.207090280964
 30
0.0
 41
0.8814324006541653
 10
1880.554422074816
 20
1825.136128414027
 30
0.0
 41
1.0
  0
SPLINE
  5
157
330
1F
100
AcDbEntity
  8
Predefinito
100
AcDbSpline
210
0.0
220
0.0
230
1.0
 70
    24
 71
     2
 72
     6
 73
     3
 74
     0
 42
0.0000000001
 43
0.0000000001
 40
0.0
 40
0.0
 40
0.0
 40
10.82404730218832
 40
10.82404730218832
 40
10.82404730218832
 10
1880.554422074816
 20
1825.136128414027
 30
0.0
 10
1880.554422074816
 20
1819.724104762932
 30
0.0
 10
1880.554422074816
 20
1814.312081111838
 30
0.0
  0
SPLINE
  5
158
330
1F
100
AcDbEntity
  8
Predefinito
100
AcDbSpline
210
0.0
220
0.0
230
1.0
 70
    15
 71
     2
 72
    12
 73
     9
 74
     0
 42
0.0000000001
 43
0.0000000001
 40
0.0
 40
0.0
 40
0.0
 40
107.281074636804
 40
107.281074636804
 40
214.5621492736081
 40
214.5621492736081
 40
321.8432239104121
 40
321.8432239104121
 40
429.1242985472162
 40
429.1242985472162
 40
429.1242985472162
 10
1952.451798217896
 20
68.29692016464469
 30
0.0
 41
1.0
 10
1952.451465046757
 20
-0.0003331491743474
 30
0.0
 41
0.7071067811865476
 10
1884.154211732938
 20
0.000000021965036
 30
0.0
 41
1.0
 10
1815.856958419118
 20
0.0003331931044397
 30
0.0
 41
0.7071067811865476
 10
1815.857291590258
 20
68.29758650692348
 30
0.0
 41
1.0
 10
1815.857624761397
 20
136.5948398207425
 30
0.0
 41
0.7071067811865476
 10
1884.154878075216
 20
136.5945066496031
 30
0.0
 41
1.0
 10
1952.452131389035
 20
136.5941734784637
 30
0.0
 41
0.7071067811865476
 10
1952.451798217896
 20
68.29692016464469
 30
0.0
 41
1.0
  0
SPLINE
  5
159
330
1F
100
AcDbEntity
  8
Predefinito
100
AcDbSpline
210
0.0
220
0.0
230
1.0
 70
    24
 71
     2
 72
     6
 73
     3
 74
     0
 42
0.0000000001
 43
0.0000000001
 40
0.0
 40
0.0
 40
0.0
 40
41.9999998880387
 40
41.9999998880387
 40
41.9999998880387
 10
1905.161415057846
 20
801.3969201646448
 30
0.0
 10
1884.161415113827
 20
801.3969201646448
 30
0.0
 10
1863.161415169807
 20
801.3969201646448
 30
0.0
  0
SPLINE
  5
15A
330
1F
100
AcDbEntity
  8
Predefinito
100
AcDbSpline
210
0.0
220
0.0
230
1.0
 70
    24
 71
     2
 72
     6
 73
     3
 74
     0
 42
0.0000000001
 43
0.0000000001
 40
0.0
 40
0.0
 40
0.0
 40
41.9999999850852
 40
41.9999999850852
 40
41.9999999850852
 10
1863.161415101685
 20
809.3969201646448
 30
0.0
 10
1884.161415094228
 20
809.3969201646448
 30
0.0
 10
1905.16141508677
 20
809.3969201646448
 30
0.0
  0
SPLINE
  5
15B
330
1F
100
AcDbEntity
  8
Predefinito
100
AcDbSpline
210
0.0
220
0.0
230
1.0
 70
    12
 71
     2
 72
     8
 73
     5
 74
     0
 42
0.0000000001
 43
0.0000000001
 40
0.0
 40
0.0
 40
0.0
 40
102.9440497427013
 40
102.9440497427013
 40
205.8880994854026
 40
205.8880994854026
 40
205.8880994854026
 10
1877.154439124271
 20
735.6477637215838
 30
0.0
 41
1.0
 10
1814.15444473781
 20
741.9795529910449
 30
0.0
 41
0.7416201206661378
 10
1814.15444473781
 20
805.2969348703285
 30
0.0
 41
1.0
 10
1814.15444473781
 20
868.6143167496117
 30
0.0
 41
0.7416201206661378
 10
1877.154439124271
 20
874.946106019073
 30
0.0
 41
1.0
  0
SPLINE
  5
15C
330
1F
100
AcDbEntity
  8
Predefinito
100
AcDbSpline
210
0.0
220
0.0
230
1.0
 70
    12
 71
     2
 72
     8
 73
     5
 74
     0
 42
0.0000000001
 43
0.0000000001
 40
0.0
 40
0.0
 40
0.0
 40
102.9440266347133
 40
102.9440266347133
 40
205.8880532694266
 40
205.8880532694266
 40
205.8880532694266
 10
1891.154439124271
 20
874.9460617117497
 30
0.0
 41
1.0
 10
1954.154445579801
 20
868.614333442578
 30
0.0
 41
0.7416197927567114
 10
1954.154445579801
 20
805.2969456547713
 30
0.0
 41
1.0
 10
1954.154445579801
 20
741.9795578669647
 30
0.0
 41
0.7416197927567114
 10
1891.154439124271
 20
735.6478295977931
 30
0.0
 41
1.0
  0
SPLINE
  5
15D
330
1F
100
AcDbEntity
  8
Predefinito
100
AcDbSpline
210
0.0
220
0.0
230
1.0
 70
    24
 71
     2
 72
     6
 73
     3
 74
     0
 42
0.0000000001
 43
0.0000000001
 40
0.0
 40
0.0
 40
0.0
 40
423.7401158889066
 40
423.7401158889066
 40
423.7401158889066
 10
1891.154439124271
 20
559.973936818435
 30
0.0
 10
1891.154439124271
 20
348.1038788739818
 30
0.0
 10
1891.154439124271
 20
136.2338209295285
 30
0.0
  0
SPLINE
  5
15E
330
1F
100
AcDbEntity
  8
Predefinito
100
AcDbSpline
210
0.0
220
0.0
230
1.0
 70
    24
 71
     2
 72
     6
 73
     3
 74
     0
 42
0.0000000001
 43
0.0000000001
 40
0.0
 40
0.0
 40
0.0
 40
8.477016653790315
 40
8.477016653790315
 40
8.477016653790315
 10
1891.154439124271
 20
576.1969201646448
 30
0.0
 10
1891.154439124271
 20
571.9584118377496
 30
0.0
 10
1891.154439124271
 20
567.7199035108545
 30
0.0
  0
SPLINE
  5
15F
330
1F
100
AcDbEntity
  8
Predefinito
100
AcDbSpline
210
0.0
220
0.0
230
1.0
 70
    24
 71
     2
 72
     6
 73
     3
 74
     0
 42
0.0000000001
 43
0.0000000001
 40
0.0
 40
0.0
 40
0.0
 40
0.2002085020604141
 40
0.2002085020604141
 40
0.2002085020604141
 10
1877.212870334813
 20
901.2553513751868
 30
0.0
 10
1877.283654729542
 20
901.3261357699158
 30
0.0
 10
1877.354439124271
 20
901.3969201646448
 30
0.0
  0
SPLINE
  5
160
330
1F
100
AcDbEntity
  8
Predefinito
100
AcDbSpline
210
0.0
220
0.0
230
1.0
 70
    24
 71
     2
 72
     6
 73
     3
 74
     0
 42
0.0000000001
 43
0.0000000001
 40
0.0
 40
0.0
 40
0.0
 40
0.2002085020604141
 40
0.2002085020604141
 40
0.2002085020604141
 10
1890.954439124271
 20
901.3969201646448
 30
0.0
 10
1891.025223519
 20
901.3261357699158
 30
0.0
 10
1891.096007913729
 20
901.2553513751868
 30
0.0
  0
SPLINE
  5
161
330
1F
100
AcDbEntity
  8
Predefinito
100
AcDbSpline
210
0.0
220
0.0
230
1.0
 70
    24
 71
     2
 72
     6
 73
     3
 74
     0
 42
0.0000000001
 43
0.0000000001
 40
0.0
 40
0.0
 40
0.0
 40
2.800000000000068
 40
2.800000000000068
 40
2.800000000000068
 10
1891.154439124271
 20
904.3969201646448
 30
0.0
 10
1891.154439124271
 20
902.9969201646447
 30
0.0
 10
1891.154439124271
 20
901.5969201646448
 30
0.0
  0
SPLINE
  5
162
330
1F
100
AcDbEntity
  8
Predefinito
100
AcDbSpline
210
0.0
220
0.0
230
1.0
 70
    24
 71
     2
 72
     6
 73
     3
 74
     0
 42
0.0000000001
 43
0.0000000001
 40
0.0
 40
0.0
 40
0.0
 40
2.800000000000068
 40
2.800000000000068
 40
2.800000000000068
 10
1877.154439124271
 20
901.5969201646448
 30
0.0
 10
1877.154439124271
 20
902.9969201646447
 30
0.0
 10
1877.154439124271
 20
904.3969201646448
 30
0.0
  0
SPLINE
  5
163
330
1F
100
AcDbEntity
  8
Predefinito
100
AcDbSpline
210
0.0
220
0.0
230
1.0
 70
    24
 71
     2
 72
     6
 73
     3
 74
     0
 42
0.0000000001
 43
0.0000000001
 40
0.0
 40
0.0
 40
0.0
 40
0.6244725707720371
 40
0.6244725707720371
 40
0.6244725707720371
 10
1877.212870334813
 20
904.4553513751868
 30
0.0
 10
1877.433654729542
 20
904.6761357699158
 30
0.0
 10
1877.654439124271
 20
904.8969201646448
 30
0.0
  0
SPLINE
  5
164
330
1F
100
AcDbEntity
  8
Predefinito
100
AcDbSpline
210
0.0
220
0.0
230
1.0
 70
    24
 71
     2
 72
     6
 73
     3
 74
     0
 42
0.0000000001
 43
0.0000000001
 40
0.0
 40
0.0
 40
0.0
 40
0.6244725707720371
 40
0.6244725707720371
 40
0.6244725707720371
 10
1890.654439124271
 20
904.8969201646448
 30
0.0
 10
1890.875223519
 20
904.6761357699158
 30
0.0
 10
1891.096007913729
 20
904.4553513751868
 30
0.0
  0
SPLINE
  5
165
330
1F
100
AcDbEntity
  8
Predefinito
100
AcDbSpline
210
0.0
220
0.0
230
1.0
 70
    24
 71
     2
 72
     6
 73
     3
 74
     0
 42
0.0000000001
 43
0.0000000001
 40
0.0
 40
0.0
 40
0.0
 40
0.2002085020604945
 40
0.2002085020604945
 40
0.2002085020604945
 10
1877.354439124271
 20
901.3969201646448
 30
0.0
 10
1877.283654729542
 20
901.4677045593739
 30
0.0
 10
1877.212870334813
 20
901.538488954103
 30
0.0
  0
SPLINE
  5
166
330
1F
100
AcDbEntity
  8
Predefinito
100
AcDbSpline
210
0.0
220
0.0
230
1.0
 70
    24
 71
     2
 72
     6
 73
     3
 74
     0
 42
0.0000000001
 43
0.0000000001
 40
0.0
 40
0.0
 40
0.0
 40
0.2002085020604945
 40
0.2002085020604945
 40
0.2002085020604945
 10
1891.096007913729
 20
901.538488954103
 30
0.0
 10
1891.025223519
 20
901.4677045593739
 30
0.0
 10
1890.954439124271
 20
901.3969201646448
 30
0.0
  0
SPLINE
  5
167
330
1F
100
AcDbEntity
  8
Predefinito
100
AcDbSpline
210
0.0
220
0.0
230
1.0
 70
    24
 71
     2
 72
     6
 73
     3
 74
     0
 42
0.0000000001
 43
0.0000000001
 40
0.0
 40
0.0
 40
0.0
 40
225.2000000000008
 40
225.2000000000008
 40
225.2000000000008
 10
1891.154439124271
 20
801.3969201646456
 30
0.0
 10
1891.154439124271
 20
688.7969201646451
 30
0.0
 10
1891.154439124271
 20
576.1969201646448
 30
0.0
  0
SPLINE
  5
168
330
1F
100
AcDbEntity
  8
Predefinito
100
AcDbSpline
210
0.0
220
0.0
230
1.0
 70
    24
 71
     2
 72
     6
 73
     3
 74
     0
 42
0.0000000001
 43
0.0000000001
 40
0.0
 40
0.0
 40
0.0
 40
75.57701665379068
 40
75.57701665379068
 40
75.57701665379068
 10
1891.154439124271
 20
884.9739368184354
 30
0.0
 10
1891.154439124271
 20
847.18542849154
 30
0.0
 10
1891.154439124271
 20
809.3969201646447
 30
0.0
  0
SPLINE
  5
169
330
1F
100
AcDbEntity
  8
Predefinito
100
AcDbSpline
210
0.0
220
0.0
230
1.0
 70
    24
 71
     2
 72
     6
 73
     3
 74
     0
 42
0.0000000001
 43
0.0000000001
 40
0.0
 40
0.0
 40
0.0
 40
8.477016653790315
 40
8.477016653790315
 40
8.477016653790315
 10
1891.154439124271
 20
901.1969201646448
 30
0.0
 10
1891.154439124271
 20
896.9584118377496
 30
0.0
 10
1891.154439124271
 20
892.7199035108545
 30
0.0
  0
SPLINE
  5
16A
330
1F
100
AcDbEntity
  8
Predefinito
100
AcDbSpline
210
0.0
220
0.0
230
1.0
 70
    24
 71
     2
 72
     6
 73
     3
 74
     0
 42
0.0000000001
 43
0.0000000001
 40
0.0
 40
0.0
 40
0.0
 40
8.477016653790315
 40
8.477016653790315
 40
8.477016653790315
 10
1877.154439124271
 20
892.7199035108545
 30
0.0
 10
1877.154439124271
 20
896.9584118377496
 30
0.0
 10
1877.154439124271
 20
901.1969201646448
 30
0.0
  0
SPLINE
  5
16B
330
1F
100
AcDbEntity
  8
Predefinito
100
AcDbSpline
210
0.0
220
0.0
230
1.0
 70
    24
 71
     2
 72
     6
 73
     3
 74
     0
 42
0.0000000001
 43
0.0000000001
 40
0.0
 40
0.0
 40
0.0
 40
75.57701665378966
 40
75.57701665378966
 40
75.57701665378966
 10
1877.154439124271
 20
809.3969201646454
 30
0.0
 10
1877.154439124271
 20
847.1854284915403
 30
0.0
 10
1877.154439124271
 20
884.973936818435
 30
0.0
  0
SPLINE
  5
16C
330
1F
100
AcDbEntity
  8
Predefinito
100
AcDbSpline
210
0.0
220
0.0
230
1.0
 70
    24
 71
     2
 72
     6
 73
     3
 74
     0
 42
0.0000000001
 43
0.0000000001
 40
0.0
 40
0.0
 40
0.0
 40
225.2
 40
225.2
 40
225.2
 10
1877.154439124271
 20
576.1969201646448
 30
0.0
 10
1877.154439124271
 20
688.7969201646448
 30
0.0
 10
1877.154439124271
 20
801.3969201646448
 30
0.0
  0
SPLINE
  5
16D
330
1F
100
AcDbEntity
  8
Predefinito
100
AcDbSpline
210
0.0
220
0.0
230
1.0
 70
    15
 71
     2
 72
    12
 73
     9
 74
     0
 42
0.0000000001
 43
0.0000000001
 40
0.0
 40
0.0
 40
0.0
 40
106.8100431602582
 40
106.8100431602582
 40
213.6200863205163
 40
213.6200863205163
 40
320.4301294807745
 40
320.4301294807745
 40
427.2401726410326
 40
427.2401726410326
 40
427.2401726410326
 10
1952.151809640418
 20
68.2969201646448
 30
0.0
 41
1.0
 10
1952.151827404124
 20
0.2995348013920484
 30
0.0
 41
0.7071067811865476
 10
1884.154442040872
 20
0.2995170376859733
 30
0.0
 41
1.0
 10
1816.157056677619
 20
0.2994992739798982
 30
0.0
 41
0.7071067811865476
 10
1816.157038913913
 20
68.29688463723265
 30
0.0
 41
1.0
 10
1816.157021150207
 20
136.2942700004854
 30
0.0
 41
0.7071067811865476
 10
1884.154406513459
 20
136.2942877641915
 30
0.0
 41
1.0
 10
1952.151791876712
 20
136.2943055278976
 30
0.0
 41
0.7071067811865476
 10
1952.151809640418
 20
68.2969201646448
 30
0.0
 41
1.0
  0
SPLINE
  5
16E
330
1F
100
AcDbEntity
  8
Predefinito
100
AcDbSpline
210
0.0
220
0.0
230
1.0
 70
    12
 71
     2
 72
     6
 73
     3
 74
     0
 42
0.0000000001
 43
0.0000000001
 40
0.0
 40
0.0
 40
0.0
 40
6.283185307179602
 40
6.283185307179602
 40
6.283185307179602
 10
1859.16141509898
 20
805.3969201646448
 30
0.0
 41
1.0
 10
1859.16141509898
 20
809.3969201646447
 30
0.0
 41
0.7071067811865777
 10
1863.16141509898
 20
809.3969201646449
 30
0.0
 41
1.0
  0
SPLINE
  5
16F
330
1F
100
AcDbEntity
  8
Predefinito
100
AcDbSpline
210
0.0
220
0.0
230
1.0
 70
    12
 71
     2
 72
     6
 73
     3
 74
     0
 42
0.0000000001
 43
0.0000000001
 40
0.0
 40
0.0
 40
0.0
 40
6.283185307179375
 40
6.283185307179375
 40
6.283185307179375
 10
1859.16141509898
 20
805.3969201646448
 30
0.0
 41
1.0
 10
1859.161415098981
 20
801.3969201646452
 30
0.0
 41
0.7071067811865978
 10
1863.16141509898
 20
801.3969201646449
 30
0.0
 41
1.0
  0
SPLINE
  5
170
330
1F
100
AcDbEntity
  8
Predefinito
100
AcDbSpline
210
0.0
220
0.0
230
1.0
 70
    12
 71
     2
 72
     8
 73
     5
 74
     0
 42
0.0000000001
 43
0.0000000001
 40
0.0
 40
0.0
 40
0.0
 40
1.569851705040298
 40
1.569851705040298
 40
6.28224068542493
 40
6.28224068542493
 40
6.28224068542493
 10
1905.162359720726
 20
809.3969200531061
 30
0.0
 41
1.0
 10
1905.95751818121
 20
809.3967322721074
 30
0.0
 41
0.9808083093862887
 10
1906.69214882844
 20
809.09243829469
 30
0.0
 41
1.0
 10
1909.16141509898
 20
808.069634716322
 30
0.0
 41
0.8314696123026402
 10
1909.16141509898
 20
805.3969201646448
 30
0.0
 41
1.0
  0
SPLINE
  5
171
330
1F
100
AcDbEntity
  8
Predefinito
100
AcDbSpline
210
0.0
220
0.0
230
1.0
 70
    12
 71
     2
 72
     6
 73
     3
 74
     0
 42
0.0000000001
 43
0.0000000001
 40
0.0
 40
0.0
 40
0.0
 40
6.283185307179375
 40
6.283185307179375
 40
6.283185307179375
 10
1909.16141509898
 20
805.3969201646448
 30
0.0
 41
1.0
 10
1909.16141509898
 20
801.3969201646452
 30
0.0
 41
0.7071067811865978
 10
1905.16141509898
 20
801.3969201646449
 30
0.0
 41
1.0
  0
SPLINE
  5
172
330
1F
100
AcDbEntity
  8
Predefinito
100
AcDbSpline
210
0.0
220
0.0
230
1.0
 70
    12
 71
     2
 72
     6
 73
     3
 74
     0
 42
0.0000000001
 43
0.0000000001
 40
0.0
 40
0.0
 40
0.0
 40
3.425037556003422
 40
3.425037556003422
 40
3.425037556003422
 10
1893.007737784838
 20
801.3969201654672
 30
0.0
 41
1.0
 10
1892.329686715748
 20
799.8057346135796
 30
0.0
 41
0.9852251805766282
 10
1891.154439123962
 20
798.5367122296833
 30
0.0
 41
1.0
  0
SPLINE
  5
173
330
1F
100
AcDbEntity
  8
Predefinito
100
AcDbSpline
210
0.0
220
0.0
230
1.0
 70
    12
 71
     2
 72
     6
 73
     3
 74
     0
 42
0.0000000001
 43
0.0000000001
 40
0.0
 40
0.0
 40
0.0
 40
3.207923806536269
 40
3.207923806536269
 40
3.207923806536269
 10
1891.154439123962
 20
812.0583373219342
 30
0.0
 41
1.0
 10
1892.253836563424
 20
810.8712172893333
 30
0.0
 41
0.9870350374474884
 10
1892.920452412197
 20
809.396920164645
 30
0.0
 41
1.0
  0
SPLINE
  5
174
330
1F
100
AcDbEntity
  8
Predefinito
100
AcDbSpline
210
0.0
220
0.0
230
1.0
 70
    12
 71
     2
 72
     6
 73
     3
 74
     0
 42
0.0000000001
 43
0.0000000001
 40
0.0
 40
0.0
 40
0.0
 40
4.053947642096764
 40
4.053947642096764
 40
4.053947642096764
 10
1874.787889720077
 20
809.3969201646629
 30
0.0
 41
1.0
 10
1875.634749483037
 20
811.2698473022903
 30
0.0
 41
0.9793215653187923
 10
1877.154439124404
 20
812.6538888171663
 30
0.0
 41
1.0
  0
SPLINE
  5
175
330
1F
100
AcDbEntity
  8
Predefinito
100
AcDbSpline
210
0.0
220
0.0
230
1.0
 70
    12
 71
     2
 72
     6
 73
     3
 74
     0
 42
0.0000000001
 43
0.0000000001
 40
0.0
 40
0.0
 40
0.0
 40
4.271061390689786
 40
4.271061390689786
 40
4.271061390689786
 10
1877.154439124404
 20
797.9411607344513
 30
0.0
 41
1.0
 10
1875.550872260944
 20
799.4015925558548
 30
0.0
 41
0.9770560751045974
 10
1874.700604347778
 20
801.3969201646448
 30
0.0
 41
1.0
  0
SPLINE
  5
176
330
1F
100
AcDbEntity
  8
Predefinito
100
AcDbSpline
210
0.0
220
0.0
230
1.0
 70
    12
 71
     2
 72
     6
 73
     3
 74
     0
 42
0.0000000001
 43
0.0000000001
 40
0.0
 40
0.0
 40
0.0
 40
3.156872506319006
 40
3.156872506319006
 40
3.156872506319006
 10
1875.339627188393
 20
809.3969201646476
 30
0.0
 41
1.0
 10
1876.030789992265
 20
810.8324821102598
 30
0.0
 41
0.9860828424418724
 10
1877.154439125591
 20
811.9620646642692
 30
0.0
 41
1.0
  0
SPLINE
  5
177
330
1F
100
AcDbEntity
  8
Predefinito
100
AcDbSpline
210
0.0
220
0.0
230
1.0
 70
    12
 71
     2
 72
     6
 73
     3
 74
     0
 42
0.0000000001
 43
0.0000000001
 40
0.0
 40
0.0
 40
0.0
 40
3.376296842524515
 40
3.376296842524515
 40
3.376296842524515
 10
1877.154439125591
 20
798.6329848873485
 30
0.0
 41
1.0
 10
1875.951057225204
 20
799.8427212366889
 30
0.0
 41
0.9840862551533306
 10
1875.246744989363
 20
801.3969201646065
 30
0.0
 41
1.0
  0
SPLINE
  5
178
330
1F
100
AcDbEntity
  8
Predefinito
100
AcDbSpline
210
0.0
220
0.0
230
1.0
 70
    12
 71
     2
 72
     6
 73
     3
 74
     0
 42
0.0000000001
 43
0.0000000001
 40
0.0
 40
0.0
 40
0.0
 40
2.480804595657294
 40
2.480804595657294
 40
2.480804595657294
 10
1892.461597142892
 20
801.3969201645803
 30
0.0
 41
1.0
 10
1891.946644939777
 20
800.2605801703625
 30
0.0
 41
0.991397832761994
 10
1891.154439124271
 20
799.2968092951909
 30
0.0
 41
1.0
  0
SPLINE
  5
179
330
1F
100
AcDbEntity
  8
Predefinito
100
AcDbSpline
210
0.0
220
0.0
230
1.0
 70
    12
 71
     2
 72
     6
 73
     3
 74
     0
 42
0.0000000001
 43
0.0000000001
 40
0.0
 40
0.0
 40
0.0
 40
2.261380259315643
 40
2.261380259315643
 40
2.261380259315643
 10
1891.154439124271
 20
811.2982402564267
 30
0.0
 41
1.0
 10
1891.875869195888
 20
810.4205727641054
 30
0.0
 41
0.9928505042562757
 10
1892.368714943802
 20
809.396920164796
 30
0.0
 41
1.0
  0
SPLINE
  5
17A
330
1F
100
AcDbEntity
  8
Predefinito
100
AcDbSpline
210
0.0
220
0.0
230
1.0
 70
    12
 71
     2
 72
     8
 73
     5
 74
     0
 42
0.0000000001
 43
0.0000000001
 40
0.0
 40
0.0
 40
0.0
 40
54.84959401610458
 40
54.84959401610458
 40
109.699188032209
 40
109.699188032209
 40
109.699188032209
 10
1891.154439124431
 20
766.3837972871862
 30
0.0
 41
1.0
 10
1923.446747400362
 20
772.4418781200859
 30
0.0
 41
0.7695403723730964
 10
1923.446747400362
 20
805.2975247758088
 30
0.0
 41
1.0
 10
1923.446747400362
 20
838.1531714315317
 30
0.0
 41
0.7695403723730908
 10
1891.154439124431
 20
844.2112522644312
 30
0.0
 41
1.0
  0
SPLINE
  5
17B
330
1F
100
AcDbEntity
  8
Predefinito
100
AcDbSpline
210
0.0
220
0.0
230
1.0
 70
    12
 71
     2
 72
     8
 73
     5
 74
     0
 42
0.0000000001
 43
0.0000000001
 40
0.0
 40
0.0
 40
0.0
 40
55.45974862917507
 40
55.45974862917507
 40
110.9194972583502
 40
110.9194972583502
 40
110.9194972583502
 10
1877.154439124271
 20
844.3191302359763
 30
0.0
 41
1.0
 10
1844.261594731903
 20
838.6716629512388
 30
0.0
 41
0.7645969109633045
 10
1844.261594731903
 20
805.2975247758088
 30
0.0
 41
1.0
 10
1844.261594731903
 20
771.9233866003788
 30
0.0
 41
0.7645969109632993
 10
1877.154439124271
 20
766.2759193156414
 30
0.0
 41
1.0
  0
SPLINE
  5
17C
330
1F
100
AcDbEntity
  8
Predefinito
100
AcDbSpline
210
0.0
220
0.0
230
1.0
 70
    12
 71
     2
 72
     6
 73
     3
 74
     0
 42
0.0000000001
 43
0.0000000001
 40
0.0
 40
0.0
 40
0.0
 40
3.969394402058092
 40
3.969394402058092
 40
3.969394402058092
 10
1893.375584582469
 20
809.3969201646448
 30
0.0
 41
1.0
 10
1892.581003755215
 20
811.2424441775364
 30
0.0
 41
0.9817284596032874
 10
1891.154439115928
 20
812.6574462634485
 30
0.0
 41
1.0
  0
SPLINE
  5
17D
330
1F
100
AcDbEntity
  8
Predefinito
100
AcDbSpline
210
0.0
220
0.0
230
1.0
 70
    12
 71
     2
 72
     6
 73
     3
 74
     0
 42
0.0000000001
 43
0.0000000001
 40
0.0
 40
0.0
 40
0.0
 40
4.184878471170609
 40
4.184878471170609
 40
4.184878471170609
 10
1891.154439115928
 20
797.9376032881689
 30
0.0
 41
1.0
 10
1892.660535198451
 20
799.431492201201
 30
0.0
 41
0.9796977429630697
 10
1893.45873465151
 20
801.3969201768365
 30
0.0
 41
1.0
  0
SPLINE
  5
17E
330
1F
100
AcDbEntity
  8
Predefinito
100
AcDbSpline
210
0.0
220
0.0
230
1.0
 70
    12
 71
     2
 72
     6
 73
     3
 74
     0
 42
0.0000000001
 43
0.0000000001
 40
0.0
 40
0.0
 40
0.0
 40
4.99981285889316
 40
4.99981285889316
 40
4.99981285889316
 10
1874.249607481451
 20
801.3969201751253
 30
0.0
 41
1.0
 10
1875.208925319886
 20
799.0347660681537
 30
0.0
 41
0.9710628733231568
 10
1877.154439124291
 20
797.3870285960141
 30
0.0
 41
1.0
  0
SPLINE
  5
17F
330
1F
100
AcDbEntity
  8
Predefinito
100
AcDbSpline
210
0.0
220
0.0
230
1.0
 70
    12
 71
     2
 72
     6
 73
     3
 74
     0
 42
0.0000000001
 43
0.0000000001
 40
0.0
 40
0.0
 40
0.0
 40
4.784328791614629
 40
4.784328791614629
 40
4.784328791614629
 10
1877.154439124291
 20
813.2080209556035
 30
0.0
 41
1.0
 10
1875.295896006894
 20
811.633942616406
 30
0.0
 41
0.9734925702795321
 10
1874.332757549802
 20
809.3969201646569
 30
0.0
 41
1.0
  0
SPLINE
  5
180
330
1F
100
AcDbEntity
  8
Predefinito
100
AcDbSpline
210
0.0
220
0.0
230
1.0
 70
    12
 71
     2
 72
     8
 73
     5
 74
     0
 42
0.0000000001
 43
0.0000000001
 40
0.0
 40
0.0
 40
0.0
 40
58.94062639815924
 40
58.94062639815924
 40
117.8812527963188
 40
117.8812527963188
 40
117.8812527963188
 10
1877.154439124271
 20
763.8843616829471
 30
0.0
 41
1.0
 10
1842.154439124271
 20
769.8004414660469
 30
0.0
 41
0.7637626158259792
 10
1842.154439124271
 20
805.2969201646448
 30
0.0
 41
1.0
 10
1842.154439124271
 20
840.7933988632432
 30
0.0
 41
0.763762615825967
 10
1877.154439124271
 20
846.7094786463424
 30
0.0
 41
1.0
  0
SPLINE
  5
181
330
1F
100
AcDbEntity
  8
Predefinito
100
AcDbSpline
210
0.0
220
0.0
230
1.0
 70
    12
 71
     2
 72
     8
 73
     5
 74
     0
 42
0.0000000001
 43
0.0000000001
 40
0.0
 40
0.0
 40
0.0
 40
58.94062639815824
 40
58.94062639815824
 40
117.8812527963167
 40
117.8812527963167
 40
117.8812527963167
 10
1891.154439124271
 20
846.7094786463422
 30
0.0
 41
1.0
 10
1926.154439124271
 20
840.7933988632419
 30
0.0
 41
0.7637626158259816
 10
1926.154439124271
 20
805.2969201646448
 30
0.0
 41
1.0
 10
1926.154439124271
 20
769.8004414660475
 30
0.0
 41
0.763762615825975
 10
1891.154439124271
 20
763.8843616829473
 30
0.0
 41
1.0
  0
SPLINE
  5
182
330
1F
100
AcDbEntity
  8
Predefinito
100
AcDbSpline
210
0.0
220
0.0
230
1.0
 70
    12
 71
     2
 72
     8
 73
     5
 74
     0
 42
0.0000000001
 43
0.0000000001
 40
0.0
 40
0.0
 40
0.0
 40
12.56637061435938
 40
12.56637061435938
 40
25.13274122871888
 40
25.13274122871888
 40
25.13274122871888
 10
1892.154439124271
 20
888.8469201646449
 30
0.0
 41
1.0
 10
1892.154439124271
 20
880.8469201646445
 30
0.0
 41
0.7071067811865224
 10
1884.154439124271
 20
880.8469201646448
 30
0.0
 41
1.0
 10
1876.154439124271
 20
880.8469201646443
 30
0.0
 41
0.7071067811865174
 10
1876.154439124271
 20
888.8469201646449
 30
0.0
 41
1.0
  0
SPLINE
  5
183
330
1F
100
AcDbEntity
  8
Predefinito
100
AcDbSpline
210
0.0
220
0.0
230
1.0
 70
    12
 71
     2
 72
     8
 73
     5
 74
     0
 42
0.0000000001
 43
0.0000000001
 40
0.0
 40
0.0
 40
0.0
 40
12.56637061435927
 40
12.56637061435927
 40
25.13274122871838
 40
25.13274122871838
 40
25.13274122871838
 10
1876.154439124271
 20
888.8469201646449
 30
0.0
 41
1.0
 10
1876.154439124271
 20
896.8469201646452
 30
0.0
 41
0.7071067811865275
 10
1884.154439124271
 20
896.8469201646449
 30
0.0
 41
1.0
 10
1892.154439124271
 20
896.8469201646449
 30
0.0
 41
0.7071067811865426
 10
1892.154439124271
 20
888.8469201646449
 30
0.0
 41
1.0
  0
SPLINE
  5
184
330
1F
100
AcDbEntity
  8
Predefinito
100
AcDbSpline
210
0.0
220
0.0
230
1.0
 70
    24
 71
     2
 72
     6
 73
     3
 74
     0
 42
0.0000000001
 43
0.0000000001
 40
0.0
 40
0.0
 40
0.0
 40
7.0
 40
7.0
 40
7.0
 10
1884.154439124271
 20
904.3969201646448
 30
0.0
 10
1880.654439124271
 20
904.3969201646448
 30
0.0
 10
1877.154439124271
 20
904.3969201646448
 30
0.0
  0
SPLINE
  5
185
330
1F
100
AcDbEntity
  8
Predefinito
100
AcDbSpline
210
0.0
220
0.0
230
1.0
 70
    24
 71
     2
 72
     6
 73
     3
 74
     0
 42
0.0000000001
 43
0.0000000001
 40
0.0
 40
0.0
 40
0.0
 40
7.0
 40
7.0
 40
7.0
 10
1891.154439124271
 20
904.3969201646448
 30
0.0
 10
1887.654439124271
 20
904.3969201646448
 30
0.0
 10
1884.154439124271
 20
904.3969201646448
 30
0.0
  0
SPLINE
  5
186
330
1F
100
AcDbEntity
  8
Predefinito
100
AcDbSpline
210
0.0
220
0.0
230
1.0
 70
    24
 71
     2
 72
     6
 73
     3
 74
     0
 42
0.0000000001
 43
0.0000000001
 40
0.0
 40
0.0
 40
0.0
 40
6.5
 40
6.5
 40
6.5
 10
1890.654439124271
 20
904.8969201646448
 30
0.0
 10
1887.404439124271
 20
904.8969201646448
 30
0.0
 10
1884.154439124271
 20
904.8969201646448
 30
0.0
  0
SPLINE
  5
187
330
1F
100
AcDbEntity
  8
Predefinito
100
AcDbSpline
210
0.0
220
0.0
230
1.0
 70
    24
 71
     2
 72
     6
 73
     3
 74
     0
 42
0.0000000001
 43
0.0000000001
 40
0.0
 40
0.0
 40
0.0
 40
6.5
 40
6.5
 40
6.5
 10
1884.154439124271
 20
904.8969201646448
 30
0.0
 10
1880.904439124271
 20
904.8969201646448
 30
0.0
 10
1877.654439124271
 20
904.8969201646448
 30
0.0
  0
SPLINE
  5
188
330
1F
100
AcDbEntity
  8
Predefinito
100
AcDbSpline
210
0.0
220
0.0
230
1.0
 70
    24
 71
     2
 72
     6
 73
     3
 74
     0
 42
0.0000000001
 43
0.0000000001
 40
0.0
 40
0.0
 40
0.0
 40
6.799999999999955
 40
6.799999999999955
 40
6.799999999999955
 10
1884.154439124271
 20
901.3969201646448
 30
0.0
 10
1887.554439124271
 20
901.3969201646448
 30
0.0
 10
1890.954439124271
 20
901.3969201646448
 30
0.0
  0
SPLINE
  5
189
330
1F
100
AcDbEntity
  8
Predefinito
100
AcDbSpline
210
0.0
220
0.0
230
1.0
 70
    24
 71
     2
 72
     6
 73
     3
 74
     0
 42
0.0000000001
 43
0.0000000001
 40
0.0
 40
0.0
 40
0.0
 40
6.799999999999955
 40
6.799999999999955
 40
6.799999999999955
 10
1877.354439124271
 20
901.3969201646448
 30
0.0
 10
1880.754439124271
 20
901.3969201646448
 30
0.0
 10
1884.154439124271
 20
901.3969201646448
 30
0.0
  0
SPLINE
  5
18A
330
1F
100
AcDbEntity
  8
Predefinito
100
AcDbSpline
210
0.0
220
0.0
230
1.0
 70
    24
 71
     2
 72
     6
 73
     3
 74
     0
 42
0.0000000001
 43
0.0000000001
 40
0.0
 40
0.0
 40
0.0
 40
7.0
 40
7.0
 40
7.0
 10
1877.154439124271
 20
901.5969201646449
 30
0.0
 10
1880.654439124271
 20
901.5969201646449
 30
0.0
 10
1884.154439124271
 20
901.5969201646449
 30
0.0
  0
SPLINE
  5
18B
330
1F
100
AcDbEntity
  8
Predefinito
100
AcDbSpline
210
0.0
220
0.0
230
1.0
 70
    24
 71
     2
 72
     6
 73
     3
 74
     0
 42
0.0000000001
 43
0.0000000001
 40
0.0
 40
0.0
 40
0.0
 40
7.0
 40
7.0
 40
7.0
 10
1884.154439124271
 20
901.5969201646449
 30
0.0
 10
1887.654439124271
 20
901.5969201646449
 30
0.0
 10
1891.154439124271
 20
901.5969201646449
 30
0.0
  0
SPLINE
  5
18C
330
1F
100
AcDbEntity
  8
Predefinito
100
AcDbSpline
210
0.0
220
0.0
230
1.0
 70
    24
 71
     2
 72
     6
 73
     3
 74
     0
 42
0.0000000001
 43
0.0000000001
 40
0.0
 40
0.0
 40
0.0
 40
7.0
 40
7.0
 40
7.0
 10
1884.154439124271
 20
901.1969201646448
 30
0.0
 10
1887.654439124271
 20
901.1969201646448
 30
0.0
 10
1891.154439124271
 20
901.1969201646448
 30
0.0
  0
SPLINE
  5
18D
330
1F
100
AcDbEntity
  8
Predefinito
100
AcDbSpline
210
0.0
220
0.0
230
1.0
 70
    24
 71
     2
 72
     6
 73
     3
 74
     0
 42
0.0000000001
 43
0.0000000001
 40
0.0
 40
0.0
 40
0.0
 40
7.0
 40
7.0
 40
7.0
 10
1877.154439124271
 20
901.1969201646448
 30
0.0
 10
1880.654439124271
 20
901.1969201646448
 30
0.0
 10
1884.154439124271
 20
901.1969201646448
 30
0.0
  0
SPLINE
  5
18E
330
1F
100
AcDbEntity
  8
Predefinito
100
AcDbSpline
210
0.0
220
0.0
230
1.0
 70
    12
 71
     2
 72
     6
 73
     3
 74
     0
 42
0.0000000001
 43
0.0000000001
 40
0.0
 40
0.0
 40
0.0
 40
31.5816081165439
 40
31.5816081165439
 40
31.5816081165439
 10
1115.813966161872
 20
1639.976724993606
 30
0.0
 41
1.0
 10
1129.043275769087
 20
1649.09570037885
 30
0.0
 41
0.974351507365236
 10
1144.931591329839
 20
1651.489812615605
 30
0.0
 41
1.0
  0
POLYLINE
  5
18F
330
1F
100
AcDbEntity
  8
Predefinito
100
AcDb2dPolyline
 66
     1
 10
0.0
 20
0.0
 30
0.0
  0
VERTEX
  5
190
330
18F
100
AcDbEntity
  8
Predefinito
100
AcDbVertex
100
AcDb2dVertex
 10
409.9973873676812
 20
1972.443047581433
 30
0.0
  0
VERTEX
  5
191
330
18F
100
AcDbEntity
  8
Predefinito
100
AcDbVertex
100
AcDb2dVertex
 10
409.9973835421184
 20
1940.196908803479
 30
0.0
  0
SEQEND
  5
192
330
18F
100
AcDbEntity
  8
Predefinito
  0
POLYLINE
  5
193
330
1F
100
AcDbEntity
  8
Predefinito
100
AcDb2dPolyline
 66
     1
 10
0.0
 20
0.0
 30
0.0
  0
VERTEX
  5
194
330
193
100
AcDbEntity
  8
Predefinito
100
AcDbVertex
100
AcDb2dVertex
 10
416.1973907830212
 20
1968.613565462771
 30
0.0
  0
VERTEX
  5
195
330
193
100
AcDbEntity
  8
Predefinito
100
AcDbVertex
100
AcDb2dVertex
 10
416.1973989661783
 20
1955.77870576571
 30
0.0
  0
SEQEND
  5
196
330
193
100
AcDbEntity
  8
Predefinito
  0
POLYLINE
  5
197
330
1F
100
AcDbEntity
  8
Predefinito
100
AcDb2dPolyline
 66
     1
 10
0.0
 20
0.0
 30
0.0
  0
VERTEX
  5
198
330
197
100
AcDbEntity
  8
Predefinito
100
AcDbVertex
100
AcDb2dVertex
 10
416.197383183079
 20
1940.418500250306
 30
0.0
  0
VERTEX
  5
199
330
197
100
AcDbEntity
  8
Predefinito
100
AcDbVertex
100
AcDb2dVertex
 10
416.1974044397327
 20
1931.168966060455
 30
0.0
  0
SEQEND
  5
19A
330
197
100
AcDbEntity
  8
Predefinito
  0
POLYLINE
  5
19B
330
1F
100
AcDbEntity
  8
Predefinito
100
AcDb2dPolyline
 66
     1
 10
0.0
 20
0.0
 30
0.0
  0
VERTEX
  5
19C
330
19B
100
AcDbEntity
  8
Predefinito
100
AcDbVertex
100
AcDb2dVertex
 10
409.9973977701004
 20
1976.22322803179
 30
0.0
  0
VERTEX
  5
19D
330
19B
100
AcDbEntity
  8
Predefinito
100
AcDbVertex
100
AcDb2dVertex
 10
409.9973925704228
 20
1973.724763484652
 30
0.0
  0
SEQEND
  5
19E
330
19B
100
AcDbEntity
  8
Predefinito
  0
LINE
  5
19F
330
1F
100
AcDbEntity
  8
Predefinito
100
AcDbLine
 10
1881.054422086102
 20
1926.224104762932
 30
0.0
 11
1881.054422080464
 21
1930.487176754139
 31
0.0
  0
LINE
  5
1A0
330
1F
100
AcDbEntity
  8
Predefinito
100
AcDbLine
 10
1887.25442208046
 20
1930.487178405283
 30
0.0
 11
1887.254422089163
 21
1926.224104762932
 31
0.0
  0
POLYLINE
  5
1A1
330
1F
100
AcDbEntity
  8
Predefinito
100
AcDb2dPolyline
 66
     1
 10
0.0
 20
0.0
 30
0.0
  0
VERTEX
  5
1A2
330
1A1
100
AcDbEntity
  8
Predefinito
100
AcDbVertex
100
AcDb2dVertex
 10
1887.25442207357
 20
1970.55741737404
 30
0.0
  0
VERTEX
  5
1A3
330
1A1
100
AcDbEntity
  8
Predefinito
100
AcDbVertex
100
AcDb2dVertex
 10
1887.254422062241
 20
1940.678048207516
 30
0.0
  0
SEQEND
  5
1A4
330
1A1
100
AcDbEntity
  8
Predefinito
  0
POLYLINE
  5
1A5
330
1F
100
AcDbEntity
  8
Predefinito
100
AcDb2dPolyline
 66
     1
 10
0.0
 20
0.0
 30
0.0
  0
VERTEX
  5
1A6
330
1A5
100
AcDbEntity
  8
Predefinito
100
AcDbVertex
100
AcDb2dVertex
 10
1881.054422073484
 20
1970.557415364099
 30
0.0
  0
VERTEX
  5
1A7
330
1A5
100
AcDbEntity
  8
Predefinito
100
AcDbVertex
100
AcDb2dVertex
 10
1881.054421865773
 20
1950.858584543515
 30
0.0
  0
SEQEND
  5
1A8
330
1A5
100
AcDbEntity
  8
Predefinito
  0
POLYLINE
  5
1A9
330
1F
100
AcDbEntity
  8
Predefinito
100
AcDb2dPolyline
 66
     1
 10
0.0
 20
0.0
 30
0.0
  0
VERTEX
  5
1AA
330
1A9
100
AcDbEntity
  8
Predefinito
100
AcDbVertex
100
AcDb2dVertex
 10
1880.214537570238
 20
1976.224104762932
 30
0.0
  0
VERTEX
  5
1AB
330
1A9
100
AcDbEntity
  8
Predefinito
100
AcDbVertex
100
AcDb2dVertex
 10
1880.214537570238
 20
1973.224104762932
 30
0.0
  0
SEQEND
  5
1AC
330
1A9
100
AcDbEntity
  8
Predefinito
  0
SPLINE
  5
1AD
330
1F
100
AcDbEntity
  8
Predefinito
100
AcDbSpline
210
0.0
220
0.0
230
1.0
 70
    24
 71
     2
 72
     6
 73
     3
 74
     0
 42
0.0000000001
 43
0.0000000001
 40
0.0
 40
0.0
 40
0.0
 40
2.880904407685899
 40
2.880904407685899
 40
2.880904407685899
 10
1878.173517666555
 20
2018.724104762932
 30
0.0
 10
1879.613969870398
 20
2018.724104762932
 30
0.0
 10
1881.054422074241
 20
2018.724104762932
 30
0.0
  0
SPLINE
  5
1AE
330
1F
100
AcDbEntity
  8
Predefinito
100
AcDbSpline
210
0.0
220
0.0
230
1.0
 70
    24
 71
     2
 72
     6
 73
     3
 74
     0
 42
0.0000000001
 43
0.0000000001
 40
0.0
 40
0.0
 40
0.0
 40
3.0
 40
3.0
 40
3.0
 10
1880.123517666554
 20
1923.224104762932
 30
0.0
 10
1880.123517666554
 20
1924.724104762932
 30
0.0
 10
1880.123517666554
 20
1926.224104762932
 30
0.0
  0
SPLINE
  5
1AF
330
1F
100
AcDbEntity
  8
Predefinito
100
AcDbSpline
210
0.0
220
0.0
230
1.0
 70
    24
 71
     2
 72
     6
 73
     3
 74
     0
 42
0.0000000001
 43
0.0000000001
 40
0.0
 40
0.0
 40
0.0
 40
3.0
 40
3.0
 40
3.0
 10
1888.223517666555
 20
1926.224104762932
 30
0.0
 10
1888.223517666555
 20
1924.724104762932
 30
0.0
 10
1888.223517666555
 20
1923.224104762932
 30
0.0
  0
SPLINE
  5
1B0
330
1F
100
AcDbEntity
  8
Predefinito
100
AcDbSpline
210
0.0
220
0.0
230
1.0
 70
    24
 71
     2
 72
     6
 73
     3
 74
     0
 42
0.0000000001
 43
0.0000000001
 40
0.0
 40
0.0
 40
0.0
 40
3.0
 40
3.0
 40
3.0
 10
1888.223517666555
 20
1976.224104762932
 30
0.0
 10
1888.223517666555
 20
1974.724104762932
 30
0.0
 10
1888.223517666555
 20
1973.224104762932
 30
0.0
  0
SPLINE
  5
1B1
330
1F
100
AcDbEntity
  8
Predefinito
100
AcDbSpline
210
0.0
220
0.0
230
1.0
 70
    24
 71
     2
 72
     6
 73
     3
 74
     0
 42
0.0000000001
 43
0.0000000001
 40
0.0
 40
0.0
 40
0.0
 40
2.0
 40
2.0
 40
2.0
 10
1890.173517666555
 20
2020.724104762932
 30
0.0
 10
1890.173517666555
 20
2019.724104762932
 30
0.0
 10
1890.173517666555
 20
2018.724104762932
 30
0.0
  0
SPLINE
  5
1B2
330
1F
100
AcDbEntity
  8
Predefinito
100
AcDbSpline
210
0.0
220
0.0
230
1.0
 70
    24
 71
     2
 72
     6
 73
     3
 74
     0
 42
0.0000000001
 43
0.0000000001
 40
0.0
 40
0.0
 40
0.0
 40
0.2000000000000455
 40
0.2000000000000455
 40
0.2000000000000455
 10
1889.873517666554
 20
2020.924104762933
 30
0.0
 10
1889.873517666554
 20
2020.824104762932
 30
0.0
 10
1889.873517666554
 20
2020.724104762932
 30
0.0
  0
SPLINE
  5
1B3
330
1F
100
AcDbEntity
  8
Predefinito
100
AcDbSpline
210
0.0
220
0.0
230
1.0
 70
    24
 71
     2
 72
     6
 73
     3
 74
     0
 42
0.0000000001
 43
0.0000000001
 40
0.0
 40
0.0
 40
0.0
 40
0.7999999999999545
 40
0.7999999999999545
 40
0.7999999999999545
 10
1878.173517666498
 20
2020.924104762933
 30
0.0
 10
1878.173517666498
 20
2021.324104762932
 30
0.0
 10
1878.173517666498
 20
2021.724104762932
 30
0.0
  0
SPLINE
  5
1B4
330
1F
100
AcDbEntity
  8
Predefinito
100
AcDbSpline
210
0.0
220
0.0
230
1.0
 70
    24
 71
     2
 72
     6
 73
     3
 74
     0
 42
0.0000000001
 43
0.0000000001
 40
0.0
 40
0.0
 40
0.0
 40
0.7999999999999545
 40
0.7999999999999545
 40
0.7999999999999545
 10
1890.173517666674
 20
2021.724104762932
 30
0.0
 10
1890.173517666674
 20
2021.324104762932
 30
0.0
 10
1890.173517666674
 20
2020.924104762933
 30
0.0
  0
SPLINE
  5
1B5
330
1F
100
AcDbEntity
  8
Predefinito
100
AcDbSpline
210
0.0
220
0.0
230
1.0
 70
    24
 71
     2
 72
     6
 73
     3
 74
     0
 42
0.0000000001
 43
0.0000000001
 40
0.0
 40
0.0
 40
0.0
 40
3.0
 40
3.0
 40
3.0
 10
1881.806514711732
 20
1926.224104762932
 30
0.0
 10
1881.806514711732
 20
1924.724104762932
 30
0.0
 10
1881.806514711732
 20
1923.224104762932
 30
0.0
  0
SPLINE
  5
1B6
330
1F
100
AcDbEntity
  8
Predefinito
100
AcDbSpline
210
0.0
220
0.0
230
1.0
 70
    24
 71
     2
 72
     6
 73
     3
 74
     0
 42
0.0000000001
 43
0.0000000001
 40
0.0
 40
0.0
 40
0.0
 40
3.0
 40
3.0
 40
3.0
 10
1881.268855321771
 20
1923.224104762932
 30
0.0
 10
1881.268855321771
 20
1924.724104762932
 30
0.0
 10
1881.268855321771
 20
1926.224104762932
 30
0.0
  0
SPLINE
  5
1B7
330
1F
100
AcDbEntity
  8
Predefinito
100
AcDbSpline
210
0.0
220
0.0
230
1.0
 70
    24
 71
     2
 72
     6
 73
     3
 74
     0
 42
0.0000000001
 43
0.0000000001
 40
0.0
 40
0.0
 40
0.0
 40
3.0
 40
3.0
 40
3.0
 10
1880.906490047823
 20
1926.224104762932
 30
0.0
 10
1880.906490047823
 20
1924.724104762932
 30
0.0
 10
1880.906490047823
 20
1923.224104762932
 30
0.0
  0
SPLINE
  5
1B8
330
1F
100
AcDbEntity
  8
Predefinito
100
AcDbSpline
210
0.0
220
0.0
230
1.0
 70
    24
 71
     2
 72
     6
 73
     3
 74
     0
 42
0.0000000001
 43
0.0000000001
 40
0.0
 40
0.0
 40
0.0
 40
3.0
 40
3.0
 40
3.0
 10
1886.540520621377
 20
1923.224104762932
 30
0.0
 10
1886.540520621377
 20
1924.724104762932
 30
0.0
 10
1886.540520621377
 20
1926.224104762932
 30
0.0
  0
SPLINE
  5
1B9
330
1F
100
AcDbEntity
  8
Predefinito
100
AcDbSpline
210
0.0
220
0.0
230
1.0
 70
    24
 71
     2
 72
     6
 73
     3
 74
     0
 42
0.0000000001
 43
0.0000000001
 40
0.0
 40
0.0
 40
0.0
 40
3.0
 40
3.0
 40
3.0
 10
1887.440545285286
 20
1923.224104762932
 30
0.0
 10
1887.440545285286
 20
1924.724104762932
 30
0.0
 10
1887.440545285286
 20
1926.224104762932
 30
0.0
  0
SPLINE
  5
1BA
330
1F
100
AcDbEntity
  8
Predefinito
100
AcDbSpline
210
0.0
220
0.0
230
1.0
 70
    24
 71
     2
 72
     6
 73
     3
 74
     0
 42
0.0000000001
 43
0.0000000001
 40
0.0
 40
0.0
 40
0.0
 40
3.0
 40
3.0
 40
3.0
 10
1887.078180011338
 20
1926.224104762932
 30
0.0
 10
1887.078180011338
 20
1924.724104762932
 30
0.0
 10
1887.078180011338
 20
1923.224104762932
 30
0.0
  0
SPLINE
  5
1BB
330
1F
100
AcDbEntity
  8
Predefinito
100
AcDbSpline
210
0.0
220
0.0
230
1.0
 70
    24
 71
     2
 72
     6
 73
     3
 74
     0
 42
0.0000000001
 43
0.0000000001
 40
0.0
 40
0.0
 40
0.0
 40
0.5376593899609361
 40
0.5376593899609361
 40
0.5376593899609361
 10
1887.078180011338
 20
1923.224104762932
 30
0.0
 10
1886.809350316357
 20
1923.224104762932
 30
0.0
 10
1886.540520621377
 20
1923.224104762932
 30
0.0
  0
SPLINE
  5
1BC
330
1F
100
AcDbEntity
  8
Predefinito
100
AcDbSpline
210
0.0
220
0.0
230
1.0
 70
    24
 71
     2
 72
     6
 73
     3
 74
     0
 42
0.0000000001
 43
0.0000000001
 40
0.0
 40
0.0
 40
0.0
 40
0.3623652739483987
 40
0.3623652739483987
 40
0.3623652739483987
 10
1887.440545285286
 20
1923.224104762932
 30
0.0
 10
1887.259362648312
 20
1923.224104762932
 30
0.0
 10
1887.078180011338
 20
1923.224104762932
 30
0.0
  0
SPLINE
  5
1BD
330
1F
100
AcDbEntity
  8
Predefinito
100
AcDbSpline
210
0.0
220
0.0
230
1.0
 70
    28
 71
     2
 72
     6
 73
     3
 74
     0
 42
0.0000000001
 43
0.0000000001
 40
-3.401075980659051
 40
-3.401075980659051
 40
-3.401075980659051
 40
-0.0205613128056995
 40
-0.0205613128056995
 40
-0.0205613128056995
 10
1888.136660193312
 20
1923.224104762932
 30
0.0
 41
1.0
 10
1888.506642343639
 20
1923.224104762932
 30
0.0
 41
0.9136605926337792
 10
1887.452309435285
 20
1923.224104762934
 30
0.0
 41
0.9989560647439746
  0
SPLINE
  5
1BE
330
1F
100
AcDbEntity
  8
Predefinito
100
AcDbSpline
210
0.0
220
0.0
230
1.0
 70
    24
 71
     2
 72
     6
 73
     3
 74
     0
 42
0.0000000001
 43
0.0000000001
 40
0.0
 40
0.0
 40
0.0
 40
0.6919524775851187
 40
0.6919524775851187
 40
0.6919524775851187
 10
1880.906490047823
 20
1923.224104762932
 30
0.0
 10
1880.56051380903
 20
1923.224104762932
 30
0.0
 10
1880.214537570238
 20
1923.224104762932
 30
0.0
  0
SPLINE
  5
1BF
330
1F
100
AcDbEntity
  8
Predefinito
100
AcDbSpline
210
0.0
220
0.0
230
1.0
 70
    24
 71
     2
 72
     6
 73
     3
 74
     0
 42
0.0000000001
 43
0.0000000001
 40
0.0
 40
0.0
 40
0.0
 40
0.3623652739485124
 40
0.3623652739485124
 40
0.3623652739485124
 10
1881.268855321771
 20
1923.224104762932
 30
0.0
 10
1881.087672684797
 20
1923.224104762932
 30
0.0
 10
1880.906490047823
 20
1923.224104762932
 30
0.0
  0
SPLINE
  5
1C0
330
1F
100
AcDbEntity
  8
Predefinito
100
AcDbSpline
210
0.0
220
0.0
230
1.0
 70
    24
 71
     2
 72
     6
 73
     3
 74
     0
 42
0.0000000001
 43
0.0000000001
 40
0.0
 40
0.0
 40
0.0
 40
0.5376593899609361
 40
0.5376593899609361
 40
0.5376593899609361
 10
1881.806514711732
 20
1923.224104762932
 30
0.0
 10
1881.537685016752
 20
1923.224104762932
 30
0.0
 10
1881.268855321771
 20
1923.224104762932
 30
0.0
  0
SPLINE
  5
1C1
330
1F
100
AcDbEntity
  8
Predefinito
100
AcDbSpline
210
0.0
220
0.0
230
1.0
 70
    24
 71
     2
 72
     6
 73
     3
 74
     0
 42
0.0000000001
 43
0.0000000001
 40
0.0
 40
0.0
 40
0.0
 40
0.5376593899609361
 40
0.5376593899609361
 40
0.5376593899609361
 10
1887.078180011338
 20
1926.224104762932
 30
0.0
 10
1886.809350316357
 20
1926.224104762932
 30
0.0
 10
1886.540520621377
 20
1926.224104762932
 30
0.0
  0
SPLINE
  5
1C2
330
1F
100
AcDbEntity
  8
Predefinito
100
AcDbSpline
210
0.0
220
0.0
230
1.0
 70
    24
 71
     2
 72
     6
 73
     3
 74
     0
 42
0.0000000001
 43
0.0000000001
 40
0.0
 40
0.0
 40
0.0
 40
0.3623652739483987
 40
0.3623652739483987
 40
0.3623652739483987
 10
1887.440545285286
 20
1926.224104762932
 30
0.0
 10
1887.259362648312
 20
1926.224104762932
 30
0.0
 10
1887.078180011338
 20
1926.224104762932
 30
0.0
  0
SPLINE
  5
1C3
330
1F
100
AcDbEntity
  8
Predefinito
100
AcDbSpline
210
0.0
220
0.0
230
1.0
 70
    28
 71
     2
 72
     6
 73
     3
 74
     0
 42
0.0000000001
 43
0.0000000001
 40
-3.401075980659051
 40
-3.401075980659051
 40
-3.401075980659051
 40
-0.0205613128057056
 40
-0.0205613128057056
 40
-0.0205613128057056
 10
1888.136660193312
 20
1926.224104762932
 30
0.0
 41
1.0
 10
1888.506642343639
 20
1926.224104762933
 30
0.0
 41
0.9136605926337794
 10
1887.452309435285
 20
1926.224104762932
 30
0.0
 41
0.9989560647439742
  0
SPLINE
  5
1C4
330
1F
100
AcDbEntity
  8
Predefinito
100
AcDbSpline
210
0.0
220
0.0
230
1.0
 70
    24
 71
     2
 72
     6
 73
     3
 74
     0
 42
0.0000000001
 43
0.0000000001
 40
0.0
 40
0.0
 40
0.0
 40
0.6919524775851187
 40
0.6919524775851187
 40
0.6919524775851187
 10
1880.906490047823
 20
1926.224104762932
 30
0.0
 10
1880.56051380903
 20
1926.224104762932
 30
0.0
 10
1880.214537570238
 20
1926.224104762932
 30
0.0
  0
SPLINE
  5
1C5
330
1F
100
AcDbEntity
  8
Predefinito
100
AcDbSpline
210
0.0
220
0.0
230
1.0
 70
    24
 71
     2
 72
     6
 73
     3
 74
     0
 42
0.0000000001
 43
0.0000000001
 40
0.0
 40
0.0
 40
0.0
 40
0.3623652739485124
 40
0.3623652739485124
 40
0.3623652739485124
 10
1881.268855321771
 20
1926.224104762932
 30
0.0
 10
1881.087672684797
 20
1926.224104762932
 30
0.0
 10
1880.906490047823
 20
1926.224104762932
 30
0.0
  0
SPLINE
  5
1C6
330
1F
100
AcDbEntity
  8
Predefinito
100
AcDbSpline
210
0.0
220
0.0
230
1.0
 70
    24
 71
     2
 72
     6
 73
     3
 74
     0
 42
0.0000000001
 43
0.0000000001
 40
0.0
 40
0.0
 40
0.0
 40
0.5376593899609361
 40
0.5376593899609361
 40
0.5376593899609361
 10
1881.806514711732
 20
1926.224104762932
 30
0.0
 10
1881.537685016752
 20
1926.224104762932
 30
0.0
 10
1881.268855321771
 20
1926.224104762932
 30
0.0
  0
SPLINE
  5
1C7
330
1F
100
AcDbEntity
  8
Predefinito
100
AcDbSpline
210
0.0
220
0.0
230
1.0
 70
    24
 71
     2
 72
     6
 73
     3
 74
     0
 42
0.0000000001
 43
0.0000000001
 40
0.0
 40
0.0
 40
0.0
 40
3.0
 40
3.0
 40
3.0
 10
1881.806514711732
 20
1976.224104762932
 30
0.0
 10
1881.806514711732
 20
1974.724104762932
 30
0.0
 10
1881.806514711732
 20
1973.224104762932
 30
0.0
  0
SPLINE
  5
1C8
330
1F
100
AcDbEntity
  8
Predefinito
100
AcDbSpline
210
0.0
220
0.0
230
1.0
 70
    24
 71
     2
 72
     6
 73
     3
 74
     0
 42
0.0000000001
 43
0.0000000001
 40
0.0
 40
0.0
 40
0.0
 40
3.0
 40
3.0
 40
3.0
 10
1881.268855321771
 20
1973.224104762932
 30
0.0
 10
1881.268855321771
 20
1974.724104762932
 30
0.0
 10
1881.268855321771
 20
1976.224104762932
 30
0.0
  0
SPLINE
  5
1C9
330
1F
100
AcDbEntity
  8
Predefinito
100
AcDbSpline
210
0.0
220
0.0
230
1.0
 70
    24
 71
     2
 72
     6
 73
     3
 74
     0
 42
0.0000000001
 43
0.0000000001
 40
0.0
 40
0.0
 40
0.0
 40
3.0
 40
3.0
 40
3.0
 10
1880.906490047823
 20
1976.224104762932
 30
0.0
 10
1880.906490047823
 20
1974.724104762932
 30
0.0
 10
1880.906490047823
 20
1973.224104762932
 30
0.0
  0
SPLINE
  5
1CA
330
1F
100
AcDbEntity
  8
Predefinito
100
AcDbSpline
210
0.0
220
0.0
230
1.0
 70
    24
 71
     2
 72
     6
 73
     3
 74
     0
 42
0.0000000001
 43
0.0000000001
 40
0.0
 40
0.0
 40
0.0
 40
3.0
 40
3.0
 40
3.0
 10
1886.540520621377
 20
1973.224104762932
 30
0.0
 10
1886.540520621377
 20
1974.724104762932
 30
0.0
 10
1886.540520621377
 20
1976.224104762932
 30
0.0
  0
SPLINE
  5
1CB
330
1F
100
AcDbEntity
  8
Predefinito
100
AcDbSpline
210
0.0
220
0.0
230
1.0
 70
    24
 71
     2
 72
     6
 73
     3
 74
     0
 42
0.0000000001
 43
0.0000000001
 40
0.0
 40
0.0
 40
0.0
 40
3.0
 40
3.0
 40
3.0
 10
1887.440545285286
 20
1973.224104762932
 30
0.0
 10
1887.440545285286
 20
1974.724104762932
 30
0.0
 10
1887.440545285286
 20
1976.224104762932
 30
0.0
  0
SPLINE
  5
1CC
330
1F
100
AcDbEntity
  8
Predefinito
100
AcDbSpline
210
0.0
220
0.0
230
1.0
 70
    24
 71
     2
 72
     6
 73
     3
 74
     0
 42
0.0000000001
 43
0.0000000001
 40
0.0
 40
0.0
 40
0.0
 40
3.0
 40
3.0
 40
3.0
 10
1887.078180011338
 20
1976.224104762932
 30
0.0
 10
1887.078180011338
 20
1974.724104762932
 30
0.0
 10
1887.078180011338
 20
1973.224104762932
 30
0.0
  0
SPLINE
  5
1CD
330
1F
100
AcDbEntity
  8
Predefinito
100
AcDbSpline
210
0.0
220
0.0
230
1.0
 70
    24
 71
     2
 72
     6
 73
     3
 74
     0
 42
0.0000000001
 43
0.0000000001
 40
0.0
 40
0.0
 40
0.0
 40
0.5376593899609361
 40
0.5376593899609361
 40
0.5376593899609361
 10
1887.078180011338
 20
1973.224104762932
 30
0.0
 10
1886.809350316357
 20
1973.224104762932
 30
0.0
 10
1886.540520621377
 20
1973.224104762932
 30
0.0
  0
SPLINE
  5
1CE
330
1F
100
AcDbEntity
  8
Predefinito
100
AcDbSpline
210
0.0
220
0.0
230
1.0
 70
    24
 71
     2
 72
     6
 73
     3
 74
     0
 42
0.0000000001
 43
0.0000000001
 40
0.0
 40
0.0
 40
0.0
 40
0.3623652739483987
 40
0.3623652739483987
 40
0.3623652739483987
 10
1887.440545285286
 20
1973.224104762932
 30
0.0
 10
1887.259362648312
 20
1973.224104762932
 30
0.0
 10
1887.078180011338
 20
1973.224104762932
 30
0.0
  0
SPLINE
  5
1CF
330
1F
100
AcDbEntity
  8
Predefinito
100
AcDbSpline
210
0.0
220
0.0
230
1.0
 70
    28
 71
     2
 72
     6
 73
     3
 74
     0
 42
0.0000000001
 43
0.0000000001
 40
-3.401075980659051
 40
-3.401075980659051
 40
-3.401075980659051
 40
-0.0205613128056995
 40
-0.0205613128056995
 40
-0.0205613128056995
 10
1888.136660193312
 20
1973.224104762932
 30
0.0
 41
1.0
 10
1888.506642343639
 20
1973.224104762932
 30
0.0
 41
0.9136605926337792
 10
1887.452309435285
 20
1973.224104762933
 30
0.0
 41
0.9989560647439746
  0
SPLINE
  5
1D0
330
1F
100
AcDbEntity
  8
Predefinito
100
AcDbSpline
210
0.0
220
0.0
230
1.0
 70
    24
 71
     2
 72
     6
 73
     3
 74
     0
 42
0.0000000001
 43
0.0000000001
 40
0.0
 40
0.0
 40
0.0
 40
0.6919524775851187
 40
0.6919524775851187
 40
0.6919524775851187
 10
1880.906490047823
 20
1973.224104762932
 30
0.0
 10
1880.56051380903
 20
1973.224104762932
 30
0.0
 10
1880.214537570238
 20
1973.224104762932
 30
0.0
  0
SPLINE
  5
1D1
330
1F
100
AcDbEntity
  8
Predefinito
100
AcDbSpline
210
0.0
220
0.0
230
1.0
 70
    24
 71
     2
 72
     6
 73
     3
 74
     0
 42
0.0000000001
 43
0.0000000001
 40
0.0
 40
0.0
 40
0.0
 40
0.3623652739485124
 40
0.3623652739485124
 40
0.3623652739485124
 10
1881.268855321771
 20
1973.224104762932
 30
0.0
 10
1881.087672684797
 20
1973.224104762932
 30
0.0
 10
1880.906490047823
 20
1973.224104762932
 30
0.0
  0
SPLINE
  5
1D2
330
1F
100
AcDbEntity
  8
Predefinito
100
AcDbSpline
210
0.0
220
0.0
230
1.0
 70
    24
 71
     2
 72
     6
 73
     3
 74
     0
 42
0.0000000001
 43
0.0000000001
 40
0.0
 40
0.0
 40
0.0
 40
0.5376593899609361
 40
0.5376593899609361
 40
0.5376593899609361
 10
1881.806514711732
 20
1973.224104762932
 30
0.0
 10
1881.537685016752
 20
1973.224104762932
 30
0.0
 10
1881.268855321771
 20
1973.224104762932
 30
0.0
  0
SPLINE
  5
1D3
330
1F
100
AcDbEntity
  8
Predefinito
100
AcDbSpline
210
0.0
220
0.0
230
1.0
 70
    24
 71
     2
 72
     6
 73
     3
 74
     0
 42
0.0000000001
 43
0.0000000001
 40
0.0
 40
0.0
 40
0.0
 40
0.5376593899609361
 40
0.5376593899609361
 40
0.5376593899609361
 10
1887.078180011338
 20
1976.224104762932
 30
0.0
 10
1886.809350316357
 20
1976.224104762932
 30
0.0
 10
1886.540520621377
 20
1976.224104762932
 30
0.0
  0
SPLINE
  5
1D4
330
1F
100
AcDbEntity
  8
Predefinito
100
AcDbSpline
210
0.0
220
0.0
230
1.0
 70
    24
 71
     2
 72
     6
 73
     3
 74
     0
 42
0.0000000001
 43
0.0000000001
 40
0.0
 40
0.0
 40
0.0
 40
0.3623652739483987
 40
0.3623652739483987
 40
0.3623652739483987
 10
1887.440545285286
 20
1976.224104762932
 30
0.0
 10
1887.259362648312
 20
1976.224104762932
 30
0.0
 10
1887.078180011338
 20
1976.224104762932
 30
0.0
  0
SPLINE
  5
1D5
330
1F
100
AcDbEntity
  8
Predefinito
100
AcDbSpline
210
0.0
220
0.0
230
1.0
 70
    28
 71
     2
 72
     6
 73
     3
 74
     0
 42
0.0000000001
 43
0.0000000001
 40
-3.401075980659051
 40
-3.401075980659051
 40
-3.401075980659051
 40
-0.0205613128057056
 40
-0.0205613128057056
 40
-0.0205613128057056
 10
1888.136660193312
 20
1976.224104762932
 30
0.0
 41
1.0
 10
1888.506642343639
 20
1976.224104762932
 30
0.0
 41
0.9136605926337794
 10
1887.452309435285
 20
1976.224104762932
 30
0.0
 41
0.9989560647439742
  0
SPLINE
  5
1D6
330
1F
100
AcDbEntity
  8
Predefinito
100
AcDbSpline
210
0.0
220
0.0
230
1.0
 70
    24
 71
     2
 72
     6
 73
     3
 74
     0
 42
0.0000000001
 43
0.0000000001
 40
0.0
 40
0.0
 40
0.0
 40
0.6919524775851187
 40
0.6919524775851187
 40
0.6919524775851187
 10
1880.906490047823
 20
1976.224104762932
 30
0.0
 10
1880.56051380903
 20
1976.224104762932
 30
0.0
 10
1880.214537570238
 20
1976.224104762932
 30
0.0
  0
SPLINE
  5
1D7
330
1F
100
AcDbEntity
  8
Predefinito
100
AcDbSpline
210
0.0
220
0.0
230
1.0
 70
    24
 71
     2
 72
     6
 73
     3
 74
     0
 42
0.0000000001
 43
0.0000000001
 40
0.0
 40
0.0
 40
0.0
 40
0.3623652739485124
 40
0.3623652739485124
 40
0.3623652739485124
 10
1881.268855321771
 20
1976.224104762932
 30
0.0
 10
1881.087672684797
 20
1976.224104762932
 30
0.0
 10
1880.906490047823
 20
1976.224104762932
 30
0.0
  0
SPLINE
  5
1D8
330
1F
100
AcDbEntity
  8
Predefinito
100
AcDbSpline
210
0.0
220
0.0
230
1.0
 70
    24
 71
     2
 72
     6
 73
     3
 74
     0
 42
0.0000000001
 43
0.0000000001
 40
0.0
 40
0.0
 40
0.0
 40
0.5376593899609361
 40
0.5376593899609361
 40
0.5376593899609361
 10
1881.806514711732
 20
1976.224104762932
 30
0.0
 10
1881.537685016752
 20
1976.224104762932
 30
0.0
 10
1881.268855321771
 20
1976.224104762932
 30
0.0
  0
SPLINE
  5
1D9
330
1F
100
AcDbEntity
  8
Predefinito
100
AcDbSpline
210
0.0
220
0.0
230
1.0
 70
    24
 71
     2
 72
     6
 73
     3
 74
     0
 42
0.0000000001
 43
0.0000000001
 40
0.0
 40
0.0
 40
0.0
 40
2.900000001385024
 40
2.900000001385024
 40
2.900000001385024
 10
1887.273517665169
 20
2018.724104762932
 30
0.0
 10
1888.723517665862
 20
2018.724104762932
 30
0.0
 10
1890.173517666555
 20
2018.724104762932
 30
0.0
  0
SPLINE
  5
1DA
330
1F
100
AcDbEntity
  8
Predefinito
100
AcDbSpline
210
0.0
220
0.0
230
1.0
 70
    24
 71
     2
 72
     6
 73
     3
 74
     0
 42
0.0000000001
 43
0.0000000001
 40
0.0
 40
0.0
 40
0.0
 40
2.0
 40
2.0
 40
2.0
 10
1878.173517666555
 20
2020.724104762932
 30
0.0
 10
1878.173517666555
 20
2019.724104762932
 30
0.0
 10
1878.173517666555
 20
2018.724104762932
 30
0.0
  0
SPLINE
  5
1DB
330
1F
100
AcDbEntity
  8
Predefinito
100
AcDbSpline
210
0.0
220
0.0
230
1.0
 70
    24
 71
     2
 72
     6
 73
     3
 74
     0
 42
0.0000000001
 43
0.0000000001
 40
0.0
 40
0.0
 40
0.0
 40
2.900000001367857
 40
2.900000001367857
 40
2.900000001367857
 10
1881.073517667922
 20
2020.724104762933
 30
0.0
 10
1879.623517667238
 20
2020.724104762932
 30
0.0
 10
1878.173517666555
 20
2020.724104762932
 30
0.0
  0
SPLINE
  5
1DC
330
1F
100
AcDbEntity
  8
Predefinito
100
AcDbSpline
210
0.0
220
0.0
230
1.0
 70
    24
 71
     2
 72
     6
 73
     3
 74
     0
 42
0.0000000001
 43
0.0000000001
 40
0.0
 40
0.0
 40
0.0
 40
2.900000001406511
 40
2.900000001406511
 40
2.900000001406511
 10
1890.173517666555
 20
2020.724104762932
 30
0.0
 10
1888.723517665851
 20
2020.724104762932
 30
0.0
 10
1887.273517665148
 20
2020.724104762932
 30
0.0
  0
SPLINE
  5
1DD
330
1F
100
AcDbEntity
  8
Predefinito
100
AcDbSpline
210
0.0
220
0.0
230
1.0
 70
    24
 71
     2
 72
     6
 73
     3
 74
     0
 42
0.0000000001
 43
0.0000000001
 40
0.0
 40
0.0
 40
0.0
 40
0.2000000000000455
 40
0.2000000000000455
 40
0.2000000000000455
 10
1878.473517666554
 20
2020.924104762933
 30
0.0
 10
1878.473517666554
 20
2020.824104762932
 30
0.0
 10
1878.473517666554
 20
2020.724104762932
 30
0.0
  0
SPLINE
  5
1DE
330
1F
100
AcDbEntity
  8
Predefinito
100
AcDbSpline
210
0.0
220
0.0
230
1.0
 70
    24
 71
     2
 72
     6
 73
     3
 74
     0
 42
0.0000000001
 43
0.0000000001
 40
0.0
 40
0.0
 40
0.0
 40
2.880904406355626
 40
2.880904406355626
 40
2.880904406355626
 10
1887.292613260199
 20
2020.924104762933
 30
0.0
 10
1888.733065463377
 20
2020.924104762933
 30
0.0
 10
1890.173517666555
 20
2020.924104762933
 30
0.0
  0
SPLINE
  5
1DF
330
1F
100
AcDbEntity
  8
Predefinito
100
AcDbSpline
210
0.0
220
0.0
230
1.0
 70
    24
 71
     2
 72
     6
 73
     3
 74
     0
 42
0.0000000001
 43
0.0000000001
 40
0.0
 40
0.0
 40
0.0
 40
2.880904406355626
 40
2.880904406355626
 40
2.880904406355626
 10
1878.173517666555
 20
2020.924104762933
 30
0.0
 10
1879.613969869732
 20
2020.924104762933
 30
0.0
 10
1881.05442207291
 20
2020.924104762933
 30
0.0
  0
SPLINE
  5
1E0
330
1F
100
AcDbEntity
  8
Predefinito
100
AcDbSpline
210
0.0
220
0.0
230
1.0
 70
    28
 71
     2
 72
     6
 73
     3
 74
     0
 42
0.0000000001
 43
0.0000000001
 40
0.0
 40
0.0
 40
0.0
 40
20.37139048860035
 40
20.37139048860035
 40
20.37139048860035
 10
1881.054421930492
 20
1930.487194054915
 30
0.0
 41
1.0
 10
1881.054421898133
 20
1940.672889299216
 30
0.0
 41
1.0
 10
1881.054421865773
 20
1950.858584543515
 30
0.0
 41
1.0
  0
SPLINE
  5
1E1
330
1F
100
AcDbEntity
  8
Predefinito
100
AcDbSpline
210
0.0
220
0.0
230
1.0
 70
    24
 71
     2
 72
     6
 73
     3
 74
     0
 42
0.0000000001
 43
0.0000000001
 40
0.0
 40
0.0
 40
0.0
 40
10.19085581008858
 40
10.19085581008858
 40
10.19085581008858
 10
1887.254422062241
 20
1940.678048207516
 30
0.0
 10
1887.254422071351
 20
1935.582620302471
 30
0.0
 10
1887.25442208046
 20
1930.487192397427
 30
0.0
  0
SPLINE
  5
1E2
330
1F
100
AcDbEntity
  8
Predefinito
100
AcDbSpline
210
0.0
220
0.0
230
1.0
 70
    24
 71
     2
 72
     6
 73
     3
 74
     0
 42
0.0000000001
 43
0.0000000001
 40
0.0
 40
0.0
 40
0.0
 40
2.666689398832887
 40
2.666689398832887
 40
2.666689398832887
 10
1881.054422073484
 20
1970.557415364099
 30
0.0
 10
1881.054422074007
 20
1971.890760063516
 30
0.0
 10
1881.054422074529
 20
1973.224104762932
 30
0.0
  0
SPLINE
  5
1E3
330
1F
100
AcDbEntity
  8
Predefinito
100
AcDbSpline
210
0.0
220
0.0
230
1.0
 70
    24
 71
     2
 72
     6
 73
     3
 74
     0
 42
0.0000000001
 43
0.0000000001
 40
0.0
 40
0.0
 40
0.0
 40
2.666687388892342
 40
2.666687388892342
 40
2.666687388892342
 10
1887.254422074519
 20
1973.224104762932
 30
0.0
 10
1887.254422074044
 20
1971.890761068486
 30
0.0
 10
1887.25442207357
 20
1970.55741737404
 30
0.0
  0
SPLINE
  5
1E4
330
1F
100
AcDbEntity
  8
Predefinito
100
AcDbSpline
210
0.0
220
0.0
230
1.0
 70
    24
 71
     2
 72
     6
 73
     3
 74
     0
 42
0.0000000001
 43
0.0000000001
 40
0.0
 40
0.0
 40
0.0
 40
1.88772635745454
 40
1.88772635745454
 40
1.88772635745454
 10
1881.054422075007
 20
1976.224104762932
 30
0.0
 10
1881.05442207395
 20
1977.16796794166
 30
0.0
 10
1881.054422072893
 20
1978.111831120387
 30
0.0
  0
SPLINE
  5
1E5
330
1F
100
AcDbEntity
  8
Predefinito
100
AcDbSpline
210
0.0
220
0.0
230
1.0
 70
    24
 71
     2
 72
     6
 73
     3
 74
     0
 42
0.0000000001
 43
0.0000000001
 40
0.0
 40
0.0
 40
0.0
 40
1.88860374768683
 40
1.88860374768683
 40
1.88860374768683
 10
1887.254422072962
 20
1978.11270851062
 30
0.0
 10
1887.254422073982
 20
1977.168406636776
 30
0.0
 10
1887.254422075001
 20
1976.224104762932
 30
0.0
  0
SPLINE
  5
1E6
330
1F
100
AcDbEntity
  8
Predefinito
100
AcDbSpline
210
0.0
220
0.0
230
1.0
 70
    24
 71
     2
 72
     6
 73
     3
 74
     0
 42
0.0000000001
 43
0.0000000001
 40
0.0
 40
0.0
 40
0.0
 40
40.50471531429275
 40
40.50471531429275
 40
40.50471531429275
 10
1887.25442207394
 20
2020.924104762438
 30
0.0
 10
1887.254422074034
 20
2000.671747105293
 30
0.0
 10
1887.254422074127
 20
1980.419389448145
 30
0.0
  0
SPLINE
  5
1E7
330
1F
100
AcDbEntity
  8
Predefinito
100
AcDbSpline
210
0.0
220
0.0
230
1.0
 70
    24
 71
     2
 72
     6
 73
     3
 74
     0
 42
0.0000000001
 43
0.0000000001
 40
0.0
 40
0.0
 40
0.0
 40
0.1701954876707532
 40
0.1701954876707532
 40
0.1701954876707532
 10
1881.054422073813
 20
2021.553882774749
 30
0.0
 10
1881.054422073804
 20
2021.638980518585
 30
0.0
 10
1881.054422073795
 20
2021.72407826242
 30
0.0
  0
SPLINE
  5
1E8
330
1F
100
AcDbEntity
  8
Predefinito
100
AcDbSpline
210
0.0
220
0.0
230
1.0
 70
    24
 71
     2
 72
     6
 73
     3
 74
     0
 42
0.0000000001
 43
0.0000000001
 40
0.0
 40
0.0
 40
0.0
 40
42.80767941753675
 40
42.80767941753675
 40
42.80767941753675
 10
1881.054422072894
 20
1978.116425344811
 30
0.0
 10
1881.054422073604
 20
1999.520265053578
 30
0.0
 10
1881.054422074314
 20
2020.924104762347
 30
0.0
  0
SPLINE
  5
1E9
330
1F
100
AcDbEntity
  8
Predefinito
100
AcDbSpline
210
0.0
220
0.0
230
1.0
 70
    24
 71
     2
 72
     6
 73
     3
 74
     0
 42
0.0000000001
 43
0.0000000001
 40
0.0
 40
0.0
 40
0.0
 40
2.302963505895832
 40
2.302963505895832
 40
2.302963505895832
 10
1887.254422074213
 20
1980.419389448085
 30
0.0
 10
1887.254422073588
 20
1979.267907695137
 30
0.0
 10
1887.254422072962
 20
1978.116425942188
 30
0.0
  0
SPLINE
  5
1EA
330
1F
100
AcDbEntity
  8
Predefinito
100
AcDbSpline
210
0.0
220
0.0
230
1.0
 70
    24
 71
     2
 72
     6
 73
     3
 74
     0
 42
0.0000000001
 43
0.0000000001
 40
0.0
 40
0.0
 40
0.0
 40
0.6118949536603395
 40
0.6118949536603395
 40
0.6118949536603395
 10
1881.054422074309
 20
2020.94198781923
 30
0.0
 10
1881.054422074248
 20
2021.24793529606
 30
0.0
 10
1881.054422074186
 20
2021.553882772891
 30
0.0
  0
SPLINE
  5
1EB
330
1F
100
AcDbEntity
  8
Predefinito
100
AcDbSpline
210
0.0
220
0.0
230
1.0
 70
    24
 71
     2
 72
     6
 73
     3
 74
     0
 42
0.0000000001
 43
0.0000000001
 40
0.0
 40
0.0
 40
0.0
 40
0.7820383260363997
 40
0.7820383260363997
 40
0.7820383260363997
 10
1887.254422074465
 20
2021.724024133034
 30
0.0
 10
1887.25442207421
 20
2021.333004970016
 30
0.0
 10
1887.254422073954
 20
2020.941985806998
 30
0.0
  0
SPLINE
  5
1EC
330
1F
100
AcDbEntity
  8
Predefinito
100
AcDbSpline
210
0.0
220
0.0
230
1.0
 70
     8
 71
     3
 72
    13
 73
     9
 74
     0
 42
0.0000000001
 43
0.0000000001
 40
0.0
 40
0.0
 40
0.0
 40
0.0
 40
2.23543828174032
 40
6.007769835548062
 40
18.16964469497311
 40
59.28829974396664
 40
114.7383681999115
 40
153.7383834279998
 40
153.7383834279998
 40
153.7383834279998
 40
153.7383834279998
 10
1887.757386747467
 20
1684.883715952829
 30
0.0
 10
1887.872693075835
 20
1684.147277515509
 30
0.0
 10
1888.069935777074
 20
1682.154008780331
 30
0.0
 10
1888.482941675408
 20
1676.111044929794
 30
0.0
 10
1889.355239040006
 20
1657.113058305309
 30
0.0
 10
1890.545763369121
 20
1620.888276381016
 30
0.0
 10
1891.700422444977
 20
1575.713831145918
 30
0.0
 10
1892.300240080268
 20
1544.235275550963
 30
0.0
 10
1892.359700676398
 20
1531.235259457973
 30
0.0
  0
SPLINE
  5
1ED
330
1F
100
AcDbEntity
  8
Predefinito
100
AcDbSpline
210
0.0
220
0.0
230
1.0
 70
    12
 71
     2
 72
     6
 73
     3
 74
     0
 42
0.0000000001
 43
0.0000000001
 40
0.0
 40
0.0
 40
0.0
 40
6.266852965914508
 40
6.266852965914508
 40
6.266852965914508
 10
1892.359913840516
 20
1530.743929108526
 30
0.0
 41
1.0
 10
1892.359998516191
 20
1527.610502625981
 30
0.0
 41
0.9999999996495249
 10
1892.359917274043
 20
1524.477076143344
 30
0.0
 41
1.0
  0
SPLINE
  5
1EE
330
1F
100
AcDbEntity
  8
Predefinito
100
AcDbSpline
210
0.0
220
0.0
230
1.0
 70
    12
 71
     2
 72
     6
 73
     3
 74
     0
 42
0.0000000001
 43
0.0000000001
 40
0.0
 40
0.0
 40
0.0
 40
98.99726690025582
 40
98.99726690025582
 40
98.99726690025582
 10
1880.903309777965
 20
1824.729415908199
 30
0.0
 41
1.0
 10
1880.986718380324
 20
1874.22798359178
 30
0.0
 41
0.9999998633867766
 10
1881.018380086735
 20
1923.726611423845
 30
0.0
 41
1.0
  0
SPLINE
  5
1EF
330
1F
100
AcDbEntity
  8
Predefinito
100
AcDbSpline
210
0.0
220
0.0
230
1.0
 70
    12
 71
     2
 72
     6
 73
     3
 74
     0
 42
0.0000000001
 43
0.0000000001
 40
0.0
 40
0.0
 40
0.0
 40
98.99747815635821
 40
98.99747815635821
 40
98.99747815635821
 10
1887.218380087016
 20
1923.726596089248
 30
0.0
 41
1.0
 10
1887.186881750222
 20
1874.22786246778
 30
0.0
 41
0.9999998616567023
 10
1887.103309775034
 20
1824.729189374462
 30
0.0
 41
1.0
  0
SPLINE
  5
1F0
330
1F
100
AcDbEntity
  8
Predefinito
100
AcDbSpline
210
0.0
220
0.0
230
1.0
 70
     8
 71
     3
 72
    15
 73
    11
 74
     0
 42
0.0000000001
 43
0.0000000001
 40
0.0
 40
0.0
 40
0.0
 40
0.0
 40
44.85612972148282
 40
95.25720406739461
 40
204.4691897840279
 40
301.2008156184052
 40
331.514969122579
 40
340.7069653590672
 40
343.6588750020612
 40
344.4348809767549
 40
344.4348809767549
 40
344.4348809767549
 40
344.4348809767549
 10
1887.103309407454
 20
1813.22946951823
 30
0.0
 10
1887.102845447764
 20
1798.277391504074
 30
0.0
 10
1887.180287997642
 20
1766.525105786557
 30
0.0
 10
1887.57684846171
 20
1698.369654919554
 30
0.0
 10
1888.459083112112
 20
1612.925829876244
 30
0.0
 10
1889.644969309818
 20
1534.181724851886
 30
0.0
 10
1890.667414252314
 20
1488.780307206458
 30
0.0
 10
1891.150021503555
 20
1474.635472204387
 30
0.0
 10
1891.368815441324
 20
1470.334363942372
 30
0.0
 10
1891.45624990513
 20
1469.094608056733
 30
0.0
 10
1891.478364036752
 20
1468.836908287703
 30
0.0
  0
SPLINE
  5
1F1
330
1F
100
AcDbEntity
  8
Predefinito
100
AcDbSpline
210
0.0
220
0.0
230
1.0
 70
    12
 71
     2
 72
     6
 73
     3
 74
     0
 42
0.0000000001
 43
0.0000000001
 40
0.0
 40
0.0
 40
0.0
 40
52.58286510670185
 40
52.58286510670185
 40
52.58286510670185
 10
1892.359910340755
 20
1523.985486573175
 30
0.0
 41
1.0
 10
1892.470686425383
 20
1497.693228825405
 30
0.0
 41
0.9999396098479044
 10
1892.003575062084
 20
1471.404887383041
 30
0.0
 41
1.0
  0
SPLINE
  5
1F2
330
1F
100
AcDbEntity
  8
Predefinito
100
AcDbSpline
210
0.0
220
0.0
230
1.0
 70
    12
 71
     2
 72
     6
 73
     3
 74
     0
 42
0.0000000001
 43
0.0000000001
 40
0.0
 40
0.0
 40
0.0
 40
4.494678036946581
 40
4.494678036946581
 40
4.494678036946581
 10
1880.903309406804
 20
1813.22942672612
 30
0.0
 41
1.0
 10
1880.903283933735
 20
1815.476765744457
 30
0.0
 41
0.9999999999747503
 10
1880.903278429291
 20
1817.724104762932
 30
0.0
 41
0.9999999999692383
  0
SPLINE
  5
1F3
330
1F
100
AcDbEntity
  8
Predefinito
100
AcDbSpline
210
0.0
220
0.0
230
1.0
 70
    12
 71
     2
 72
     6
 73
     3
 74
     0
 42
0.0000000001
 43
0.0000000001
 40
8.494678036925924
 40
8.494678036925924
 40
8.494678036925924
 40
11.49971128085306
 40
11.49971128085306
 40
11.49971128085306
 10
1880.90328444709
 20
1821.724104762932
 30
0.0
 41
0.99999999997506
 10
1880.903292648149
 20
1823.226621384867
 30
0.0
 41
0.9999999999831186
 10
1880.903309775057
 20
1824.729138006726
 30
0.0
 41
1.0
  0
SPLINE
  5
1F4
330
1F
100
AcDbEntity
  8
Predefinito
100
AcDbSpline
210
0.0
220
0.0
230
1.0
 70
    12
 71
     2
 72
     6
 73
     3
 74
     0
 42
0.0000000001
 43
0.0000000001
 40
0.0
 40
0.0
 40
0.0
 40
3.004983959989731
 40
3.004983959989731
 40
3.004983959989731
 10
1887.10330977399
 20
1824.729088722788
 30
0.0
 41
1.0
 10
1887.103292655908
 20
1823.226596742898
 30
0.0
 41
0.9999999999831353
 10
1887.103284459105
 20
1821.724104762933
 30
0.0
 41
0.9999999999750845
  0
SPLINE
  5
1F5
330
1F
100
AcDbEntity
  8
Predefinito
100
AcDbSpline
210
0.0
220
0.0
230
1.0
 70
    12
 71
     2
 72
     6
 73
     3
 74
     0
 42
0.0000000001
 43
0.0000000001
 40
7.004983959968614
 40
7.004983959968614
 40
7.004983959968614
 40
11.49956165211189
 40
11.49956165211189
 40
11.49956165211189
 10
1887.103278444696
 20
1817.724104762933
 30
0.0
 41
0.9999999999692687
 10
1887.103283946663
 20
1815.47681591686
 30
0.0
 41
0.9999999999747753
 10
1887.103309406792
 20
1813.229527070924
 30
0.0
 41
1.0
  0
SPLINE
  5
1F6
330
1F
100
AcDbEntity
  8
Predefinito
100
AcDbSpline
210
0.0
220
0.0
230
1.0
 70
    12
 71
     2
 72
     6
 73
     3
 74
     0
 42
0.0000000001
 43
0.0000000001
 40
0.0402406435833744
 40
0.0402406435833744
 40
0.0402406435833744
 40
0.4411611405804763
 40
0.4411611405804763
 40
0.4411611405804763
 10
1880.903306158561
 20
1813.523543751777
 30
0.0
 41
0.999756979499182
 10
1880.724007008896
 20
1813.613566157624
 30
0.0
 41
0.998667874171754
 10
1880.554422074816
 20
1813.720772355011
 30
0.0
 41
1.0
  0
POLYLINE
  5
1F7
330
1F
100
AcDbEntity
  8
Predefinito
100
AcDb2dPolyline
 66
     1
 10
0.0
 20
0.0
 30
0.0
  0
VERTEX
  5
1F8
330
1F7
100
AcDbEntity
  8
Predefinito
100
AcDbVertex
100
AcDb2dVertex
 10
1880.931272660632
 20
1813.229268342928
 30
0.0
  0
VERTEX
  5
1F9
330
1F7
100
AcDbEntity
  8
Predefinito
100
AcDbVertex
100
AcDb2dVertex
 10
1881.529394048252
 20
1689.640281934856
 30
0.0
  0
SEQEND
  5
1FA
330
1F7
100
AcDbEntity
  8
Predefinito
  0
SPLINE
  5
1FB
330
1F
100
AcDbEntity
  8
Predefinito
100
AcDbSpline
210
0.0
220
0.0
230
1.0
 70
     8
 71
     3
 72
     8
 73
     4
 74
     0
 42
0.0000000001
 43
0.0000000001
 40
0.0
 40
0.0
 40
0.0
 40
0.0
 40
1.0
 40
1.0
 40
1.0
 40
1.0
 10
1881.529394048252
 20
1689.640281934856
 30
0.0
 10
1881.529394048252
 20
1676.0
 30
0.0
 10
1881.529394048252
 20
1665.0
 30
0.0
 10
1881.8008836413
 20
1584.697353636668
 30
0.0
  0
POLYLINE
  5
1FC
330
1F
100
AcDbEntity
  8
Predefinito
100
AcDb2dPolyline
 66
     1
 10
0.0
 20
0.0
 30
0.0
  0
VERTEX
  5
1FD
330
1FC
100
AcDbEntity
  8
Predefinito
100
AcDbVertex
100
AcDb2dVertex
 10
1882.25645304763
 20
1557.540596953629
 30
0.0
  0
VERTEX
  5
1FE
330
1FC
100
AcDbEntity
  8
Predefinito
100
AcDbVertex
100
AcDb2dVertex
 10
1881.8008836413
 20
1584.697353636668
 30
0.0
  0
SEQEND
  5
1FF
330
1FC
100
AcDbEntity
  8
Predefinito
  0
SPLINE
  5
200
330
1F
100
AcDbEntity
  8
Predefinito
100
AcDbSpline
210
0.0
220
0.0
230
1.0
 70
     8
 71
     3
 72
    17
 73
    13
 74
     0
 42
0.0000000001
 43
0.0000000001
 40
0.0
 40
0.0
 40
0.0
 40
0.0
 40
2.047231070938191
 40
3.345366713184038
 40
6.167190674386442
 40
9.092687673454975
 40
10.45740778038164
 40
12.28153708398576
 40
16.02378010739524
 40
22.12226867922612
 40
41.72451700311798
 40
102.4061684833284
 40
102.4061684833284
 40
102.4061684833284
 40
102.4061684833284
 10
1891.47491352664
 20
1468.836612187186
 30
0.0
 10
1891.417422738693
 20
1468.158021711056
 30
0.0
 10
1891.412613686606
 20
1467.032780477938
 30
0.0
 10
1890.689489355214
 20
1465.064942391213
 30
0.0
 10
1888.465336896541
 20
1463.710195089606
 30
0.0
 10
1885.998544110002
 20
1464.669478245976
 30
0.0
 10
1885.009737762246
 20
1466.513485112872
 30
0.0
 10
1884.774577453171
 20
1468.824856385899
 30
0.0
 10
1884.518728867688
 20
1472.699461297579
 30
0.0
 10
1884.079626238981
 20
1482.506608104031
 30
0.0
 10
1883.156516662472
 20
1511.28505961945
 30
0.0
 10
1882.579234385423
 20
1538.041462043701
 30
0.0
 10
1882.25645304763
 20
1557.540596953629
 30
0.0
  0
SPLINE
  5
201
330
1F
100
AcDbEntity
  8
Predefinito
100
AcDbSpline
210
0.0
220
0.0
230
1.0
 70
    24
 71
     2
 72
     6
 73
     3
 74
     0
 42
0.0000000001
 43
0.0000000001
 40
0.4376069429375989
 40
0.4376069429375989
 40
0.4376069429375989
 40
39.91006273157586
 40
39.91006273157586
 40
39.91006273157586
 10
1881.626877863453
 20
1638.724104762932
 30
0.0
 10
1861.890649969134
 20
1638.724104762932
 30
0.0
 10
1842.154422074815
 20
1638.724104762932
 30
0.0
  0
SPLINE
  5
202
330
1F
100
AcDbEntity
  8
Predefinito
100
AcDbSpline
210
0.0
220
0.0
230
1.0
 70
    24
 71
     2
 72
     6
 73
     3
 74
     0
 42
0.0000000001
 43
0.0000000001
 40
0.0
 40
0.0
 40
0.0
 40
37.36181622326476
 40
37.36181622326476
 40
37.36181622326476
 10
1844.261577682448
 20
1639.902114767317
 30
0.0
 10
1862.94248579408
 20
1639.902114767317
 30
0.0
 10
1881.623393905713
 20
1639.902114767317
 30
0.0
  0
SPLINE
  5
203
330
1F
100
AcDbEntity
  8
Predefinito
100
AcDbSpline
210
0.0
220
0.0
230
1.0
 70
    24
 71
     2
 72
     6
 73
     3
 74
     0
 42
0.0000000001
 43
0.0000000001
 40
0.0
 40
0.0
 40
0.0
 40
37.28384674907385
 40
37.28384674907385
 40
37.28384674907385
 10
1844.339963486493
 20
1639.760954116124
 30
0.0
 10
1862.98188686103
 20
1639.760954116122
 30
0.0
 10
1881.623810235566
 20
1639.760954116121
 30
0.0
  0
LINE
  5
204
330
1F
100
AcDbEntity
  8
Predefinito
100
AcDbLine
 10
1881.531365871035
 20
1681.490124654741
 30
0.0
 11
1874.404154016678
 21
1681.490124654741
 31
0.0
  0
LINE
  5
205
330
1F
100
AcDbEntity
  8
Predefinito
100
AcDbLine
 10
1881.531714305622
 20
1680.990124200254
 30
0.0
 11
1873.904154016678
 21
1680.990124420242
 31
0.0
  0
LINE
  5
206
330
1F
100
AcDbEntity
  8
Predefinito
100
AcDbLine
 10
1873.487748762054
 20
1651.490124655134
 30
0.0
 11
1881.59049082814
 21
1651.490124655134
 31
0.0
  0
VIEWPORT
  5
210
330
20C
100
AcDbEntity
 67
     1
  8
0
100
AcDbViewport
 10
6.0
 20
4.5
 30
0.0
 40
12.696
 41
9.522
 68
     1
 69
     1
 12
6.0
 22
4.5
 13
0.0
 23
0.0
 14
0.5
 24
0.5
 15
0.5
 25
0.5
 16
0.0
 26
0.0
 36
1.0
 17
0.0
 27
0.0
 37
0.0
 42
50.0
 43
0.0
 44
0.0
 45
9.522
 50
0.0
 51
0.0
 72
   100
 90
   557152
  1

281
     0
 71
     1
 74
     0
110
0.0
120
0.0
130
0.0
111
1.0
121
0.0
131
0.0
112
0.0
122
1.0
132
0.0
 79
     0
146
0.0
170
     0
  0
ENDSEC
  0
SECTION
  2
OBJECTS
  0
DICTIONARY
  5
C
330
0
100
AcDbDictionary
281
     1
  3
ACAD_GROUP
350
D
  3
ACAD_LAYOUT
350
1A
  3
ACAD_MLEADERSTYLE
350
236
  3
ACAD_MLINESTYLE
350
17
  3
ACAD_PLOTSETTINGS
350
19
  3
ACAD_PLOTSTYLENAME
350
E
  3
ACAD_SCALELIST
350
211
  3
ACAD_TABLESTYLE
350
235
  3
ACAD_VISUALSTYLE
350
2A
  3
AcDbVariableDictionary
350
233
  0
DICTIONARY
  5
D
102
{ACAD_REACTORS
330
C
102
}
330
C
100
AcDbDictionary
281
     1
  0
DICTIONARY
  5
1A
102
{ACAD_REACTORS
330
C
102
}
330
C
100
AcDbDictionary
281
     1
  3
Layout1
350
208
  3
Layout2
350
20D
  3
Model
350
22
  0
DICTIONARY
  5
236
102
{ACAD_REACTORS
330
C
102
}
330
C
100
AcDbDictionary
281
     1
  0
DICTIONARY
  5
17
102
{ACAD_REACTORS
330
C
102
}
330
C
100
AcDbDictionary
281
     1
  3
Standard
350
18
  0
DICTIONARY
  5
19
102
{ACAD_REACTORS
330
C
102
}
330
C
100
AcDbDictionary
281
     1
  0
ACDBDICTIONARYWDFLT
  5
E
102
{ACAD_REACTORS
330
C
102
}
330
C
100
AcDbDictionary
281
     1
  3
Normal
350
F
100
AcDbDictionaryWithDefault
340
F
  0
DICTIONARY
  5
211
102
{ACAD_REACTORS
330
C
102
}
330
C
100
AcDbDictionary
281
     1
  3
A0
350
212
  3
A1
350
213
  3
A2
350
214
  3
A3
350
215
  3
A4
350
216
  3
A5
350
217
  3
A6
350
218
  3
A7
350
219
  3
A8
350
21A
  3
A9
350
21B
  3
B0
350
21C
  3
B1
350
21D
  3
B2
350
21E
  3
B3
350
21F
  3
B4
350
220
  3
B5
350
221
  3
B6
350
222
  3
B7
350
223
  3
B8
350
224
  3
B9
350
225
  3
C0
350
226
  3
C1
350
227
  3
C2
350
228
  3
C3
350
229
  3
C4
350
22A
  3
C5
350
22B
  3
C6
350
22C
  3
C7
350
22D
  3
C8
350
22E
  3
C9
350
22F
  3
D0
350
230
  3
D1
350
231
  3
D2
350
232
  0
DICTIONARY
  5
235
102
{ACAD_REACTORS
330
C
102
}
330
C
100
AcDbDictionary
281
     1
  0
DICTIONARY
  5
2A
102
{ACAD_REACTORS
330
C
102
}
330
C
100
AcDbDictionary
281
     1
  3
2dWireframe
350
2F
  3
3D Hidden
350
31
  3
3dWireframe
350
30
  3
Basic
350
32
  3
Brighten
350
36
  3
ColorChange
350
3A
  3
Conceptual
350
34
  3
Dim
350
35
  3
Facepattern
350
39
  3
Flat
350
2B
  3
FlatWithEdges
350
2C
  3
Gouraud
350
2D
  3
GouraudWithEdges
350
2E
  3
Linepattern
350
38
  3
Realistic
350
33
  3
Thicken
350
37
  0
DICTIONARY
  5
233
102
{ACAD_REACTORS
330
C
102
}
330
C
100
AcDbDictionary
281
     1
  3
CANNOSCALE
350
234
  0
LAYOUT
  5
208
102
{ACAD_REACTORS
330
1A
102
}
330
1A
100
AcDbPlotSettings
  1

  2
none_device
  4
Letter_(8.50_x_11.00_Inches)
  6

 40
6.35
 41
6.35
 42
6.35000508
 43
6.35000508
 44
215.9
 45
279.4
 46
0.0
 47
0.0
 48
0.0
 49
0.0
140
0.0
141
0.0
142
1.0
143
1.0
 70
   688
 72
     0
 73
     1
 74
     5
  7

 75
    16
 76
     0
 77
     2
 78
   300
147
1.0
148
0.0
149
0.0
100
AcDbLayout
  1
Layout1
 70
     1
 71
     1
 10
0.0
 20
0.0
 11
0.0
 21
0.0
 12
0.0
 22
0.0
 32
0.0
 14
0.0
 24
0.0
 34
0.0
 15
0.0
 25
0.0
 35
0.0
146
0.0
 13
0.0
 23
0.0
 33
0.0
 16
1.0
 26
0.0
 36
0.0
 17
0.0
 27
1.0
 37
0.0
 76
     0
330
207
331
20B
  0
LAYOUT
  5
20D
102
{ACAD_REACTORS
330
1A
102
}
330
1A
100
AcDbPlotSettings
  1

  2
none_device
  4
Letter_(8.50_x_11.00_Inches)
  6

 40
6.35
 41
6.35
 42
6.35000508
 43
6.35000508
 44
215.9
 45
279.4
 46
0.0
 47
0.0
 48
0.0
 49
0.0
140
0.0
141
0.0
142
1.0
143
1.0
 70
   688
 72
     0
 73
     1
 74
     5
  7

 75
    16
 76
     0
 77
     2
 78
   300
147
1.0
148
0.0
149
0.0
100
AcDbLayout
  1
Layout2
 70
     1
 71
     2
 10
0.0
 20
0.0
 11
0.0
 21
0.0
 12
0.0
 22
0.0
 32
0.0
 14
0.0
 24
0.0
 34
0.0
 15
0.0
 25
0.0
 35
0.0
146
0.0
 13
0.0
 23
0.0
 33
0.0
 16
1.0
 26
0.0
 36
0.0
 17
0.0
 27
1.0
 37
0.0
 76
     0
330
20C
331
210
  0
LAYOUT
  5
22
102
{ACAD_REACTORS
330
1A
102
}
330
1A
100
AcDbPlotSettings
  1

  2
none_device
  4

  6

 40
0.0
 41
0.0
 42
0.0
 43
0.0
 44
0.0
 45
0.0
 46
0.0
 47
0.0
 48
0.0
 49
0.0
140
0.0
141
0.0
142
1.0
143
1.0
 70
  1712
 72
     0
 73
     0
 74
     0
  7

 75
     0
 76
     0
 77
     2
 78
   300
147
1.0
148
0.0
149
0.0
100
AcDbLayout
  1
Model
 70
     1
 71
     0
 10
0.0
 20
0.0
 11
12.0
 21
9.0
 12
0.0
 22
0.0
 32
0.0
 14
349.9952837066798
 24
0.000000021965036
 34
0.0
 15
1954.154445579801
 25
2049.728135955158
 35
0.0
146
0.0
 13
0.0
 23
0.0
 33
0.0
 16
1.0
 26
0.0
 36
0.0
 17
0.0
 27
1.0
 37
0.0
 76
     0
330
1F
331
29
  0
MLINESTYLE
  5
18
102
{ACAD_REACTORS
330
17
102
}
330
17
100
AcDbMlineStyle
  2
Standard
 70
     0
  3

 62
   256
 51
90.0
 52
90.0
 71
     2
 49
0.5
 62
   256
  6
BYLAYER
 49
-0.5
 62
   256
  6
BYLAYER
  0
ACDBPLACEHOLDER
  5
F
102
{ACAD_REACTORS
330
E
102
}
330
E
  0
SCALE
  5
212
102
{ACAD_REACTORS
330
211
102
}
330
211
100
AcDbScale
 70
     0
300
1:1
140
1.0
141
1.0
290
     1
  0
SCALE
  5
213
102
{ACAD_REACTORS
330
211
102
}
330
211
100
AcDbScale
 70
     0
300
1:2
140
1.0
141
2.0
290
     0
  0
SCALE
  5
214
102
{ACAD_REACTORS
330
211
102
}
330
211
100
AcDbScale
 70
     0
300
1:4
140
1.0
141
4.0
290
     0
  0
SCALE
  5
215
102
{ACAD_REACTORS
330
211
102
}
330
211
100
AcDbScale
 70
     0
300
1:5
140
1.0
141
5.0
290
     0
  0
SCALE
  5
216
102
{ACAD_REACTORS
330
211
102
}
330
211
100
AcDbScale
 70
     0
300
1:8
140
1.0
141
8.0
290
     0
  0
SCALE
  5
217
102
{ACAD_REACTORS
330
211
102
}
330
211
100
AcDbScale
 70
     0
300
1:10
140
1.0
141
10.0
290
     0
  0
SCALE
  5
218
102
{ACAD_REACTORS
330
211
102
}
330
211
100
AcDbScale
 70
     0
300
1:16
140
1.0
141
16.0
290
     0
  0
SCALE
  5
219
102
{ACAD_REACTORS
330
211
102
}
330
211
100
AcDbScale
 70
     0
300
1:20
140
1.0
141
20.0
290
     0
  0
SCALE
  5
21A
102
{ACAD_REACTORS
330
211
102
}
330
211
100
AcDbScale
 70
     0
300
1:30
140
1.0
141
30.0
290
     0
  0
SCALE
  5
21B
102
{ACAD_REACTORS
330
211
102
}
330
211
100
AcDbScale
 70
     0
300
1:40
140
1.0
141
40.0
290
     0
  0
SCALE
  5
21C
102
{ACAD_REACTORS
330
211
102
}
330
211
100
AcDbScale
 70
     0
300
1:50
140
1.0
141
50.0
290
     0
  0
SCALE
  5
21D
102
{ACAD_REACTORS
330
211
102
}
330
211
100
AcDbScale
 70
     0
300
1:100
140
1.0
141
100.0
290
     0
  0
SCALE
  5
21E
102
{ACAD_REACTORS
330
211
102
}
330
211
100
AcDbScale
 70
     0
300
2:1
140
2.0
141
1.0
290
     0
  0
SCALE
  5
21F
102
{ACAD_REACTORS
330
211
102
}
330
211
100
AcDbScale
 70
     0
300
4:1
140
4.0
141
1.0
290
     0
  0
SCALE
  5
220
102
{ACAD_REACTORS
330
211
102
}
330
211
100
AcDbScale
 70
     0
300
8:1
140
8.0
141
1.0
290
     0
  0
SCALE
  5
221
102
{ACAD_REACTORS
330
211
102
}
330
211
100
AcDbScale
 70
     0
300
10:1
140
10.0
141
1.0
290
     0
  0
SCALE
  5
222
102
{ACAD_REACTORS
330
211
102
}
330
211
100
AcDbScale
 70
     0
300
100:1
140
100.0
141
1.0
290
     0
  0
SCALE
  5
223
102
{ACAD_REACTORS
330
211
102
}
330
211
100
AcDbScale
 70
     0
300
1/128" = 1'-0"
140
0.0078125
141
12.0
290
     0
  0
SCALE
  5
224
102
{ACAD_REACTORS
330
211
102
}
330
211
100
AcDbScale
 70
     0
300
1/64" = 1'-0"
140
0.015625
141
12.0
290
     0
  0
SCALE
  5
225
102
{ACAD_REACTORS
330
211
102
}
330
211
100
AcDbScale
 70
     0
300
1/32" = 1'-0"
140
0.03125
141
12.0
290
     0
  0
SCALE
  5
226
102
{ACAD_REACTORS
330
211
102
}
330
211
100
AcDbScale
 70
     0
300
1/16" = 1'-0"
140
0.0625
141
12.0
290
     0
  0
SCALE
  5
227
102
{ACAD_REACTORS
330
211
102
}
330
211
100
AcDbScale
 70
     0
300
3/32" = 1'-0"
140
0.09375
141
12.0
290
     0
  0
SCALE
  5
228
102
{ACAD_REACTORS
330
211
102
}
330
211
100
AcDbScale
 70
     0
300
1/8" = 1'-0"
140
0.125
141
12.0
290
     0
  0
SCALE
  5
229
102
{ACAD_REACTORS
330
211
102
}
330
211
100
AcDbScale
 70
     0
300
3/16" = 1'-0"
140
0.1875
141
12.0
290
     0
  0
SCALE
  5
22A
102
{ACAD_REACTORS
330
211
102
}
330
211
100
AcDbScale
 70
     0
300
1/4" = 1'-0"
140
0.25
141
12.0
290
     0
  0
SCALE
  5
22B
102
{ACAD_REACTORS
330
211
102
}
330
211
100
AcDbScale
 70
     0
300
3/8" = 1'-0"
140
0.375
141
12.0
290
     0
  0
SCALE
  5
22C
102
{ACAD_REACTORS
330
211
102
}
330
211
100
AcDbScale
 70
     0
300
1/2" = 1'-0"
140
0.5
141
12.0
290
     0
  0
SCALE
  5
22D
102
{ACAD_REACTORS
330
211
102
}
330
211
100
AcDbScale
 70
     0
300
3/4" = 1'-0"
140
0.75
141
12.0
290
     0
  0
SCALE
  5
22E
102
{ACAD_REACTORS
330
211
102
}
330
211
100
AcDbScale
 70
     0
300
1" = 1'-0"
140
1.0
141
12.0
290
     0
  0
SCALE
  5
22F
102
{ACAD_REACTORS
330
211
102
}
330
211
100
AcDbScale
 70
     0
300
1-1/2" = 1'-0"
140
1.5
141
12.0
290
     0
  0
SCALE
  5
230
102
{ACAD_REACTORS
330
211
102
}
330
211
100
AcDbScale
 70
     0
300
3" = 1'-0"
140
3.0
141
12.0
290
     0
  0
SCALE
  5
231
102
{ACAD_REACTORS
330
211
102
}
330
211
100
AcDbScale
 70
     0
300
6" = 1'-0"
140
6.0
141
12.0
290
     0
  0
SCALE
  5
232
102
{ACAD_REACTORS
330
211
102
}
330
211
100
AcDbScale
 70
     0
300
1'-0" = 1'-0"
140
12.0
141
12.0
290
     0
  0
VISUALSTYLE
  5
2F
102
{ACAD_REACTORS
330
2A
102
}
330
2A
100
AcDbVisualStyle
  2
2dWireframe
 70
     4
 71
     0
 72
     2
 73
     0
 90
        0
 40
-0.6
 41
-30.0
 62
     5
 63
     7
421
 16777215
 74
     1
 91
        4
 64
     7
 65
   257
 75
     1
175
     1
 42
1.0
 92
        0
 66
   257
 43
1.0
 76
     1
 77
     6
 78
     2
 67
     7
 79
     5
170
     0
171
     0
290
     0
174
     0
 93
        1
 44
0.0
173
     0
291
     0
 45
0.0
1001
ACAD
1000
AcDbSavedByObjectVersion
1070
     0
  0
VISUALSTYLE
  5
31
102
{ACAD_REACTORS
330
2A
102
}
330
2A
100
AcDbVisualStyle
  2
3D Hidden
 70
     6
 71
     1
 72
     2
 73
     2
 90
        0
 40
-0.6
 41
-30.0
 62
     5
 63
     7
421
 16777215
 74
     2
 91
        2
 64
     7
 65
   257
 75
     2
175
     1
 42
40.0
 92
        0
 66
   257
 43
1.0
 76
     1
 77
     6
 78
     2
 67
     7
 79
     3
170
     0
171
     0
290
     0
174
     0
 93
        1
 44
0.0
173
     0
291
     0
 45
0.0
1001
ACAD
1000
AcDbSavedByObjectVersion
1070
     0
  0
VISUALSTYLE
  5
30
102
{ACAD_REACTORS
330
2A
102
}
330
2A
100
AcDbVisualStyle
  2
3dWireframe
 70
     5
 71
     0
 72
     2
 73
     0
 90
        0
 40
-0.6
 41
-30.0
 62
     5
 63
     7
421
 16777215
 74
     1
 91
        4
 64
     7
 65
   257
 75
     1
175
     1
 42
1.0
 92
        0
 66
   257
 43
1.0
 76
     1
 77
     6
 78
     2
 67
     7
 79
     5
170
     0
171
     0
290
     0
174
     0
 93
        1
 44
0.0
173
     0
291
     0
 45
0.0
1001
ACAD
1000
AcDbSavedByObjectVersion
1070
     0
  0
VISUALSTYLE
  5
32
102
{ACAD_REACTORS
330
2A
102
}
330
2A
100
AcDbVisualStyle
  2
Basic
 70
     7
 71
     1
 72
     0
 73
     1
 90
        0
 40
-0.6
 41
-30.0
 62
     5
 63
     7
421
 16777215
 74
     0
 91
        4
 64
     7
 65
   257
 75
     1
175
     1
 42
1.0
 92
        8
 66
     7
 43
1.0
 76
     1
 77
     6
 78
     2
 67
     7
 79
     5
170
     0
171
     0
290
     0
174
     0
 93
        1
 44
0.0
173
     0
291
     1
 45
0.0
1001
ACAD
1000
AcDbSavedByObjectVersion
1070
     0
  0
VISUALSTYLE
  5
36
102
{ACAD_REACTORS
330
2A
102
}
330
2A
100
AcDbVisualStyle
  2
Brighten
 70
    12
 71
     2
 72
     2
 73
     0
 90
        0
 40
-0.6
 41
-30.0
 62
     5
 63
     7
421
 16777215
 74
     1
 91
        4
 64
     7
 65
   257
 75
     1
175
     1
 42
1.0
 92
        8
 66
     7
 43
1.0
 76
     1
 77
     6
 78
     2
 67
     7
 79
     5
170
     0
171
     0
290
     0
174
     0
 93
        1
 44
50.0
173
     0
291
     1
 45
0.0
1001
ACAD
1000
AcDbSavedByObjectVersion
1070
     0
  0
VISUALSTYLE
  5
3A
102
{ACAD_REACTORS
330
2A
102
}
330
2A
100
AcDbVisualStyle
  2
ColorChange
 70
    16
 71
     2
 72
     2
 73
     3
 90
        0
 40
-0.6
 41
-30.0
 62
     5
 63
     8
421
  8421504
 74
     1
 91
        4
 64
     7
 65
   257
 75
     1
175
     1
 42
1.0
 92
        8
 66
     8
424
  8421504
 43
1.0
 76
     1
 77
     6
 78
     2
 67
     7
 79
     5
170
     0
171
     0
290
     0
174
     0
 93
        1
 44
0.0
173
     0
291
     1
 45
0.0
1001
ACAD
1000
AcDbSavedByObjectVersion
1070
     0
  0
VISUALSTYLE
  5
34
102
{ACAD_REACTORS
330
2A
102
}
330
2A
100
AcDbVisualStyle
  2
Conceptual
 70
     9
 71
     3
 72
     2
 73
     0
 90
        0
 40
-0.6
 41
-30.0
 62
     5
 63
     7
421
 16777215
 74
     2
 91
        2
 64
     7
 65
   257
 75
     1
175
     1
 42
40.0
 92
        8
 66
     7
 43
1.0
 76
     1
 77
     6
 78
     2
 67
     7
 79
     3
170
     0
171
     0
290
     0
174
     0
 93
        1
 44
0.0
173
     0
291
     0
 45
0.0
1001
ACAD
1000
AcDbSavedByObjectVersion
1070
     0
  0
VISUALSTYLE
  5
35
102
{ACAD_REACTORS
330
2A
102
}
330
2A
100
AcDbVisualStyle
  2
Dim
 70
    11
 71
     2
 72
     2
 73
     0
 90
        0
 40
-0.6
 41
-30.0
 62
     5
 63
     7
421
 16777215
 74
     1
 91
        4
 64
     7
 65
   257
 75
     1
175
     1
 42
1.0
 92
        8
 66
     7
 43
1.0
 76
     1
 77
     6
 78
     2
 67
     7
 79
     5
170
     0
171
     0
290
     0
174
     0
 93
        1
 44
-50.0
173
     0
291
     1
 45
0.0
1001
ACAD
1000
AcDbSavedByObjectVersion
1070
     0
  0
VISUALSTYLE
  5
39
102
{ACAD_REACTORS
330
2A
102
}
330
2A
100
AcDbVisualStyle
  2
Facepattern
 70
    15
 71
     2
 72
     2
 73
     0
 90
        0
 40
-0.6
 41
-30.0
 62
     5
 63
     7
421
 16777215
 74
     1
 91
        4
 64
     7
 65
   257
 75
     1
175
     1
 42
1.0
 92
        8
 66
     7
 43
1.0
 76
     1
 77
     6
 78
     2
 67
     7
 79
     5
170
     0
171
     0
290
     0
174
     0
 93
        1
 44
0.0
173
     0
291
     1
 45
0.0
1001
ACAD
1000
AcDbSavedByObjectVersion
1070
     0
  0
VISUALSTYLE
  5
2B
102
{ACAD_REACTORS
330
2A
102
}
330
2A
100
AcDbVisualStyle
  2
Flat
 70
     0
 71
     2
 72
     1
 73
     1
 90
        2
 40
-0.6
 41
30.0
 62
     5
 63
     7
421
 16777215
 74
     0
 91
        4
 64
     7
 65
   257
 75
     1
175
     1
 42
1.0
 92
        8
 66
     7
 43
1.0
 76
     1
 77
     6
 78
     2
 67
     7
 79
     5
170
     0
171
     0
290
     0
174
     0
 93
       13
 44
0.0
173
     0
291
     1
 45
0.0
1001
ACAD
1000
AcDbSavedByObjectVersion
1070
     0
  0
VISUALSTYLE
  5
2C
102
{ACAD_REACTORS
330
2A
102
}
330
2A
100
AcDbVisualStyle
  2
FlatWithEdges
 70
     1
 71
     2
 72
     1
 73
     1
 90
        2
 40
-0.6
 41
30.0
 62
     5
 63
     7
421
 16777215
 74
     1
 91
        4
 64
     7
 65
   257
 75
     1
175
     1
 42
1.0
 92
        0
 66
   257
 43
1.0
 76
     1
 77
     6
 78
     2
 67
     7
 79
     5
170
     0
171
     0
290
     0
174
     0
 93
       13
 44
0.0
173
     0
291
     1
 45
0.0
1001
ACAD
1000
AcDbSavedByObjectVersion
1070
     0
  0
VISUALSTYLE
  5
2D
102
{ACAD_REACTORS
330
2A
102
}
330
2A
100
AcDbVisualStyle
  2
Gouraud
 70
     2
 71
     2
 72
     2
 73
     1
 90
        2
 40
-0.6
 41
30.0
 62
     5
 63
     7
421
 16777215
 74
     0
 91
        4
 64
     7
 65
   257
 75
     1
175
     1
 42
1.0
 92
        0
 66
     7
 43
1.0
 76
     1
 77
     6
 78
     2
 67
     7
 79
     5
170
     0
171
     0
290
     0
174
     0
 93
       13
 44
0.0
173
     0
291
     1
 45
0.0
1001
ACAD
1000
AcDbSavedByObjectVersion
1070
     0
  0
VISUALSTYLE
  5
2E
102
{ACAD_REACTORS
330
2A
102
}
330
2A
100
AcDbVisualStyle
  2
GouraudWithEdges
 70
     3
 71
     2
 72
     2
 73
     1
 90
        2
 40
-0.6
 41
30.0
 62
     5
 63
     7
421
 16777215
 74
     1
 91
        4
 64
     7
 65
   257
 75
     1
175
     1
 42
1.0
 92
        0
 66
   257
 43
1.0
 76
     1
 77
     6
 78
     2
 67
     7
 79
     5
170
     0
171
     0
290
     0
174
     0
 93
       13
 44
0.0
173
     0
291
     1
 45
0.0
1001
ACAD
1000
AcDbSavedByObjectVersion
1070
     0
  0
VISUALSTYLE
  5
38
102
{ACAD_REACTORS
330
2A
102
}
330
2A
100
AcDbVisualStyle
  2
Linepattern
 70
    14
 71
     2
 72
     2
 73
     0
 90
        0
 40
-0.6
 41
-30.0
 62
     5
 63
     7
421
 16777215
 74
     1
 91
        4
 64
     7
 65
   257
 75
     7
175
     7
 42
1.0
 92
        8
 66
     7
 43
1.0
 76
     1
 77
     6
 78
     2
 67
     7
 79
     5
170
     0
171
     0
290
     0
174
     0
 93
        1
 44
0.0
173
     0
291
     1
 45
0.0
1001
ACAD
1000
AcDbSavedByObjectVersion
1070
     0
  0
VISUALSTYLE
  5
33
102
{ACAD_REACTORS
330
2A
102
}
330
2A
100
AcDbVisualStyle
  2
Realistic
 70
     8
 71
     2
 72
     2
 73
     0
 90
        0
 40
-0.6
 41
-30.0
 62
     5
 63
     7
421
 16777215
 74
     1
 91
        0
 64
     7
 65
   257
 75
     1
175
     1
 42
1.0
 92
        8
 66
     8
424
  7895160
 43
1.0
 76
     1
 77
     6
 78
     2
 67
     7
 79
     5
170
     0
171
     0
290
     0
174
     0
 93
       13
 44
0.0
173
     0
291
     0
 45
0.0
1001
ACAD
1000
AcDbSavedByObjectVersion
1070
     0
  0
VISUALSTYLE
  5
37
102
{ACAD_REACTORS
330
2A
102
}
330
2A
100
AcDbVisualStyle
  2
Thicken
 70
    13
 71
     2
 72
     2
 73
     0
 90
        0
 40
-0.6
 41
-30.0
 62
     5
 63
     7
421
 16777215
 74
     1
 91
        4
 64
     7
 65
   257
 75
     1
175
     1
 42
1.0
 92
       12
 66
     7
 43
1.0
 76
     1
 77
     6
 78
     2
 67
     7
 79
     5
170
     0
171
     0
290
     0
174
     0
 93
        1
 44
0.0
173
     0
291
     1
 45
0.0
1001
ACAD
1000
AcDbSavedByObjectVersion
1070
     0
  0
DICTIONARYVAR
  5
234
102
{ACAD_REACTORS
330
233
102
}
330
233
100
DictionaryVariables
280
     0
  1
1:1
  0
ENDSEC
  0
EOF
